  0
SECTION
  2
HEADER
  9
$ACADVER
  1
AC1015
  9
$ACADMAINTVER
 70
    14
  9
$DWGCODEPAGE
  3
ANSI_932
  9
$INSBASE
 10
0.0
 20
0.0
 30
0.0
  9
$EXTMIN
 10
339.3243094695526
 20
278.1023670101922
 30
-0.0000000000112498
  9
$EXTMAX
 10
1286.264449449803
 20
1548.023630534851
 30
0.0000000000002956
  9
$LIMMIN
 10
0.0
 20
0.0
  9
$LIMMAX
 10
12.0
 20
9.0
  9
$ORTHOMODE
 70
     0
  9
$REGENMODE
 70
     1
  9
$FILLMODE
 70
     1
  9
$QTEXTMODE
 70
     0
  9
$MIRRTEXT
 70
     1
  9
$LTSCALE
 40
1.0
  9
$ATTMODE
 70
     1
  9
$TEXTSIZE
 40
0.2
  9
$TRACEWID
 40
0.05
  9
$TEXTSTYLE
  7
STANDARD
  9
$CLAYER
  8
0
  9
$CELTYPE
  6
CONTINUOUS
  9
$CECOLOR
 62
   256
  9
$CELTSCALE
 40
1.0
  9
$DISPSILH
 70
     0
  9
$DIMSCALE
 40
1.0
  9
$DIMASZ
 40
1.0
  9
$DIMEXO
 40
2.54
  9
$DIMDLI
 40
0.38
  9
$DIMRND
 40
0.0
  9
$DIMDLE
 40
0.0
  9
$DIMEXE
 40
2.54
  9
$DIMTP
 40
0.0
  9
$DIMTM
 40
0.0
  9
$DIMTXT
 40
3.2
  9
$DIMCEN
 40
0.09
  9
$DIMTSZ
 40
0.0
  9
$DIMTOL
 70
     0
  9
$DIMLIM
 70
     0
  9
$DIMTIH
 70
     0
  9
$DIMTOH
 70
     0
  9
$DIMSE1
 70
     0
  9
$DIMSE2
 70
     0
  9
$DIMTAD
 70
     1
  9
$DIMZIN
 70
     0
  9
$DIMBLK
  1

  9
$DIMASO
 70
     1
  9
$DIMSHO
 70
     0
  9
$DIMPOST
  1

  9
$DIMAPOST
  1

  9
$DIMALT
 70
     0
  9
$DIMALTD
 70
     2
  9
$DIMALTF
 40
25.4
  9
$DIMLFAC
 40
1.0
  9
$DIMTOFL
 70
     0
  9
$DIMTVP
 40
1.0
  9
$DIMTIX
 70
     0
  9
$DIMSOXD
 70
     0
  9
$DIMSAH
 70
     1
  9
$DIMBLK1
  1

  9
$DIMBLK2
  1

  9
$DIMSTYLE
  2
STANDARD
  9
$DIMCLRD
 70
     0
  9
$DIMCLRE
 70
     0
  9
$DIMCLRT
 70
     0
  9
$DIMTFAC
 40
1.0
  9
$DIMGAP
 40
1.6
  9
$DIMJUST
 70
     0
  9
$DIMSD1
 70
     0
  9
$DIMSD2
 70
     0
  9
$DIMTOLJ
 70
     1
  9
$DIMTZIN
 70
     0
  9
$DIMALTZ
 70
     0
  9
$DIMALTTZ
 70
     0
  9
$DIMUPT
 70
     0
  9
$DIMDEC
 70
     4
  9
$DIMTDEC
 70
     4
  9
$DIMALTU
 70
     2
  9
$DIMALTTD
 70
     2
  9
$DIMTXSTY
  7
STANDARD
  9
$DIMAUNIT
 70
     0
  9
$DIMADEC
 70
     0
  9
$DIMALTRND
 40
0.0
  9
$DIMAZIN
 70
     0
  9
$DIMDSEP
 70
    46
  9
$DIMATFIT
 70
     3
  9
$DIMFRAC
 70
     0
  9
$DIMLDRBLK
  1

  9
$DIMLUNIT
 70
     2
  9
$DIMLWD
 70
    -2
  9
$DIMLWE
 70
    -2
  9
$DIMTMOVE
 70
     0
  9
$LUNITS
 70
     2
  9
$LUPREC
 70
     4
  9
$SKETCHINC
 40
0.1
  9
$FILLETRAD
 40
0.0
  9
$AUNITS
 70
     0
  9
$AUPREC
 70
     0
  9
$MENU
  1
.
  9
$ELEVATION
 40
0.0
  9
$PELEVATION
 40
0.0
  9
$THICKNESS
 40
0.0
  9
$LIMCHECK
 70
     0
  9
$CHAMFERA
 40
0.0
  9
$CHAMFERB
 40
0.0
  9
$CHAMFERC
 40
0.0
  9
$CHAMFERD
 40
0.0
  9
$SKPOLY
 70
     0
  9
$TDCREATE
 40
2452488.423138738
  9
$TDUCREATE
 40
2452488.048138738
  9
$TDUPDATE
 40
2456899.676385891
  9
$TDUUPDATE
 40
2456899.301385891
  9
$TDINDWG
 40
0.2838860648
  9
$TDUSRTIMER
 40
0.2838858796
  9
$USRTIMER
 70
     1
  9
$ANGBASE
 50
0.0
  9
$ANGDIR
 70
     0
  9
$PDMODE
 70
     3
  9
$PDSIZE
 40
0.0
  9
$PLINEWID
 40
0.0
  9
$SPLFRAME
 70
     0
  9
$SPLINETYPE
 70
     6
  9
$SPLINESEGS
 70
     8
  9
$HANDSEED
  5
2B19
  9
$SURFTAB1
 70
     6
  9
$SURFTAB2
 70
     6
  9
$SURFTYPE
 70
     6
  9
$SURFU
 70
     6
  9
$SURFV
 70
     6
  9
$UCSBASE
  2

  9
$UCSNAME
  2

  9
$UCSORG
 10
0.0
 20
0.0
 30
0.0
  9
$UCSXDIR
 10
1.0
 20
0.0
 30
0.0
  9
$UCSYDIR
 10
0.0
 20
1.0
 30
0.0
  9
$UCSORTHOREF
  2

  9
$UCSORTHOVIEW
 70
     0
  9
$UCSORGTOP
 10
0.0
 20
0.0
 30
0.0
  9
$UCSORGBOTTOM
 10
0.0
 20
0.0
 30
0.0
  9
$UCSORGLEFT
 10
0.0
 20
0.0
 30
0.0
  9
$UCSORGRIGHT
 10
0.0
 20
0.0
 30
0.0
  9
$UCSORGFRONT
 10
0.0
 20
0.0
 30
0.0
  9
$UCSORGBACK
 10
0.0
 20
0.0
 30
0.0
  9
$PUCSBASE
  2

  9
$PUCSNAME
  2

  9
$PUCSORG
 10
0.0
 20
0.0
 30
0.0
  9
$PUCSXDIR
 10
1.0
 20
0.0
 30
0.0
  9
$PUCSYDIR
 10
0.0
 20
1.0
 30
0.0
  9
$PUCSORTHOREF
  2

  9
$PUCSORTHOVIEW
 70
     0
  9
$PUCSORGTOP
 10
0.0
 20
0.0
 30
0.0
  9
$PUCSORGBOTTOM
 10
0.0
 20
0.0
 30
0.0
  9
$PUCSORGLEFT
 10
0.0
 20
0.0
 30
0.0
  9
$PUCSORGRIGHT
 10
0.0
 20
0.0
 30
0.0
  9
$PUCSORGFRONT
 10
0.0
 20
0.0
 30
0.0
  9
$PUCSORGBACK
 10
0.0
 20
0.0
 30
0.0
  9
$USERI1
 70
     0
  9
$USERI2
 70
     0
  9
$USERI3
 70
     0
  9
$USERI4
 70
     0
  9
$USERI5
 70
     0
  9
$USERR1
 40
0.0
  9
$USERR2
 40
0.0
  9
$USERR3
 40
0.0
  9
$USERR4
 40
0.0
  9
$USERR5
 40
0.0
  9
$WORLDVIEW
 70
     1
  9
$SHADEDGE
 70
     3
  9
$SHADEDIF
 70
    70
  9
$TILEMODE
 70
     1
  9
$MAXACTVP
 70
    48
  9
$PINSBASE
 10
0.0
 20
0.0
 30
0.0
  9
$PLIMCHECK
 70
     0
  9
$PEXTMIN
 10
1.000000000000000E+20
 20
1.000000000000000E+20
 30
1.000000000000000E+20
  9
$PEXTMAX
 10
-1.000000000000000E+20
 20
-1.000000000000000E+20
 30
-1.000000000000000E+20
  9
$PLIMMIN
 10
0.0
 20
0.0
  9
$PLIMMAX
 10
12.0
 20
9.0
  9
$UNITMODE
 70
     0
  9
$VISRETAIN
 70
     1
  9
$PLINEGEN
 70
     0
  9
$PSLTSCALE
 70
     1
  9
$TREEDEPTH
 70
  3020
  9
$CMLSTYLE
  2
Standard
  9
$CMLJUST
 70
     0
  9
$CMLSCALE
 40
1.0
  9
$PROXYGRAPHICS
 70
     1
  9
$MEASUREMENT
 70
     0
  9
$CELWEIGHT
370
    -1
  9
$ENDCAPS
280
     0
  9
$JOINSTYLE
280
     0
  9
$LWDISPLAY
290
     0
  9
$INSUNITS
 70
     0
  9
$HYPERLINKBASE
  1

  9
$STYLESHEET
  1

  9
$XEDIT
290
     1
  9
$CEPSNTYPE
380
     0
  9
$PSTYLEMODE
290
     1
  9
$FINGERPRINTGUID
  2
{FFE95C04-33D2-4560-80D0-1E2918E4EC86}
  9
$VERSIONGUID
  2
{33E77642-5104-4A06-AF48-04A91670DE21}
  9
$EXTNAMES
290
     1
  9
$PSVPSCALE
 40
0.0
  9
$OLESTARTUP
290
     0
  0
ENDSEC
  0
SECTION
  2
CLASSES
  0
CLASS
  1
ACDBDICTIONARYWDFLT
  2
AcDbDictionaryWithDefault
  3
AutoCAD 2000
 90
        0
280
     0
281
     0
  0
CLASS
  1
ACDBPLACEHOLDER
  2
AcDbPlaceHolder
  3
AutoCAD 2000
 90
        0
280
     0
281
     0
  0
CLASS
  1
LAYOUT
  2
AcDbLayout
  3
AutoCAD 2000
 90
        0
280
     0
281
     0
  0
CLASS
  1
DICTIONARYVAR
  2
AcDbDictionaryVar
  3
AutoCAD 2000
 90
        0
280
     0
281
     0
  0
CLASS
  1
LONG_TRANSACTION
  2
AcDbLongTransaction
  3
AutoCAD 2000
 90
    32768
280
     0
281
     0
  0
CLASS
  1
LWPOLYLINE
  2
AcDbPolyline
  3
AutoCAD 2000
 90
    32768
280
     0
281
     1
  0
CLASS
  1
HATCH
  2
AcDbHatch
  3
AutoCAD 2000
 90
    32768
280
     0
281
     1
  0
CLASS
  1
XRECORD
  2
AcDbXrecord
  3
AutoCAD 2000
 90
    32768
280
     0
281
     0
  0
CLASS
  1
LONG_TRANSACTION
  2
AcDbLongTransaction
  3
AutoCAD 2000
 90
    32768
280
     0
281
     0
  0
CLASS
  1
LWPOLYLINE
  2
AcDbPolyline
  3
AutoCAD 2000
 90
    32768
280
     0
281
     1
  0
CLASS
  1
HATCH
  2
AcDbHatch
  3
AutoCAD 2000
 90
    32768
280
     0
281
     1
  0
CLASS
  1
XRECORD
  2
AcDbXrecord
  3
AutoCAD 2000
 90
    32768
280
     0
281
     0
  0
CLASS
  1
LONG_TRANSACTION
  2
AcDbLongTransaction
  3
AutoCAD 2000
 90
    32768
280
     0
281
     0
  0
CLASS
  1
LWPOLYLINE
  2
AcDbPolyline
  3
AutoCAD 2000
 90
    32768
280
     0
281
     1
  0
CLASS
  1
HATCH
  2
AcDbHatch
  3
AutoCAD 2000
 90
    32768
280
     0
281
     1
  0
CLASS
  1
XRECORD
  2
AcDbXrecord
  3
AutoCAD 2000
 90
    32768
280
     0
281
     0
  0
CLASS
  1
LONG_TRANSACTION
  2
AcDbLongTransaction
  3
AutoCAD 2000
 90
    32768
280
     0
281
     0
  0
CLASS
  1
LWPOLYLINE
  2
AcDbPolyline
  3
AutoCAD 2000
 90
    32768
280
     0
281
     1
  0
CLASS
  1
HATCH
  2
AcDbHatch
  3
AutoCAD 2000
 90
    32768
280
     0
281
     1
  0
CLASS
  1
XRECORD
  2
AcDbXrecord
  3
AutoCAD 2000
 90
    32768
280
     0
281
     0
  0
CLASS
  1
LONG_TRANSACTION
  2
AcDbLongTransaction
  3
AutoCAD 2000
 90
    32768
280
     0
281
     0
  0
CLASS
  1
LWPOLYLINE
  2
AcDbPolyline
  3
AutoCAD 2000
 90
    32768
280
     0
281
     1
  0
CLASS
  1
HATCH
  2
AcDbHatch
  3
AutoCAD 2000
 90
    32768
280
     0
281
     1
  0
CLASS
  1
XRECORD
  2
AcDbXrecord
  3
AutoCAD 2000
 90
    32768
280
     0
281
     0
  0
CLASS
  1
LONG_TRANSACTION
  2
AcDbLongTransaction
  3
AutoCAD 2000
 90
    32768
280
     0
281
     0
  0
CLASS
  1
LWPOLYLINE
  2
AcDbPolyline
  3
AutoCAD 2000
 90
    32768
280
     0
281
     1
  0
CLASS
  1
HATCH
  2
AcDbHatch
  3
AutoCAD 2000
 90
    32768
280
     0
281
     1
  0
CLASS
  1
XRECORD
  2
AcDbXrecord
  3
AutoCAD 2000
 90
    32768
280
     0
281
     0
  0
CLASS
  1
LONG_TRANSACTION
  2
AcDbLongTransaction
  3
AutoCAD 2000
 90
    32768
280
     0
281
     0
  0
CLASS
  1
LWPOLYLINE
  2
AcDbPolyline
  3
AutoCAD 2000
 90
    32768
280
     0
281
     1
  0
CLASS
  1
HATCH
  2
AcDbHatch
  3
AutoCAD 2000
 90
    32768
280
     0
281
     1
  0
CLASS
  1
XRECORD
  2
AcDbXrecord
  3
AutoCAD 2000
 90
    32768
280
     0
281
     0
  0
ENDSEC
  0
SECTION
  2
TABLES
  0
TABLE
  2
VPORT
  5
21B6
330
0
100
AcDbSymbolTable
 70
     2
  0
VPORT
  5
2B18
330
21B6
100
AcDbSymbolTableRecord
100
AcDbViewportTableRecord
  2
*Active
 70
     0
 10
0.0
 20
0.0
 11
1.0
 21
1.0
 12
812.7943794596777
 22
913.0629987725219
 13
0.0
 23
0.0
 14
1.0
 24
1.0
 15
0.0
 25
0.0
 16
0.0
 26
0.0
 36
1.0
 17
0.0
 27
0.0
 37
0.0
 40
1277.984255674022
 41
1.592161016949152
 42
50.0
 43
0.0
 44
0.0
 50
0.0
 51
0.0
 71
     0
 72
   100
 73
     1
 74
     3
 75
     0
 76
     0
 77
     0
 78
     0
281
     0
 65
     1
110
0.0
120
0.0
130
0.0
111
1.0
121
0.0
131
0.0
112
0.0
122
1.0
132
0.0
 79
     0
146
0.0
  0
ENDTAB
  0
TABLE
  2
LTYPE
  5
21B3
330
0
100
AcDbSymbolTable
 70
     2
  0
LTYPE
  5
21C1
330
21B3
100
AcDbSymbolTableRecord
100
AcDbLinetypeTableRecord
  2
ByBlock
 70
     0
  3

 72
    65
 73
     0
 40
0.0
  0
LTYPE
  5
21C2
330
21B3
100
AcDbSymbolTableRecord
100
AcDbLinetypeTableRecord
  2
ByLayer
 70
     0
  3

 72
    65
 73
     0
 40
0.0
  0
LTYPE
  5
21C3
330
21B3
100
AcDbSymbolTableRecord
100
AcDbLinetypeTableRecord
  2
CONTINUOUS
 70
     0
  3
Solid line
 72
    65
 73
     0
 40
0.0
  0
LTYPE
  5
2AFF
330
21B3
100
AcDbSymbolTableRecord
100
AcDbLinetypeTableRecord
  2
CENTER
 70
     0
  3
__ . __
 72
    65
 73
     4
 40
7.0
 49
4.0
 74
     0
 49
-1.0
 74
     0
 49
1.0
 74
     0
 49
-1.0
 74
     0
  0
ENDTAB
  0
TABLE
  2
LAYER
  5
21B0
102
{ACAD_XDICTIONARY
360
2B00
102
}
330
0
100
AcDbSymbolTable
 70
     1
  0
LAYER
  5
21BE
330
21B0
100
AcDbSymbolTableRecord
100
AcDbLayerTableRecord
  2
0
 70
     0
 62
     7
  6
CONTINUOUS
370
    -3
390
21BD
  0
ENDTAB
  0
TABLE
  2
STYLE
  5
21B1
330
0
100
AcDbSymbolTable
 70
     1
  0
STYLE
  5
21BF
330
21B1
100
AcDbSymbolTableRecord
100
AcDbTextStyleTableRecord
  2
STANDARD
 70
     0
 40
0.0
 41
1.0
 50
0.0
 71
     0
 42
0.2
  3
txt
  4
BIGFONT
  0
ENDTAB
  0
TABLE
  2
VIEW
  5
21B4
330
0
100
AcDbSymbolTable
 70
     1
  0
VIEW
  5
21DE
330
21B4
100
AcDbSymbolTableRecord
100
AcDbViewTableRecord
  2
OLE1
 70
     0
 40
3692.141019219747
 10
1914.591370701856
 20
1272.206200738182
 41
4595.022665841169
 11
0.0
 21
0.0
 31
1.0
 12
0.0
 22
0.0
 32
0.0
 42
50.0
 43
0.0
 44
0.0
 50
0.0
 71
     0
281
     0
 72
     1
110
0.0
120
0.0
130
0.0
111
1.0
121
0.0
131
0.0
112
0.0
122
1.0
132
0.0
 79
     0
146
0.0
  0
ENDTAB
  0
TABLE
  2
UCS
  5
21B5
330
0
100
AcDbSymbolTable
 70
     0
  0
ENDTAB
  0
TABLE
  2
APPID
  5
21B7
330
0
100
AcDbSymbolTable
 70
     5
  0
APPID
  5
21C0
330
21B7
100
AcDbSymbolTableRecord
100
AcDbRegAppTableRecord
  2
ACAD
 70
     0
  0
APPID
  5
21DF
330
21B7
100
AcDbSymbolTableRecord
100
AcDbRegAppTableRecord
  2
MCAD_NO_VIS
 70
     0
  0
APPID
  5
21E0
330
21B7
100
AcDbSymbolTableRecord
100
AcDbRegAppTableRecord
  2
ACAD_TEMP_GRAPHIC
 70
     0
  0
APPID
  5
21E1
330
21B7
100
AcDbSymbolTableRecord
100
AcDbRegAppTableRecord
  2
ACATTRIBSERVICES
 70
     0
  0
APPID
  5
21E2
330
21B7
100
AcDbSymbolTableRecord
100
AcDbRegAppTableRecord
  2
CONTENTBLOCKICON
 70
     0
  0
ENDTAB
  0
TABLE
  2
DIMSTYLE
  5
21B8
330
0
100
AcDbSymbolTable
 70
     1
100
AcDbDimStyleTable
 71
     0
  0
DIMSTYLE
105
21E3
330
21B8
100
AcDbSymbolTableRecord
100
AcDbDimStyleTableRecord
  2
STANDARD
 70
     0
279
     2
340
21BF
  0
ENDTAB
  0
TABLE
  2
BLOCK_RECORD
  5
21AF
330
0
100
AcDbSymbolTable
 70
     0
  0
BLOCK_RECORD
  5
21CC
102
{ACAD_XDICTIONARY
360
21F8
102
}
330
21AF
100
AcDbSymbolTableRecord
100
AcDbBlockTableRecord
  2
*Model_Space
340
21CF
  0
BLOCK_RECORD
  5
21C8
102
{ACAD_XDICTIONARY
360
21FA
102
}
330
21AF
100
AcDbSymbolTableRecord
100
AcDbBlockTableRecord
  2
*Paper_Space
340
21CB
  0
ENDTAB
  0
ENDSEC
  0
SECTION
  2
BLOCKS
  0
BLOCK
  5
21CD
330
21CC
100
AcDbEntity
  8
0
100
AcDbBlockBegin
  2
*Model_Space
 70
     0
 10
0.0
 20
0.0
 30
0.0
  3
*Model_Space
  1

  0
ENDBLK
  5
21CE
330
21CC
100
AcDbEntity
  8
0
100
AcDbBlockEnd
  0
BLOCK
  5
21C9
330
21C8
100
AcDbEntity
 67
     1
  8
0
100
AcDbBlockBegin
  2
*Paper_Space
 70
     0
 10
0.0
 20
0.0
 30
0.0
  3
*Paper_Space
  1

  0
ENDBLK
  5
21CA
330
21C8
100
AcDbEntity
 67
     1
  8
0
100
AcDbBlockEnd
  0
ENDSEC
  0
SECTION
  2
ENTITIES
  0
TEXT
  5
F6E
330
21CC
100
AcDbEntity
  8
0
  6
Continuous
100
AcDbText
 10
339.3878168705359
 20
1500.0
 30
0.0
 40
48.000002
  1
GUC2A15MA_00 2.5S
 41
1.32095
100
AcDbText
  0
LINE
  5
286D
330
21CC
100
AcDbEntity
  8
0
  6
Continuous
 62
     7
100
AcDbLine
 10
620.9689819592131
 20
468.8492694064779
 30
0.0
 11
620.9689819592131
 21
405.349269406478
 31
0.0
  0
LINE
  5
286E
330
21CC
100
AcDbEntity
  8
0
  6
Continuous
 62
     7
100
AcDbLine
 10
615.5711910592136
 20
398.349269406478
 30
0.0
 11
615.5711910592136
 21
475.849269406478
 31
0.0
  0
ARC
  5
286F
330
21CC
100
AcDbEntity
  8
0
100
AcDbCircle
 10
740.5711890592137
 20
437.0992394064778
 30
0.0
 40
58.0
100
AcDbArc
 50
144.1117000000143
 51
215.8882899999969
  0
ARC
  5
2870
330
21CC
100
AcDbEntity
  8
0
100
AcDbCircle
 10
740.5711890592137
 20
437.0992394064778
 30
0.0
 40
58.0
100
AcDbArc
 50
324.1117000000144
 51
35.88829699999187
  0
LINE
  5
287C
330
21CC
100
AcDbEntity
  8
0
100
AcDbLine
 10
680.0711890592138
 20
385.5992394064778
 30
0.0
 11
801.0711890592137
 21
385.5992394064778
 31
0.0
  0
LINE
  5
287D
330
21CC
100
AcDbEntity
  8
0
100
AcDbLine
 10
680.0711890592138
 20
403.0992394064778
 30
0.0
 11
801.0711890592137
 21
403.0992394064778
 31
0.0
  0
LINE
  5
287E
330
21CC
100
AcDbEntity
  8
0
  6
Continuous
 62
     7
100
AcDbLine
 10
615.5711910592136
 20
398.349269406478
 30
0.0
 11
618.4211902592132
 21
398.349269406478
 31
0.0
  0
LINE
  5
2882
330
21CC
100
AcDbEntity
  8
0
  6
Continuous
 62
     7
100
AcDbLine
 10
620.9689819592131
 20
405.349269406478
 30
0.0
 11
692.0331688585592
 21
405.3492694064782
 31
0.0
  0
LINE
  5
2883
330
21CC
100
AcDbEntity
  8
0
  6
Continuous
 62
     7
100
AcDbLine
 10
618.4211902592132
 20
398.349269406478
 30
0.0
 11
620.9689816592136
 21
405.3492684064779
 31
0.0
  0
LINE
  5
2884
330
21CC
100
AcDbEntity
  8
0
100
AcDbLine
 10
680.0711890592138
 20
403.0992394064778
 30
0.0
 11
680.0711890592138
 21
385.5992394064778
 31
0.0
  0
LINE
  5
2885
330
21CC
100
AcDbEntity
  8
0
  6
Continuous
 62
     7
100
AcDbLine
 10
772.3211910592135
 20
317.4970603064774
 30
0.0
 11
708.8211910592136
 21
317.4970603064774
 31
0.0
  0
LINE
  5
2886
330
21CC
100
AcDbEntity
  8
0
  6
Continuous
 62
     7
100
AcDbLine
 10
701.8211910592135
 20
312.0992694064779
 30
0.0
 11
779.3211910592135
 21
312.0992694064779
 31
0.0
  0
LINE
  5
2888
330
21CC
100
AcDbEntity
  8
0
  6
Continuous
 62
     7
100
AcDbLine
 10
708.8211910592136
 20
317.4970603064774
 30
0.0
 11
708.8211910592137
 21
388.5612472058236
 31
0.0
  0
LINE
  5
288B
330
21CC
100
AcDbEntity
  8
0
  6
Continuous
 62
     7
100
AcDbLine
 10
701.8211910592135
 20
314.9492686064776
 30
0.0
 11
708.8211900592134
 21
317.4970600064779
 31
0.0
  0
LINE
  5
288C
330
21CC
100
AcDbEntity
  8
0
  6
Continuous
 62
     7
100
AcDbLine
 10
701.8211910592135
 20
312.0992694064779
 30
0.0
 11
701.8211910592135
 21
314.9492686064776
 31
0.0
  0
LINE
  5
288D
330
21CC
100
AcDbEntity
  8
0
  6
Continuous
 62
     7
100
AcDbLine
 10
772.3211910592135
 20
317.4970603064774
 30
0.0
 11
772.3211910592137
 21
388.561286453424
 31
0.0
  0
LINE
  5
288E
330
21CC
100
AcDbEntity
  8
0
100
AcDbLine
 10
801.0711890592137
 20
403.0992394064778
 30
0.0
 11
801.0711890592137
 21
385.5992394064778
 31
0.0
  0
LINE
  5
288F
330
21CC
100
AcDbEntity
  8
0
  6
Continuous
 62
     7
100
AcDbLine
 10
779.3211910592135
 20
314.9492686064776
 30
0.0
 11
772.3211920592135
 21
317.4970600064779
 31
0.0
  0
LINE
  5
2890
330
21CC
100
AcDbEntity
  8
0
  6
Continuous
 62
     7
100
AcDbLine
 10
779.3211910592135
 20
312.0992694064779
 30
0.0
 11
779.3211910592135
 21
314.9492686064776
 31
0.0
  0
LINE
  5
289E
330
21CC
100
AcDbEntity
  8
0
100
AcDbLine
 10
688.0711890592138
 20
564.3492414064776
 30
0.0
 11
793.0711810592137
 21
564.3492414064776
 31
0.0
  0
LINE
  5
289F
330
21CC
100
AcDbEntity
  8
0
100
AcDbLine
 10
688.0711890592138
 20
581.3492414064776
 30
0.0
 11
793.0711810592137
 21
581.3492414064776
 31
0.0
  0
LINE
  5
28A1
330
21CC
100
AcDbEntity
  8
0
100
AcDbLine
 10
680.0711890592138
 20
471.0992394064779
 30
0.0
 11
801.0711890592137
 21
471.0992394064779
 31
0.0
  0
LINE
  5
28A2
330
21CC
100
AcDbEntity
  8
0
100
AcDbLine
 10
680.0711890592138
 20
488.5992394064778
 30
0.0
 11
801.0711890592137
 21
488.5992394064778
 31
0.0
  0
LINE
  5
28A3
330
21CC
100
AcDbEntity
  8
0
  6
Continuous
 62
     7
100
AcDbLine
 10
615.5711910592136
 20
475.849269406478
 30
0.0
 11
618.4211902592132
 21
475.849269406478
 31
0.0
  0
LINE
  5
28A4
330
21CC
100
AcDbEntity
  8
0
100
AcDbLine
 10
700.5711890592138
 20
564.3492394064778
 30
0.0
 11
700.5711890592138
 21
488.5992394064778
 31
0.0
  0
LINE
  5
28A5
330
21CC
100
AcDbEntity
  8
0
  6
Continuous
 62
     7
100
AcDbLine
 10
620.9689819592131
 20
468.8492694064779
 30
0.0
 11
692.0332081061596
 21
468.8492694064782
 31
0.0
  0
LINE
  5
28A6
330
21CC
100
AcDbEntity
  8
0
  6
Continuous
 62
     7
100
AcDbLine
 10
618.4211902592132
 20
475.849269406478
 30
0.0
 11
620.9689816592136
 21
468.8492704064779
 31
0.0
  0
LINE
  5
28A7
330
21CC
100
AcDbEntity
  8
0
100
AcDbLine
 10
680.0711890592138
 20
488.5992394064778
 30
0.0
 11
680.0711890592138
 21
471.0992394064779
 31
0.0
  0
LINE
  5
28A8
330
21CC
100
AcDbEntity
  8
0
100
AcDbLine
 10
700.5711970592138
 20
586.3492264064775
 30
0.0
 11
700.5711970592138
 21
581.3492414064776
 31
0.0
  0
LINE
  5
28A9
330
21CC
100
AcDbEntity
  8
0
100
AcDbLine
 10
688.0711890592138
 20
581.3492414064776
 30
0.0
 11
688.0711890592138
 21
564.3492414064776
 31
0.0
  0
LINE
  5
28AA
330
21CC
100
AcDbEntity
  8
0
100
AcDbLine
 10
780.5711890592138
 20
564.3492394064778
 30
0.0
 11
780.5711890592138
 21
488.5992394064778
 31
0.0
  0
LINE
  5
28AB
330
21CC
100
AcDbEntity
  8
0
100
AcDbLine
 10
801.0711890592137
 20
488.5992394064778
 30
0.0
 11
801.0711890592137
 21
471.0992394064779
 31
0.0
  0
LINE
  5
28AC
330
21CC
100
AcDbEntity
  8
0
100
AcDbLine
 10
793.0711810592137
 20
581.3492414064776
 30
0.0
 11
793.0711810592137
 21
564.3492414064776
 31
0.0
  0
LINE
  5
28AD
330
21CC
100
AcDbEntity
  8
0
100
AcDbLine
 10
780.5711810592137
 20
586.3492264064775
 30
0.0
 11
780.5711810592137
 21
581.3492414064776
 31
0.0
  0
LINE
  5
2926
330
21CC
100
AcDbEntity
  8
0
  6
Continuous
 62
     7
100
AcDbLine
 10
860.1733981592142
 20
1110.998214545215
 30
0.0
 11
860.1733981592142
 21
1174.498214545214
 31
0.0
  0
LINE
  5
2927
330
21CC
100
AcDbEntity
  8
0
  6
Continuous
 62
     7
100
AcDbLine
 10
865.5711890592137
 20
1181.498214545215
 30
0.0
 11
865.5711890592137
 21
1103.998214545214
 31
0.0
  0
LINE
  5
293F
330
21CC
100
AcDbEntity
  8
0
  6
Continuous
 62
     7
100
AcDbLine
 10
865.5711890592137
 20
1181.498214545215
 30
0.0
 11
862.721189859214
 21
1181.498214545215
 31
0.0
  0
LINE
  5
2940
330
21CC
100
AcDbEntity
  8
0
  6
Continuous
 62
     7
100
AcDbLine
 10
860.1733981592142
 20
1174.498214545214
 30
0.0
 11
814.273307073607
 21
1174.498214545214
 31
0.0
  0
LINE
  5
2941
330
21CC
100
AcDbEntity
  8
0
  6
Continuous
 62
     7
100
AcDbLine
 10
862.721189859214
 20
1181.498214545215
 30
0.0
 11
860.1733984592137
 21
1174.498215545215
 31
0.0
  0
CIRCLE
  5
2949
330
21CC
100
AcDbEntity
  8
0
100
AcDbCircle
 10
740.5711910592136
 20
1142.748244545215
 30
0.0
 40
9.999999
  0
CIRCLE
  5
294A
330
21CC
100
AcDbEntity
  8
0
100
AcDbCircle
 10
740.5711910592136
 20
1142.748244545215
 30
0.0
 40
9.999999
  0
CIRCLE
  5
294B
330
21CC
100
AcDbEntity
  8
0
100
AcDbCircle
 10
740.5711910592136
 20
1142.748244545215
 30
0.0
 40
13.5
  0
CIRCLE
  5
294C
330
21CC
100
AcDbEntity
  8
0
100
AcDbCircle
 10
740.5711910592136
 20
1142.748244545215
 30
0.0
 40
13.5
  0
LINE
  5
2954
330
21CC
100
AcDbEntity
  8
0
  6
Continuous
 62
     7
100
AcDbLine
 10
865.5711890592137
 20
1103.998214545214
 30
0.0
 11
862.721189859214
 21
1103.998214545214
 31
0.0
  0
LINE
  5
2955
330
21CC
100
AcDbEntity
  8
0
  6
Continuous
 62
     7
100
AcDbLine
 10
860.1733981592142
 20
1110.998214545215
 30
0.0
 11
814.2732812263117
 21
1110.998214545215
 31
0.0
  0
LINE
  5
2956
330
21CC
100
AcDbEntity
  8
0
  6
Continuous
 62
     7
100
AcDbLine
 10
862.721189859214
 20
1103.998214545214
 30
0.0
 11
860.1733984592137
 21
1110.998213545215
 31
0.0
  0
LINE
  5
29C3
330
21CC
100
AcDbEntity
  8
0
  6
Continuous
 62
     7
100
AcDbLine
 10
620.9689839592129
 20
1174.498274545215
 30
0.0
 11
620.9689839592129
 21
1110.998274545215
 31
0.0
  0
LINE
  5
29C4
330
21CC
100
AcDbEntity
  8
0
  6
Continuous
 62
     7
100
AcDbLine
 10
615.5711930592133
 20
1103.998274545215
 30
0.0
 11
615.5711930592133
 21
1181.498274545215
 31
0.0
  0
LINE
  5
29C5
330
21CC
100
AcDbEntity
  8
0
  6
Continuous
 62
     7
100
AcDbLine
 10
620.9689839592129
 20
1110.998274545215
 30
0.0
 11
666.8690750448201
 21
1110.998274545215
 31
0.0
  0
LINE
  5
29C6
330
21CC
100
AcDbEntity
  8
0
  6
Continuous
 62
     7
100
AcDbLine
 10
615.5711930592133
 20
1103.998274545215
 30
0.0
 11
618.4211922592131
 21
1103.998274545215
 31
0.0
  0
LINE
  5
29C7
330
21CC
100
AcDbEntity
  8
0
  6
Continuous
 62
     7
100
AcDbLine
 10
618.4211922592131
 20
1103.998274545215
 30
0.0
 11
620.9689836592133
 21
1110.998273545215
 31
0.0
  0
LINE
  5
29C8
330
21CC
100
AcDbEntity
  8
0
  6
Continuous
 62
     7
100
AcDbLine
 10
620.9689839592129
 20
1174.498274545215
 30
0.0
 11
666.8691008921152
 21
1174.498274545215
 31
0.0
  0
LINE
  5
29C9
330
21CC
100
AcDbEntity
  8
0
  6
Continuous
 62
     7
100
AcDbLine
 10
615.5711930592133
 20
1181.498274545215
 30
0.0
 11
618.4211922592131
 21
1181.498274545215
 31
0.0
  0
LINE
  5
29CA
330
21CC
100
AcDbEntity
  8
0
  6
Continuous
 62
     7
100
AcDbLine
 10
618.4211922592131
 20
1181.498274545215
 30
0.0
 11
620.9689836592133
 21
1174.498275545215
 31
0.0
  0
LINE
  5
2A63
330
21CC
100
AcDbEntity
  8
0
100
AcDbLine
 10
820.8211930592138
 20
586.3492414064776
 30
0.0
 11
820.8211930592138
 21
830.8491814064778
 31
0.0
  0
LINE
  5
2A64
330
21CC
100
AcDbEntity
  8
0
100
AcDbLine
 10
660.3211850592137
 20
586.3492414064776
 30
0.0
 11
660.3211850592137
 21
830.8491814064778
 31
0.0
  0
LINE
  5
2A65
330
21CC
100
AcDbEntity
  8
0
100
AcDbLine
 10
794.5711860592132
 20
850.7677924064774
 30
0.0
 11
783.0711800592139
 21
830.8491964408535
 31
0.0
  0
LINE
  5
2A66
330
21CC
100
AcDbEntity
  8
0
100
AcDbLine
 10
789.9863000592135
 20
949.4161114064777
 30
0.0
 11
794.5711850592138
 21
883.8491924064774
 31
0.0
  0
LINE
  5
2A67
330
21CC
100
AcDbEntity
  8
0
100
AcDbLine
 10
660.3211850592137
 20
830.8491814064778
 30
0.0
 11
820.8211930592138
 21
830.8491814064778
 31
0.0
  0
LINE
  5
2A68
330
21CC
100
AcDbEntity
  8
0
100
AcDbLine
 10
727.0711850592138
 20
952.5582714064777
 30
0.0
 11
691.1560710592134
 21
949.4161014064776
 31
0.0
  0
LINE
  5
2A69
330
21CC
100
AcDbEntity
  8
0
100
AcDbLine
 10
783.0711810592133
 20
830.8491914064775
 30
0.0
 11
698.0711850592138
 21
830.8491914064775
 31
0.0
  0
LINE
  5
2A6A
330
21CC
100
AcDbEntity
  8
0
100
AcDbLine
 10
691.156070059214
 20
949.4161114064777
 30
0.0
 11
686.5711850592138
 21
883.8491924064774
 31
0.0
  0
LINE
  5
2A6B
330
21CC
100
AcDbEntity
  8
0
100
AcDbLine
 10
686.5711840592143
 20
850.7677924064774
 30
0.0
 11
698.071191059214
 21
830.8491947890411
 31
0.0
  0
LINE
  5
2A6C
330
21CC
100
AcDbEntity
  8
0
100
AcDbLine
 10
686.5711850592138
 20
883.8491914064775
 30
0.0
 11
686.5711850592138
 21
850.7677914064775
 31
0.0
  0
LINE
  5
2A6D
330
21CC
100
AcDbEntity
  8
0
100
AcDbLine
 10
754.0711850592137
 20
958.8491914064775
 30
0.0
 11
727.0711850592138
 21
958.8491914064775
 31
0.0
  0
LINE
  5
2A6E
330
21CC
100
AcDbEntity
  8
0
100
AcDbLine
 10
754.0711850592137
 20
952.5582714064777
 30
0.0
 11
727.0711850592138
 21
952.5582714064777
 31
0.0
  0
LINE
  5
2A6F
330
21CC
100
AcDbEntity
  8
0
100
AcDbLine
 10
730.5711860592132
 20
991.8491914064775
 30
0.0
 11
750.5711870592135
 21
991.8491914064775
 31
0.0
  0
LINE
  5
2A70
330
21CC
100
AcDbEntity
  8
0
100
AcDbLine
 10
730.5711860592132
 20
958.8491914064775
 30
0.0
 11
730.5711860592132
 21
991.8491914064775
 31
0.0
  0
LINE
  5
2A71
330
21CC
100
AcDbEntity
  8
0
100
AcDbLine
 10
727.0711850592138
 20
958.8491914064775
 30
0.0
 11
727.0711850592138
 21
952.5582714064777
 31
0.0
  0
LINE
  5
2A72
330
21CC
100
AcDbEntity
  8
0
100
AcDbLine
 10
727.0711850592138
 20
957.8491814064774
 30
0.0
 11
727.0711850592138
 21
956.9868014064777
 31
0.0
  0
LINE
  5
2A73
330
21CC
100
AcDbEntity
  8
0
100
AcDbLine
 10
750.5711870592135
 20
958.8491914064775
 30
0.0
 11
750.5711870592135
 21
991.8491914064775
 31
0.0
  0
LINE
  5
2A74
330
21CC
100
AcDbEntity
  8
0
100
AcDbLine
 10
754.0711850592137
 20
952.5582714064777
 30
0.0
 11
789.9862990592141
 21
949.4161014064776
 31
0.0
  0
LINE
  5
2A75
330
21CC
100
AcDbEntity
  8
0
100
AcDbLine
 10
754.0711850592137
 20
958.8491914064775
 30
0.0
 11
754.0711850592137
 21
952.5582714064777
 31
0.0
  0
LINE
  5
2A76
330
21CC
100
AcDbEntity
  8
0
100
AcDbLine
 10
754.0711850592137
 20
957.8491914064775
 30
0.0
 11
754.0711850592137
 21
956.9868114064774
 31
0.0
  0
LINE
  5
2A77
330
21CC
100
AcDbEntity
  8
0
100
AcDbLine
 10
794.5711850592138
 20
883.8491914064775
 30
0.0
 11
794.5711850592138
 21
850.7677914064775
 31
0.0
  0
LINE
  5
2A78
330
21CC
100
AcDbEntity
  8
0
100
AcDbLine
 10
820.8211930592138
 20
586.3492414064776
 30
0.0
 11
660.3211850592137
 21
586.3492414064776
 31
0.0
  0
CIRCLE
  5
2A81
330
21CC
100
AcDbEntity
  8
0
100
AcDbCircle
 10
740.5711910592136
 20
1142.748244545215
 30
0.0
 40
54.0
  0
CIRCLE
  5
2A82
330
21CC
100
AcDbEntity
  8
0
100
AcDbCircle
 10
740.5711910592136
 20
1142.748244545215
 30
0.0
 40
80.25
  0
LINE
  5
2ABE
330
21CC
100
AcDbEntity
  8
0
  6
Continuous
 62
     7
100
AcDbLine
 10
860.173400159214
 20
405.349269406478
 30
0.0
 11
789.1092132598678
 21
405.3492694064782
 31
0.0
  0
LINE
  5
2ABF
330
21CC
100
AcDbEntity
  8
0
  6
Continuous
 62
     7
100
AcDbLine
 10
860.173400159214
 20
468.8492694064779
 30
0.0
 11
789.1091740122674
 21
468.8492694064782
 31
0.0
  0
LINE
  5
2AC0
330
21CC
100
AcDbEntity
  8
0
  6
Continuous
 62
     7
100
AcDbLine
 10
860.173400159214
 20
468.8492694064779
 30
0.0
 11
860.173400159214
 21
405.349269406478
 31
0.0
  0
LINE
  5
2AC1
330
21CC
100
AcDbEntity
  8
0
  6
Continuous
 62
     7
100
AcDbLine
 10
865.5711910592135
 20
398.349269406478
 30
0.0
 11
865.5711910592135
 21
475.849269406478
 31
0.0
  0
LINE
  5
2AC2
330
21CC
100
AcDbEntity
  8
0
  6
Continuous
 62
     7
100
AcDbLine
 10
862.7211918592138
 20
398.349269406478
 30
0.0
 11
860.1734004592135
 21
405.3492684064779
 31
0.0
  0
LINE
  5
2AC3
330
21CC
100
AcDbEntity
  8
0
  6
Continuous
 62
     7
100
AcDbLine
 10
865.5711910592135
 20
398.349269406478
 30
0.0
 11
862.7211918592138
 21
398.349269406478
 31
0.0
  0
LINE
  5
2AC4
330
21CC
100
AcDbEntity
  8
0
  6
Continuous
 62
     7
100
AcDbLine
 10
862.7211918592138
 20
475.849269406478
 30
0.0
 11
860.1734004592135
 21
468.8492704064779
 31
0.0
  0
LINE
  5
2AC5
330
21CC
100
AcDbEntity
  8
0
  6
Continuous
 62
     7
100
AcDbLine
 10
865.5711910592135
 20
475.849269406478
 30
0.0
 11
862.7211918592138
 21
475.849269406478
 31
0.0
  0
LINE
  5
2B0A
330
21CC
100
AcDbEntity
  8
0
  6
CENTER
100
AcDbLine
 10
574.3644237849121
 20
1142.748244545215
 30
0.0
 11
906.777958333515
 21
1142.748244545215
 31
0.0
  0
LINE
  5
2B0B
330
21CC
100
AcDbEntity
  8
0
  6
CENTER
100
AcDbLine
 10
740.5711910592136
 20
1042.750994180808
 30
0.0
 11
740.5711910592136
 21
1242.745494909622
 31
0.0
  0
LINE
  5
2B0C
330
21CC
100
AcDbEntity
  8
0
  6
CENTER
100
AcDbLine
 10
574.1128882924827
 20
437.0992394064778
 30
0.0
 11
907.0294898259449
 21
437.0992394064778
 31
0.0
  0
LINE
  5
2B0D
330
21CC
100
AcDbEntity
  8
0
  6
CENTER
100
AcDbLine
 10
740.5711890592137
 20
278.1167336381381
 30
0.0
 11
740.5711890592137
 21
1013.766790246485
 31
0.0
  0
ENDSEC
  0
SECTION
  2
OBJECTS
  0
DICTIONARY
  5
21BA
330
0
100
AcDbDictionary
281
     1
  3
ACAD_GROUP
350
21BB
  3
ACAD_LAYOUT
350
21C7
  3
ACAD_MLINESTYLE
350
21C4
  3
ACAD_PLOTSETTINGS
350
21C6
  3
ACAD_PLOTSTYLENAME
350
21BC
  3
AcDbVariableDictionary
350
2238
  3
DWGPROPS
350
2A05
  0
DICTIONARY
  5
2B00
330
21B0
100
AcDbDictionary
280
     1
281
     1
  3
ACAD_LAYERSTATES
360
2B01
  0
DICTIONARY
  5
21F8
330
21CC
100
AcDbDictionary
280
     1
281
     1
  3
ACAD_LAYOUTSELFREF
360
2AF6
  0
DICTIONARY
  5
21FA
330
21C8
100
AcDbDictionary
280
     1
281
     1
  3
ACAD_LAYOUTSELFREF
360
2AF5
  0
DICTIONARY
  5
21BB
102
{ACAD_REACTORS
330
21BA
102
}
330
21BA
100
AcDbDictionary
281
     1
  0
DICTIONARY
  5
21C7
102
{ACAD_REACTORS
330
21BA
102
}
330
21BA
100
AcDbDictionary
281
     1
  3
Model
350
21CF
  3
ﾚｲｱｳﾄ1
350
21CB
  0
DICTIONARY
  5
21C4
102
{ACAD_REACTORS
330
21BA
102
}
330
21BA
100
AcDbDictionary
281
     1
  3
Standard
350
21C5
  0
DICTIONARY
  5
21C6
102
{ACAD_REACTORS
330
21BA
102
}
330
21BA
100
AcDbDictionary
281
     1
  0
ACDBDICTIONARYWDFLT
  5
21BC
102
{ACAD_REACTORS
330
21BA
102
}
330
21BA
100
AcDbDictionary
281
     1
  3
Normal
350
21BD
100
AcDbDictionaryWithDefault
340
21BD
  0
DICTIONARY
  5
2238
102
{ACAD_REACTORS
330
21BA
102
}
330
21BA
100
AcDbDictionary
281
     1
  3
DIMASSOC
350
2239
  0
XRECORD
  5
2A05
102
{ACAD_REACTORS
330
21BA
102
}
330
21BA
100
AcDbXrecord
280
     1
  1
DWGPROPS COOKIE
  2

  3

  4

  6

  7

  8
mg
  9

300
=
301
=
302
=
303
=
304
=
305
=
306
=
307
=
308
=
309
=
 40
0.2817122222222222
 41
2452488.423138738
 42
2452754.728500069
  1

 90
        0
  0
DICTIONARY
  5
2B01
102
{ACAD_REACTORS
330
2B00
102
}
330
2B00
100
AcDbDictionary
281
     1
  0
XRECORD
  5
2AF6
102
{ACAD_REACTORS
330
21F8
102
}
330
21F8
100
AcDbXrecord
280
     1
340
21CC
  0
XRECORD
  5
2AF5
102
{ACAD_REACTORS
330
21FA
102
}
330
21FA
100
AcDbXrecord
280
     1
340
21C8
  0
LAYOUT
  5
21CF
102
{ACAD_REACTORS
330
21C7
102
}
330
21C7
100
AcDbPlotSettings
  1

  2
SII LP-2150 (D-SCAN C2)
  4

  6

 40
0.0
 41
0.0
 42
0.0
 43
0.0
 44
0.0
 45
0.0
 46
0.0
 47
0.0
 48
0.0
 49
0.0
140
0.0
141
0.0
142
1.0
143
1.0
 70
  1712
 72
     0
 73
     0
 74
     0
  7

 75
     0
147
1.0
148
0.0
149
0.0
100
AcDbLayout
  1
Model
 70
     1
 71
     0
 10
0.0
 20
0.0
 11
12.0
 21
9.0
 12
0.0
 22
0.0
 32
0.0
 14
0.0
 24
0.0
 34
0.0
 15
0.0
 25
0.0
 35
0.0
146
0.0
 13
0.0
 23
0.0
 33
0.0
 16
1.0
 26
0.0
 36
0.0
 17
0.0
 27
1.0
 37
0.0
 76
     0
330
21CC
  0
LAYOUT
  5
21CB
102
{ACAD_REACTORS
330
21C7
102
}
330
21C7
100
AcDbPlotSettings
  1

  2
SII LP-2150 (D-SCAN C2)
  4

  6

 40
0.0
 41
0.0
 42
0.0
 43
0.0
 44
0.0
 45
0.0
 46
0.0
 47
0.0
 48
0.0
 49
0.0
140
0.0
141
0.0
142
1.0
143
1.0
 70
   688
 72
     0
 73
     0
 74
     5
  7

 75
    16
147
1.0
148
0.0
149
0.0
100
AcDbLayout
  1
ﾚｲｱｳﾄ1
 70
     1
 71
     1
 10
0.0
 20
0.0
 11
12.0
 21
9.0
 12
0.0
 22
0.0
 32
0.0
 14
1.000000000000000E+20
 24
1.000000000000000E+20
 34
1.000000000000000E+20
 15
-1.000000000000000E+20
 25
-1.000000000000000E+20
 35
-1.000000000000000E+20
146
0.0
 13
0.0
 23
0.0
 33
0.0
 16
1.0
 26
0.0
 36
0.0
 17
0.0
 27
1.0
 37
0.0
 76
     0
330
21C8
  0
MLINESTYLE
  5
21C5
102
{ACAD_REACTORS
330
21C4
102
}
330
21C4
100
AcDbMlineStyle
  2
STANDARD
 70
     0
  3

 62
   256
 51
90.0
 52
90.0
 71
     2
 49
0.5
 62
   256
  6
BYLAYER
 49
-0.5
 62
   256
  6
BYLAYER
  0
ACDBPLACEHOLDER
  5
21BD
102
{ACAD_REACTORS
330
21BC
102
}
330
21BC
  0
DICTIONARYVAR
  5
2239
102
{ACAD_REACTORS
330
2238
102
}
330
2238
100
DictionaryVariables
280
     0
  1
1
  0
ENDSEC
  0
EOF
