  0
SECTION
  2
HEADER
  9
$ACADVER
  1
AC1015
  9
$ACADMAINTVER
 70
    14
  9
$DWGCODEPAGE
  3
ANSI_932
  9
$INSBASE
 10
0.0
 20
0.0
 30
0.0
  9
$EXTMIN
 10
359.2782444858512
 20
94.43118525282171
 30
-0.0000000000112498
  9
$EXTMAX
 10
1221.63550235538
 20
1083.206494852706
 30
0.0000000000002956
  9
$LIMMIN
 10
0.0
 20
0.0
  9
$LIMMAX
 10
12.0
 20
9.0
  9
$ORTHOMODE
 70
     0
  9
$REGENMODE
 70
     1
  9
$FILLMODE
 70
     1
  9
$QTEXTMODE
 70
     0
  9
$MIRRTEXT
 70
     1
  9
$LTSCALE
 40
1.0
  9
$ATTMODE
 70
     1
  9
$TEXTSIZE
 40
0.2
  9
$TRACEWID
 40
0.05
  9
$TEXTSTYLE
  7
STANDARD
  9
$CLAYER
  8
0
  9
$CELTYPE
  6
CONTINUOUS
  9
$CECOLOR
 62
   256
  9
$CELTSCALE
 40
1.0
  9
$DISPSILH
 70
     0
  9
$DIMSCALE
 40
1.0
  9
$DIMASZ
 40
1.0
  9
$DIMEXO
 40
2.54
  9
$DIMDLI
 40
0.38
  9
$DIMRND
 40
0.0
  9
$DIMDLE
 40
0.0
  9
$DIMEXE
 40
2.54
  9
$DIMTP
 40
0.0
  9
$DIMTM
 40
0.0
  9
$DIMTXT
 40
3.2
  9
$DIMCEN
 40
0.09
  9
$DIMTSZ
 40
0.0
  9
$DIMTOL
 70
     0
  9
$DIMLIM
 70
     0
  9
$DIMTIH
 70
     0
  9
$DIMTOH
 70
     0
  9
$DIMSE1
 70
     0
  9
$DIMSE2
 70
     0
  9
$DIMTAD
 70
     1
  9
$DIMZIN
 70
     0
  9
$DIMBLK
  1

  9
$DIMASO
 70
     1
  9
$DIMSHO
 70
     0
  9
$DIMPOST
  1

  9
$DIMAPOST
  1

  9
$DIMALT
 70
     0
  9
$DIMALTD
 70
     2
  9
$DIMALTF
 40
25.4
  9
$DIMLFAC
 40
1.0
  9
$DIMTOFL
 70
     0
  9
$DIMTVP
 40
1.0
  9
$DIMTIX
 70
     0
  9
$DIMSOXD
 70
     0
  9
$DIMSAH
 70
     1
  9
$DIMBLK1
  1

  9
$DIMBLK2
  1

  9
$DIMSTYLE
  2
STANDARD
  9
$DIMCLRD
 70
     0
  9
$DIMCLRE
 70
     0
  9
$DIMCLRT
 70
     0
  9
$DIMTFAC
 40
1.0
  9
$DIMGAP
 40
1.6
  9
$DIMJUST
 70
     0
  9
$DIMSD1
 70
     0
  9
$DIMSD2
 70
     0
  9
$DIMTOLJ
 70
     1
  9
$DIMTZIN
 70
     0
  9
$DIMALTZ
 70
     0
  9
$DIMALTTZ
 70
     0
  9
$DIMUPT
 70
     0
  9
$DIMDEC
 70
     4
  9
$DIMTDEC
 70
     4
  9
$DIMALTU
 70
     2
  9
$DIMALTTD
 70
     2
  9
$DIMTXSTY
  7
STANDARD
  9
$DIMAUNIT
 70
     0
  9
$DIMADEC
 70
     0
  9
$DIMALTRND
 40
0.0
  9
$DIMAZIN
 70
     0
  9
$DIMDSEP
 70
    46
  9
$DIMATFIT
 70
     3
  9
$DIMFRAC
 70
     0
  9
$DIMLDRBLK
  1

  9
$DIMLUNIT
 70
     2
  9
$DIMLWD
 70
    -2
  9
$DIMLWE
 70
    -2
  9
$DIMTMOVE
 70
     0
  9
$LUNITS
 70
     2
  9
$LUPREC
 70
     4
  9
$SKETCHINC
 40
0.1
  9
$FILLETRAD
 40
0.0
  9
$AUNITS
 70
     0
  9
$AUPREC
 70
     0
  9
$MENU
  1
.
  9
$ELEVATION
 40
0.0
  9
$PELEVATION
 40
0.0
  9
$THICKNESS
 40
0.0
  9
$LIMCHECK
 70
     0
  9
$CHAMFERA
 40
0.0
  9
$CHAMFERB
 40
0.0
  9
$CHAMFERC
 40
0.0
  9
$CHAMFERD
 40
0.0
  9
$SKPOLY
 70
     0
  9
$TDCREATE
 40
2452488.423138738
  9
$TDUCREATE
 40
2452488.048138738
  9
$TDUPDATE
 40
2456899.676396261
  9
$TDUUPDATE
 40
2456899.301396261
  9
$TDINDWG
 40
0.2883058218
  9
$TDUSRTIMER
 40
0.2883056366
  9
$USRTIMER
 70
     1
  9
$ANGBASE
 50
0.0
  9
$ANGDIR
 70
     0
  9
$PDMODE
 70
     3
  9
$PDSIZE
 40
0.0
  9
$PLINEWID
 40
0.0
  9
$SPLFRAME
 70
     0
  9
$SPLINETYPE
 70
     6
  9
$SPLINESEGS
 70
     8
  9
$HANDSEED
  5
2B21
  9
$SURFTAB1
 70
     6
  9
$SURFTAB2
 70
     6
  9
$SURFTYPE
 70
     6
  9
$SURFU
 70
     6
  9
$SURFV
 70
     6
  9
$UCSBASE
  2

  9
$UCSNAME
  2

  9
$UCSORG
 10
0.0
 20
0.0
 30
0.0
  9
$UCSXDIR
 10
1.0
 20
0.0
 30
0.0
  9
$UCSYDIR
 10
0.0
 20
1.0
 30
0.0
  9
$UCSORTHOREF
  2

  9
$UCSORTHOVIEW
 70
     0
  9
$UCSORGTOP
 10
0.0
 20
0.0
 30
0.0
  9
$UCSORGBOTTOM
 10
0.0
 20
0.0
 30
0.0
  9
$UCSORGLEFT
 10
0.0
 20
0.0
 30
0.0
  9
$UCSORGRIGHT
 10
0.0
 20
0.0
 30
0.0
  9
$UCSORGFRONT
 10
0.0
 20
0.0
 30
0.0
  9
$UCSORGBACK
 10
0.0
 20
0.0
 30
0.0
  9
$PUCSBASE
  2

  9
$PUCSNAME
  2

  9
$PUCSORG
 10
0.0
 20
0.0
 30
0.0
  9
$PUCSXDIR
 10
1.0
 20
0.0
 30
0.0
  9
$PUCSYDIR
 10
0.0
 20
1.0
 30
0.0
  9
$PUCSORTHOREF
  2

  9
$PUCSORTHOVIEW
 70
     0
  9
$PUCSORGTOP
 10
0.0
 20
0.0
 30
0.0
  9
$PUCSORGBOTTOM
 10
0.0
 20
0.0
 30
0.0
  9
$PUCSORGLEFT
 10
0.0
 20
0.0
 30
0.0
  9
$PUCSORGRIGHT
 10
0.0
 20
0.0
 30
0.0
  9
$PUCSORGFRONT
 10
0.0
 20
0.0
 30
0.0
  9
$PUCSORGBACK
 10
0.0
 20
0.0
 30
0.0
  9
$USERI1
 70
     0
  9
$USERI2
 70
     0
  9
$USERI3
 70
     0
  9
$USERI4
 70
     0
  9
$USERI5
 70
     0
  9
$USERR1
 40
0.0
  9
$USERR2
 40
0.0
  9
$USERR3
 40
0.0
  9
$USERR4
 40
0.0
  9
$USERR5
 40
0.0
  9
$WORLDVIEW
 70
     1
  9
$SHADEDGE
 70
     3
  9
$SHADEDIF
 70
    70
  9
$TILEMODE
 70
     1
  9
$MAXACTVP
 70
    48
  9
$PINSBASE
 10
0.0
 20
0.0
 30
0.0
  9
$PLIMCHECK
 70
     0
  9
$PEXTMIN
 10
1.000000000000000E+20
 20
1.000000000000000E+20
 30
1.000000000000000E+20
  9
$PEXTMAX
 10
-1.000000000000000E+20
 20
-1.000000000000000E+20
 30
-1.000000000000000E+20
  9
$PLIMMIN
 10
0.0
 20
0.0
  9
$PLIMMAX
 10
12.0
 20
9.0
  9
$UNITMODE
 70
     0
  9
$VISRETAIN
 70
     1
  9
$PLINEGEN
 70
     0
  9
$PSLTSCALE
 70
     1
  9
$TREEDEPTH
 70
  3020
  9
$CMLSTYLE
  2
Standard
  9
$CMLJUST
 70
     0
  9
$CMLSCALE
 40
1.0
  9
$PROXYGRAPHICS
 70
     1
  9
$MEASUREMENT
 70
     0
  9
$CELWEIGHT
370
    -1
  9
$ENDCAPS
280
     0
  9
$JOINSTYLE
280
     0
  9
$LWDISPLAY
290
     0
  9
$INSUNITS
 70
     0
  9
$HYPERLINKBASE
  1

  9
$STYLESHEET
  1

  9
$XEDIT
290
     1
  9
$CEPSNTYPE
380
     0
  9
$PSTYLEMODE
290
     1
  9
$FINGERPRINTGUID
  2
{FFE95C04-33D2-4560-80D0-1E2918E4EC86}
  9
$VERSIONGUID
  2
{D65F96EA-3994-46E1-8054-C65E0EE61E34}
  9
$EXTNAMES
290
     1
  9
$PSVPSCALE
 40
0.0
  9
$OLESTARTUP
290
     0
  0
ENDSEC
  0
SECTION
  2
CLASSES
  0
CLASS
  1
ACDBDICTIONARYWDFLT
  2
AcDbDictionaryWithDefault
  3
AutoCAD 2000
 90
        0
280
     0
281
     0
  0
CLASS
  1
ACDBPLACEHOLDER
  2
AcDbPlaceHolder
  3
AutoCAD 2000
 90
        0
280
     0
281
     0
  0
CLASS
  1
LAYOUT
  2
AcDbLayout
  3
AutoCAD 2000
 90
        0
280
     0
281
     0
  0
CLASS
  1
DICTIONARYVAR
  2
AcDbDictionaryVar
  3
AutoCAD 2000
 90
        0
280
     0
281
     0
  0
CLASS
  1
LONG_TRANSACTION
  2
AcDbLongTransaction
  3
AutoCAD 2000
 90
    32768
280
     0
281
     0
  0
CLASS
  1
LWPOLYLINE
  2
AcDbPolyline
  3
AutoCAD 2000
 90
    32768
280
     0
281
     1
  0
CLASS
  1
HATCH
  2
AcDbHatch
  3
AutoCAD 2000
 90
    32768
280
     0
281
     1
  0
CLASS
  1
XRECORD
  2
AcDbXrecord
  3
AutoCAD 2000
 90
    32768
280
     0
281
     0
  0
CLASS
  1
LONG_TRANSACTION
  2
AcDbLongTransaction
  3
AutoCAD 2000
 90
    32768
280
     0
281
     0
  0
CLASS
  1
LWPOLYLINE
  2
AcDbPolyline
  3
AutoCAD 2000
 90
    32768
280
     0
281
     1
  0
CLASS
  1
HATCH
  2
AcDbHatch
  3
AutoCAD 2000
 90
    32768
280
     0
281
     1
  0
CLASS
  1
XRECORD
  2
AcDbXrecord
  3
AutoCAD 2000
 90
    32768
280
     0
281
     0
  0
CLASS
  1
LONG_TRANSACTION
  2
AcDbLongTransaction
  3
AutoCAD 2000
 90
    32768
280
     0
281
     0
  0
CLASS
  1
LWPOLYLINE
  2
AcDbPolyline
  3
AutoCAD 2000
 90
    32768
280
     0
281
     1
  0
CLASS
  1
HATCH
  2
AcDbHatch
  3
AutoCAD 2000
 90
    32768
280
     0
281
     1
  0
CLASS
  1
XRECORD
  2
AcDbXrecord
  3
AutoCAD 2000
 90
    32768
280
     0
281
     0
  0
CLASS
  1
LONG_TRANSACTION
  2
AcDbLongTransaction
  3
AutoCAD 2000
 90
    32768
280
     0
281
     0
  0
CLASS
  1
LWPOLYLINE
  2
AcDbPolyline
  3
AutoCAD 2000
 90
    32768
280
     0
281
     1
  0
CLASS
  1
HATCH
  2
AcDbHatch
  3
AutoCAD 2000
 90
    32768
280
     0
281
     1
  0
CLASS
  1
XRECORD
  2
AcDbXrecord
  3
AutoCAD 2000
 90
    32768
280
     0
281
     0
  0
CLASS
  1
LONG_TRANSACTION
  2
AcDbLongTransaction
  3
AutoCAD 2000
 90
    32768
280
     0
281
     0
  0
CLASS
  1
LWPOLYLINE
  2
AcDbPolyline
  3
AutoCAD 2000
 90
    32768
280
     0
281
     1
  0
CLASS
  1
HATCH
  2
AcDbHatch
  3
AutoCAD 2000
 90
    32768
280
     0
281
     1
  0
CLASS
  1
XRECORD
  2
AcDbXrecord
  3
AutoCAD 2000
 90
    32768
280
     0
281
     0
  0
CLASS
  1
LONG_TRANSACTION
  2
AcDbLongTransaction
  3
AutoCAD 2000
 90
    32768
280
     0
281
     0
  0
CLASS
  1
LWPOLYLINE
  2
AcDbPolyline
  3
AutoCAD 2000
 90
    32768
280
     0
281
     1
  0
CLASS
  1
HATCH
  2
AcDbHatch
  3
AutoCAD 2000
 90
    32768
280
     0
281
     1
  0
CLASS
  1
XRECORD
  2
AcDbXrecord
  3
AutoCAD 2000
 90
    32768
280
     0
281
     0
  0
CLASS
  1
LONG_TRANSACTION
  2
AcDbLongTransaction
  3
AutoCAD 2000
 90
    32768
280
     0
281
     0
  0
CLASS
  1
LWPOLYLINE
  2
AcDbPolyline
  3
AutoCAD 2000
 90
    32768
280
     0
281
     1
  0
CLASS
  1
HATCH
  2
AcDbHatch
  3
AutoCAD 2000
 90
    32768
280
     0
281
     1
  0
CLASS
  1
XRECORD
  2
AcDbXrecord
  3
AutoCAD 2000
 90
    32768
280
     0
281
     0
  0
ENDSEC
  0
SECTION
  2
TABLES
  0
TABLE
  2
VPORT
  5
21B6
330
0
100
AcDbSymbolTable
 70
     2
  0
VPORT
  5
2B20
330
21B6
100
AcDbSymbolTableRecord
100
AcDbViewportTableRecord
  2
*Active
 70
     0
 10
0.0
 20
0.0
 11
1.0
 21
1.0
 12
790.4568734206155
 22
588.8188400527642
 13
0.0
 23
0.0
 14
1.0
 24
1.0
 15
0.0
 25
0.0
 16
0.0
 26
0.0
 36
1.0
 17
0.0
 27
0.0
 37
0.0
 40
995.0532480735351
 41
1.592161016949152
 42
50.0
 43
0.0
 44
0.0
 50
0.0
 51
0.0
 71
     0
 72
   100
 73
     1
 74
     3
 75
     0
 76
     0
 77
     0
 78
     0
281
     0
 65
     1
110
0.0
120
0.0
130
0.0
111
1.0
121
0.0
131
0.0
112
0.0
122
1.0
132
0.0
 79
     0
146
0.0
  0
ENDTAB
  0
TABLE
  2
LTYPE
  5
21B3
330
0
100
AcDbSymbolTable
 70
     2
  0
LTYPE
  5
21C1
330
21B3
100
AcDbSymbolTableRecord
100
AcDbLinetypeTableRecord
  2
ByBlock
 70
     0
  3

 72
    65
 73
     0
 40
0.0
  0
LTYPE
  5
21C2
330
21B3
100
AcDbSymbolTableRecord
100
AcDbLinetypeTableRecord
  2
ByLayer
 70
     0
  3

 72
    65
 73
     0
 40
0.0
  0
LTYPE
  5
21C3
330
21B3
100
AcDbSymbolTableRecord
100
AcDbLinetypeTableRecord
  2
CONTINUOUS
 70
     0
  3
Solid line
 72
    65
 73
     0
 40
0.0
  0
LTYPE
  5
2B07
330
21B3
100
AcDbSymbolTableRecord
100
AcDbLinetypeTableRecord
  2
CENTER
 70
     0
  3
__ . __
 72
    65
 73
     4
 40
7.0
 49
4.0
 74
     0
 49
-1.0
 74
     0
 49
1.0
 74
     0
 49
-1.0
 74
     0
  0
ENDTAB
  0
TABLE
  2
LAYER
  5
21B0
102
{ACAD_XDICTIONARY
360
2B08
102
}
330
0
100
AcDbSymbolTable
 70
     1
  0
LAYER
  5
21BE
330
21B0
100
AcDbSymbolTableRecord
100
AcDbLayerTableRecord
  2
0
 70
     0
 62
     7
  6
CONTINUOUS
370
    -3
390
21BD
  0
ENDTAB
  0
TABLE
  2
STYLE
  5
21B1
330
0
100
AcDbSymbolTable
 70
     1
  0
STYLE
  5
21BF
330
21B1
100
AcDbSymbolTableRecord
100
AcDbTextStyleTableRecord
  2
STANDARD
 70
     0
 40
0.0
 41
1.0
 50
0.0
 71
     0
 42
0.2
  3
txt
  4
BIGFONT
  0
ENDTAB
  0
TABLE
  2
VIEW
  5
21B4
330
0
100
AcDbSymbolTable
 70
     1
  0
VIEW
  5
21DE
330
21B4
100
AcDbSymbolTableRecord
100
AcDbViewTableRecord
  2
OLE1
 70
     0
 40
3692.141019219747
 10
1914.591370701856
 20
1272.206200738182
 41
4595.022665841169
 11
0.0
 21
0.0
 31
1.0
 12
0.0
 22
0.0
 32
0.0
 42
50.0
 43
0.0
 44
0.0
 50
0.0
 71
     0
281
     0
 72
     1
110
0.0
120
0.0
130
0.0
111
1.0
121
0.0
131
0.0
112
0.0
122
1.0
132
0.0
 79
     0
146
0.0
  0
ENDTAB
  0
TABLE
  2
UCS
  5
21B5
330
0
100
AcDbSymbolTable
 70
     0
  0
ENDTAB
  0
TABLE
  2
APPID
  5
21B7
330
0
100
AcDbSymbolTable
 70
     5
  0
APPID
  5
21C0
330
21B7
100
AcDbSymbolTableRecord
100
AcDbRegAppTableRecord
  2
ACAD
 70
     0
  0
APPID
  5
21DF
330
21B7
100
AcDbSymbolTableRecord
100
AcDbRegAppTableRecord
  2
MCAD_NO_VIS
 70
     0
  0
APPID
  5
21E0
330
21B7
100
AcDbSymbolTableRecord
100
AcDbRegAppTableRecord
  2
ACAD_TEMP_GRAPHIC
 70
     0
  0
APPID
  5
21E1
330
21B7
100
AcDbSymbolTableRecord
100
AcDbRegAppTableRecord
  2
ACATTRIBSERVICES
 70
     0
  0
APPID
  5
21E2
330
21B7
100
AcDbSymbolTableRecord
100
AcDbRegAppTableRecord
  2
CONTENTBLOCKICON
 70
     0
  0
ENDTAB
  0
TABLE
  2
DIMSTYLE
  5
21B8
330
0
100
AcDbSymbolTable
 70
     1
100
AcDbDimStyleTable
 71
     0
  0
DIMSTYLE
105
21E3
330
21B8
100
AcDbSymbolTableRecord
100
AcDbDimStyleTableRecord
  2
STANDARD
 70
     0
279
     2
340
21BF
  0
ENDTAB
  0
TABLE
  2
BLOCK_RECORD
  5
21AF
330
0
100
AcDbSymbolTable
 70
     0
  0
BLOCK_RECORD
  5
21CC
102
{ACAD_XDICTIONARY
360
21F8
102
}
330
21AF
100
AcDbSymbolTableRecord
100
AcDbBlockTableRecord
  2
*Model_Space
340
21CF
  0
BLOCK_RECORD
  5
21C8
102
{ACAD_XDICTIONARY
360
21FA
102
}
330
21AF
100
AcDbSymbolTableRecord
100
AcDbBlockTableRecord
  2
*Paper_Space
340
21CB
  0
ENDTAB
  0
ENDSEC
  0
SECTION
  2
BLOCKS
  0
BLOCK
  5
21CD
330
21CC
100
AcDbEntity
  8
0
100
AcDbBlockBegin
  2
*Model_Space
 70
     0
 10
0.0
 20
0.0
 30
0.0
  3
*Model_Space
  1

  0
ENDBLK
  5
21CE
330
21CC
100
AcDbEntity
  8
0
100
AcDbBlockEnd
  0
BLOCK
  5
21C9
330
21C8
100
AcDbEntity
 67
     1
  8
0
100
AcDbBlockBegin
  2
*Paper_Space
 70
     0
 10
0.0
 20
0.0
 30
0.0
  3
*Paper_Space
  1

  0
ENDBLK
  5
21CA
330
21C8
100
AcDbEntity
 67
     1
  8
0
100
AcDbBlockEnd
  0
ENDSEC
  0
SECTION
  2
ENTITIES
  0
TEXT
  5
F6E
330
21CC
100
AcDbEntity
  8
0
  6
Continuous
100
AcDbText
 10
359.3006597741096
 20
1035.189959137129
 30
0.0
 40
48.000002
  1
GUC2A13MA_00 2S
 41
1.32095
100
AcDbText
  0
LINE
  5
281D
330
21CC
100
AcDbEntity
  8
0
100
AcDbLine
 10
706.7587524841638
 20
273.824779815231
 30
0.0
 11
706.7587524841638
 21
256.824779815231
 31
0.0
  0
LINE
  5
281F
330
21CC
100
AcDbEntity
  8
0
100
AcDbLine
 10
811.7587524841637
 20
273.824779815231
 30
0.0
 11
811.7587524841637
 21
256.824779815231
 31
0.0
  0
LINE
  5
2820
330
21CC
100
AcDbEntity
  8
0
  6
Continuous
 62
     7
100
AcDbLine
 10
733.8587499841635
 20
113.6769838152312
 30
0.0
 11
733.8587499841636
 21
183.024781815231
 31
0.0
  0
LINE
  5
2821
330
21CC
100
AcDbEntity
  8
0
  6
Continuous
 62
     7
100
AcDbLine
 10
784.6587499841636
 20
113.6769838152312
 30
0.0
 11
784.6587499841638
 21
183.0247818152311
 31
0.0
  0
LINE
  5
2827
330
21CC
100
AcDbEntity
  8
0
100
AcDbLine
 10
706.7587524841638
 20
183.0247818152311
 30
0.0
 11
811.7587524841637
 21
183.0247818152311
 31
0.0
  0
LINE
  5
2828
330
21CC
100
AcDbEntity
  8
0
100
AcDbLine
 10
706.7587524841638
 20
200.0247818152311
 30
0.0
 11
811.7587524841637
 21
200.0247818152311
 31
0.0
  0
LINE
  5
2829
330
21CC
100
AcDbEntity
  8
0
100
AcDbLine
 10
706.7587524841638
 20
256.824779815231
 30
0.0
 11
811.7587524841637
 21
256.824779815231
 31
0.0
  0
LINE
  5
282C
330
21CC
100
AcDbEntity
  8
0
  6
Continuous
 62
     7
100
AcDbLine
 10
644.510955984164
 20
203.0247828152309
 30
0.0
 11
718.6781260190837
 21
203.0247828152309
 31
0.0
  0
LINE
  5
282D
330
21CC
100
AcDbEntity
  8
0
  6
Continuous
 62
     7
100
AcDbLine
 10
644.510955984164
 20
253.8247828152311
 30
0.0
 11
718.6781260190837
 21
253.8247828152311
 31
0.0
  0
LINE
  5
282E
330
21CC
100
AcDbEntity
  8
0
  6
Continuous
 62
     7
100
AcDbLine
 10
642.1087522841644
 20
260.4247818152312
 30
0.0
 11
644.5109557841642
 21
253.8247828152311
 31
0.0
  0
LINE
  5
282F
330
21CC
100
AcDbEntity
  8
0
  6
Continuous
 62
     7
100
AcDbLine
 10
639.2587524841637
 20
260.424782815231
 30
0.0
 11
642.1087518841641
 21
260.424782815231
 31
0.0
  0
LINE
  5
2830
330
21CC
100
AcDbEntity
  8
0
  6
Continuous
 62
     7
100
AcDbLine
 10
642.1087522841644
 20
196.4247838152312
 30
0.0
 11
644.5109557841642
 21
203.0247828152309
 31
0.0
  0
LINE
  5
2831
330
21CC
100
AcDbEntity
  8
0
  6
Continuous
 62
     7
100
AcDbLine
 10
639.2587524841637
 20
196.424782815231
 30
0.0
 11
642.1087518841641
 21
196.424782815231
 31
0.0
  0
LINE
  5
2832
330
21CC
100
AcDbEntity
  8
0
  6
Continuous
 62
     7
100
AcDbLine
 10
639.2587524841637
 20
196.424782815231
 30
0.0
 11
639.2587524841637
 21
260.424782815231
 31
0.0
  0
LINE
  5
2833
330
21CC
100
AcDbEntity
  8
0
  6
Continuous
 62
     7
100
AcDbLine
 10
644.510955984164
 20
253.8247828152311
 30
0.0
 11
644.510955984164
 21
203.0247828152309
 31
0.0
  0
ARC
  5
2834
330
21CC
100
AcDbEntity
  8
0
100
AcDbCircle
 10
769.2587524841638
 20
228.424782815231
 30
0.0
 40
56.599998
100
AcDbArc
 50
149.88303999999
 51
210.1169600000099
  0
LINE
  5
2835
330
21CC
100
AcDbEntity
  8
0
100
AcDbLine
 10
706.7587524841638
 20
200.0247818152311
 30
0.0
 11
706.7587524841638
 21
183.0247818152311
 31
0.0
  0
ARC
  5
2841
330
21CC
100
AcDbEntity
  8
0
100
AcDbCircle
 10
749.2587524841638
 20
228.424782815231
 30
0.0
 40
56.599998
100
AcDbArc
 50
329.88303999999
 51
30.11696100000911
  0
LINE
  5
2843
330
21CC
100
AcDbEntity
  8
0
100
AcDbLine
 10
811.7587524841637
 20
200.0247818152311
 30
0.0
 11
811.7587524841637
 21
183.0247818152311
 31
0.0
  0
LINE
  5
2844
330
21CC
100
AcDbEntity
  8
0
  6
Continuous
 62
     7
100
AcDbLine
 10
791.2587489841637
 20
111.2747801152316
 30
0.0
 11
784.6587499841636
 21
113.6769836152315
 31
0.0
  0
LINE
  5
2845
330
21CC
100
AcDbEntity
  8
0
  6
Continuous
 62
     7
100
AcDbLine
 10
727.2587499841636
 20
108.424780315231
 30
0.0
 11
791.2587499841635
 21
108.424780315231
 31
0.0
  0
LINE
  5
2846
330
21CC
100
AcDbEntity
  8
0
  6
Continuous
 62
     7
100
AcDbLine
 10
727.2587509841637
 20
111.2747801152316
 30
0.0
 11
733.8587499841635
 21
113.6769836152315
 31
0.0
  0
LINE
  5
2847
330
21CC
100
AcDbEntity
  8
0
  6
Continuous
 62
     7
100
AcDbLine
 10
727.2587499841636
 20
108.424780315231
 30
0.0
 11
727.2587499841636
 21
111.2747797152313
 31
0.0
  0
LINE
  5
2848
330
21CC
100
AcDbEntity
  8
0
  6
Continuous
 62
     7
100
AcDbLine
 10
784.6587499841636
 20
113.6769838152312
 30
0.0
 11
733.8587499841635
 21
113.6769838152312
 31
0.0
  0
LINE
  5
2849
330
21CC
100
AcDbEntity
  8
0
  6
Continuous
 62
     7
100
AcDbLine
 10
791.2587499841635
 20
108.424780315231
 30
0.0
 11
791.2587499841635
 21
111.2747797152313
 31
0.0
  0
LINE
  5
284D
330
21CC
100
AcDbEntity
  8
0
100
AcDbLine
 10
721.2587524841637
 20
351.0747428152308
 30
0.0
 11
797.2587524841637
 21
351.0747428152308
 31
0.0
  0
LINE
  5
284E
330
21CC
100
AcDbEntity
  8
0
100
AcDbLine
 10
721.2587524841637
 20
365.5747428152308
 30
0.0
 11
797.2587524841637
 21
365.5747428152308
 31
0.0
  0
LINE
  5
284F
330
21CC
100
AcDbEntity
  8
0
100
AcDbLine
 10
706.7587524841638
 20
273.824779815231
 30
0.0
 11
811.7587524841637
 21
273.824779815231
 31
0.0
  0
LINE
  5
2850
330
21CC
100
AcDbEntity
  8
0
100
AcDbLine
 10
721.2587524841637
 20
365.5747428152308
 30
0.0
 11
721.2587524841637
 21
351.0747428152308
 31
0.0
  0
LINE
  5
2851
330
21CC
100
AcDbEntity
  8
0
100
AcDbLine
 10
732.2587524841638
 20
351.074740815231
 30
0.0
 11
732.2587524841638
 21
273.824740815231
 31
0.0
  0
LINE
  5
2852
330
21CC
100
AcDbEntity
  8
0
100
AcDbLine
 10
731.7587524841638
 20
371.8247428152308
 30
0.0
 11
731.7587524841638
 21
365.5747428152308
 31
0.0
  0
LINE
  5
2853
330
21CC
100
AcDbEntity
  8
0
100
AcDbLine
 10
797.2587524841637
 20
365.5747428152308
 30
0.0
 11
797.2587524841637
 21
351.0747428152308
 31
0.0
  0
LINE
  5
2858
330
21CC
100
AcDbEntity
  8
0
100
AcDbLine
 10
786.2587524841638
 20
351.074740815231
 30
0.0
 11
786.2587524841638
 21
273.824740815231
 31
0.0
  0
LINE
  5
2859
330
21CC
100
AcDbEntity
  8
0
100
AcDbLine
 10
786.7587524841638
 20
371.8247428152308
 30
0.0
 11
786.7587524841638
 21
365.5747428152308
 31
0.0
  0
LINE
  5
2910
330
21CC
100
AcDbEntity
  8
0
  6
Continuous
 62
     7
100
AcDbLine
 10
874.0065184841631
 20
842.3721488010306
 30
0.0
 11
874.0065184841631
 21
893.1721488010309
 31
0.0
  0
LINE
  5
2911
330
21CC
100
AcDbEntity
  8
0
  6
Continuous
 62
     7
100
AcDbLine
 10
879.2587219841633
 20
899.7721488010308
 30
0.0
 11
879.2587219841633
 21
835.7721488010307
 31
0.0
  0
LINE
  5
2912
330
21CC
100
AcDbEntity
  8
0
  6
Continuous
 62
     7
100
AcDbLine
 10
874.0065184841631
 20
893.1721488010309
 30
0.0
 11
822.0671808093886
 21
893.1721488010309
 31
0.0
  0
LINE
  5
2913
330
21CC
100
AcDbEntity
  8
0
  6
Continuous
 62
     7
100
AcDbLine
 10
879.2587219841633
 20
899.7721488010308
 30
0.0
 11
876.4087225841629
 21
899.7721488010308
 31
0.0
  0
LINE
  5
2914
330
21CC
100
AcDbEntity
  8
0
  6
Continuous
 62
     7
100
AcDbLine
 10
876.4087221841627
 20
899.7721478010303
 30
0.0
 11
874.0065186841629
 21
893.1721488010309
 31
0.0
  0
LINE
  5
2915
330
21CC
100
AcDbEntity
  8
0
  6
Continuous
 62
     7
100
AcDbLine
 10
874.0065184841631
 20
842.3721488010306
 30
0.0
 11
822.0671808093886
 21
842.3721488010306
 31
0.0
  0
LINE
  5
2916
330
21CC
100
AcDbEntity
  8
0
  6
Continuous
 62
     7
100
AcDbLine
 10
879.2587219841633
 20
835.7721488010307
 30
0.0
 11
876.4087225841629
 21
835.7721488010307
 31
0.0
  0
LINE
  5
2917
330
21CC
100
AcDbEntity
  8
0
  6
Continuous
 62
     7
100
AcDbLine
 10
876.4087221841627
 20
835.7721498010306
 30
0.0
 11
874.0065186841629
 21
842.3721488010306
 31
0.0
  0
CIRCLE
  5
291C
330
21CC
100
AcDbEntity
  8
0
100
AcDbCircle
 10
759.2587219841634
 20
867.7721488010305
 30
0.0
 40
13.5
  0
CIRCLE
  5
291D
330
21CC
100
AcDbEntity
  8
0
100
AcDbCircle
 10
759.2587219841634
 20
867.7721488010305
 30
0.0
 40
13.5
  0
CIRCLE
  5
291E
330
21CC
100
AcDbEntity
  8
0
100
AcDbCircle
 10
759.2587219841634
 20
867.7721488010305
 30
0.0
 40
9.999999
  0
CIRCLE
  5
291F
330
21CC
100
AcDbEntity
  8
0
100
AcDbCircle
 10
759.2587219841634
 20
867.7721488010305
 30
0.0
 40
9.999999
  0
LINE
  5
29C3
330
21CC
100
AcDbEntity
  8
0
  6
Continuous
 62
     7
100
AcDbLine
 10
644.5109254841636
 20
893.1721488010307
 30
0.0
 11
696.4502631589383
 21
893.1721488010307
 31
0.0
  0
LINE
  5
29C4
330
21CC
100
AcDbEntity
  8
0
  6
Continuous
 62
     7
100
AcDbLine
 10
644.5109254841636
 20
842.3721488010306
 30
0.0
 11
696.4502631589383
 21
842.3721488010306
 31
0.0
  0
LINE
  5
29C5
330
21CC
100
AcDbEntity
  8
0
  6
Continuous
 62
     7
100
AcDbLine
 10
644.5109254841636
 20
893.1721488010307
 30
0.0
 11
644.5109254841636
 21
842.3721488010306
 31
0.0
  0
LINE
  5
29C6
330
21CC
100
AcDbEntity
  8
0
  6
Continuous
 62
     7
100
AcDbLine
 10
639.2587219841634
 20
835.7721488010307
 30
0.0
 11
639.2587219841634
 21
899.7721488010306
 31
0.0
  0
LINE
  5
29C7
330
21CC
100
AcDbEntity
  8
0
  6
Continuous
 62
     7
100
AcDbLine
 10
639.2587219841634
 20
835.7721488010307
 30
0.0
 11
642.1087213841637
 21
835.7721488010307
 31
0.0
  0
LINE
  5
29C8
330
21CC
100
AcDbEntity
  8
0
  6
Continuous
 62
     7
100
AcDbLine
 10
642.1087217841641
 20
835.772149801031
 30
0.0
 11
644.5109252841639
 21
842.3721488010306
 31
0.0
  0
LINE
  5
29C9
330
21CC
100
AcDbEntity
  8
0
  6
Continuous
 62
     7
100
AcDbLine
 10
639.2587219841634
 20
899.7721488010306
 30
0.0
 11
642.1087213841637
 21
899.7721488010306
 31
0.0
  0
LINE
  5
29CA
330
21CC
100
AcDbEntity
  8
0
  6
Continuous
 62
     7
100
AcDbLine
 10
642.1087217841641
 20
899.7721478010307
 30
0.0
 11
644.5109252841639
 21
893.1721488010307
 31
0.0
  0
CIRCLE
  5
2A67
330
21CC
100
AcDbEntity
  8
0
100
AcDbCircle
 10
759.2587219841634
 20
867.7721488010305
 30
0.0
 40
54.0
  0
CIRCLE
  5
2A68
330
21CC
100
AcDbEntity
  8
0
100
AcDbCircle
 10
759.2587219841634
 20
867.7721488010305
 30
0.0
 40
67.75
  0
LINE
  5
2A6D
330
21CC
100
AcDbEntity
  8
0
100
AcDbLine
 10
691.5087564841638
 20
371.8247278152307
 30
0.0
 11
691.5087564841638
 21
573.8247428152308
 31
0.0
  0
LINE
  5
2A6E
330
21CC
100
AcDbEntity
  8
0
100
AcDbLine
 10
827.0087484841637
 20
371.8247278152307
 30
0.0
 11
827.0087484841637
 21
573.8247428152308
 31
0.0
  0
LINE
  5
2A6F
330
21CC
100
AcDbEntity
  8
0
100
AcDbLine
 10
827.0087484841637
 20
573.8247428152308
 30
0.0
 11
691.5087564841638
 21
573.8247428152308
 31
0.0
  0
LINE
  5
2A70
330
21CC
100
AcDbEntity
  8
0
100
AcDbLine
 10
749.2587594841629
 20
734.8247428152308
 30
0.0
 11
769.2587604841633
 21
734.8247428152308
 31
0.0
  0
LINE
  5
2A71
330
21CC
100
AcDbEntity
  8
0
100
AcDbLine
 10
772.7587584841635
 20
695.5338228152308
 30
0.0
 11
745.7587584841635
 21
695.5338228152308
 31
0.0
  0
LINE
  5
2A72
330
21CC
100
AcDbEntity
  8
0
100
AcDbLine
 10
772.7587584841635
 20
701.8247428152307
 30
0.0
 11
745.7587584841635
 21
701.8247428152307
 31
0.0
  0
LINE
  5
2A73
330
21CC
100
AcDbEntity
  8
0
100
AcDbLine
 10
801.758754484163
 20
573.8247428152308
 30
0.0
 11
716.7587584841635
 21
573.8247428152308
 31
0.0
  0
LINE
  5
2A74
330
21CC
100
AcDbEntity
  8
0
100
AcDbLine
 10
709.8436434841637
 20
692.391662815231
 30
0.0
 11
705.2587584841635
 21
626.8247438152307
 31
0.0
  0
LINE
  5
2A75
330
21CC
100
AcDbEntity
  8
0
100
AcDbLine
 10
705.258757484164
 20
593.7433438152306
 30
0.0
 11
716.7587644841638
 21
573.8247461977944
 31
0.0
  0
LINE
  5
2A76
330
21CC
100
AcDbEntity
  8
0
100
AcDbLine
 10
705.2587584841635
 20
626.8247428152307
 30
0.0
 11
705.2587584841635
 21
593.7433428152307
 31
0.0
  0
LINE
  5
2A77
330
21CC
100
AcDbEntity
  8
0
100
AcDbLine
 10
745.7587584841635
 20
695.5338228152308
 30
0.0
 11
709.8436444841631
 21
692.3916528152308
 31
0.0
  0
LINE
  5
2A78
330
21CC
100
AcDbEntity
  8
0
100
AcDbLine
 10
749.2587594841629
 20
701.8247428152307
 30
0.0
 11
749.2587594841629
 21
734.8247428152308
 31
0.0
  0
LINE
  5
2A79
330
21CC
100
AcDbEntity
  8
0
100
AcDbLine
 10
745.7587584841635
 20
700.8247328152306
 30
0.0
 11
745.7587584841635
 21
699.962352815231
 31
0.0
  0
LINE
  5
2A7A
330
21CC
100
AcDbEntity
  8
0
100
AcDbLine
 10
745.7587584841635
 20
701.8247428152307
 30
0.0
 11
745.7587584841635
 21
695.5338228152308
 31
0.0
  0
LINE
  5
2A7B
330
21CC
100
AcDbEntity
  8
0
100
AcDbLine
 10
808.6738734841633
 20
692.391662815231
 30
0.0
 11
813.2587584841635
 21
626.8247438152307
 31
0.0
  0
LINE
  5
2A7C
330
21CC
100
AcDbEntity
  8
0
100
AcDbLine
 10
813.2587594841629
 20
593.7433438152306
 30
0.0
 11
801.7587534841636
 21
573.8247478496068
 31
0.0
  0
LINE
  5
2A7D
330
21CC
100
AcDbEntity
  8
0
100
AcDbLine
 10
813.2587584841635
 20
626.8247428152307
 30
0.0
 11
813.2587584841635
 21
593.7433428152307
 31
0.0
  0
LINE
  5
2A7E
330
21CC
100
AcDbEntity
  8
0
100
AcDbLine
 10
772.7587584841635
 20
695.5338228152308
 30
0.0
 11
808.6738724841639
 21
692.3916528152308
 31
0.0
  0
LINE
  5
2A7F
330
21CC
100
AcDbEntity
  8
0
100
AcDbLine
 10
769.2587604841633
 20
701.8247428152307
 30
0.0
 11
769.2587604841633
 21
734.8247428152308
 31
0.0
  0
LINE
  5
2A80
330
21CC
100
AcDbEntity
  8
0
100
AcDbLine
 10
772.7587584841635
 20
700.8247428152308
 30
0.0
 11
772.7587584841635
 21
699.9623628152307
 31
0.0
  0
LINE
  5
2A81
330
21CC
100
AcDbEntity
  8
0
100
AcDbLine
 10
772.7587584841635
 20
701.8247428152307
 30
0.0
 11
772.7587584841635
 21
695.5338228152308
 31
0.0
  0
LINE
  5
2A82
330
21CC
100
AcDbEntity
  8
0
100
AcDbLine
 10
691.5087564841638
 20
371.8247278152307
 30
0.0
 11
827.0087484841637
 21
371.8247278152307
 31
0.0
  0
LINE
  5
2AC6
330
21CC
100
AcDbEntity
  8
0
  6
Continuous
 62
     7
100
AcDbLine
 10
879.2587524841637
 20
196.4247778152309
 30
0.0
 11
879.2587524841637
 21
260.4247778152309
 31
0.0
  0
LINE
  5
2AC7
330
21CC
100
AcDbEntity
  8
0
  6
Continuous
 62
     7
100
AcDbLine
 10
874.0065489841637
 20
253.824777815231
 30
0.0
 11
874.0065489841637
 21
203.0247778152308
 31
0.0
  0
LINE
  5
2AC8
330
21CC
100
AcDbEntity
  8
0
  6
Continuous
 62
     7
100
AcDbLine
 10
874.0065489841637
 20
203.0247778152308
 30
0.0
 11
799.8393789492438
 21
203.0247778152308
 31
0.0
  0
LINE
  5
2AC9
330
21CC
100
AcDbEntity
  8
0
  6
Continuous
 62
     7
100
AcDbLine
 10
876.4087526841631
 20
196.4247788152311
 30
0.0
 11
874.0065491841633
 21
203.0247778152308
 31
0.0
  0
LINE
  5
2ACA
330
21CC
100
AcDbEntity
  8
0
  6
Continuous
 62
     7
100
AcDbLine
 10
879.2587524841637
 20
196.4247778152309
 30
0.0
 11
876.4087530841633
 21
196.4247778152309
 31
0.0
  0
LINE
  5
2ACB
330
21CC
100
AcDbEntity
  8
0
  6
Continuous
 62
     7
100
AcDbLine
 10
874.0065489841637
 20
253.824777815231
 30
0.0
 11
799.8393789492438
 21
253.824777815231
 31
0.0
  0
LINE
  5
2ACC
330
21CC
100
AcDbEntity
  8
0
  6
Continuous
 62
     7
100
AcDbLine
 10
879.2587524841637
 20
260.4247778152309
 30
0.0
 11
876.4087530841633
 21
260.4247778152309
 31
0.0
  0
LINE
  5
2ACD
330
21CC
100
AcDbEntity
  8
0
  6
Continuous
 62
     7
100
AcDbLine
 10
876.4087526841631
 20
260.4247768152311
 30
0.0
 11
874.0065491841633
 21
253.824777815231
 31
0.0
  0
LINE
  5
2B12
330
21CC
100
AcDbEntity
  8
0
  6
CENTER
100
AcDbLine
 10
625.4516871117356
 20
867.7721488010305
 30
0.0
 11
893.0657568565916
 21
867.7721488010305
 31
0.0
  0
LINE
  5
2B13
330
21CC
100
AcDbEntity
  8
0
  6
CENTER
100
AcDbLine
 10
759.2587219841635
 20
795.9115667389173
 30
0.0
 11
759.2587219841635
 21
939.6327308631439
 31
0.0
  0
LINE
  5
2B14
330
21CC
100
AcDbEntity
  8
0
  6
CENTER
100
AcDbLine
 10
759.2587524841639
 20
94.50045144448223
 30
0.0
 11
759.2587524841639
 21
752.0563880844734
 31
0.0
  0
LINE
  5
2B15
330
21CC
100
AcDbEntity
  8
0
  6
CENTER
100
AcDbLine
 10
615.3677859655817
 20
228.424782815231
 30
0.0
 11
903.1497190027458
 21
228.424782815231
 31
0.0
  0
ENDSEC
  0
SECTION
  2
OBJECTS
  0
DICTIONARY
  5
21BA
330
0
100
AcDbDictionary
281
     1
  3
ACAD_GROUP
350
21BB
  3
ACAD_LAYOUT
350
21C7
  3
ACAD_MLINESTYLE
350
21C4
  3
ACAD_PLOTSETTINGS
350
21C6
  3
ACAD_PLOTSTYLENAME
350
21BC
  3
AcDbVariableDictionary
350
2238
  3
DWGPROPS
350
2A05
  0
DICTIONARY
  5
2B08
330
21B0
100
AcDbDictionary
280
     1
281
     1
  3
ACAD_LAYERSTATES
360
2B09
  0
DICTIONARY
  5
21F8
330
21CC
100
AcDbDictionary
280
     1
281
     1
  3
ACAD_LAYOUTSELFREF
360
2AFE
  0
DICTIONARY
  5
21FA
330
21C8
100
AcDbDictionary
280
     1
281
     1
  3
ACAD_LAYOUTSELFREF
360
2AFD
  0
DICTIONARY
  5
21BB
102
{ACAD_REACTORS
330
21BA
102
}
330
21BA
100
AcDbDictionary
281
     1
  0
DICTIONARY
  5
21C7
102
{ACAD_REACTORS
330
21BA
102
}
330
21BA
100
AcDbDictionary
281
     1
  3
Model
350
21CF
  3
ﾚｲｱｳﾄ1
350
21CB
  0
DICTIONARY
  5
21C4
102
{ACAD_REACTORS
330
21BA
102
}
330
21BA
100
AcDbDictionary
281
     1
  3
Standard
350
21C5
  0
DICTIONARY
  5
21C6
102
{ACAD_REACTORS
330
21BA
102
}
330
21BA
100
AcDbDictionary
281
     1
  0
ACDBDICTIONARYWDFLT
  5
21BC
102
{ACAD_REACTORS
330
21BA
102
}
330
21BA
100
AcDbDictionary
281
     1
  3
Normal
350
21BD
100
AcDbDictionaryWithDefault
340
21BD
  0
DICTIONARY
  5
2238
102
{ACAD_REACTORS
330
21BA
102
}
330
21BA
100
AcDbDictionary
281
     1
  3
DIMASSOC
350
2239
  0
XRECORD
  5
2A05
102
{ACAD_REACTORS
330
21BA
102
}
330
21BA
100
AcDbXrecord
280
     1
  1
DWGPROPS COOKIE
  2

  3

  4

  6

  7

  8
mg
  9

300
=
301
=
302
=
303
=
304
=
305
=
306
=
307
=
308
=
309
=
 40
0.2818180208333334
 41
2452488.423138738
 42
2452754.728282326
  1

 90
        0
  0
DICTIONARY
  5
2B09
102
{ACAD_REACTORS
330
2B08
102
}
330
2B08
100
AcDbDictionary
281
     1
  0
XRECORD
  5
2AFE
102
{ACAD_REACTORS
330
21F8
102
}
330
21F8
100
AcDbXrecord
280
     1
340
21CC
  0
XRECORD
  5
2AFD
102
{ACAD_REACTORS
330
21FA
102
}
330
21FA
100
AcDbXrecord
280
     1
340
21C8
  0
LAYOUT
  5
21CF
102
{ACAD_REACTORS
330
21C7
102
}
330
21C7
100
AcDbPlotSettings
  1

  2
SII LP-2150 (D-SCAN C2)
  4

  6

 40
0.0
 41
0.0
 42
0.0
 43
0.0
 44
0.0
 45
0.0
 46
0.0
 47
0.0
 48
0.0
 49
0.0
140
0.0
141
0.0
142
1.0
143
1.0
 70
  1712
 72
     0
 73
     0
 74
     0
  7

 75
     0
147
1.0
148
0.0
149
0.0
100
AcDbLayout
  1
Model
 70
     1
 71
     0
 10
0.0
 20
0.0
 11
12.0
 21
9.0
 12
0.0
 22
0.0
 32
0.0
 14
0.0
 24
0.0
 34
0.0
 15
0.0
 25
0.0
 35
0.0
146
0.0
 13
0.0
 23
0.0
 33
0.0
 16
1.0
 26
0.0
 36
0.0
 17
0.0
 27
1.0
 37
0.0
 76
     0
330
21CC
  0
LAYOUT
  5
21CB
102
{ACAD_REACTORS
330
21C7
102
}
330
21C7
100
AcDbPlotSettings
  1

  2
SII LP-2150 (D-SCAN C2)
  4

  6

 40
0.0
 41
0.0
 42
0.0
 43
0.0
 44
0.0
 45
0.0
 46
0.0
 47
0.0
 48
0.0
 49
0.0
140
0.0
141
0.0
142
1.0
143
1.0
 70
   688
 72
     0
 73
     0
 74
     5
  7

 75
    16
147
1.0
148
0.0
149
0.0
100
AcDbLayout
  1
ﾚｲｱｳﾄ1
 70
     1
 71
     1
 10
0.0
 20
0.0
 11
12.0
 21
9.0
 12
0.0
 22
0.0
 32
0.0
 14
1.000000000000000E+20
 24
1.000000000000000E+20
 34
1.000000000000000E+20
 15
-1.000000000000000E+20
 25
-1.000000000000000E+20
 35
-1.000000000000000E+20
146
0.0
 13
0.0
 23
0.0
 33
0.0
 16
1.0
 26
0.0
 36
0.0
 17
0.0
 27
1.0
 37
0.0
 76
     0
330
21C8
  0
MLINESTYLE
  5
21C5
102
{ACAD_REACTORS
330
21C4
102
}
330
21C4
100
AcDbMlineStyle
  2
STANDARD
 70
     0
  3

 62
   256
 51
90.0
 52
90.0
 71
     2
 49
0.5
 62
   256
  6
BYLAYER
 49
-0.5
 62
   256
  6
BYLAYER
  0
ACDBPLACEHOLDER
  5
21BD
102
{ACAD_REACTORS
330
21BC
102
}
330
21BC
  0
DICTIONARYVAR
  5
2239
102
{ACAD_REACTORS
330
2238
102
}
330
2238
100
DictionaryVariables
280
     0
  1
1
  0
ENDSEC
  0
EOF
