  0
SECTION
  2
HEADER
  9
$ACADVER
  1
AC1015
  9
$ACADMAINTVER
 70
    14
  9
$DWGCODEPAGE
  3
ANSI_932
  9
$INSBASE
 10
0.0
 20
0.0
 30
0.0
  9
$EXTMIN
 10
-0.0139543428456364
 20
219.2209032352016
 30
-0.0000000000112498
  9
$EXTMAX
 10
915.1681652596053
 20
1048.01599857916
 30
0.0000000000002956
  9
$LIMMIN
 10
0.0
 20
0.0
  9
$LIMMAX
 10
12.0
 20
9.0
  9
$ORTHOMODE
 70
     0
  9
$REGENMODE
 70
     1
  9
$FILLMODE
 70
     1
  9
$QTEXTMODE
 70
     0
  9
$MIRRTEXT
 70
     1
  9
$LTSCALE
 40
1.0
  9
$ATTMODE
 70
     1
  9
$TEXTSIZE
 40
0.2
  9
$TRACEWID
 40
0.05
  9
$TEXTSTYLE
  7
STANDARD
  9
$CLAYER
  8
0
  9
$CELTYPE
  6
CONTINUOUS
  9
$CECOLOR
 62
   256
  9
$CELTSCALE
 40
1.0
  9
$DISPSILH
 70
     0
  9
$DIMSCALE
 40
1.0
  9
$DIMASZ
 40
1.0
  9
$DIMEXO
 40
2.54
  9
$DIMDLI
 40
0.38
  9
$DIMRND
 40
0.0
  9
$DIMDLE
 40
0.0
  9
$DIMEXE
 40
2.54
  9
$DIMTP
 40
0.0
  9
$DIMTM
 40
0.0
  9
$DIMTXT
 40
3.2
  9
$DIMCEN
 40
0.09
  9
$DIMTSZ
 40
0.0
  9
$DIMTOL
 70
     0
  9
$DIMLIM
 70
     0
  9
$DIMTIH
 70
     0
  9
$DIMTOH
 70
     0
  9
$DIMSE1
 70
     0
  9
$DIMSE2
 70
     0
  9
$DIMTAD
 70
     1
  9
$DIMZIN
 70
     0
  9
$DIMBLK
  1

  9
$DIMASO
 70
     1
  9
$DIMSHO
 70
     0
  9
$DIMPOST
  1

  9
$DIMAPOST
  1

  9
$DIMALT
 70
     0
  9
$DIMALTD
 70
     2
  9
$DIMALTF
 40
25.4
  9
$DIMLFAC
 40
1.0
  9
$DIMTOFL
 70
     0
  9
$DIMTVP
 40
1.0
  9
$DIMTIX
 70
     0
  9
$DIMSOXD
 70
     0
  9
$DIMSAH
 70
     1
  9
$DIMBLK1
  1

  9
$DIMBLK2
  1

  9
$DIMSTYLE
  2
STANDARD
  9
$DIMCLRD
 70
     0
  9
$DIMCLRE
 70
     0
  9
$DIMCLRT
 70
     0
  9
$DIMTFAC
 40
1.0
  9
$DIMGAP
 40
1.6
  9
$DIMJUST
 70
     0
  9
$DIMSD1
 70
     0
  9
$DIMSD2
 70
     0
  9
$DIMTOLJ
 70
     1
  9
$DIMTZIN
 70
     0
  9
$DIMALTZ
 70
     0
  9
$DIMALTTZ
 70
     0
  9
$DIMUPT
 70
     0
  9
$DIMDEC
 70
     4
  9
$DIMTDEC
 70
     4
  9
$DIMALTU
 70
     2
  9
$DIMALTTD
 70
     2
  9
$DIMTXSTY
  7
STANDARD
  9
$DIMAUNIT
 70
     0
  9
$DIMADEC
 70
     0
  9
$DIMALTRND
 40
0.0
  9
$DIMAZIN
 70
     0
  9
$DIMDSEP
 70
    46
  9
$DIMATFIT
 70
     3
  9
$DIMFRAC
 70
     0
  9
$DIMLDRBLK
  1

  9
$DIMLUNIT
 70
     2
  9
$DIMLWD
 70
    -2
  9
$DIMLWE
 70
    -2
  9
$DIMTMOVE
 70
     0
  9
$LUNITS
 70
     2
  9
$LUPREC
 70
     4
  9
$SKETCHINC
 40
0.1
  9
$FILLETRAD
 40
0.0
  9
$AUNITS
 70
     0
  9
$AUPREC
 70
     0
  9
$MENU
  1
.
  9
$ELEVATION
 40
0.0
  9
$PELEVATION
 40
0.0
  9
$THICKNESS
 40
0.0
  9
$LIMCHECK
 70
     0
  9
$CHAMFERA
 40
0.0
  9
$CHAMFERB
 40
0.0
  9
$CHAMFERC
 40
0.0
  9
$CHAMFERD
 40
0.0
  9
$SKPOLY
 70
     0
  9
$TDCREATE
 40
2452488.423138738
  9
$TDUCREATE
 40
2452488.048138738
  9
$TDUPDATE
 40
2456899.676504537
  9
$TDUUPDATE
 40
2456899.301504537
  9
$TDINDWG
 40
0.2847092824
  9
$TDUSRTIMER
 40
0.2847090972
  9
$USRTIMER
 70
     1
  9
$ANGBASE
 50
0.0
  9
$ANGDIR
 70
     0
  9
$PDMODE
 70
     3
  9
$PDSIZE
 40
0.0
  9
$PLINEWID
 40
0.0
  9
$SPLFRAME
 70
     0
  9
$SPLINETYPE
 70
     6
  9
$SPLINESEGS
 70
     8
  9
$HANDSEED
  5
26F2
  9
$SURFTAB1
 70
     6
  9
$SURFTAB2
 70
     6
  9
$SURFTYPE
 70
     6
  9
$SURFU
 70
     6
  9
$SURFV
 70
     6
  9
$UCSBASE
  2

  9
$UCSNAME
  2

  9
$UCSORG
 10
0.0
 20
0.0
 30
0.0
  9
$UCSXDIR
 10
1.0
 20
0.0
 30
0.0
  9
$UCSYDIR
 10
0.0
 20
1.0
 30
0.0
  9
$UCSORTHOREF
  2

  9
$UCSORTHOVIEW
 70
     0
  9
$UCSORGTOP
 10
0.0
 20
0.0
 30
0.0
  9
$UCSORGBOTTOM
 10
0.0
 20
0.0
 30
0.0
  9
$UCSORGLEFT
 10
0.0
 20
0.0
 30
0.0
  9
$UCSORGRIGHT
 10
0.0
 20
0.0
 30
0.0
  9
$UCSORGFRONT
 10
0.0
 20
0.0
 30
0.0
  9
$UCSORGBACK
 10
0.0
 20
0.0
 30
0.0
  9
$PUCSBASE
  2

  9
$PUCSNAME
  2

  9
$PUCSORG
 10
0.0
 20
0.0
 30
0.0
  9
$PUCSXDIR
 10
1.0
 20
0.0
 30
0.0
  9
$PUCSYDIR
 10
0.0
 20
1.0
 30
0.0
  9
$PUCSORTHOREF
  2

  9
$PUCSORTHOVIEW
 70
     0
  9
$PUCSORGTOP
 10
0.0
 20
0.0
 30
0.0
  9
$PUCSORGBOTTOM
 10
0.0
 20
0.0
 30
0.0
  9
$PUCSORGLEFT
 10
0.0
 20
0.0
 30
0.0
  9
$PUCSORGRIGHT
 10
0.0
 20
0.0
 30
0.0
  9
$PUCSORGFRONT
 10
0.0
 20
0.0
 30
0.0
  9
$PUCSORGBACK
 10
0.0
 20
0.0
 30
0.0
  9
$USERI1
 70
     0
  9
$USERI2
 70
     0
  9
$USERI3
 70
     0
  9
$USERI4
 70
     0
  9
$USERI5
 70
     0
  9
$USERR1
 40
0.0
  9
$USERR2
 40
0.0
  9
$USERR3
 40
0.0
  9
$USERR4
 40
0.0
  9
$USERR5
 40
0.0
  9
$WORLDVIEW
 70
     1
  9
$SHADEDGE
 70
     3
  9
$SHADEDIF
 70
    70
  9
$TILEMODE
 70
     1
  9
$MAXACTVP
 70
    48
  9
$PINSBASE
 10
0.0
 20
0.0
 30
0.0
  9
$PLIMCHECK
 70
     0
  9
$PEXTMIN
 10
1.000000000000000E+20
 20
1.000000000000000E+20
 30
1.000000000000000E+20
  9
$PEXTMAX
 10
-1.000000000000000E+20
 20
-1.000000000000000E+20
 30
-1.000000000000000E+20
  9
$PLIMMIN
 10
0.0
 20
0.0
  9
$PLIMMAX
 10
12.0
 20
9.0
  9
$UNITMODE
 70
     0
  9
$VISRETAIN
 70
     1
  9
$PLINEGEN
 70
     0
  9
$PSLTSCALE
 70
     1
  9
$TREEDEPTH
 70
  3020
  9
$CMLSTYLE
  2
Standard
  9
$CMLJUST
 70
     0
  9
$CMLSCALE
 40
1.0
  9
$PROXYGRAPHICS
 70
     1
  9
$MEASUREMENT
 70
     0
  9
$CELWEIGHT
370
    -1
  9
$ENDCAPS
280
     0
  9
$JOINSTYLE
280
     0
  9
$LWDISPLAY
290
     0
  9
$INSUNITS
 70
     0
  9
$HYPERLINKBASE
  1

  9
$STYLESHEET
  1

  9
$XEDIT
290
     1
  9
$CEPSNTYPE
380
     0
  9
$PSTYLEMODE
290
     1
  9
$FINGERPRINTGUID
  2
{FFE95C04-33D2-4560-80D0-1E2918E4EC86}
  9
$VERSIONGUID
  2
{935C19B3-390F-406F-B564-7F9C79CC4B45}
  9
$EXTNAMES
290
     1
  9
$PSVPSCALE
 40
0.0
  9
$OLESTARTUP
290
     0
  0
ENDSEC
  0
SECTION
  2
CLASSES
  0
CLASS
  1
ACDBDICTIONARYWDFLT
  2
AcDbDictionaryWithDefault
  3
AutoCAD 2000
 90
        0
280
     0
281
     0
  0
CLASS
  1
ACDBPLACEHOLDER
  2
AcDbPlaceHolder
  3
AutoCAD 2000
 90
        0
280
     0
281
     0
  0
CLASS
  1
LAYOUT
  2
AcDbLayout
  3
AutoCAD 2000
 90
        0
280
     0
281
     0
  0
CLASS
  1
DICTIONARYVAR
  2
AcDbDictionaryVar
  3
AutoCAD 2000
 90
        0
280
     0
281
     0
  0
CLASS
  1
LONG_TRANSACTION
  2
AcDbLongTransaction
  3
AutoCAD 2000
 90
    32768
280
     0
281
     0
  0
CLASS
  1
LWPOLYLINE
  2
AcDbPolyline
  3
AutoCAD 2000
 90
    32768
280
     0
281
     1
  0
CLASS
  1
HATCH
  2
AcDbHatch
  3
AutoCAD 2000
 90
    32768
280
     0
281
     1
  0
CLASS
  1
XRECORD
  2
AcDbXrecord
  3
AutoCAD 2000
 90
    32768
280
     0
281
     0
  0
CLASS
  1
LONG_TRANSACTION
  2
AcDbLongTransaction
  3
AutoCAD 2000
 90
    32768
280
     0
281
     0
  0
CLASS
  1
LWPOLYLINE
  2
AcDbPolyline
  3
AutoCAD 2000
 90
    32768
280
     0
281
     1
  0
CLASS
  1
HATCH
  2
AcDbHatch
  3
AutoCAD 2000
 90
    32768
280
     0
281
     1
  0
CLASS
  1
XRECORD
  2
AcDbXrecord
  3
AutoCAD 2000
 90
    32768
280
     0
281
     0
  0
CLASS
  1
LONG_TRANSACTION
  2
AcDbLongTransaction
  3
AutoCAD 2000
 90
    32768
280
     0
281
     0
  0
CLASS
  1
LWPOLYLINE
  2
AcDbPolyline
  3
AutoCAD 2000
 90
    32768
280
     0
281
     1
  0
CLASS
  1
HATCH
  2
AcDbHatch
  3
AutoCAD 2000
 90
    32768
280
     0
281
     1
  0
CLASS
  1
XRECORD
  2
AcDbXrecord
  3
AutoCAD 2000
 90
    32768
280
     0
281
     0
  0
CLASS
  1
LONG_TRANSACTION
  2
AcDbLongTransaction
  3
AutoCAD 2000
 90
    32768
280
     0
281
     0
  0
CLASS
  1
LWPOLYLINE
  2
AcDbPolyline
  3
AutoCAD 2000
 90
    32768
280
     0
281
     1
  0
CLASS
  1
HATCH
  2
AcDbHatch
  3
AutoCAD 2000
 90
    32768
280
     0
281
     1
  0
CLASS
  1
XRECORD
  2
AcDbXrecord
  3
AutoCAD 2000
 90
    32768
280
     0
281
     0
  0
CLASS
  1
LONG_TRANSACTION
  2
AcDbLongTransaction
  3
AutoCAD 2000
 90
    32768
280
     0
281
     0
  0
CLASS
  1
LWPOLYLINE
  2
AcDbPolyline
  3
AutoCAD 2000
 90
    32768
280
     0
281
     1
  0
CLASS
  1
HATCH
  2
AcDbHatch
  3
AutoCAD 2000
 90
    32768
280
     0
281
     1
  0
CLASS
  1
XRECORD
  2
AcDbXrecord
  3
AutoCAD 2000
 90
    32768
280
     0
281
     0
  0
CLASS
  1
LONG_TRANSACTION
  2
AcDbLongTransaction
  3
AutoCAD 2000
 90
    32768
280
     0
281
     0
  0
CLASS
  1
LWPOLYLINE
  2
AcDbPolyline
  3
AutoCAD 2000
 90
    32768
280
     0
281
     1
  0
CLASS
  1
HATCH
  2
AcDbHatch
  3
AutoCAD 2000
 90
    32768
280
     0
281
     1
  0
CLASS
  1
XRECORD
  2
AcDbXrecord
  3
AutoCAD 2000
 90
    32768
280
     0
281
     0
  0
CLASS
  1
LONG_TRANSACTION
  2
AcDbLongTransaction
  3
AutoCAD 2000
 90
    32768
280
     0
281
     0
  0
CLASS
  1
LWPOLYLINE
  2
AcDbPolyline
  3
AutoCAD 2000
 90
    32768
280
     0
281
     1
  0
CLASS
  1
HATCH
  2
AcDbHatch
  3
AutoCAD 2000
 90
    32768
280
     0
281
     1
  0
CLASS
  1
XRECORD
  2
AcDbXrecord
  3
AutoCAD 2000
 90
    32768
280
     0
281
     0
  0
CLASS
  1
LONG_TRANSACTION
  2
AcDbLongTransaction
  3
AutoCAD 2000
 90
    32768
280
     0
281
     0
  0
CLASS
  1
LWPOLYLINE
  2
AcDbPolyline
  3
AutoCAD 2000
 90
    32768
280
     0
281
     1
  0
CLASS
  1
HATCH
  2
AcDbHatch
  3
AutoCAD 2000
 90
    32768
280
     0
281
     1
  0
CLASS
  1
XRECORD
  2
AcDbXrecord
  3
AutoCAD 2000
 90
    32768
280
     0
281
     0
  0
ENDSEC
  0
SECTION
  2
TABLES
  0
TABLE
  2
VPORT
  5
21B6
330
0
100
AcDbSymbolTable
 70
     2
  0
VPORT
  5
26F1
330
21B6
100
AcDbSymbolTableRecord
100
AcDbViewportTableRecord
  2
*Active
 70
     0
 10
0.0
 20
0.0
 11
1.0
 21
1.0
 12
457.5771054583798
 22
633.6184509071811
 13
0.0
 23
0.0
 14
1.0
 24
1.0
 15
0.0
 25
0.0
 16
0.0
 26
0.0
 36
1.0
 17
0.0
 27
0.0
 37
0.0
 40
834.0572864255078
 41
1.592161016949152
 42
50.0
 43
0.0
 44
0.0
 50
0.0
 51
0.0
 71
     0
 72
   100
 73
     1
 74
     3
 75
     0
 76
     0
 77
     0
 78
     0
281
     0
 65
     1
110
0.0
120
0.0
130
0.0
111
1.0
121
0.0
131
0.0
112
0.0
122
1.0
132
0.0
 79
     0
146
0.0
  0
ENDTAB
  0
TABLE
  2
LTYPE
  5
21B3
330
0
100
AcDbSymbolTable
 70
     2
  0
LTYPE
  5
21C1
330
21B3
100
AcDbSymbolTableRecord
100
AcDbLinetypeTableRecord
  2
ByBlock
 70
     0
  3

 72
    65
 73
     0
 40
0.0
  0
LTYPE
  5
21C2
330
21B3
100
AcDbSymbolTableRecord
100
AcDbLinetypeTableRecord
  2
ByLayer
 70
     0
  3

 72
    65
 73
     0
 40
0.0
  0
LTYPE
  5
21C3
330
21B3
100
AcDbSymbolTableRecord
100
AcDbLinetypeTableRecord
  2
CONTINUOUS
 70
     0
  3
Solid line
 72
    65
 73
     0
 40
0.0
  0
LTYPE
  5
26D6
330
21B3
100
AcDbSymbolTableRecord
100
AcDbLinetypeTableRecord
  2
CENTER
 70
     0
  3
__ . __
 72
    65
 73
     4
 40
7.0
 49
4.0
 74
     0
 49
-1.0
 74
     0
 49
1.0
 74
     0
 49
-1.0
 74
     0
  0
ENDTAB
  0
TABLE
  2
LAYER
  5
21B0
102
{ACAD_XDICTIONARY
360
26D7
102
}
330
0
100
AcDbSymbolTable
 70
     1
  0
LAYER
  5
21BE
330
21B0
100
AcDbSymbolTableRecord
100
AcDbLayerTableRecord
  2
0
 70
     0
 62
     7
  6
CONTINUOUS
370
    -3
390
21BD
  0
ENDTAB
  0
TABLE
  2
STYLE
  5
21B1
330
0
100
AcDbSymbolTable
 70
     1
  0
STYLE
  5
21BF
330
21B1
100
AcDbSymbolTableRecord
100
AcDbTextStyleTableRecord
  2
STANDARD
 70
     0
 40
0.0
 41
1.0
 50
0.0
 71
     0
 42
0.2
  3
txt
  4
BIGFONT
  0
ENDTAB
  0
TABLE
  2
VIEW
  5
21B4
330
0
100
AcDbSymbolTable
 70
     1
  0
VIEW
  5
21DE
330
21B4
100
AcDbSymbolTableRecord
100
AcDbViewTableRecord
  2
OLE1
 70
     0
 40
3692.141019219747
 10
1914.591370701856
 20
1272.206200738182
 41
4595.022665841169
 11
0.0
 21
0.0
 31
1.0
 12
0.0
 22
0.0
 32
0.0
 42
50.0
 43
0.0
 44
0.0
 50
0.0
 71
     0
281
     0
 72
     1
110
0.0
120
0.0
130
0.0
111
1.0
121
0.0
131
0.0
112
0.0
122
1.0
132
0.0
 79
     0
146
0.0
  0
ENDTAB
  0
TABLE
  2
UCS
  5
21B5
330
0
100
AcDbSymbolTable
 70
     0
  0
ENDTAB
  0
TABLE
  2
APPID
  5
21B7
330
0
100
AcDbSymbolTable
 70
     5
  0
APPID
  5
21C0
330
21B7
100
AcDbSymbolTableRecord
100
AcDbRegAppTableRecord
  2
ACAD
 70
     0
  0
APPID
  5
21DF
330
21B7
100
AcDbSymbolTableRecord
100
AcDbRegAppTableRecord
  2
MCAD_NO_VIS
 70
     0
  0
APPID
  5
21E0
330
21B7
100
AcDbSymbolTableRecord
100
AcDbRegAppTableRecord
  2
ACAD_TEMP_GRAPHIC
 70
     0
  0
APPID
  5
21E1
330
21B7
100
AcDbSymbolTableRecord
100
AcDbRegAppTableRecord
  2
ACATTRIBSERVICES
 70
     0
  0
APPID
  5
21E2
330
21B7
100
AcDbSymbolTableRecord
100
AcDbRegAppTableRecord
  2
CONTENTBLOCKICON
 70
     0
  0
ENDTAB
  0
TABLE
  2
DIMSTYLE
  5
21B8
330
0
100
AcDbSymbolTable
 70
     1
100
AcDbDimStyleTable
 71
     0
  0
DIMSTYLE
105
21E3
330
21B8
100
AcDbSymbolTableRecord
100
AcDbDimStyleTableRecord
  2
STANDARD
 70
     0
279
     2
340
21BF
  0
ENDTAB
  0
TABLE
  2
BLOCK_RECORD
  5
21AF
330
0
100
AcDbSymbolTable
 70
     0
  0
BLOCK_RECORD
  5
21CC
102
{ACAD_XDICTIONARY
360
21F8
102
}
330
21AF
100
AcDbSymbolTableRecord
100
AcDbBlockTableRecord
  2
*Model_Space
340
21CF
  0
BLOCK_RECORD
  5
21C8
102
{ACAD_XDICTIONARY
360
21FA
102
}
330
21AF
100
AcDbSymbolTableRecord
100
AcDbBlockTableRecord
  2
*Paper_Space
340
21CB
  0
ENDTAB
  0
ENDSEC
  0
SECTION
  2
BLOCKS
  0
BLOCK
  5
21CD
330
21CC
100
AcDbEntity
  8
0
100
AcDbBlockBegin
  2
*Model_Space
 70
     0
 10
0.0
 20
0.0
 30
0.0
  3
*Model_Space
  1

  0
ENDBLK
  5
21CE
330
21CC
100
AcDbEntity
  8
0
100
AcDbBlockEnd
  0
BLOCK
  5
21C9
330
21C8
100
AcDbEntity
 67
     1
  8
0
100
AcDbBlockBegin
  2
*Paper_Space
 70
     0
 10
0.0
 20
0.0
 30
0.0
  3
*Paper_Space
  1

  0
ENDBLK
  5
21CA
330
21C8
100
AcDbEntity
 67
     1
  8
0
100
AcDbBlockEnd
  0
ENDSEC
  0
SECTION
  2
ENTITIES
  0
TEXT
  5
F6E
330
21CC
100
AcDbEntity
  8
0
  6
Continuous
100
AcDbText
 10
0.0
 20
1000.0
 30
0.0
 40
48.000002
  1
GUC2A08MA_00 15A
 41
1.32095
100
AcDbText
  0
CIRCLE
  5
23C4
330
21CC
100
AcDbEntity
  8
0
100
AcDbCircle
 10
500.0000015000004
 20
836.1727746854485
 30
0.0
 40
54.0
  0
LINE
  5
2421
330
21CC
100
AcDbEntity
  8
0
100
AcDbLine
 10
538.0
 20
286.0506660216524
 30
0.0
 11
538.0
 21
271.5506660216524
 31
0.0
  0
LINE
  5
2422
330
21CC
100
AcDbEntity
  8
0
  6
Continuous
 62
     7
100
AcDbLine
 10
580.0
 20
242.6006660216521
 30
0.0
 11
580.0
 21
276.6006660216521
 31
0.0
  0
LINE
  5
2423
330
21CC
100
AcDbEntity
  8
0
  6
Continuous
 62
     7
100
AcDbLine
 10
577.1500005999996
 20
276.6006660216521
 30
0.0
 11
574.9115836999999
 21
270.450666021652
 31
0.0
  0
LINE
  5
2424
330
21CC
100
AcDbEntity
  8
0
100
AcDbLine
 10
462.0
 20
286.0506660216524
 30
0.0
 11
462.0
 21
271.5506660216524
 31
0.0
  0
LINE
  5
2425
330
21CC
100
AcDbEntity
  8
0
100
AcDbLine
 10
538.0
 20
271.5506660216524
 30
0.0
 11
462.0
 21
271.5506660216524
 31
0.0
  0
LINE
  5
2426
330
21CC
100
AcDbEntity
  8
0
100
AcDbLine
 10
538.0
 20
233.1506660216518
 30
0.0
 11
462.0
 21
233.1506660216518
 31
0.0
  0
LINE
  5
2427
330
21CC
100
AcDbEntity
  8
0
100
AcDbLine
 10
538.0
 20
247.6506660216518
 30
0.0
 11
462.0
 21
247.6506660216518
 31
0.0
  0
LINE
  5
2428
330
21CC
100
AcDbEntity
  8
0
100
AcDbLine
 10
462.0
 20
233.1506660216518
 30
0.0
 11
462.0
 21
247.6506660216518
 31
0.0
  0
LINE
  5
2429
330
21CC
100
AcDbEntity
  8
0
  6
Continuous
 62
     7
100
AcDbLine
 10
574.9115838999996
 20
270.450666021652
 30
0.0
 11
527.0
 21
270.450666021652
 31
0.0
  0
LINE
  5
242A
330
21CC
100
AcDbEntity
  8
0
  6
Continuous
 62
     7
100
AcDbLine
 10
574.9115838999996
 20
248.7506660216518
 30
0.0
 11
527.0
 21
248.7506660216518
 31
0.0
  0
LINE
  5
242B
330
21CC
100
AcDbEntity
  8
0
100
AcDbLine
 10
527.0
 20
271.5506660216524
 30
0.0
 11
527.0
 21
247.6506660216518
 31
0.0
  0
LINE
  5
2430
330
21CC
100
AcDbEntity
  8
0
100
AcDbLine
 10
473.0
 20
271.5506660216524
 30
0.0
 11
473.0
 21
247.6506660216518
 31
0.0
  0
LINE
  5
2431
330
21CC
100
AcDbEntity
  8
0
100
AcDbLine
 10
538.0
 20
233.1506660216518
 30
0.0
 11
538.0
 21
247.6506660216518
 31
0.0
  0
LINE
  5
2432
330
21CC
100
AcDbEntity
  8
0
  6
Continuous
 62
     7
100
AcDbLine
 10
580.0
 20
242.6006660216521
 30
0.0
 11
577.1500005999996
 21
242.6006660216521
 31
0.0
  0
LINE
  5
2433
330
21CC
100
AcDbEntity
  8
0
  6
Continuous
 62
     7
100
AcDbLine
 10
577.1500005999996
 20
242.6006660216521
 30
0.0
 11
574.9115836999999
 21
248.7506660216518
 31
0.0
  0
LINE
  5
2434
330
21CC
100
AcDbEntity
  8
0
  6
Continuous
 62
     7
100
AcDbLine
 10
574.9115838999996
 20
270.450666021652
 30
0.0
 11
574.9115838999996
 21
248.7506660216518
 31
0.0
  0
LINE
  5
2435
330
21CC
100
AcDbEntity
  8
0
  6
Continuous
 62
     7
100
AcDbLine
 10
425.0884161000003
 20
308.8506660216521
 30
0.0
 11
473.0
 21
308.8506660216521
 31
0.0
  0
LINE
  5
2436
330
21CC
100
AcDbEntity
  8
0
  6
Continuous
 62
     7
100
AcDbLine
 10
425.0884161000003
 20
287.1506660216518
 30
0.0
 11
473.0
 21
287.1506660216518
 31
0.0
  0
LINE
  5
2437
330
21CC
100
AcDbEntity
  8
0
100
AcDbLine
 10
538.0
 20
286.0506660216524
 30
0.0
 11
462.0
 21
286.0506660216524
 31
0.0
  0
LINE
  5
2438
330
21CC
100
AcDbEntity
  8
0
100
AcDbLine
 10
538.0
 20
309.9506660216529
 30
0.0
 11
462.0
 21
309.9506660216529
 31
0.0
  0
LINE
  5
2439
330
21CC
100
AcDbEntity
  8
0
100
AcDbLine
 10
538.0
 20
324.4506660216529
 30
0.0
 11
462.0
 21
324.4506660216529
 31
0.0
  0
LINE
  5
243A
330
21CC
100
AcDbEntity
  8
0
100
AcDbLine
 10
455.4499999999999
 20
388.800657021653
 30
0.0
 11
544.55
 21
388.800657021653
 31
0.0
  0
LINE
  5
243B
330
21CC
100
AcDbEntity
  8
0
100
AcDbLine
 10
538.0
 20
364.950666021653
 30
0.0
 11
462.0
 21
364.950666021653
 31
0.0
  0
LINE
  5
243C
330
21CC
100
AcDbEntity
  8
0
100
AcDbLine
 10
538.0
 20
379.450666021653
 30
0.0
 11
462.0
 21
379.450666021653
 31
0.0
  0
LINE
  5
243D
330
21CC
100
AcDbEntity
  8
0
  6
Continuous
 62
     7
100
AcDbLine
 10
422.8499994000003
 20
315.0006660216522
 30
0.0
 11
425.0884163
 21
308.8506660216521
 31
0.0
  0
LINE
  5
243E
330
21CC
100
AcDbEntity
  8
0
  6
Continuous
 62
     7
100
AcDbLine
 10
420.0
 20
315.0006660216522
 30
0.0
 11
422.8499994000003
 21
315.0006660216522
 31
0.0
  0
LINE
  5
243F
330
21CC
100
AcDbEntity
  8
0
  6
Continuous
 62
     7
100
AcDbLine
 10
420.0
 20
281.0006660216522
 30
0.0
 11
420.0
 21
315.0006660216522
 31
0.0
  0
LINE
  5
2440
330
21CC
100
AcDbEntity
  8
0
  6
Continuous
 62
     7
100
AcDbLine
 10
420.0
 20
281.0006660216522
 30
0.0
 11
422.8499994000003
 21
281.0006660216522
 31
0.0
  0
LINE
  5
2441
330
21CC
100
AcDbEntity
  8
0
  6
Continuous
 62
     7
100
AcDbLine
 10
422.8499994000003
 20
281.0006660216522
 30
0.0
 11
425.0884163
 21
287.1506660216518
 31
0.0
  0
LINE
  5
2442
330
21CC
100
AcDbEntity
  8
0
  6
Continuous
 62
     7
100
AcDbLine
 10
425.0884161000003
 20
308.8506660216521
 30
0.0
 11
425.0884161000003
 21
287.1506660216518
 31
0.0
  0
LINE
  5
2443
330
21CC
100
AcDbEntity
  8
0
100
AcDbLine
 10
462.0
 20
324.4506660216529
 30
0.0
 11
462.0
 21
309.9506660216529
 31
0.0
  0
LINE
  5
2444
330
21CC
100
AcDbEntity
  8
0
100
AcDbLine
 10
462.0
 20
364.950666021653
 30
0.0
 11
462.0
 21
379.450666021653
 31
0.0
  0
LINE
  5
2445
330
21CC
100
AcDbEntity
  8
0
100
AcDbLine
 10
527.0
 20
364.950666021653
 30
0.0
 11
527.0
 21
324.4506660216529
 31
0.0
  0
LINE
  5
2446
330
21CC
100
AcDbEntity
  8
0
100
AcDbLine
 10
473.0
 20
364.950666021653
 30
0.0
 11
473.0
 21
324.4506660216529
 31
0.0
  0
LINE
  5
2447
330
21CC
100
AcDbEntity
  8
0
100
AcDbLine
 10
527.0
 20
309.9506660216529
 30
0.0
 11
527.0
 21
286.0506660216524
 31
0.0
  0
LINE
  5
2448
330
21CC
100
AcDbEntity
  8
0
100
AcDbLine
 10
473.0
 20
309.9506660216529
 30
0.0
 11
473.0
 21
286.0506660216524
 31
0.0
  0
LINE
  5
244C
330
21CC
100
AcDbEntity
  8
0
100
AcDbLine
 10
538.0
 20
324.4506660216529
 30
0.0
 11
538.0
 21
309.9506660216529
 31
0.0
  0
LINE
  5
244D
330
21CC
100
AcDbEntity
  8
0
  6
Continuous
 62
     7
100
AcDbLine
 10
580.0
 20
276.6006660216521
 30
0.0
 11
577.1500005999996
 21
276.6006660216521
 31
0.0
  0
LINE
  5
244E
330
21CC
100
AcDbEntity
  8
0
100
AcDbLine
 10
527.0
 20
388.800657021653
 30
0.0
 11
527.0
 21
379.520932721653
 31
0.0
  0
LINE
  5
244F
330
21CC
100
AcDbEntity
  8
0
100
AcDbLine
 10
473.0
 20
388.800657021653
 30
0.0
 11
473.0
 21
379.520932721653
 31
0.0
  0
LINE
  5
2456
330
21CC
100
AcDbEntity
  8
0
100
AcDbLine
 10
538.0
 20
364.950666021653
 30
0.0
 11
538.0
 21
379.450666021653
 31
0.0
  0
LINE
  5
2457
330
21CC
100
AcDbEntity
  8
0
100
AcDbLine
 10
490.0000010000003
 20
607.3006660216533
 30
0.0
 11
490.0000010000003
 21
630.3006860216533
 31
0.0
  0
LINE
  5
2458
330
21CC
100
AcDbEntity
  8
0
100
AcDbLine
 10
510.0000020000006
 20
607.3006660216533
 30
0.0
 11
510.0000020000006
 21
630.3006860216533
 31
0.0
  0
LINE
  5
2459
330
21CC
100
AcDbEntity
  8
0
100
AcDbLine
 10
486.5
 20
601.0097460216534
 30
0.0
 11
450.5848860000005
 21
597.8675760216533
 31
0.0
  0
LINE
  5
245A
330
21CC
100
AcDbEntity
  8
0
100
AcDbLine
 10
544.55
 20
479.3006660216533
 30
0.0
 11
455.4499999999999
 21
479.3006660216533
 31
0.0
  0
LINE
  5
245B
330
21CC
100
AcDbEntity
  8
0
100
AcDbLine
 10
536.0
 20
479.3006560216531
 30
0.0
 11
464.0
 21
479.3006560216531
 31
0.0
  0
LINE
  5
245C
330
21CC
100
AcDbEntity
  8
0
100
AcDbLine
 10
450.5848850000002
 20
597.8675860216535
 30
0.0
 11
446.0
 21
532.3006670216532
 31
0.0
  0
LINE
  5
245D
330
21CC
100
AcDbEntity
  8
0
100
AcDbLine
 10
446.0
 20
532.3006660216533
 30
0.0
 11
446.0
 21
499.2192660216533
 31
0.0
  0
LINE
  5
245E
330
21CC
100
AcDbEntity
  8
0
100
AcDbLine
 10
445.9999989999996
 20
499.2192670216532
 30
0.0
 11
457.5000060000002
 21
479.3006694042169
 31
0.0
  0
LINE
  5
245F
330
21CC
100
AcDbEntity
  8
0
100
AcDbLine
 10
549.4151149999997
 20
597.8675860216535
 30
0.0
 11
554.0
 21
532.3006670216532
 31
0.0
  0
LINE
  5
2464
330
21CC
100
AcDbEntity
  8
0
100
AcDbLine
 10
554.0
 20
532.3006660216533
 30
0.0
 11
554.0
 21
499.2192660216533
 31
0.0
  0
LINE
  5
2465
330
21CC
100
AcDbEntity
  8
0
100
AcDbLine
 10
554.0000010000003
 20
499.2192670216532
 30
0.0
 11
542.4999950000001
 21
479.3006710560294
 31
0.0
  0
LINE
  5
2466
330
21CC
100
AcDbEntity
  8
0
100
AcDbLine
 10
513.4999999999999
 20
601.0097460216534
 30
0.0
 11
549.4151139999994
 21
597.8675760216533
 31
0.0
  0
LINE
  5
2467
330
21CC
100
AcDbEntity
  8
0
100
AcDbLine
 10
513.4999999999999
 20
607.3006660216533
 30
0.0
 11
486.5
 21
607.3006660216533
 31
0.0
  0
LINE
  5
2468
330
21CC
100
AcDbEntity
  8
0
100
AcDbLine
 10
513.4999999999999
 20
601.0097460216534
 30
0.0
 11
486.5
 21
601.0097460216534
 31
0.0
  0
LINE
  5
2469
330
21CC
100
AcDbEntity
  8
0
100
AcDbLine
 10
486.5
 20
606.3006560216531
 30
0.0
 11
486.5
 21
605.4382760216535
 31
0.0
  0
LINE
  5
246A
330
21CC
100
AcDbEntity
  8
0
100
AcDbLine
 10
486.5
 20
607.3006660216533
 30
0.0
 11
486.5
 21
601.0097460216534
 31
0.0
  0
LINE
  5
246C
330
21CC
100
AcDbEntity
  8
0
100
AcDbLine
 10
513.4999999999999
 20
606.3006660216533
 30
0.0
 11
513.4999999999999
 21
605.4382860216533
 31
0.0
  0
LINE
  5
246D
330
21CC
100
AcDbEntity
  8
0
100
AcDbLine
 10
513.4999999999999
 20
607.3006660216533
 30
0.0
 11
513.4999999999999
 21
601.0097460216534
 31
0.0
  0
LINE
  5
246E
330
21CC
100
AcDbEntity
  8
0
100
AcDbLine
 10
510.0000020000006
 20
630.3006860216533
 30
0.0
 11
490.0000010000003
 21
630.3006860216533
 31
0.0
  0
LINE
  5
2484
330
21CC
100
AcDbEntity
  8
0
  6
Continuous
 62
     7
100
AcDbLine
 10
422.8500009000008
 20
853.1727746854485
 30
0.0
 11
425.0884178000005
 21
847.0227746854485
 31
0.0
  0
LINE
  5
2485
330
21CC
100
AcDbEntity
  8
0
  6
Continuous
 62
     7
100
AcDbLine
 10
420.0000015000004
 20
853.1727746854485
 30
0.0
 11
422.8500009000008
 21
853.1727746854485
 31
0.0
  0
LINE
  5
2486
330
21CC
100
AcDbEntity
  8
0
  6
Continuous
 62
     7
100
AcDbLine
 10
420.0000015000004
 20
819.1727746854486
 30
0.0
 11
420.0000015000004
 21
853.1727746854485
 31
0.0
  0
LINE
  5
2487
330
21CC
100
AcDbEntity
  8
0
  6
Continuous
 62
     7
100
AcDbLine
 10
420.0000015000004
 20
819.1727746854486
 30
0.0
 11
422.8500009000008
 21
819.1727746854486
 31
0.0
  0
LINE
  5
2488
330
21CC
100
AcDbEntity
  8
0
  6
Continuous
 62
     7
100
AcDbLine
 10
422.8500009000008
 20
819.1727746854486
 30
0.0
 11
425.0884178000005
 21
825.3227746854481
 31
0.0
  0
LINE
  5
2489
330
21CC
100
AcDbEntity
  8
0
  6
Continuous
 62
     7
100
AcDbLine
 10
425.0884176000008
 20
847.0227746854485
 30
0.0
 11
425.0884176000008
 21
825.3227746854481
 31
0.0
  0
LINE
  5
248A
330
21CC
100
AcDbEntity
  8
0
  6
Continuous
 62
     7
100
AcDbLine
 10
425.0884176000008
 20
825.3227746854481
 30
0.0
 11
447.101253877774
 21
825.3227746854481
 31
0.0
  0
LINE
  5
248B
330
21CC
100
AcDbEntity
  8
0
  6
Continuous
 62
     7
100
AcDbLine
 10
425.0884176000008
 20
847.0227746854485
 30
0.0
 11
447.101253877774
 21
847.0227746854485
 31
0.0
  0
CIRCLE
  5
248C
330
21CC
100
AcDbEntity
  8
0
100
AcDbCircle
 10
500.0000015000004
 20
836.1727746854485
 30
0.0
 40
13.5
  0
CIRCLE
  5
248D
330
21CC
100
AcDbEntity
  8
0
100
AcDbCircle
 10
500.0000015000004
 20
836.1727746854485
 30
0.0
 40
9.999999
  0
LINE
  5
2490
330
21CC
100
AcDbEntity
  8
0
  6
Continuous
 62
     7
100
AcDbLine
 10
577.1500021000001
 20
819.1727746854489
 30
0.0
 11
574.9115852000004
 21
825.322774685449
 31
0.0
  0
LINE
  5
2491
330
21CC
100
AcDbEntity
  8
0
  6
Continuous
 62
     7
100
AcDbLine
 10
580.0000015000005
 20
819.1727746854489
 30
0.0
 11
577.1500021000001
 21
819.1727746854489
 31
0.0
  0
LINE
  5
2492
330
21CC
100
AcDbEntity
  8
0
  6
Continuous
 62
     7
100
AcDbLine
 10
580.0000015000005
 20
853.1727746854489
 30
0.0
 11
580.0000015000005
 21
819.1727746854489
 31
0.0
  0
LINE
  5
2493
330
21CC
100
AcDbEntity
  8
0
  6
Continuous
 62
     7
100
AcDbLine
 10
580.0000015000005
 20
853.1727746854489
 30
0.0
 11
577.1500021000001
 21
853.1727746854489
 31
0.0
  0
LINE
  5
2494
330
21CC
100
AcDbEntity
  8
0
  6
Continuous
 62
     7
100
AcDbLine
 10
577.1500021000001
 20
853.1727746854489
 30
0.0
 11
574.9115852000004
 21
847.0227746854494
 31
0.0
  0
LINE
  5
2495
330
21CC
100
AcDbEntity
  8
0
  6
Continuous
 62
     7
100
AcDbLine
 10
574.9115854000002
 20
825.322774685449
 30
0.0
 11
574.9115854000002
 21
847.0227746854494
 31
0.0
  0
LINE
  5
2496
330
21CC
100
AcDbEntity
  8
0
  6
Continuous
 62
     7
100
AcDbLine
 10
574.9115854000002
 20
847.0227746854494
 30
0.0
 11
552.8987491222269
 21
847.0227746854494
 31
0.0
  0
LINE
  5
2497
330
21CC
100
AcDbEntity
  8
0
  6
Continuous
 62
     7
100
AcDbLine
 10
574.9115854000002
 20
825.322774685449
 30
0.0
 11
552.8987491222269
 21
825.322774685449
 31
0.0
  0
LINE
  5
2628
330
21CC
100
AcDbEntity
  8
0
  6
Continuous
100
AcDbLine
 10
455.4499999999999
 20
388.800657021653
 30
0.0
 11
455.4499999999999
 21
479.3006660216533
 31
0.0
  0
LINE
  5
2629
330
21CC
100
AcDbEntity
  8
0
  6
Continuous
100
AcDbLine
 10
544.55
 20
388.800657021653
 30
0.0
 11
544.55
 21
479.3006660216533
 31
0.0
  0
LINE
  5
26E2
330
21CC
100
AcDbEntity
  8
0
  6
CENTER
100
AcDbLine
 10
499.9999999999999
 20
219.2690389510087
 30
0.0
 11
500.0
 21
654.462124205293
 31
0.0
  0
LINE
  5
26E3
330
21CC
100
AcDbEntity
  8
0
  6
CENTER
100
AcDbLine
 10
461.694900526013
 20
259.6006660216521
 30
0.0
 11
598.5054147853563
 21
259.6006660216521
 31
0.0
  0
LINE
  5
26E4
330
21CC
100
AcDbEntity
  8
0
  6
CENTER
100
AcDbLine
 10
401.4945852146435
 20
298.0006660216522
 30
0.0
 11
538.3793878626529
 21
298.0006660216522
 31
0.0
  0
LINE
  5
26E5
330
21CC
100
AcDbEntity
  8
0
  6
CENTER
100
AcDbLine
 10
401.4945867146439
 20
836.1727746854485
 30
0.0
 11
598.5054162853568
 21
836.1727746854485
 31
0.0
  0
LINE
  5
26E6
330
21CC
100
AcDbEntity
  8
0
  6
CENTER
100
AcDbLine
 10
500.0000015000004
 20
774.3201566677615
 30
0.0
 11
500.0000015000004
 21
898.0253927031355
 31
0.0
  0
ENDSEC
  0
SECTION
  2
OBJECTS
  0
DICTIONARY
  5
21BA
330
0
100
AcDbDictionary
281
     1
  3
ACAD_GROUP
350
21BB
  3
ACAD_LAYOUT
350
21C7
  3
ACAD_MLINESTYLE
350
21C4
  3
ACAD_PLOTSETTINGS
350
21C6
  3
ACAD_PLOTSTYLENAME
350
21BC
  3
AcDbVariableDictionary
350
2238
  3
DWGPROPS
350
262A
  0
DICTIONARY
  5
26D7
330
21B0
100
AcDbDictionary
280
     1
281
     1
  3
ACAD_LAYERSTATES
360
26D8
  0
DICTIONARY
  5
21F8
330
21CC
100
AcDbDictionary
280
     1
281
     1
  3
ACAD_LAYOUTSELFREF
360
26CD
  0
DICTIONARY
  5
21FA
330
21C8
100
AcDbDictionary
280
     1
281
     1
  3
ACAD_LAYOUTSELFREF
360
26CC
  0
DICTIONARY
  5
21BB
102
{ACAD_REACTORS
330
21BA
102
}
330
21BA
100
AcDbDictionary
281
     1
  0
DICTIONARY
  5
21C7
102
{ACAD_REACTORS
330
21BA
102
}
330
21BA
100
AcDbDictionary
281
     1
  3
Model
350
21CF
  3
ﾚｲｱｳﾄ1
350
21CB
  0
DICTIONARY
  5
21C4
102
{ACAD_REACTORS
330
21BA
102
}
330
21BA
100
AcDbDictionary
281
     1
  3
Standard
350
21C5
  0
DICTIONARY
  5
21C6
102
{ACAD_REACTORS
330
21BA
102
}
330
21BA
100
AcDbDictionary
281
     1
  0
ACDBDICTIONARYWDFLT
  5
21BC
102
{ACAD_REACTORS
330
21BA
102
}
330
21BA
100
AcDbDictionary
281
     1
  3
Normal
350
21BD
100
AcDbDictionaryWithDefault
340
21BD
  0
DICTIONARY
  5
2238
102
{ACAD_REACTORS
330
21BA
102
}
330
21BA
100
AcDbDictionary
281
     1
  3
DIMASSOC
350
2239
  0
XRECORD
  5
262A
102
{ACAD_REACTORS
330
21BA
102
}
330
21BA
100
AcDbXrecord
280
     1
  1
DWGPROPS COOKIE
  2

  3

  4

  6

  7

  8
mg
  9

300
=
301
=
302
=
303
=
304
=
305
=
306
=
307
=
308
=
309
=
 40
0.2828560879629629
 41
2452488.423138738
 42
2452754.707916667
  1

 90
        0
  0
DICTIONARY
  5
26D8
102
{ACAD_REACTORS
330
26D7
102
}
330
26D7
100
AcDbDictionary
281
     1
  0
XRECORD
  5
26CD
102
{ACAD_REACTORS
330
21F8
102
}
330
21F8
100
AcDbXrecord
280
     1
340
21CC
  0
XRECORD
  5
26CC
102
{ACAD_REACTORS
330
21FA
102
}
330
21FA
100
AcDbXrecord
280
     1
340
21C8
  0
LAYOUT
  5
21CF
102
{ACAD_REACTORS
330
21C7
102
}
330
21C7
100
AcDbPlotSettings
  1

  2
SII LP-2150 (D-SCAN C2)
  4

  6

 40
0.0
 41
0.0
 42
0.0
 43
0.0
 44
0.0
 45
0.0
 46
0.0
 47
0.0
 48
0.0
 49
0.0
140
0.0
141
0.0
142
1.0
143
1.0
 70
  1712
 72
     0
 73
     0
 74
     0
  7

 75
     0
147
1.0
148
0.0
149
0.0
100
AcDbLayout
  1
Model
 70
     1
 71
     0
 10
0.0
 20
0.0
 11
12.0
 21
9.0
 12
0.0
 22
0.0
 32
0.0
 14
0.0
 24
0.0
 34
0.0
 15
0.0
 25
0.0
 35
0.0
146
0.0
 13
0.0
 23
0.0
 33
0.0
 16
1.0
 26
0.0
 36
0.0
 17
0.0
 27
1.0
 37
0.0
 76
     0
330
21CC
  0
LAYOUT
  5
21CB
102
{ACAD_REACTORS
330
21C7
102
}
330
21C7
100
AcDbPlotSettings
  1

  2
SII LP-2150 (D-SCAN C2)
  4

  6

 40
0.0
 41
0.0
 42
0.0
 43
0.0
 44
0.0
 45
0.0
 46
0.0
 47
0.0
 48
0.0
 49
0.0
140
0.0
141
0.0
142
1.0
143
1.0
 70
   688
 72
     0
 73
     0
 74
     5
  7

 75
    16
147
1.0
148
0.0
149
0.0
100
AcDbLayout
  1
ﾚｲｱｳﾄ1
 70
     1
 71
     1
 10
0.0
 20
0.0
 11
12.0
 21
9.0
 12
0.0
 22
0.0
 32
0.0
 14
1.000000000000000E+20
 24
1.000000000000000E+20
 34
1.000000000000000E+20
 15
-1.000000000000000E+20
 25
-1.000000000000000E+20
 35
-1.000000000000000E+20
146
0.0
 13
0.0
 23
0.0
 33
0.0
 16
1.0
 26
0.0
 36
0.0
 17
0.0
 27
1.0
 37
0.0
 76
     0
330
21C8
  0
MLINESTYLE
  5
21C5
102
{ACAD_REACTORS
330
21C4
102
}
330
21C4
100
AcDbMlineStyle
  2
STANDARD
 70
     0
  3

 62
   256
 51
90.0
 52
90.0
 71
     2
 49
0.5
 62
   256
  6
BYLAYER
 49
-0.5
 62
   256
  6
BYLAYER
  0
ACDBPLACEHOLDER
  5
21BD
102
{ACAD_REACTORS
330
21BC
102
}
330
21BC
  0
DICTIONARYVAR
  5
2239
102
{ACAD_REACTORS
330
2238
102
}
330
2238
100
DictionaryVariables
280
     0
  1
1
  0
ENDSEC
  0
EOF
