  0
SECTION
  2
HEADER
  9
$ACADVER
  1
AC1015
  9
$ACADMAINTVER
 70
    14
  9
$DWGCODEPAGE
  3
ANSI_932
  9
$INSBASE
 10
0.0
 20
0.0
 30
0.0
  9
$EXTMIN
 10
339.3018616784056
 20
79.44094882940635
 30
-0.0000000000112498
  9
$EXTMAX
 10
1201.722355503936
 20
1548.023630534851
 30
0.0000000000002956
  9
$LIMMIN
 10
0.0
 20
0.0
  9
$LIMMAX
 10
12.0
 20
9.0
  9
$ORTHOMODE
 70
     0
  9
$REGENMODE
 70
     1
  9
$FILLMODE
 70
     1
  9
$QTEXTMODE
 70
     0
  9
$MIRRTEXT
 70
     1
  9
$LTSCALE
 40
1.0
  9
$ATTMODE
 70
     1
  9
$TEXTSIZE
 40
0.2
  9
$TRACEWID
 40
0.05
  9
$TEXTSTYLE
  7
STANDARD
  9
$CLAYER
  8
0
  9
$CELTYPE
  6
CONTINUOUS
  9
$CECOLOR
 62
   256
  9
$CELTSCALE
 40
1.0
  9
$DISPSILH
 70
     0
  9
$DIMSCALE
 40
1.0
  9
$DIMASZ
 40
1.0
  9
$DIMEXO
 40
2.54
  9
$DIMDLI
 40
0.38
  9
$DIMRND
 40
0.0
  9
$DIMDLE
 40
0.0
  9
$DIMEXE
 40
2.54
  9
$DIMTP
 40
0.0
  9
$DIMTM
 40
0.0
  9
$DIMTXT
 40
3.2
  9
$DIMCEN
 40
0.09
  9
$DIMTSZ
 40
0.0
  9
$DIMTOL
 70
     0
  9
$DIMLIM
 70
     0
  9
$DIMTIH
 70
     0
  9
$DIMTOH
 70
     0
  9
$DIMSE1
 70
     0
  9
$DIMSE2
 70
     0
  9
$DIMTAD
 70
     1
  9
$DIMZIN
 70
     0
  9
$DIMBLK
  1

  9
$DIMASO
 70
     1
  9
$DIMSHO
 70
     0
  9
$DIMPOST
  1

  9
$DIMAPOST
  1

  9
$DIMALT
 70
     0
  9
$DIMALTD
 70
     2
  9
$DIMALTF
 40
25.4
  9
$DIMLFAC
 40
1.0
  9
$DIMTOFL
 70
     0
  9
$DIMTVP
 40
1.0
  9
$DIMTIX
 70
     0
  9
$DIMSOXD
 70
     0
  9
$DIMSAH
 70
     1
  9
$DIMBLK1
  1

  9
$DIMBLK2
  1

  9
$DIMSTYLE
  2
STANDARD
  9
$DIMCLRD
 70
     0
  9
$DIMCLRE
 70
     0
  9
$DIMCLRT
 70
     0
  9
$DIMTFAC
 40
1.0
  9
$DIMGAP
 40
1.6
  9
$DIMJUST
 70
     0
  9
$DIMSD1
 70
     0
  9
$DIMSD2
 70
     0
  9
$DIMTOLJ
 70
     1
  9
$DIMTZIN
 70
     0
  9
$DIMALTZ
 70
     0
  9
$DIMALTTZ
 70
     0
  9
$DIMUPT
 70
     0
  9
$DIMDEC
 70
     4
  9
$DIMTDEC
 70
     4
  9
$DIMALTU
 70
     2
  9
$DIMALTTD
 70
     2
  9
$DIMTXSTY
  7
STANDARD
  9
$DIMAUNIT
 70
     0
  9
$DIMADEC
 70
     0
  9
$DIMALTRND
 40
0.0
  9
$DIMAZIN
 70
     0
  9
$DIMDSEP
 70
    46
  9
$DIMATFIT
 70
     3
  9
$DIMFRAC
 70
     0
  9
$DIMLDRBLK
  1

  9
$DIMLUNIT
 70
     2
  9
$DIMLWD
 70
    -2
  9
$DIMLWE
 70
    -2
  9
$DIMTMOVE
 70
     0
  9
$LUNITS
 70
     2
  9
$LUPREC
 70
     4
  9
$SKETCHINC
 40
0.1
  9
$FILLETRAD
 40
0.0
  9
$AUNITS
 70
     0
  9
$AUPREC
 70
     0
  9
$MENU
  1
.
  9
$ELEVATION
 40
0.0
  9
$PELEVATION
 40
0.0
  9
$THICKNESS
 40
0.0
  9
$LIMCHECK
 70
     0
  9
$CHAMFERA
 40
0.0
  9
$CHAMFERB
 40
0.0
  9
$CHAMFERC
 40
0.0
  9
$CHAMFERD
 40
0.0
  9
$SKPOLY
 70
     0
  9
$TDCREATE
 40
2452488.423138738
  9
$TDUCREATE
 40
2452488.048138738
  9
$TDUPDATE
 40
2456899.673425636
  9
$TDUUPDATE
 40
2456899.298425637
  9
$TDINDWG
 40
0.2824754167
  9
$TDUSRTIMER
 40
0.2824752315
  9
$USRTIMER
 70
     1
  9
$ANGBASE
 50
0.0
  9
$ANGDIR
 70
     0
  9
$PDMODE
 70
     3
  9
$PDSIZE
 40
0.0
  9
$PLINEWID
 40
0.0
  9
$SPLFRAME
 70
     0
  9
$SPLINETYPE
 70
     6
  9
$SPLINESEGS
 70
     8
  9
$HANDSEED
  5
2AA3
  9
$SURFTAB1
 70
     6
  9
$SURFTAB2
 70
     6
  9
$SURFTYPE
 70
     6
  9
$SURFU
 70
     6
  9
$SURFV
 70
     6
  9
$UCSBASE
  2

  9
$UCSNAME
  2

  9
$UCSORG
 10
0.0
 20
0.0
 30
0.0
  9
$UCSXDIR
 10
1.0
 20
0.0
 30
0.0
  9
$UCSYDIR
 10
0.0
 20
1.0
 30
0.0
  9
$UCSORTHOREF
  2

  9
$UCSORTHOVIEW
 70
     0
  9
$UCSORGTOP
 10
0.0
 20
0.0
 30
0.0
  9
$UCSORGBOTTOM
 10
0.0
 20
0.0
 30
0.0
  9
$UCSORGLEFT
 10
0.0
 20
0.0
 30
0.0
  9
$UCSORGRIGHT
 10
0.0
 20
0.0
 30
0.0
  9
$UCSORGFRONT
 10
0.0
 20
0.0
 30
0.0
  9
$UCSORGBACK
 10
0.0
 20
0.0
 30
0.0
  9
$PUCSBASE
  2

  9
$PUCSNAME
  2

  9
$PUCSORG
 10
0.0
 20
0.0
 30
0.0
  9
$PUCSXDIR
 10
1.0
 20
0.0
 30
0.0
  9
$PUCSYDIR
 10
0.0
 20
1.0
 30
0.0
  9
$PUCSORTHOREF
  2

  9
$PUCSORTHOVIEW
 70
     0
  9
$PUCSORGTOP
 10
0.0
 20
0.0
 30
0.0
  9
$PUCSORGBOTTOM
 10
0.0
 20
0.0
 30
0.0
  9
$PUCSORGLEFT
 10
0.0
 20
0.0
 30
0.0
  9
$PUCSORGRIGHT
 10
0.0
 20
0.0
 30
0.0
  9
$PUCSORGFRONT
 10
0.0
 20
0.0
 30
0.0
  9
$PUCSORGBACK
 10
0.0
 20
0.0
 30
0.0
  9
$USERI1
 70
     0
  9
$USERI2
 70
     0
  9
$USERI3
 70
     0
  9
$USERI4
 70
     0
  9
$USERI5
 70
     0
  9
$USERR1
 40
0.0
  9
$USERR2
 40
0.0
  9
$USERR3
 40
0.0
  9
$USERR4
 40
0.0
  9
$USERR5
 40
0.0
  9
$WORLDVIEW
 70
     1
  9
$SHADEDGE
 70
     3
  9
$SHADEDIF
 70
    70
  9
$TILEMODE
 70
     1
  9
$MAXACTVP
 70
    48
  9
$PINSBASE
 10
0.0
 20
0.0
 30
0.0
  9
$PLIMCHECK
 70
     0
  9
$PEXTMIN
 10
1.000000000000000E+20
 20
1.000000000000000E+20
 30
1.000000000000000E+20
  9
$PEXTMAX
 10
-1.000000000000000E+20
 20
-1.000000000000000E+20
 30
-1.000000000000000E+20
  9
$PLIMMIN
 10
0.0
 20
0.0
  9
$PLIMMAX
 10
12.0
 20
9.0
  9
$UNITMODE
 70
     0
  9
$VISRETAIN
 70
     1
  9
$PLINEGEN
 70
     0
  9
$PSLTSCALE
 70
     1
  9
$TREEDEPTH
 70
  3020
  9
$CMLSTYLE
  2
Standard
  9
$CMLJUST
 70
     0
  9
$CMLSCALE
 40
1.0
  9
$PROXYGRAPHICS
 70
     1
  9
$MEASUREMENT
 70
     0
  9
$CELWEIGHT
370
    -1
  9
$ENDCAPS
280
     0
  9
$JOINSTYLE
280
     0
  9
$LWDISPLAY
290
     0
  9
$INSUNITS
 70
     0
  9
$HYPERLINKBASE
  1

  9
$STYLESHEET
  1

  9
$XEDIT
290
     1
  9
$CEPSNTYPE
380
     0
  9
$PSTYLEMODE
290
     1
  9
$FINGERPRINTGUID
  2
{FFE95C04-33D2-4560-80D0-1E2918E4EC86}
  9
$VERSIONGUID
  2
{ED408F65-615A-4D09-8BBA-F37F62258D90}
  9
$EXTNAMES
290
     1
  9
$PSVPSCALE
 40
0.0
  9
$OLESTARTUP
290
     0
  0
ENDSEC
  0
SECTION
  2
CLASSES
  0
CLASS
  1
ACDBDICTIONARYWDFLT
  2
AcDbDictionaryWithDefault
  3
AutoCAD 2000
 90
        0
280
     0
281
     0
  0
CLASS
  1
ACDBPLACEHOLDER
  2
AcDbPlaceHolder
  3
AutoCAD 2000
 90
        0
280
     0
281
     0
  0
CLASS
  1
LAYOUT
  2
AcDbLayout
  3
AutoCAD 2000
 90
        0
280
     0
281
     0
  0
CLASS
  1
DICTIONARYVAR
  2
AcDbDictionaryVar
  3
AutoCAD 2000
 90
        0
280
     0
281
     0
  0
CLASS
  1
LONG_TRANSACTION
  2
AcDbLongTransaction
  3
AutoCAD 2000
 90
    32768
280
     0
281
     0
  0
CLASS
  1
LWPOLYLINE
  2
AcDbPolyline
  3
AutoCAD 2000
 90
    32768
280
     0
281
     1
  0
CLASS
  1
HATCH
  2
AcDbHatch
  3
AutoCAD 2000
 90
    32768
280
     0
281
     1
  0
CLASS
  1
XRECORD
  2
AcDbXrecord
  3
AutoCAD 2000
 90
    32768
280
     0
281
     0
  0
CLASS
  1
LONG_TRANSACTION
  2
AcDbLongTransaction
  3
AutoCAD 2000
 90
    32768
280
     0
281
     0
  0
CLASS
  1
LWPOLYLINE
  2
AcDbPolyline
  3
AutoCAD 2000
 90
    32768
280
     0
281
     1
  0
CLASS
  1
HATCH
  2
AcDbHatch
  3
AutoCAD 2000
 90
    32768
280
     0
281
     1
  0
CLASS
  1
XRECORD
  2
AcDbXrecord
  3
AutoCAD 2000
 90
    32768
280
     0
281
     0
  0
CLASS
  1
LONG_TRANSACTION
  2
AcDbLongTransaction
  3
AutoCAD 2000
 90
    32768
280
     0
281
     0
  0
CLASS
  1
LWPOLYLINE
  2
AcDbPolyline
  3
AutoCAD 2000
 90
    32768
280
     0
281
     1
  0
CLASS
  1
HATCH
  2
AcDbHatch
  3
AutoCAD 2000
 90
    32768
280
     0
281
     1
  0
CLASS
  1
XRECORD
  2
AcDbXrecord
  3
AutoCAD 2000
 90
    32768
280
     0
281
     0
  0
CLASS
  1
LONG_TRANSACTION
  2
AcDbLongTransaction
  3
AutoCAD 2000
 90
    32768
280
     0
281
     0
  0
CLASS
  1
LWPOLYLINE
  2
AcDbPolyline
  3
AutoCAD 2000
 90
    32768
280
     0
281
     1
  0
CLASS
  1
HATCH
  2
AcDbHatch
  3
AutoCAD 2000
 90
    32768
280
     0
281
     1
  0
CLASS
  1
XRECORD
  2
AcDbXrecord
  3
AutoCAD 2000
 90
    32768
280
     0
281
     0
  0
CLASS
  1
LONG_TRANSACTION
  2
AcDbLongTransaction
  3
AutoCAD 2000
 90
    32768
280
     0
281
     0
  0
CLASS
  1
LWPOLYLINE
  2
AcDbPolyline
  3
AutoCAD 2000
 90
    32768
280
     0
281
     1
  0
CLASS
  1
HATCH
  2
AcDbHatch
  3
AutoCAD 2000
 90
    32768
280
     0
281
     1
  0
CLASS
  1
XRECORD
  2
AcDbXrecord
  3
AutoCAD 2000
 90
    32768
280
     0
281
     0
  0
ENDSEC
  0
SECTION
  2
TABLES
  0
TABLE
  2
VPORT
  5
21B6
330
0
100
AcDbSymbolTable
 70
     2
  0
VPORT
  5
2AA2
330
21B6
100
AcDbSymbolTableRecord
100
AcDbViewportTableRecord
  2
*Active
 70
     0
 10
0.0
 20
0.0
 11
1.0
 21
1.0
 12
770.5121085911709
 22
813.7322896821292
 13
0.0
 23
0.0
 14
1.0
 24
1.0
 15
0.0
 25
0.0
 16
0.0
 26
0.0
 36
1.0
 17
0.0
 27
0.0
 37
0.0
 40
1477.907016192464
 41
1.592161016949152
 42
50.0
 43
0.0
 44
0.0
 50
0.0
 51
0.0
 71
     0
 72
   100
 73
     1
 74
     3
 75
     0
 76
     0
 77
     0
 78
     0
281
     0
 65
     1
110
0.0
120
0.0
130
0.0
111
1.0
121
0.0
131
0.0
112
0.0
122
1.0
132
0.0
 79
     0
146
0.0
  0
ENDTAB
  0
TABLE
  2
LTYPE
  5
21B3
330
0
100
AcDbSymbolTable
 70
     2
  0
LTYPE
  5
21C1
330
21B3
100
AcDbSymbolTableRecord
100
AcDbLinetypeTableRecord
  2
ByBlock
 70
     0
  3

 72
    65
 73
     0
 40
0.0
  0
LTYPE
  5
21C2
330
21B3
100
AcDbSymbolTableRecord
100
AcDbLinetypeTableRecord
  2
ByLayer
 70
     0
  3

 72
    65
 73
     0
 40
0.0
  0
LTYPE
  5
21C3
330
21B3
100
AcDbSymbolTableRecord
100
AcDbLinetypeTableRecord
  2
CONTINUOUS
 70
     0
  3
Solid line
 72
    65
 73
     0
 40
0.0
  0
LTYPE
  5
2A86
330
21B3
100
AcDbSymbolTableRecord
100
AcDbLinetypeTableRecord
  2
CENTER
 70
     0
  3
__ . __
 72
    65
 73
     4
 40
7.0
 49
4.0
 74
     0
 49
-1.0
 74
     0
 49
1.0
 74
     0
 49
-1.0
 74
     0
  0
ENDTAB
  0
TABLE
  2
LAYER
  5
21B0
102
{ACAD_XDICTIONARY
360
2A87
102
}
330
0
100
AcDbSymbolTable
 70
     1
  0
LAYER
  5
21BE
330
21B0
100
AcDbSymbolTableRecord
100
AcDbLayerTableRecord
  2
0
 70
     0
 62
     7
  6
CONTINUOUS
370
    -3
390
21BD
  0
ENDTAB
  0
TABLE
  2
STYLE
  5
21B1
330
0
100
AcDbSymbolTable
 70
     1
  0
STYLE
  5
21BF
330
21B1
100
AcDbSymbolTableRecord
100
AcDbTextStyleTableRecord
  2
STANDARD
 70
     0
 40
0.0
 41
1.0
 50
0.0
 71
     0
 42
0.2
  3
txt
  4
BIGFONT
  0
ENDTAB
  0
TABLE
  2
VIEW
  5
21B4
330
0
100
AcDbSymbolTable
 70
     1
  0
VIEW
  5
21DE
330
21B4
100
AcDbSymbolTableRecord
100
AcDbViewTableRecord
  2
OLE1
 70
     0
 40
3692.141019219747
 10
1914.591370701856
 20
1272.206200738182
 41
4595.022665841169
 11
0.0
 21
0.0
 31
1.0
 12
0.0
 22
0.0
 32
0.0
 42
50.0
 43
0.0
 44
0.0
 50
0.0
 71
     0
281
     0
 72
     1
110
0.0
120
0.0
130
0.0
111
1.0
121
0.0
131
0.0
112
0.0
122
1.0
132
0.0
 79
     0
146
0.0
  0
ENDTAB
  0
TABLE
  2
UCS
  5
21B5
330
0
100
AcDbSymbolTable
 70
     0
  0
ENDTAB
  0
TABLE
  2
APPID
  5
21B7
330
0
100
AcDbSymbolTable
 70
     5
  0
APPID
  5
21C0
330
21B7
100
AcDbSymbolTableRecord
100
AcDbRegAppTableRecord
  2
ACAD
 70
     0
  0
APPID
  5
21DF
330
21B7
100
AcDbSymbolTableRecord
100
AcDbRegAppTableRecord
  2
MCAD_NO_VIS
 70
     0
  0
APPID
  5
21E0
330
21B7
100
AcDbSymbolTableRecord
100
AcDbRegAppTableRecord
  2
ACAD_TEMP_GRAPHIC
 70
     0
  0
APPID
  5
21E1
330
21B7
100
AcDbSymbolTableRecord
100
AcDbRegAppTableRecord
  2
ACATTRIBSERVICES
 70
     0
  0
APPID
  5
21E2
330
21B7
100
AcDbSymbolTableRecord
100
AcDbRegAppTableRecord
  2
CONTENTBLOCKICON
 70
     0
  0
ENDTAB
  0
TABLE
  2
DIMSTYLE
  5
21B8
330
0
100
AcDbSymbolTable
 70
     1
100
AcDbDimStyleTable
 71
     0
  0
DIMSTYLE
105
21E3
330
21B8
100
AcDbSymbolTableRecord
100
AcDbDimStyleTableRecord
  2
STANDARD
 70
     0
279
     2
340
21BF
  0
ENDTAB
  0
TABLE
  2
BLOCK_RECORD
  5
21AF
330
0
100
AcDbSymbolTable
 70
     0
  0
BLOCK_RECORD
  5
21CC
102
{ACAD_XDICTIONARY
360
21F8
102
}
330
21AF
100
AcDbSymbolTableRecord
100
AcDbBlockTableRecord
  2
*Model_Space
340
21CF
  0
BLOCK_RECORD
  5
21C8
102
{ACAD_XDICTIONARY
360
21FA
102
}
330
21AF
100
AcDbSymbolTableRecord
100
AcDbBlockTableRecord
  2
*Paper_Space
340
21CB
  0
ENDTAB
  0
ENDSEC
  0
SECTION
  2
BLOCKS
  0
BLOCK
  5
21CD
330
21CC
100
AcDbEntity
  8
0
100
AcDbBlockBegin
  2
*Model_Space
 70
     0
 10
0.0
 20
0.0
 30
0.0
  3
*Model_Space
  1

  0
ENDBLK
  5
21CE
330
21CC
100
AcDbEntity
  8
0
100
AcDbBlockEnd
  0
BLOCK
  5
21C9
330
21C8
100
AcDbEntity
 67
     1
  8
0
100
AcDbBlockBegin
  2
*Paper_Space
 70
     0
 10
0.0
 20
0.0
 30
0.0
  3
*Paper_Space
  1

  0
ENDBLK
  5
21CA
330
21C8
100
AcDbEntity
 67
     1
  8
0
100
AcDbBlockEnd
  0
ENDSEC
  0
SECTION
  2
ENTITIES
  0
TEXT
  5
F6E
330
21CC
100
AcDbEntity
  8
0
  6
Continuous
100
AcDbText
 10
339.3878168705359
 20
1500.0
 30
0.0
 40
48.000002
  1
DUC2A15MA_00 3S
 41
1.32095
100
AcDbText
  0
LINE
  5
2766
330
21CC
100
AcDbEntity
  8
0
100
AcDbLine
 10
655.47404337642
 20
570.860885375871
 30
0.0
 11
655.47404337642
 21
815.3608253758712
 31
0.0
  0
LINE
  5
2767
330
21CC
100
AcDbEntity
  8
0
100
AcDbLine
 10
815.97405137642
 20
570.860885375871
 30
0.0
 11
815.97405137642
 21
815.3608253758712
 31
0.0
  0
LINE
  5
2864
330
21CC
100
AcDbEntity
  8
0
100
AcDbLine
 10
815.97405137642
 20
570.860885375871
 30
0.0
 11
655.47404337642
 21
570.860885375871
 31
0.0
  0
LINE
  5
2865
330
21CC
100
AcDbEntity
  8
0
100
AcDbLine
 10
683.22404337642
 20
565.860885375871
 30
0.0
 11
788.22404337642
 21
565.860885375871
 31
0.0
  0
LINE
  5
2866
330
21CC
100
AcDbEntity
  8
0
100
AcDbLine
 10
683.22404337642
 20
548.860885375871
 30
0.0
 11
788.22404337642
 21
548.860885375871
 31
0.0
  0
LINE
  5
2867
330
21CC
100
AcDbEntity
  8
0
100
AcDbLine
 10
668.2240433764199
 20
473.610885375871
 30
0.0
 11
803.2240433764199
 21
473.610885375871
 31
0.0
  0
LINE
  5
2868
330
21CC
100
AcDbEntity
  8
0
100
AcDbLine
 10
668.2240433764199
 20
455.110885375871
 30
0.0
 11
803.2240433764199
 21
455.110885375871
 31
0.0
  0
LINE
  5
2869
330
21CC
100
AcDbEntity
  8
0
100
AcDbLine
 10
668.2240433764199
 20
356.810899375871
 30
0.0
 11
803.2240433764199
 21
356.810899375871
 31
0.0
  0
LINE
  5
286A
330
21CC
100
AcDbEntity
  8
0
100
AcDbLine
 10
668.2240433764199
 20
375.310899375871
 30
0.0
 11
803.2240433764199
 21
375.310899375871
 31
0.0
  0
LINE
  5
286B
330
21CC
100
AcDbEntity
  8
0
100
AcDbLine
 10
668.2240433764199
 20
277.0109113758712
 30
0.0
 11
803.2240433764199
 21
277.0109113758712
 31
0.0
  0
LINE
  5
286C
330
21CC
100
AcDbEntity
  8
0
100
AcDbLine
 10
668.2240433764199
 20
258.5109113758712
 30
0.0
 11
803.2240433764199
 21
258.5109113758712
 31
0.0
  0
ARC
  5
28AE
330
21CC
100
AcDbEntity
  8
0
100
AcDbCircle
 10
731.3740372764195
 20
415.2108933758711
 30
0.0
 40
60.150002
100
AcDbArc
 50
138.4447829057775
 51
221.5552170942227
  0
LINE
  5
28AF
330
21CC
100
AcDbEntity
  8
0
  6
Continuous
 62
     7
100
AcDbLine
 10
595.72404337642
 20
369.7108933758711
 30
0.0
 11
595.72404337642
 21
460.7108933758711
 31
0.0
  0
LINE
  5
28B0
330
21CC
100
AcDbEntity
  8
0
  6
Continuous
 62
     7
100
AcDbLine
 10
601.2492227764196
 20
453.360895375871
 30
0.0
 11
601.2492227764196
 21
377.060891375871
 31
0.0
  0
LINE
  5
28B4
330
21CC
100
AcDbEntity
  8
0
  6
Continuous
 62
     7
100
AcDbLine
 10
601.2492227764196
 20
377.060891375871
 30
0.0
 11
684.8702730416825
 21
377.060891375871
 31
0.0
  0
LINE
  5
28B5
330
21CC
100
AcDbEntity
  8
0
  6
Continuous
 62
     7
100
AcDbLine
 10
598.5740419764197
 20
369.710892375871
 30
0.0
 11
601.2492226764197
 21
377.060891375871
 31
0.0
  0
LINE
  5
28B6
330
21CC
100
AcDbEntity
  8
0
  6
Continuous
 62
     7
100
AcDbLine
 10
595.72404337642
 20
369.7108933758711
 30
0.0
 11
598.5740420764195
 21
369.7108933758711
 31
0.0
  0
ARC
  5
28B7
330
21CC
100
AcDbEntity
  8
0
100
AcDbCircle
 10
731.3740372764195
 20
316.9109053758711
 30
0.0
 40
60.150002
100
AcDbArc
 50
138.4447829057775
 51
221.5552170942227
  0
LINE
  5
28B8
330
21CC
100
AcDbEntity
  8
0
100
AcDbLine
 10
668.2240433764199
 20
258.5109113758712
 30
0.0
 11
668.2240433764199
 21
277.0109113758712
 31
0.0
  0
LINE
  5
28BA
330
21CC
100
AcDbEntity
  8
0
100
AcDbLine
 10
668.2240433764199
 20
375.310899375871
 30
0.0
 11
668.2240433764199
 21
356.810899375871
 31
0.0
  0
LINE
  5
28C2
330
21CC
100
AcDbEntity
  8
0
100
AcDbLine
 10
683.22404337642
 20
565.860885375871
 30
0.0
 11
683.22404337642
 21
548.860885375871
 31
0.0
  0
LINE
  5
28C3
330
21CC
100
AcDbEntity
  8
0
  6
Continuous
 62
     7
100
AcDbLine
 10
601.2492227764196
 20
453.360895375871
 30
0.0
 11
684.8702730416825
 21
453.360895375871
 31
0.0
  0
LINE
  5
28C4
330
21CC
100
AcDbEntity
  8
0
  6
Continuous
 62
     7
100
AcDbLine
 10
595.72404337642
 20
460.7108933758711
 30
0.0
 11
598.5740420764195
 21
460.7108933758711
 31
0.0
  0
LINE
  5
28C5
330
21CC
100
AcDbEntity
  8
0
  6
Continuous
 62
     7
100
AcDbLine
 10
598.5740419764197
 20
460.710894375871
 30
0.0
 11
601.2492226764197
 21
453.360895375871
 31
0.0
  0
LINE
  5
28C9
330
21CC
100
AcDbEntity
  8
0
100
AcDbLine
 10
668.2240433764199
 20
473.610885375871
 30
0.0
 11
668.2240433764199
 21
455.110885375871
 31
0.0
  0
LINE
  5
28CB
330
21CC
100
AcDbEntity
  8
0
100
AcDbLine
 10
695.72404337642
 20
548.860885375871
 30
0.0
 11
695.72404337642
 21
473.610885375871
 31
0.0
  0
LINE
  5
28CC
330
21CC
100
AcDbEntity
  8
0
100
AcDbLine
 10
695.72404337642
 20
570.860885375871
 30
0.0
 11
695.72404337642
 21
565.860885375871
 31
0.0
  0
ARC
  5
28CD
330
21CC
100
AcDbEntity
  8
0
100
AcDbCircle
 10
740.0740494764195
 20
415.2108933758711
 30
0.0
 40
60.150002
100
AcDbArc
 50
318.4447829057772
 51
41.55521709422246
  0
LINE
  5
28CE
330
21CC
100
AcDbEntity
  8
0
  6
Continuous
 62
     7
100
AcDbLine
 10
875.72404337642
 20
271.4109053758711
 30
0.0
 11
875.72404337642
 21
362.4109053758711
 31
0.0
  0
LINE
  5
28CF
330
21CC
100
AcDbEntity
  8
0
  6
Continuous
 62
     7
100
AcDbLine
 10
870.1988639764204
 20
355.060907375871
 30
0.0
 11
870.1988639764204
 21
278.760903375871
 31
0.0
  0
ARC
  5
28D0
330
21CC
100
AcDbEntity
  8
0
100
AcDbCircle
 10
740.0740494764195
 20
316.9109053758711
 30
0.0
 40
60.150002
100
AcDbArc
 50
318.4447829057772
 51
41.55521709422246
  0
LINE
  5
28D1
330
21CC
100
AcDbEntity
  8
0
  6
Continuous
 62
     7
100
AcDbLine
 10
870.1988639764204
 20
278.760903375871
 30
0.0
 11
786.5778137111574
 21
278.760903375871
 31
0.0
  0
LINE
  5
28D2
330
21CC
100
AcDbEntity
  8
0
100
AcDbLine
 10
803.2240433764199
 20
258.5109113758712
 30
0.0
 11
803.2240433764199
 21
277.0109113758712
 31
0.0
  0
LINE
  5
28D3
330
21CC
100
AcDbEntity
  8
0
  6
Continuous
 62
     7
100
AcDbLine
 10
872.8740447764202
 20
271.410904375871
 30
0.0
 11
870.1988640764202
 21
278.760903375871
 31
0.0
  0
LINE
  5
28D4
330
21CC
100
AcDbEntity
  8
0
  6
Continuous
 62
     7
100
AcDbLine
 10
875.72404337642
 20
271.4109053758711
 30
0.0
 11
872.8740446764204
 21
271.4109053758711
 31
0.0
  0
LINE
  5
28D5
330
21CC
100
AcDbEntity
  8
0
  6
Continuous
 62
     7
100
AcDbLine
 10
870.1988639764204
 20
355.060907375871
 30
0.0
 11
786.5778137111574
 21
355.060907375871
 31
0.0
  0
LINE
  5
28D6
330
21CC
100
AcDbEntity
  8
0
100
AcDbLine
 10
803.2240433764199
 20
375.310899375871
 30
0.0
 11
803.2240433764199
 21
356.810899375871
 31
0.0
  0
LINE
  5
28D7
330
21CC
100
AcDbEntity
  8
0
  6
Continuous
 62
     7
100
AcDbLine
 10
875.72404337642
 20
362.4109053758711
 30
0.0
 11
872.8740446764204
 21
362.4109053758711
 31
0.0
  0
LINE
  5
28D8
330
21CC
100
AcDbEntity
  8
0
  6
Continuous
 62
     7
100
AcDbLine
 10
872.8740447764202
 20
362.410906375871
 30
0.0
 11
870.1988640764202
 21
355.060907375871
 31
0.0
  0
LINE
  5
28D9
330
21CC
100
AcDbEntity
  8
0
100
AcDbLine
 10
788.22404337642
 20
565.860885375871
 30
0.0
 11
788.22404337642
 21
548.860885375871
 31
0.0
  0
LINE
  5
28DA
330
21CC
100
AcDbEntity
  8
0
100
AcDbLine
 10
803.2240433764199
 20
473.610885375871
 30
0.0
 11
803.2240433764199
 21
455.110885375871
 31
0.0
  0
LINE
  5
28DB
330
21CC
100
AcDbEntity
  8
0
100
AcDbLine
 10
775.72404337642
 20
548.860885375871
 30
0.0
 11
775.72404337642
 21
473.610885375871
 31
0.0
  0
LINE
  5
28DC
330
21CC
100
AcDbEntity
  8
0
100
AcDbLine
 10
775.72404337642
 20
570.860885375871
 30
0.0
 11
775.72404337642
 21
565.860885375871
 31
0.0
  0
CIRCLE
  5
2920
330
21CC
100
AcDbEntity
  8
0
100
AcDbCircle
 10
735.72404337642
 20
1158.418760445636
 30
0.0
 40
80.25
  0
CIRCLE
  5
2921
330
21CC
100
AcDbEntity
  8
0
100
AcDbCircle
 10
735.72404337642
 20
1158.418760445636
 30
0.0
 40
54.0
  0
CIRCLE
  5
2922
330
21CC
100
AcDbEntity
  8
0
100
AcDbCircle
 10
735.72404337642
 20
1158.418760445636
 30
0.0
 40
54.0
  0
LINE
  5
2923
330
21CC
100
AcDbEntity
  8
0
100
AcDbLine
 10
749.22404337642
 20
937.069915375871
 30
0.0
 11
785.1391573764203
 21
933.9277453758709
 31
0.0
  0
LINE
  5
2924
330
21CC
100
AcDbEntity
  8
0
100
AcDbLine
 10
778.2240393764196
 20
815.3608353758709
 30
0.0
 11
693.2240433764199
 21
815.3608353758709
 31
0.0
  0
LINE
  5
2925
330
21CC
100
AcDbEntity
  8
0
100
AcDbLine
 10
655.47404337642
 20
815.3608253758712
 30
0.0
 11
815.97405137642
 21
815.3608253758712
 31
0.0
  0
LINE
  5
2957
330
21CC
100
AcDbEntity
  8
0
100
AcDbLine
 10
686.3089283764202
 20
933.927755375871
 30
0.0
 11
681.72404337642
 21
868.3608363758708
 31
0.0
  0
LINE
  5
2960
330
21CC
100
AcDbEntity
  8
0
100
AcDbLine
 10
681.7240423764205
 20
835.2794363758707
 30
0.0
 11
693.2240493764202
 21
815.3608387584345
 31
0.0
  0
LINE
  5
2961
330
21CC
100
AcDbEntity
  8
0
100
AcDbLine
 10
681.72404337642
 20
868.3608353758708
 30
0.0
 11
681.72404337642
 21
835.2794353758708
 31
0.0
  0
LINE
  5
2962
330
21CC
100
AcDbEntity
  8
0
100
AcDbLine
 10
722.2240433764199
 20
937.069915375871
 30
0.0
 11
686.3089293764196
 21
933.9277453758709
 31
0.0
  0
LINE
  5
2963
330
21CC
100
AcDbEntity
  8
0
100
AcDbLine
 10
749.22404337642
 20
942.3608353758709
 30
0.0
 11
749.22404337642
 21
941.4984553758708
 31
0.0
  0
LINE
  5
2964
330
21CC
100
AcDbEntity
  8
0
100
AcDbLine
 10
749.22404337642
 20
943.3608353758708
 30
0.0
 11
749.22404337642
 21
937.069915375871
 31
0.0
  0
LINE
  5
2965
330
21CC
100
AcDbEntity
  8
0
100
AcDbLine
 10
745.7240453764198
 20
943.3608353758708
 30
0.0
 11
745.7240453764198
 21
976.3608353758709
 31
0.0
  0
LINE
  5
2966
330
21CC
100
AcDbEntity
  8
0
100
AcDbLine
 10
722.2240433764199
 20
942.3608253758708
 30
0.0
 11
722.2240433764199
 21
941.4984453758711
 31
0.0
  0
LINE
  5
2967
330
21CC
100
AcDbEntity
  8
0
100
AcDbLine
 10
722.2240433764199
 20
943.3608353758708
 30
0.0
 11
722.2240433764199
 21
937.069915375871
 31
0.0
  0
LINE
  5
2968
330
21CC
100
AcDbEntity
  8
0
100
AcDbLine
 10
725.7240443764194
 20
943.3608353758708
 30
0.0
 11
725.7240443764194
 21
976.3608353758709
 31
0.0
  0
LINE
  5
296B
330
21CC
100
AcDbEntity
  8
0
100
AcDbLine
 10
725.7240443764194
 20
976.3608353758709
 30
0.0
 11
745.7240453764198
 21
976.3608353758709
 31
0.0
  0
LINE
  5
296C
330
21CC
100
AcDbEntity
  8
0
100
AcDbLine
 10
749.22404337642
 20
937.069915375871
 30
0.0
 11
722.2240433764199
 21
937.069915375871
 31
0.0
  0
LINE
  5
296D
330
21CC
100
AcDbEntity
  8
0
100
AcDbLine
 10
749.22404337642
 20
943.3608353758708
 30
0.0
 11
722.2240433764199
 21
943.3608353758708
 31
0.0
  0
LINE
  5
296E
330
21CC
100
AcDbEntity
  8
0
  6
Continuous
 62
     7
100
AcDbLine
 10
870.1988639764202
 20
1196.568762445636
 30
0.0
 11
806.3260252706976
 21
1196.568762445636
 31
0.0
  0
LINE
  5
296F
330
21CC
100
AcDbEntity
  8
0
  6
Continuous
 62
     7
100
AcDbLine
 10
870.1988639764202
 20
1120.268758445636
 30
0.0
 11
806.3260252706985
 21
1120.268758445636
 31
0.0
  0
LINE
  5
2970
330
21CC
100
AcDbEntity
  8
0
  6
Continuous
 62
     7
100
AcDbLine
 10
875.7240433764199
 20
1203.918760445636
 30
0.0
 11
875.7240433764199
 21
1112.918760445636
 31
0.0
  0
LINE
  5
2971
330
21CC
100
AcDbEntity
  8
0
  6
Continuous
 62
     7
100
AcDbLine
 10
870.1988639764202
 20
1120.268758445636
 30
0.0
 11
870.1988639764202
 21
1196.568762445636
 31
0.0
  0
LINE
  5
2972
330
21CC
100
AcDbEntity
  8
0
  6
Continuous
 62
     7
100
AcDbLine
 10
872.8740447764202
 20
1203.918761445637
 30
0.0
 11
870.19886407642
 21
1196.568762445636
 31
0.0
  0
LINE
  5
2973
330
21CC
100
AcDbEntity
  8
0
  6
Continuous
 62
     7
100
AcDbLine
 10
875.7240433764199
 20
1203.918760445636
 30
0.0
 11
872.8740446764204
 21
1203.918760445636
 31
0.0
  0
LINE
  5
2974
330
21CC
100
AcDbEntity
  8
0
  6
Continuous
 62
     7
100
AcDbLine
 10
875.7240433764199
 20
1112.918760445636
 30
0.0
 11
872.8740446764204
 21
1112.918760445636
 31
0.0
  0
LINE
  5
2975
330
21CC
100
AcDbEntity
  8
0
  6
Continuous
 62
     7
100
AcDbLine
 10
872.8740447764202
 20
1112.918759445636
 30
0.0
 11
870.19886407642
 21
1120.268758445636
 31
0.0
  0
CIRCLE
  5
2976
330
21CC
100
AcDbEntity
  8
0
100
AcDbCircle
 10
735.72404337642
 20
1158.418760445636
 30
0.0
 40
13.5
  0
CIRCLE
  5
2977
330
21CC
100
AcDbEntity
  8
0
100
AcDbCircle
 10
735.72404337642
 20
1158.418760445636
 30
0.0
 40
13.5
  0
CIRCLE
  5
2978
330
21CC
100
AcDbEntity
  8
0
100
AcDbCircle
 10
735.72404337642
 20
1158.418760445636
 30
0.0
 40
9.999999
  0
CIRCLE
  5
2979
330
21CC
100
AcDbEntity
  8
0
100
AcDbCircle
 10
735.72404337642
 20
1158.418760445636
 30
0.0
 40
9.999999
  0
LINE
  5
297E
330
21CC
100
AcDbEntity
  8
0
100
AcDbLine
 10
785.1391583764198
 20
933.927755375871
 30
0.0
 11
789.72404337642
 21
868.3608363758708
 31
0.0
  0
LINE
  5
297F
330
21CC
100
AcDbEntity
  8
0
100
AcDbLine
 10
789.7240443764194
 20
835.2794363758707
 30
0.0
 11
778.2240383764201
 21
815.3608404102469
 31
0.0
  0
LINE
  5
2980
330
21CC
100
AcDbEntity
  8
0
100
AcDbLine
 10
789.72404337642
 20
868.3608353758708
 30
0.0
 11
789.72404337642
 21
835.2794353758708
 31
0.0
  0
LINE
  5
29C3
330
21CC
100
AcDbEntity
  8
0
  6
Continuous
 62
     7
100
AcDbLine
 10
595.72404337642
 20
1112.918760445636
 30
0.0
 11
595.72404337642
 21
1203.918760445636
 31
0.0
  0
LINE
  5
29C4
330
21CC
100
AcDbEntity
  8
0
  6
Continuous
 62
     7
100
AcDbLine
 10
601.2492227764196
 20
1196.568762445636
 30
0.0
 11
601.2492227764196
 21
1120.268758445636
 31
0.0
  0
LINE
  5
29C5
330
21CC
100
AcDbEntity
  8
0
  6
Continuous
 62
     7
100
AcDbLine
 10
601.2492227764196
 20
1120.268758445636
 30
0.0
 11
665.1220614821422
 21
1120.268758445636
 31
0.0
  0
LINE
  5
29C6
330
21CC
100
AcDbEntity
  8
0
  6
Continuous
 62
     7
100
AcDbLine
 10
598.5740419764197
 20
1112.918759445636
 30
0.0
 11
601.2492226764197
 21
1120.268758445636
 31
0.0
  0
LINE
  5
29C7
330
21CC
100
AcDbEntity
  8
0
  6
Continuous
 62
     7
100
AcDbLine
 10
595.72404337642
 20
1112.918760445636
 30
0.0
 11
598.5740420764195
 21
1112.918760445636
 31
0.0
  0
LINE
  5
29C8
330
21CC
100
AcDbEntity
  8
0
  6
Continuous
 62
     7
100
AcDbLine
 10
601.2492227764196
 20
1196.568762445636
 30
0.0
 11
665.1220614821413
 21
1196.568762445636
 31
0.0
  0
LINE
  5
29C9
330
21CC
100
AcDbEntity
  8
0
  6
Continuous
 62
     7
100
AcDbLine
 10
595.72404337642
 20
1203.918760445636
 30
0.0
 11
598.5740420764195
 21
1203.918760445636
 31
0.0
  0
LINE
  5
29CA
330
21CC
100
AcDbEntity
  8
0
  6
Continuous
 62
     7
100
AcDbLine
 10
598.5740419764197
 20
1203.918761445636
 30
0.0
 11
601.2492226764197
 21
1196.568762445636
 31
0.0
  0
LINE
  5
2A3B
330
21CC
100
AcDbEntity
  8
0
100
AcDbLine
 10
668.2240433764199
 20
160.2109253758712
 30
0.0
 11
803.2240433764199
 21
160.2109253758712
 31
0.0
  0
LINE
  5
2A3C
330
21CC
100
AcDbEntity
  8
0
100
AcDbLine
 10
668.2240433764199
 20
178.7109253758712
 30
0.0
 11
803.2240433764199
 21
178.7109253758712
 31
0.0
  0
LINE
  5
2A3D
330
21CC
100
AcDbEntity
  8
0
100
AcDbLine
 10
668.2240433764199
 20
160.2109253758712
 30
0.0
 11
668.2240433764199
 21
178.7109253758712
 31
0.0
  0
LINE
  5
2A3E
330
21CC
100
AcDbEntity
  8
0
100
AcDbLine
 10
719.72404337642
 20
160.2109253758712
 30
0.0
 11
719.72404337642
 21
102.6109193758711
 31
0.0
  0
LINE
  5
2A3F
330
21CC
100
AcDbEntity
  8
0
100
AcDbLine
 10
751.72404337642
 20
160.2109253758712
 30
0.0
 11
751.72404337642
 21
102.6109193758713
 31
0.0
  0
LINE
  5
2A40
330
21CC
100
AcDbEntity
  8
0
  6
Continuous
100
AcDbLine
 10
719.72404337642
 20
102.6109193758711
 30
0.0
 11
751.72404337642
 21
102.6109193758713
 31
0.0
  0
LINE
  5
2A41
330
21CC
100
AcDbEntity
  8
0
100
AcDbLine
 10
803.2240433764199
 20
160.2109253758712
 30
0.0
 11
803.2240433764199
 21
178.7109253758712
 31
0.0
  0
LINE
  5
2A42
330
21CC
100
AcDbEntity
  8
0
  6
Continuous
 62
     7
100
AcDbLine
 10
601.2492227764196
 20
256.7609213758712
 30
0.0
 11
601.2492227764196
 21
180.4609173758713
 31
0.0
  0
LINE
  5
2A43
330
21CC
100
AcDbEntity
  8
0
  6
Continuous
 62
     7
100
AcDbLine
 10
595.72404337642
 20
173.1109193758713
 30
0.0
 11
595.72404337642
 21
264.1109193758714
 31
0.0
  0
LINE
  5
2A44
330
21CC
100
AcDbEntity
  8
0
  6
Continuous
 62
     7
100
AcDbLine
 10
595.72404337642
 20
173.1109193758713
 30
0.0
 11
598.5740420764195
 21
173.1109193758713
 31
0.0
  0
LINE
  5
2A45
330
21CC
100
AcDbEntity
  8
0
  6
Continuous
 62
     7
100
AcDbLine
 10
598.5740419764197
 20
173.1109183758712
 30
0.0
 11
601.2492226764197
 21
180.4609173758713
 31
0.0
  0
LINE
  5
2A46
330
21CC
100
AcDbEntity
  8
0
  6
Continuous
 62
     7
100
AcDbLine
 10
598.5740419764197
 20
264.1109203758712
 30
0.0
 11
601.2492226764197
 21
256.7609213758712
 31
0.0
  0
LINE
  5
2A47
330
21CC
100
AcDbEntity
  8
0
  6
Continuous
 62
     7
100
AcDbLine
 10
595.72404337642
 20
264.1109193758714
 30
0.0
 11
598.5740420764195
 21
264.1109193758714
 31
0.0
  0
LINE
  5
2A48
330
21CC
100
AcDbEntity
  8
0
  6
Continuous
 62
     7
100
AcDbLine
 10
601.2492227764196
 20
180.4609173758713
 30
0.0
 11
684.8702730416825
 21
180.4609173758713
 31
0.0
  0
LINE
  5
2A49
330
21CC
100
AcDbEntity
  8
0
  6
Continuous
 62
     7
100
AcDbLine
 10
601.2492227764196
 20
256.7609213758712
 30
0.0
 11
684.8702730416825
 21
256.7609213758712
 31
0.0
  0
ARC
  5
2A4A
330
21CC
100
AcDbEntity
  8
0
100
AcDbCircle
 10
731.3740372764195
 20
218.6109193758714
 30
0.0
 40
60.150002
100
AcDbArc
 50
138.4447829057775
 51
221.5552170942227
  0
ARC
  5
2A4B
330
21CC
100
AcDbEntity
  8
0
100
AcDbCircle
 10
740.0740494764195
 20
218.6109193758714
 30
0.0
 40
60.150002
100
AcDbArc
 50
318.4447829057772
 51
41.55521709422246
  0
LINE
  5
2A92
330
21CC
100
AcDbEntity
  8
0
  6
CENTER
100
AcDbLine
 10
566.8893324541366
 20
1158.418760445636
 30
0.0
 11
904.5587542987034
 21
1158.418760445636
 31
0.0
  0
LINE
  5
2A93
330
21CC
100
AcDbEntity
  8
0
  6
CENTER
100
AcDbLine
 10
735.72404337642
 20
1062.348866767108
 30
0.0
 11
735.72404337642
 21
1254.488654124164
 31
0.0
  0
LINE
  5
2A94
330
21CC
100
AcDbEntity
  8
0
  6
CENTER
100
AcDbLine
 10
735.72404337642
 20
79.45336311462416
 30
0.0
 11
735.72404337642
 21
998.378405774787
 31
0.0
  0
LINE
  5
2A95
330
21CC
100
AcDbEntity
  8
0
  6
CENTER
100
AcDbLine
 10
566.8893324541366
 20
415.2108933758711
 30
0.0
 11
817.5140473302127
 21
415.2108933758711
 31
0.0
  0
LINE
  5
2A96
330
21CC
100
AcDbEntity
  8
0
  6
CENTER
100
AcDbLine
 10
657.9901633727058
 20
316.9109053758711
 30
0.0
 11
904.5587542987034
 21
316.9109053758711
 31
0.0
  0
LINE
  5
2A97
330
21CC
100
AcDbEntity
  8
0
  6
CENTER
100
AcDbLine
 10
566.8893324541366
 20
218.6109193758714
 30
0.0
 11
817.5140473302127
 21
218.6109193758714
 31
0.0
  0
ENDSEC
  0
SECTION
  2
OBJECTS
  0
DICTIONARY
  5
21BA
330
0
100
AcDbDictionary
281
     1
  3
ACAD_GROUP
350
21BB
  3
ACAD_LAYOUT
350
21C7
  3
ACAD_MLINESTYLE
350
21C4
  3
ACAD_PLOTSETTINGS
350
21C6
  3
ACAD_PLOTSTYLENAME
350
21BC
  3
AcDbVariableDictionary
350
2238
  3
DWGPROPS
350
2A4C
  0
DICTIONARY
  5
2A87
330
21B0
100
AcDbDictionary
280
     1
281
     1
  3
ACAD_LAYERSTATES
360
2A88
  0
DICTIONARY
  5
21F8
330
21CC
100
AcDbDictionary
280
     1
281
     1
  3
ACAD_LAYOUTSELFREF
360
2A7D
  0
DICTIONARY
  5
21FA
330
21C8
100
AcDbDictionary
280
     1
281
     1
  3
ACAD_LAYOUTSELFREF
360
2A7C
  0
DICTIONARY
  5
21BB
102
{ACAD_REACTORS
330
21BA
102
}
330
21BA
100
AcDbDictionary
281
     1
  0
DICTIONARY
  5
21C7
102
{ACAD_REACTORS
330
21BA
102
}
330
21BA
100
AcDbDictionary
281
     1
  3
Model
350
21CF
  3
ﾚｲｱｳﾄ1
350
21CB
  0
DICTIONARY
  5
21C4
102
{ACAD_REACTORS
330
21BA
102
}
330
21BA
100
AcDbDictionary
281
     1
  3
Standard
350
21C5
  0
DICTIONARY
  5
21C6
102
{ACAD_REACTORS
330
21BA
102
}
330
21BA
100
AcDbDictionary
281
     1
  0
ACDBDICTIONARYWDFLT
  5
21BC
102
{ACAD_REACTORS
330
21BA
102
}
330
21BA
100
AcDbDictionary
281
     1
  3
Normal
350
21BD
100
AcDbDictionaryWithDefault
340
21BD
  0
DICTIONARY
  5
2238
102
{ACAD_REACTORS
330
21BA
102
}
330
21BA
100
AcDbDictionary
281
     1
  3
DIMASSOC
350
2239
  0
XRECORD
  5
2A4C
102
{ACAD_REACTORS
330
21BA
102
}
330
21BA
100
AcDbXrecord
280
     1
  1
DWGPROPS COOKIE
  2

  3

  4

  6

  7

  8
mg
  9

300
=
301
=
302
=
303
=
304
=
305
=
306
=
307
=
308
=
309
=
 40
0.282030150462963
 41
2452488.423138738
 42
2452754.685607454
  1

 90
        0
  0
DICTIONARY
  5
2A88
102
{ACAD_REACTORS
330
2A87
102
}
330
2A87
100
AcDbDictionary
281
     1
  0
XRECORD
  5
2A7D
102
{ACAD_REACTORS
330
21F8
102
}
330
21F8
100
AcDbXrecord
280
     1
340
21CC
  0
XRECORD
  5
2A7C
102
{ACAD_REACTORS
330
21FA
102
}
330
21FA
100
AcDbXrecord
280
     1
340
21C8
  0
LAYOUT
  5
21CF
102
{ACAD_REACTORS
330
21C7
102
}
330
21C7
100
AcDbPlotSettings
  1

  2
SII LP-2150 (D-SCAN C2)
  4

  6

 40
0.0
 41
0.0
 42
0.0
 43
0.0
 44
0.0
 45
0.0
 46
0.0
 47
0.0
 48
0.0
 49
0.0
140
0.0
141
0.0
142
1.0
143
1.0
 70
  1712
 72
     0
 73
     0
 74
     0
  7

 75
     0
147
1.0
148
0.0
149
0.0
100
AcDbLayout
  1
Model
 70
     1
 71
     0
 10
0.0
 20
0.0
 11
12.0
 21
9.0
 12
0.0
 22
0.0
 32
0.0
 14
0.0
 24
0.0
 34
0.0
 15
0.0
 25
0.0
 35
0.0
146
0.0
 13
0.0
 23
0.0
 33
0.0
 16
1.0
 26
0.0
 36
0.0
 17
0.0
 27
1.0
 37
0.0
 76
     0
330
21CC
  0
LAYOUT
  5
21CB
102
{ACAD_REACTORS
330
21C7
102
}
330
21C7
100
AcDbPlotSettings
  1

  2
SII LP-2150 (D-SCAN C2)
  4

  6

 40
0.0
 41
0.0
 42
0.0
 43
0.0
 44
0.0
 45
0.0
 46
0.0
 47
0.0
 48
0.0
 49
0.0
140
0.0
141
0.0
142
1.0
143
1.0
 70
   688
 72
     0
 73
     0
 74
     5
  7

 75
    16
147
1.0
148
0.0
149
0.0
100
AcDbLayout
  1
ﾚｲｱｳﾄ1
 70
     1
 71
     1
 10
0.0
 20
0.0
 11
12.0
 21
9.0
 12
0.0
 22
0.0
 32
0.0
 14
1.000000000000000E+20
 24
1.000000000000000E+20
 34
1.000000000000000E+20
 15
-1.000000000000000E+20
 25
-1.000000000000000E+20
 35
-1.000000000000000E+20
146
0.0
 13
0.0
 23
0.0
 33
0.0
 16
1.0
 26
0.0
 36
0.0
 17
0.0
 27
1.0
 37
0.0
 76
     0
330
21C8
  0
MLINESTYLE
  5
21C5
102
{ACAD_REACTORS
330
21C4
102
}
330
21C4
100
AcDbMlineStyle
  2
STANDARD
 70
     0
  3

 62
   256
 51
90.0
 52
90.0
 71
     2
 49
0.5
 62
   256
  6
BYLAYER
 49
-0.5
 62
   256
  6
BYLAYER
  0
ACDBPLACEHOLDER
  5
21BD
102
{ACAD_REACTORS
330
21BC
102
}
330
21BC
  0
DICTIONARYVAR
  5
2239
102
{ACAD_REACTORS
330
2238
102
}
330
2238
100
DictionaryVariables
280
     0
  1
1
  0
ENDSEC
  0
EOF
