  0
SECTION
  2
HEADER
  9
$ACADVER
  1
AC1015
  9
$ACADMAINTVER
 70
    14
  9
$DWGCODEPAGE
  3
ANSI_932
  9
$INSBASE
 10
0.0
 20
0.0
 30
0.0
  9
$EXTMIN
 10
341.101987863879
 20
54.41924864484349
 30
-0.000000000000013
  9
$EXTMAX
 10
1895.547549972001
 20
655.8029653414512
 30
0.0000000000000023
  9
$LIMMIN
 10
-580.5701293945312
 20
0.0
  9
$LIMMAX
 10
0.0
 20
407.8999938964844
  9
$ORTHOMODE
 70
     0
  9
$REGENMODE
 70
     1
  9
$FILLMODE
 70
     1
  9
$QTEXTMODE
 70
     0
  9
$MIRRTEXT
 70
     1
  9
$LTSCALE
 40
1.0
  9
$ATTMODE
 70
     1
  9
$TEXTSIZE
 40
0.2
  9
$TRACEWID
 40
0.05
  9
$TEXTSTYLE
  7
STANDARD
  9
$CLAYER
  8
0
  9
$CELTYPE
  6
CONTINUOUS
  9
$CECOLOR
 62
   256
  9
$CELTSCALE
 40
1.0
  9
$DISPSILH
 70
     0
  9
$DIMSCALE
 40
1.0
  9
$DIMASZ
 40
1.0
  9
$DIMEXO
 40
2.54
  9
$DIMDLI
 40
0.38
  9
$DIMRND
 40
0.0
  9
$DIMDLE
 40
0.0
  9
$DIMEXE
 40
2.54
  9
$DIMTP
 40
0.0
  9
$DIMTM
 40
0.0
  9
$DIMTXT
 40
3.200000047683714
  9
$DIMCEN
 40
0.09
  9
$DIMTSZ
 40
0.0
  9
$DIMTOL
 70
     0
  9
$DIMLIM
 70
     0
  9
$DIMTIH
 70
     0
  9
$DIMTOH
 70
     0
  9
$DIMSE1
 70
     0
  9
$DIMSE2
 70
     0
  9
$DIMTAD
 70
     1
  9
$DIMZIN
 70
     0
  9
$DIMBLK
  1

  9
$DIMASO
 70
     1
  9
$DIMSHO
 70
     0
  9
$DIMPOST
  1

  9
$DIMAPOST
  1

  9
$DIMALT
 70
     0
  9
$DIMALTD
 70
     2
  9
$DIMALTF
 40
25.4
  9
$DIMLFAC
 40
1.0
  9
$DIMTOFL
 70
     0
  9
$DIMTVP
 40
1.0
  9
$DIMTIX
 70
     0
  9
$DIMSOXD
 70
     0
  9
$DIMSAH
 70
     0
  9
$DIMBLK1
  1

  9
$DIMBLK2
  1

  9
$DIMSTYLE
  2
STANDARD
  9
$DIMCLRD
 70
     0
  9
$DIMCLRE
 70
     0
  9
$DIMCLRT
 70
     0
  9
$DIMTFAC
 40
1.0
  9
$DIMGAP
 40
1.600000023841857
  9
$DIMJUST
 70
     0
  9
$DIMSD1
 70
     0
  9
$DIMSD2
 70
     0
  9
$DIMTOLJ
 70
     1
  9
$DIMTZIN
 70
     0
  9
$DIMALTZ
 70
     0
  9
$DIMALTTZ
 70
     0
  9
$DIMUPT
 70
     0
  9
$DIMDEC
 70
     4
  9
$DIMTDEC
 70
     4
  9
$DIMALTU
 70
     2
  9
$DIMALTTD
 70
     2
  9
$DIMTXSTY
  7
STANDARD
  9
$DIMAUNIT
 70
     0
  9
$DIMADEC
 70
     0
  9
$DIMALTRND
 40
0.0
  9
$DIMAZIN
 70
     0
  9
$DIMDSEP
 70
    46
  9
$DIMATFIT
 70
     3
  9
$DIMFRAC
 70
     0
  9
$DIMLDRBLK
  1

  9
$DIMLUNIT
 70
     2
  9
$DIMLWD
 70
    -2
  9
$DIMLWE
 70
    -2
  9
$DIMTMOVE
 70
     0
  9
$LUNITS
 70
     2
  9
$LUPREC
 70
     4
  9
$SKETCHINC
 40
0.1
  9
$FILLETRAD
 40
0.0
  9
$AUNITS
 70
     0
  9
$AUPREC
 70
     0
  9
$MENU
  1
.
  9
$ELEVATION
 40
0.0
  9
$PELEVATION
 40
0.0
  9
$THICKNESS
 40
0.0
  9
$LIMCHECK
 70
     0
  9
$CHAMFERA
 40
0.0
  9
$CHAMFERB
 40
0.0
  9
$CHAMFERC
 40
0.0
  9
$CHAMFERD
 40
0.0
  9
$SKPOLY
 70
     0
  9
$TDCREATE
 40
2452717.604314595
  9
$TDUCREATE
 40
2452717.229314595
  9
$TDUPDATE
 40
2456899.672954711
  9
$TDUUPDATE
 40
2456899.297954710
  9
$TDINDWG
 40
0.2849139005
  9
$TDUSRTIMER
 40
0.2849139005
  9
$USRTIMER
 70
     1
  9
$ANGBASE
 50
0.0
  9
$ANGDIR
 70
     0
  9
$PDMODE
 70
     0
  9
$PDSIZE
 40
0.0
  9
$PLINEWID
 40
0.0
  9
$SPLFRAME
 70
     0
  9
$SPLINETYPE
 70
     6
  9
$SPLINESEGS
 70
     8
  9
$HANDSEED
  5
90AD
  9
$SURFTAB1
 70
     6
  9
$SURFTAB2
 70
     6
  9
$SURFTYPE
 70
     6
  9
$SURFU
 70
     6
  9
$SURFV
 70
     6
  9
$UCSBASE
  2

  9
$UCSNAME
  2

  9
$UCSORG
 10
0.0
 20
0.0
 30
0.0
  9
$UCSXDIR
 10
1.0
 20
0.0
 30
0.0
  9
$UCSYDIR
 10
0.0
 20
1.0
 30
0.0
  9
$UCSORTHOREF
  2

  9
$UCSORTHOVIEW
 70
     0
  9
$UCSORGTOP
 10
0.0
 20
0.0
 30
0.0
  9
$UCSORGBOTTOM
 10
0.0
 20
0.0
 30
0.0
  9
$UCSORGLEFT
 10
0.0
 20
0.0
 30
0.0
  9
$UCSORGRIGHT
 10
0.0
 20
0.0
 30
0.0
  9
$UCSORGFRONT
 10
0.0
 20
0.0
 30
0.0
  9
$UCSORGBACK
 10
0.0
 20
0.0
 30
0.0
  9
$PUCSBASE
  2

  9
$PUCSNAME
  2

  9
$PUCSORG
 10
0.0
 20
0.0
 30
0.0
  9
$PUCSXDIR
 10
1.0
 20
0.0
 30
0.0
  9
$PUCSYDIR
 10
0.0
 20
1.0
 30
0.0
  9
$PUCSORTHOREF
  2

  9
$PUCSORTHOVIEW
 70
     0
  9
$PUCSORGTOP
 10
0.0
 20
0.0
 30
0.0
  9
$PUCSORGBOTTOM
 10
0.0
 20
0.0
 30
0.0
  9
$PUCSORGLEFT
 10
0.0
 20
0.0
 30
0.0
  9
$PUCSORGRIGHT
 10
0.0
 20
0.0
 30
0.0
  9
$PUCSORGFRONT
 10
0.0
 20
0.0
 30
0.0
  9
$PUCSORGBACK
 10
0.0
 20
0.0
 30
0.0
  9
$USERI1
 70
     0
  9
$USERI2
 70
     0
  9
$USERI3
 70
     0
  9
$USERI4
 70
     0
  9
$USERI5
 70
     0
  9
$USERR1
 40
0.0
  9
$USERR2
 40
0.0
  9
$USERR3
 40
0.0
  9
$USERR4
 40
0.0
  9
$USERR5
 40
0.0
  9
$WORLDVIEW
 70
     1
  9
$SHADEDGE
 70
     3
  9
$SHADEDIF
 70
    70
  9
$TILEMODE
 70
     1
  9
$MAXACTVP
 70
    48
  9
$PINSBASE
 10
0.0
 20
0.0
 30
0.0
  9
$PLIMCHECK
 70
     0
  9
$PEXTMIN
 10
-580.5701293945312
 20
0.0
 30
0.0
  9
$PEXTMAX
 10
0.0
 20
407.8999938964844
 30
0.0
  9
$PLIMMIN
 10
-580.5701293945312
 20
0.0
  9
$PLIMMAX
 10
0.0
 20
407.8999938964844
  9
$UNITMODE
 70
     0
  9
$VISRETAIN
 70
     1
  9
$PLINEGEN
 70
     0
  9
$PSLTSCALE
 70
     1
  9
$TREEDEPTH
 70
  3020
  9
$CMLSTYLE
  2
Standard
  9
$CMLJUST
 70
     0
  9
$CMLSCALE
 40
1.0
  9
$PROXYGRAPHICS
 70
     1
  9
$MEASUREMENT
 70
     0
  9
$CELWEIGHT
370
    -1
  9
$ENDCAPS
280
     0
  9
$JOINSTYLE
280
     0
  9
$LWDISPLAY
290
     0
  9
$INSUNITS
 70
     0
  9
$HYPERLINKBASE
  1

  9
$STYLESHEET
  1

  9
$XEDIT
290
     1
  9
$CEPSNTYPE
380
     0
  9
$PSTYLEMODE
290
     1
  9
$FINGERPRINTGUID
  2
{68CC6C17-209C-4DD6-9D20-142BE6731F50}
  9
$VERSIONGUID
  2
{0220079B-51F6-4CCA-AEC3-4255EF05B409}
  9
$EXTNAMES
290
     1
  9
$PSVPSCALE
 40
0.0
  9
$OLESTARTUP
290
     0
  0
ENDSEC
  0
SECTION
  2
CLASSES
  0
CLASS
  1
ACDBDICTIONARYWDFLT
  2
AcDbDictionaryWithDefault
  3
AutoCAD 2000
 90
        0
280
     0
281
     0
  0
CLASS
  1
ACDBPLACEHOLDER
  2
AcDbPlaceHolder
  3
AutoCAD 2000
 90
        0
280
     0
281
     0
  0
CLASS
  1
LAYOUT
  2
AcDbLayout
  3
AutoCAD 2000
 90
        0
280
     0
281
     0
  0
CLASS
  1
DICTIONARYVAR
  2
AcDbDictionaryVar
  3
AutoCAD 2000
 90
        0
280
     0
281
     0
  0
CLASS
  1
LONG_TRANSACTION
  2
AcDbLongTransaction
  3
AutoCAD 2000
 90
    32768
280
     0
281
     0
  0
CLASS
  1
LWPOLYLINE
  2
AcDbPolyline
  3
AutoCAD 2000
 90
    32768
280
     0
281
     1
  0
CLASS
  1
HATCH
  2
AcDbHatch
  3
AutoCAD 2000
 90
    32768
280
     0
281
     1
  0
CLASS
  1
XRECORD
  2
AcDbXrecord
  3
AutoCAD 2000
 90
    32768
280
     0
281
     0
  0
CLASS
  1
LONG_TRANSACTION
  2
AcDbLongTransaction
  3
AutoCAD 2000
 90
    32768
280
     0
281
     0
  0
CLASS
  1
LWPOLYLINE
  2
AcDbPolyline
  3
AutoCAD 2000
 90
    32768
280
     0
281
     1
  0
CLASS
  1
HATCH
  2
AcDbHatch
  3
AutoCAD 2000
 90
    32768
280
     0
281
     1
  0
CLASS
  1
XRECORD
  2
AcDbXrecord
  3
AutoCAD 2000
 90
    32768
280
     0
281
     0
  0
CLASS
  1
LONG_TRANSACTION
  2
AcDbLongTransaction
  3
AutoCAD 2000
 90
    32768
280
     0
281
     0
  0
CLASS
  1
LWPOLYLINE
  2
AcDbPolyline
  3
AutoCAD 2000
 90
    32768
280
     0
281
     1
  0
CLASS
  1
HATCH
  2
AcDbHatch
  3
AutoCAD 2000
 90
    32768
280
     0
281
     1
  0
CLASS
  1
XRECORD
  2
AcDbXrecord
  3
AutoCAD 2000
 90
    32768
280
     0
281
     0
  0
ENDSEC
  0
SECTION
  2
TABLES
  0
TABLE
  2
VPORT
  5
8C45
330
0
100
AcDbSymbolTable
 70
     2
  0
VPORT
  5
90AC
330
8C45
100
AcDbSymbolTableRecord
100
AcDbViewportTableRecord
  2
*Active
 70
     0
 10
0.0
 20
0.0
 11
1.0
 21
1.0
 12
1118.32476891794
 22
355.1111069931474
 13
0.0
 23
0.0
 14
1.0
 24
1.0
 15
0.0
 25
0.0
 16
0.0
 26
0.0
 36
1.0
 17
0.0
 27
0.0
 37
0.0
 40
980.2051114612181
 41
1.592161016949152
 42
50.0
 43
0.0
 44
0.0
 50
0.0
 51
0.0
 71
     0
 72
   100
 73
     1
 74
     3
 75
     0
 76
     0
 77
     0
 78
     0
281
     0
 65
     1
110
0.0
120
0.0
130
0.0
111
1.0
121
0.0
131
0.0
112
0.0
122
1.0
132
0.0
 79
     0
146
0.0
  0
ENDTAB
  0
TABLE
  2
LTYPE
  5
8C42
330
0
100
AcDbSymbolTable
 70
     2
  0
LTYPE
  5
8C50
330
8C42
100
AcDbSymbolTableRecord
100
AcDbLinetypeTableRecord
  2
ByBlock
 70
     0
  3

 72
    65
 73
     0
 40
0.0
  0
LTYPE
  5
8C51
330
8C42
100
AcDbSymbolTableRecord
100
AcDbLinetypeTableRecord
  2
ByLayer
 70
     0
  3

 72
    65
 73
     0
 40
0.0
  0
LTYPE
  5
8C52
330
8C42
100
AcDbSymbolTableRecord
100
AcDbLinetypeTableRecord
  2
CONTINUOUS
 70
     0
  3
Solid line
 72
    65
 73
     0
 40
0.0
  0
LTYPE
  5
8D17
330
8C42
100
AcDbSymbolTableRecord
100
AcDbLinetypeTableRecord
  2
CENTER
 70
     0
  3
Center ____ _ ____ _ ____ _ ____ _ ____ _ ____
 72
    65
 73
     4
 40
50.8
 49
31.75
 74
     0
 49
-6.349999999999999
 74
     0
 49
6.349999999999999
 74
     0
 49
-6.349999999999999
 74
     0
  0
ENDTAB
  0
TABLE
  2
LAYER
  5
8C3F
102
{ACAD_XDICTIONARY
360
8D18
102
}
330
0
100
AcDbSymbolTable
 70
     2
  0
LAYER
  5
8C4D
330
8C3F
100
AcDbSymbolTableRecord
100
AcDbLayerTableRecord
  2
0
 70
     0
 62
     7
  6
CONTINUOUS
370
    -3
390
8C4C
  0
LAYER
  5
8D2F
330
8C3F
100
AcDbSymbolTableRecord
100
AcDbLayerTableRecord
  2
Visible (ISO)
 70
     0
 62
     7
  6
CONTINUOUS
370
    35
390
8C4C
  0
ENDTAB
  0
TABLE
  2
STYLE
  5
8C40
330
0
100
AcDbSymbolTable
 70
     1
  0
STYLE
  5
8C4E
330
8C40
100
AcDbSymbolTableRecord
100
AcDbTextStyleTableRecord
  2
STANDARD
 70
     0
 40
0.0
 41
1.0
 50
0.0
 71
     0
 42
0.2
  3
txt
  4
BIGFONT
  0
ENDTAB
  0
TABLE
  2
VIEW
  5
8C43
330
0
100
AcDbSymbolTable
 70
     0
  0
ENDTAB
  0
TABLE
  2
UCS
  5
8C44
330
0
100
AcDbSymbolTable
 70
     0
  0
ENDTAB
  0
TABLE
  2
APPID
  5
8C46
330
0
100
AcDbSymbolTable
 70
     4
  0
APPID
  5
8C4F
330
8C46
100
AcDbSymbolTableRecord
100
AcDbRegAppTableRecord
  2
ACAD
 70
     0
  0
APPID
  5
8C61
330
8C46
100
AcDbSymbolTableRecord
100
AcDbRegAppTableRecord
  2
MCAD_NO_VIS
 70
     0
  0
APPID
  5
8C62
330
8C46
100
AcDbSymbolTableRecord
100
AcDbRegAppTableRecord
  2
ACAD_TEMP_GRAPHIC
 70
     0
  0
APPID
  5
8C63
330
8C46
100
AcDbSymbolTableRecord
100
AcDbRegAppTableRecord
  2
ACATTRIBSERVICES
 70
     0
  0
ENDTAB
  0
TABLE
  2
DIMSTYLE
  5
8C47
330
0
100
AcDbSymbolTable
 70
     1
100
AcDbDimStyleTable
 71
     0
  0
DIMSTYLE
105
8C64
330
8C47
100
AcDbSymbolTableRecord
100
AcDbDimStyleTableRecord
  2
STANDARD
 70
     0
279
     2
340
8C4E
  0
ENDTAB
  0
TABLE
  2
BLOCK_RECORD
  5
8C3E
330
0
100
AcDbSymbolTable
 70
     0
  0
BLOCK_RECORD
  5
8C5B
102
{ACAD_XDICTIONARY
360
8C6D
102
}
330
8C3E
100
AcDbSymbolTableRecord
100
AcDbBlockTableRecord
  2
*Model_Space
340
8C5E
  0
BLOCK_RECORD
  5
8C57
102
{ACAD_XDICTIONARY
360
8C6F
102
}
330
8C3E
100
AcDbSymbolTableRecord
100
AcDbBlockTableRecord
  2
*Paper_Space
340
8C5A
  0
ENDTAB
  0
ENDSEC
  0
SECTION
  2
BLOCKS
  0
BLOCK
  5
8C5C
330
8C5B
100
AcDbEntity
  8
0
100
AcDbBlockBegin
  2
*Model_Space
 70
     0
 10
0.0
 20
0.0
 30
0.0
  3
*Model_Space
  1

  0
ENDBLK
  5
8C5D
330
8C5B
100
AcDbEntity
  8
0
100
AcDbBlockEnd
  0
BLOCK
  5
8C58
330
8C57
100
AcDbEntity
 67
     1
  8
0
100
AcDbBlockBegin
  2
*Paper_Space
 70
     0
 10
0.0
 20
0.0
 30
0.0
  3
*Paper_Space
  1

  0
ENDBLK
  5
8C59
330
8C57
100
AcDbEntity
 67
     1
  8
0
100
AcDbBlockEnd
  0
ENDSEC
  0
SECTION
  2
ENTITIES
  0
TEXT
  5
1105
330
8C5B
100
AcDbEntity
  8
0
100
AcDbText
 10
341.2349643392643
 20
607.802957997289
 30
0.0
 40
48.000002
  1
DHS2S 2S
 41
1.32095
100
AcDbText
  0
LINE
  5
36C7
330
8C5B
100
AcDbEntity
  8
0
100
AcDbLine
 10
644.2528917889192
 20
226.0273759768222
 30
0.0
 11
644.2528917889192
 21
209.7378557131501
 31
0.0
  0
LINE
  5
36C8
330
8C5B
100
AcDbEntity
  8
0
100
AcDbLine
 10
665.5903551678266
 20
226.0273759768222
 30
0.0
 11
665.5903551678266
 21
209.7378557131501
 31
0.0
  0
LINE
  5
36CA
330
8C5B
100
AcDbEntity
  8
0
100
AcDbLine
 10
729.1509630779822
 20
224.7406938479163
 30
0.0
 11
729.1509630779822
 21
209.7378557131501
 31
0.0
  0
LINE
  5
36CB
330
8C5B
100
AcDbEntity
  8
0
100
AcDbLine
 10
629.1509325604039
 20
224.740681132254
 30
0.0
 11
629.1509325604039
 21
209.7378557131501
 31
0.0
  0
LINE
  5
36CD
330
8C5B
100
AcDbEntity
  8
0
100
AcDbLine
 10
695.6509630779822
 20
209.7378557131501
 30
0.0
 11
695.6509630779822
 21
181.0378740236975
 31
0.0
  0
LINE
  5
36E6
330
8C5B
100
AcDbEntity
  8
0
100
AcDbLine
 10
361.9861300615157
 20
148.3872093561044
 30
0.0
 11
473.9860385087803
 21
148.3872090921017
 31
0.0
  0
LINE
  5
36E9
330
8C5B
100
AcDbEntity
  8
0
100
AcDbLine
 10
361.9861300445439
 20
141.1872581842296
 30
0.0
 11
473.9860384918094
 21
141.1872579202269
 31
0.0
  0
LINE
  5
3701
330
8C5B
100
AcDbEntity
  8
0
100
AcDbLine
 10
473.9860384552733
 20
125.6872274026491
 30
0.0
 11
440.8386159480135
 21
125.6872274807826
 31
0.0
  0
LINE
  5
3707
330
8C5B
100
AcDbEntity
  8
0
100
AcDbLine
 10
459.2706677072585
 20
125.6872274373354
 30
0.0
 11
449.8028195973065
 21
106.7073108684225
 31
0.0
  0
LINE
  5
3716
330
8C5B
100
AcDbEntity
  8
0
100
AcDbLine
 10
473.9860385087803
 20
148.3872090921017
 30
0.0
 11
473.9860384552733
 21
125.6872579202269
 31
0.0
  0
LINE
  5
371C
330
8C5B
100
AcDbEntity
  8
0
100
AcDbLine
 10
446.8478549150304
 20
148.3872091560707
 30
0.0
 11
446.8478548615235
 21
125.6872579841962
 31
0.0
  0
LINE
  5
372E
330
8C5B
100
AcDbEntity
  8
0
100
AcDbLine
 10
389.1243441728434
 20
148.3872092921351
 30
0.0
 11
389.1243441193353
 21
125.68725812026
 31
0.0
  0
LINE
  5
3732
330
8C5B
100
AcDbEntity
  8
0
100
AcDbLine
 10
361.9861300615157
 20
148.3872093561044
 30
0.0
 11
361.9861300080078
 21
125.6872581842297
 31
0.0
  0
LINE
  5
3733
330
8C5B
100
AcDbEntity
  8
0
100
AcDbLine
 10
361.9861300080078
 20
125.6872276666513
 30
0.0
 11
395.1335527278854
 21
125.6872275885174
 31
0.0
  0
LINE
  5
373F
330
8C5B
100
AcDbEntity
  8
0
100
AcDbLine
 10
376.7015448714169
 20
125.6872276319647
 30
0.0
 11
386.1693920974843
 21
106.7073126914928
 31
0.0
  0
ARC
  5
3773
330
8C5B
100
AcDbEntity
  8
0
100
AcDbCircle
 10
383.6650393632726
 20
371.6535083152456
 30
0.0
 40
4.0
100
AcDbArc
 50
221.7455374622681
 51
276.0236915887124
  0
ARC
  5
3774
330
8C5B
100
AcDbEntity
  8
0
100
AcDbCircle
 10
383.6650393632726
 20
432.909276137512
 30
0.0
 40
4.0
100
AcDbArc
 50
83.97630841128759
 51
138.2544625377317
  0
CIRCLE
  5
3775
330
8C5B
100
AcDbEntity
  8
0
100
AcDbCircle
 10
417.9860842851476
 20
402.2814074851679
 30
0.0
 40
55.99995422363281
  0
ARC
  5
3776
330
8C5B
100
AcDbEntity
  8
0
100
AcDbCircle
 10
417.9860842851476
 20
402.2814074851679
 30
0.0
 40
62.99995422363281
100
AcDbArc
 50
207.2660555162233
 51
242.7339438005308
  0
ARC
  5
3777
330
8C5B
100
AcDbEntity
  8
0
100
AcDbCircle
 10
417.9860842851476
 20
402.2814074851679
 30
0.0
 40
62.99995422363281
100
AcDbArc
 50
117.2660561994691
 51
152.7339444837793
  0
ARC
  5
3779
330
8C5B
100
AcDbEntity
  8
0
100
AcDbCircle
 10
354.4860842851483
 20
402.2814074851679
 30
0.0
 40
20.5
100
AcDbArc
 50
323.9763119021656
 51
0.0
  0
LINE
  5
377A
330
8C5B
100
AcDbEntity
  8
0
100
AcDbLine
 10
361.9860842851481
 20
373.4196826316517
 30
0.0
 11
361.9860842851481
 21
431.1431323386841
 31
0.0
  0
ARC
  5
377B
330
8C5B
100
AcDbEntity
  8
0
100
AcDbCircle
 10
417.9860842851476
 20
402.2814074851679
 30
0.0
 40
50.00000381469727
100
AcDbArc
 50
198.254454189472
 51
221.7455374622681
  0
ARC
  5
3780
330
8C5B
100
AcDbEntity
  8
0
100
AcDbCircle
 10
374.3010256913981
 20
387.8724719382929
 30
0.0
 40
4.0
100
AcDbArc
 50
143.9763169111231
 51
198.2544505470011
  0
ARC
  5
3782
330
8C5B
100
AcDbEntity
  8
0
100
AcDbCircle
 10
417.9860842851476
 20
402.2814074851679
 30
0.0
 40
50.00000381469727
100
AcDbArc
 50
138.2544625377317
 51
161.7455458105349
  0
ARC
  5
3783
330
8C5B
100
AcDbEntity
  8
0
100
AcDbCircle
 10
354.4860842851483
 20
402.2814074851679
 30
0.0
 40
20.5
100
AcDbArc
 50
0.0
 51
36.0236880978342
  0
ARC
  5
3784
330
8C5B
100
AcDbEntity
  8
0
100
AcDbCircle
 10
374.3010256913981
 20
416.690343032043
 30
0.0
 40
4.0
100
AcDbArc
 50
161.7455458105318
 51
216.0236931067915
  0
LINE
  5
3788
330
8C5B
100
AcDbEntity
  8
0
100
AcDbLine
 10
443.3860476640544
 20
492.0291200079791
 30
0.0
 11
443.3860476640544
 21
458.281359959436
 31
0.0
  0
LINE
  5
3789
330
8C5B
100
AcDbEntity
  8
0
100
AcDbLine
 10
392.5861209062415
 20
492.0291540629521
 30
0.0
 11
392.5861209062415
 21
458.281360876848
 31
0.0
  0
ARC
  5
3790
330
8C5B
100
AcDbEntity
  8
0
100
AcDbCircle
 10
481.4860842851476
 20
402.2814074851679
 30
0.0
 40
20.5
100
AcDbArc
 50
179.9999913485786
 51
216.0236794464136
  0
LINE
  5
3792
330
8C5B
100
AcDbEntity
  8
0
100
AcDbLine
 10
473.9860232499918
 20
373.4196826316517
 30
0.0
 11
473.9860232499918
 21
431.1431323386841
 31
0.0
  0
ARC
  5
3793
330
8C5B
100
AcDbEntity
  8
0
100
AcDbCircle
 10
449.7360842851476
 20
347.2887622214956
 30
0.0
 40
20.5
100
AcDbArc
 50
83.97630841128759
 51
120.0000033393026
  0
LINE
  5
3795
330
8C5B
100
AcDbEntity
  8
0
100
AcDbLine
 10
385.9860842851484
 20
307.2814074851681
 30
0.0
 11
449.9860842851476
 21
307.2814074851681
 31
0.0
  0
LINE
  5
3797
330
8C5B
100
AcDbEntity
  8
0
100
AcDbLine
 10
449.9860842851476
 20
310.1314124340651
 30
0.0
 11
443.386047664053
 21
312.5336293952291
 31
0.0
  0
LINE
  5
3798
330
8C5B
100
AcDbEntity
  8
0
100
AcDbLine
 10
389.1243289140545
 20
346.2814380027456
 30
0.0
 11
446.8477786210857
 21
346.2814380027456
 31
0.0
  0
ARC
  5
3799
330
8C5B
100
AcDbEntity
  8
0
100
AcDbCircle
 10
417.9860842851476
 20
402.2814074851679
 30
0.0
 40
50.00000381469727
100
AcDbArc
 50
258.254455859125
 51
281.7455459621161
  0
LINE
  5
379C
330
8C5B
100
AcDbEntity
  8
0
100
AcDbLine
 10
392.5861209062415
 20
312.533627816384
 30
0.0
 11
392.5861209062415
 21
346.2814380027456
 31
0.0
  0
LINE
  5
379E
330
8C5B
100
AcDbEntity
  8
0
100
AcDbLine
 10
385.9860842851476
 20
310.13141085522
 30
0.0
 11
392.5861209062415
 21
312.533627816384
 31
0.0
  0
LINE
  5
37A0
330
8C5B
100
AcDbEntity
  8
0
100
AcDbLine
 10
385.9860842851484
 20
307.2814074851681
 30
0.0
 11
385.9860842851476
 21
310.13141085522
 31
0.0
  0
LINE
  5
37A4
330
8C5B
100
AcDbEntity
  8
0
100
AcDbLine
 10
443.386047664053
 20
312.5336293952291
 30
0.0
 11
443.3860476640544
 21
346.2814380027456
 31
0.0
  0
ARC
  5
37AB
330
8C5B
100
AcDbEntity
  8
0
100
AcDbCircle
 10
386.2360842851476
 20
347.2887622214956
 30
0.0
 40
20.5
100
AcDbArc
 50
23.97631015672517
 51
60.00000166965785
  0
ARC
  5
37AC
330
8C5B
100
AcDbEntity
  8
0
100
AcDbCircle
 10
386.2360842851476
 20
347.2887622214956
 30
0.0
 40
20.5
100
AcDbArc
 50
60.00000166965785
 51
96.02368976748829
  0
ARC
  5
37AD
330
8C5B
100
AcDbEntity
  8
0
100
AcDbCircle
 10
408.6220706132726
 20
357.2445727683712
 30
0.0
 40
4.0
100
AcDbArc
 50
203.9763085628634
 51
258.254455859125
  0
ARC
  5
37B4
330
8C5B
100
AcDbEntity
  8
0
100
AcDbCircle
 10
427.3500979570235
 20
357.2445727683712
 30
0.0
 40
4.0
100
AcDbArc
 50
281.7455459621161
 51
336.0236898432777
  0
ARC
  5
37B5
330
8C5B
100
AcDbEntity
  8
0
100
AcDbCircle
 10
449.7360842851476
 20
347.2887622214956
 30
0.0
 40
20.5
100
AcDbArc
 50
120.0000033393026
 51
156.0236914371393
  0
ARC
  5
37BA
330
8C5B
100
AcDbEntity
  8
0
100
AcDbCircle
 10
417.9860842851476
 20
402.2814074851679
 30
0.0
 40
62.99995422363281
100
AcDbArc
 50
297.2660580206981
 51
332.7339445974637
  0
LINE
  5
37BC
330
8C5B
100
AcDbEntity
  8
0
100
AcDbLine
 10
449.9860842851476
 20
307.2814074851681
 30
0.0
 11
449.9860842851476
 21
310.1314124340651
 31
0.0
  0
ARC
  5
37BD
330
8C5B
100
AcDbEntity
  8
0
100
AcDbCircle
 10
417.9860842851476
 20
402.2814074851679
 30
0.0
 40
50.00000381469727
100
AcDbArc
 50
318.2544575287755
 51
341.7455442166687
  0
ARC
  5
37C2
330
8C5B
100
AcDbEntity
  8
0
100
AcDbCircle
 10
452.3070681718663
 20
371.6535083152456
 30
0.0
 40
4.0
100
AcDbArc
 50
263.9763102325114
 51
318.2544575287731
  0
ARC
  5
37C3
330
8C5B
100
AcDbEntity
  8
0
100
AcDbCircle
 10
461.6710818437417
 20
387.8724719382929
 30
0.0
 40
4.0
100
AcDbArc
 50
341.7455442166687
 51
36.0236880978342
  0
ARC
  5
37C4
330
8C5B
100
AcDbEntity
  8
0
100
AcDbCircle
 10
449.7360842851476
 20
457.274022231262
 30
0.0
 40
20.5
100
AcDbArc
 50
239.9999966606972
 51
276.0236915887124
  0
LINE
  5
37C6
330
8C5B
100
AcDbEntity
  8
0
100
AcDbLine
 10
389.1243289140545
 20
458.2813159324341
 30
0.0
 11
446.8478396562417
 21
458.2813159324341
 31
0.0
  0
ARC
  5
37C7
330
8C5B
100
AcDbEntity
  8
0
100
AcDbCircle
 10
449.7360842851476
 20
457.274022231262
 30
0.0
 40
20.5
100
AcDbArc
 50
203.9763085628634
 51
239.9999966606972
  0
ARC
  5
37C8
330
8C5B
100
AcDbEntity
  8
0
100
AcDbCircle
 10
386.2360842851476
 20
457.274022231262
 30
0.0
 40
20.5
100
AcDbArc
 50
299.9999983303532
 51
336.0236898432777
  0
ARC
  5
37D6
330
8C5B
100
AcDbEntity
  8
0
100
AcDbCircle
 10
386.2360842851476
 20
457.274022231262
 30
0.0
 40
20.5
100
AcDbArc
 50
263.9763102325114
 51
299.9999983303532
  0
ARC
  5
37DD
330
8C5B
100
AcDbEntity
  8
0
100
AcDbCircle
 10
417.9860842851476
 20
402.2814074851679
 30
0.0
 40
50.00000381469727
100
AcDbArc
 50
78.25445403788382
 51
101.7455441408747
  0
ARC
  5
37E0
330
8C5B
100
AcDbEntity
  8
0
100
AcDbCircle
 10
408.6220706132726
 20
447.3182116843871
 30
0.0
 40
4.0
100
AcDbArc
 50
101.7455441408747
 51
156.0236914371393
  0
ARC
  5
37E2
330
8C5B
100
AcDbEntity
  8
0
100
AcDbCircle
 10
427.3500979570235
 20
447.3182116843871
 30
0.0
 40
4.0
100
AcDbArc
 50
23.97631015672517
 51
78.25445403788382
  0
ARC
  5
37E4
330
8C5B
100
AcDbEntity
  8
0
100
AcDbCircle
 10
417.9860842851476
 20
402.2814074851679
 30
0.0
 40
62.99995422363281
100
AcDbArc
 50
27.26605881762823
 51
62.73394197930182
  0
ARC
  5
37E6
330
8C5B
100
AcDbEntity
  8
0
100
AcDbCircle
 10
417.9860842851476
 20
402.2814074851679
 30
0.0
 40
50.00000381469727
100
AcDbArc
 50
18.25445578333128
 51
41.74554247122688
  0
ARC
  5
37E7
330
8C5B
100
AcDbEntity
  8
0
100
AcDbCircle
 10
481.4860842851476
 20
402.2814074851679
 30
0.0
 40
20.5
100
AcDbArc
 50
143.9763169111231
 51
180.0000050089568
  0
ARC
  5
37E8
330
8C5B
100
AcDbEntity
  8
0
100
AcDbCircle
 10
461.6710818437417
 20
416.690343032043
 30
0.0
 40
4.0
100
AcDbArc
 50
323.9763119021656
 51
18.25445578333128
  0
ARC
  5
37EC
330
8C5B
100
AcDbEntity
  8
0
100
AcDbCircle
 10
452.3070681718663
 20
432.909276137512
 30
0.0
 40
4.0
100
AcDbArc
 50
41.74554247122688
 51
96.02368976748829
  0
LINE
  5
37EF
330
8C5B
100
AcDbEntity
  8
0
100
AcDbLine
 10
692.6509630779823
 20
234.0378435061194
 30
0.0
 11
665.6509630779823
 21
234.0378435061194
 31
0.0
  0
ARC
  5
37F5
330
8C5B
100
AcDbEntity
  8
0
100
AcDbCircle
 10
679.1509630779824
 20
104.7406938479159
 30
0.0
 40
130.0
100
AcDbArc
 50
95.9606874193377
 51
112.6198795191112
  0
LINE
  5
37F8
330
8C5B
100
AcDbEntity
  8
0
100
AcDbLine
 10
725.9434917354684
 20
226.0273759768222
 30
0.0
 11
632.3584344204955
 21
226.0273759768222
 31
0.0
  0
ARC
  5
37FD
330
8C5B
100
AcDbEntity
  8
0
100
AcDbCircle
 10
679.1509630779824
 20
104.7406938479159
 30
0.0
 40
130.0
100
AcDbArc
 50
67.38013505195964
 51
84.03931258066554
  0
LINE
  5
3817
330
8C5B
100
AcDbEntity
  8
0
100
AcDbLine
 10
449.9860842851484
 20
494.4313369691436
 30
0.0
 11
443.3860476640544
 21
492.0291200079791
 31
0.0
  0
LINE
  5
3819
330
8C5B
100
AcDbEntity
  8
0
100
AcDbLine
 10
385.9860842851476
 20
497.2813769675903
 30
0.0
 11
449.9860842851476
 21
497.2813769675903
 31
0.0
  0
LINE
  5
381C
330
8C5B
100
AcDbEntity
  8
0
100
AcDbLine
 10
385.9860842851476
 20
494.431371024117
 30
0.0
 11
392.5861209062415
 21
492.0291540629521
 31
0.0
  0
LINE
  5
381E
330
8C5B
100
AcDbEntity
  8
0
100
AcDbLine
 10
385.9860842851476
 20
497.2813769675903
 30
0.0
 11
385.9860842851476
 21
494.431371024117
 31
0.0
  0
LINE
  5
3824
330
8C5B
100
AcDbEntity
  8
0
100
AcDbLine
 10
449.9860842851476
 20
497.2813769675903
 30
0.0
 11
449.9860842851484
 21
494.4313369691436
 31
0.0
  0
LINE
  5
3828
330
8C5B
100
AcDbEntity
  8
0
100
AcDbLine
 10
695.6509630779822
 20
181.0378740236975
 30
0.0
 11
662.6509630779824
 21
181.0378740236975
 31
0.0
  0
LINE
  5
3829
330
8C5B
100
AcDbEntity
  8
0
100
AcDbLine
 10
729.1509630779822
 20
209.7378557131501
 30
0.0
 11
629.1509325604039
 21
209.7378557131501
 31
0.0
  0
LINE
  5
382B
330
8C5B
100
AcDbEntity
  8
0
100
AcDbLine
 10
662.6509630779824
 20
209.7378557131501
 30
0.0
 11
662.6509630779824
 21
181.0378740236975
 31
0.0
  0
LINE
  5
3832
330
8C5B
100
AcDbEntity
  8
0
100
AcDbLine
 10
662.6510087495885
 20
176.9871538088538
 30
0.0
 11
633.7510607342323
 21
171.8913130854365
 31
0.0
  0
LINE
  5
3835
330
8C5B
100
AcDbEntity
  8
0
100
AcDbLine
 10
668.1509630779824
 20
176.9871538088538
 30
0.0
 11
668.1509630779824
 21
181.0378740236975
 31
0.0
  0
LINE
  5
3839
330
8C5B
100
AcDbEntity
  8
0
100
AcDbLine
 10
695.6509472795625
 20
176.9871636661737
 30
0.0
 11
724.5509029557985
 21
171.8913215919366
 31
0.0
  0
LINE
  5
3867
330
8C5B
100
AcDbEntity
  8
0
100
AcDbLine
 10
690.1509630779822
 20
181.0378740236975
 30
0.0
 11
690.1509630779822
 21
176.9871538088538
 31
0.0
  0
LINE
  5
386F
330
8C5B
100
AcDbEntity
  8
0
100
AcDbLine
 10
695.6509630779822
 20
176.9871538088538
 30
0.0
 11
662.6510087495885
 21
176.9871538088538
 31
0.0
  0
LINE
  5
3878
330
8C5B
100
AcDbEntity
  8
0
100
AcDbLine
 10
768.8987356282812
 20
77.88717822291606
 30
0.0
 11
735.1509325604039
 21
77.88717822291606
 31
0.0
  0
LINE
  5
3879
330
8C5B
100
AcDbEntity
  8
0
100
AcDbLine
 10
768.8987316649428
 20
128.687196533463
 30
0.0
 11
735.1509325604045
 21
128.687196533463
 31
0.0
  0
LINE
  5
387C
330
8C5B
100
AcDbEntity
  8
0
100
AcDbLine
 10
667.9918309212204
 20
97.28722957632351
 30
0.0
 11
658.2345981238604
 21
80.38720693334552
 31
0.0
  0
LINE
  5
387D
330
8C5B
100
AcDbEntity
  8
0
100
AcDbLine
 10
690.3101191165275
 20
97.28719217824801
 30
0.0
 11
700.0673404697944
 21
80.38718935701773
 31
0.0
  0
LINE
  5
387E
330
8C5B
100
AcDbEntity
  8
0
100
AcDbLine
 10
623.1509935955605
 20
148.387208740494
 30
0.0
 11
623.1509935955605
 21
76.38717822291607
 31
0.0
  0
LINE
  5
387F
330
8C5B
100
AcDbEntity
  8
0
100
AcDbLine
 10
584.1509630779815
 20
135.2871721194004
 30
0.0
 11
584.1509630779815
 21
71.28720263697856
 31
0.0
  0
ARC
  5
3880
330
8C5B
100
AcDbEntity
  8
0
100
AcDbCircle
 10
678.3841173748578
 20
91.2872026369788
 30
0.0
 40
12.0
100
AcDbArc
 50
90.00000865142139
 51
149.9999966606972
  0
LINE
  5
3882
330
8C5B
100
AcDbEntity
  8
0
100
AcDbLine
 10
623.1509935955605
 20
148.387208740494
 30
0.0
 11
735.1509325604045
 21
148.387208740494
 31
0.0
  0
LINE
  5
3883
330
8C5B
100
AcDbEntity
  8
0
100
AcDbLine
 10
623.1509935955605
 20
125.687166015885
 30
0.0
 11
735.1509325604039
 21
125.687166015885
 31
0.0
  0
LINE
  5
3885
330
8C5B
100
AcDbEntity
  8
0
100
AcDbLine
 10
623.1509325604037
 20
141.187196533463
 30
0.0
 11
735.1509325604045
 21
141.187196533463
 31
0.0
  0
LINE
  5
3886
330
8C5B
100
AcDbEntity
  8
0
100
AcDbLine
 10
633.7510607342323
 20
171.8913130854365
 30
0.0
 11
633.7510607342323
 21
148.387208740494
 31
0.0
  0
LINE
  5
388D
330
8C5B
100
AcDbEntity
  8
0
100
AcDbLine
 10
589.4031451619585
 20
128.687196533463
 30
0.0
 11
623.1509935955605
 21
128.687196533463
 31
0.0
  0
LINE
  5
3890
330
8C5B
100
AcDbEntity
  8
0
100
AcDbLine
 10
587.0009504157743
 20
135.2871721194004
 30
0.0
 11
589.4031451619585
 21
128.687196533463
 31
0.0
  0
LINE
  5
3892
330
8C5B
100
AcDbEntity
  8
0
100
AcDbLine
 10
584.1509630779815
 20
135.2871721194004
 30
0.0
 11
587.0009504157743
 21
135.2871721194004
 31
0.0
  0
ARC
  5
393E
330
8C5B
100
AcDbEntity
  8
0
100
AcDbCircle
 10
679.9178087811078
 20
91.2872026369788
 30
0.0
 40
12.0
100
AcDbArc
 50
30.00000333930278
 51
90.00000500895692
  0
LINE
  5
393F
330
8C5B
100
AcDbEntity
  8
0
100
AcDbLine
 10
678.3841173748578
 20
103.2872026369788
 30
0.0
 11
679.9178087811078
 21
103.2872026369788
 31
0.0
  0
LINE
  5
3943
330
8C5B
100
AcDbEntity
  8
0
100
AcDbLine
 10
735.1509325604045
 20
148.387208740494
 30
0.0
 11
735.1509325604039
 21
76.38717822291607
 31
0.0
  0
LINE
  5
3965
330
8C5B
100
AcDbEntity
  8
0
100
AcDbLine
 10
623.1509935955605
 20
76.38717822291607
 30
0.0
 11
651.3063891033737
 21
76.38717822291607
 31
0.0
  0
LINE
  5
3966
330
8C5B
100
AcDbEntity
  8
0
100
AcDbLine
 10
589.4032223889405
 20
77.88717822291606
 30
0.0
 11
623.1509935955605
 21
77.88717822291606
 31
0.0
  0
LINE
  5
3970
330
8C5B
100
AcDbEntity
  8
0
100
AcDbLine
 10
587.0010276427565
 20
71.28720263697856
 30
0.0
 11
589.4032223889405
 21
77.88717822291606
 31
0.0
  0
LINE
  5
3971
330
8C5B
100
AcDbEntity
  8
0
100
AcDbLine
 10
584.1509630779815
 20
71.28720263697856
 30
0.0
 11
587.0010276427565
 21
71.28720263697856
 31
0.0
  0
ARC
  5
3974
330
8C5B
100
AcDbEntity
  8
0
100
AcDbCircle
 10
651.3063891033737
 20
84.38720874049442
 30
0.0
 40
8.0
100
AcDbArc
 50
269.9999974955214
 51
330.0000016696579
  0
LINE
  5
3975
330
8C5B
100
AcDbEntity
  8
0
100
AcDbLine
 10
735.1509325604039
 20
76.38717822291607
 30
0.0
 11
706.9955370525915
 21
76.38717822291607
 31
0.0
  0
ARC
  5
3977
330
8C5B
100
AcDbEntity
  8
0
100
AcDbCircle
 10
706.9955370525915
 20
84.38720874049442
 30
0.0
 40
8.0
100
AcDbArc
 50
210.0000051605343
 51
269.9999974955214
  0
LINE
  5
397B
330
8C5B
100
AcDbEntity
  8
0
100
AcDbLine
 10
774.150932560404
 20
135.2871721194004
 30
0.0
 11
774.150932560404
 21
71.28720263697856
 31
0.0
  0
LINE
  5
397F
330
8C5B
100
AcDbEntity
  8
0
100
AcDbLine
 10
771.3009264111258
 20
135.2871721194004
 30
0.0
 11
768.8987316649428
 21
128.687196533463
 31
0.0
  0
LINE
  5
3981
330
8C5B
100
AcDbEntity
  8
0
100
AcDbLine
 10
774.150932560404
 20
135.2871721194004
 30
0.0
 11
771.3009264111258
 21
135.2871721194004
 31
0.0
  0
LINE
  5
3994
330
8C5B
100
AcDbEntity
  8
0
100
AcDbLine
 10
774.150932560404
 20
71.28720263697856
 30
0.0
 11
771.3009303744645
 21
71.28720263697856
 31
0.0
  0
LINE
  5
3996
330
8C5B
100
AcDbEntity
  8
0
100
AcDbLine
 10
771.3009303744645
 20
71.28720263697856
 30
0.0
 11
768.8987356282812
 21
77.88717822291606
 31
0.0
  0
LINE
  5
399A
330
8C5B
100
AcDbEntity
  8
0
100
AcDbLine
 10
692.7115231494022
 20
226.0273903962105
 30
0.0
 11
692.7115404705525
 21
209.7378701325481
 31
0.0
  0
LINE
  5
399B
330
8C5B
100
AcDbEntity
  8
0
100
AcDbLine
 10
714.0489865282964
 20
226.0274130849954
 30
0.0
 11
714.0490038494465
 21
209.7378928213329
 31
0.0
  0
LINE
  5
399C
330
8C5B
100
AcDbEntity
  8
0
100
AcDbLine
 10
724.5509029557985
 20
171.8913215919366
 30
0.0
 11
724.5508654216742
 21
148.3871362408285
 31
0.0
  0
LINE
  5
39B9
330
8C5B
100
AcDbEntity
  8
0
100
AcDbLine
 10
401.4861299567543
 20
176.9871542924625
 30
0.0
 11
372.5861819413987
 21
171.8913135690451
 31
0.0
  0
ARC
  5
39BA
330
8C5B
100
AcDbEntity
  8
0
100
AcDbCircle
 10
417.9860842851485
 20
104.7406943315247
 30
0.0
 40
130.0
100
AcDbArc
 50
95.9606874193377
 51
112.6198795191112
  0
LINE
  5
39BB
330
8C5B
100
AcDbEntity
  8
0
100
AcDbLine
 10
464.7786129426345
 20
226.0273764604312
 30
0.0
 11
371.1935556276622
 21
226.0273764604312
 31
0.0
  0
LINE
  5
39BC
330
8C5B
100
AcDbEntity
  8
0
100
AcDbLine
 10
467.9860842851485
 20
209.7378561967594
 30
0.0
 11
367.98605376757
 21
209.7378561967594
 31
0.0
  0
LINE
  5
39BD
330
8C5B
100
AcDbEntity
  8
0
100
AcDbLine
 10
367.98605376757
 20
224.7406816158629
 30
0.0
 11
367.98605376757
 21
209.7378561967594
 31
0.0
  0
LINE
  5
39BE
330
8C5B
100
AcDbEntity
  8
0
100
AcDbLine
 10
383.0880129960851
 20
226.0273764604312
 30
0.0
 11
383.0880129960851
 21
209.7378561967594
 31
0.0
  0
LINE
  5
39BF
330
8C5B
100
AcDbEntity
  8
0
100
AcDbLine
 10
431.5466443565685
 20
226.0273908798195
 30
0.0
 11
431.5466616777197
 21
209.7378706161571
 31
0.0
  0
LINE
  5
39C0
330
8C5B
100
AcDbEntity
  8
0
100
AcDbLine
 10
404.4254763749925
 20
226.0273764604312
 30
0.0
 11
404.4254763749925
 21
209.7378561967594
 31
0.0
  0
LINE
  5
39C1
330
8C5B
100
AcDbEntity
  8
0
100
AcDbLine
 10
452.8841077354625
 20
226.0274135686044
 30
0.0
 11
452.8841250566137
 21
209.7378933049416
 31
0.0
  0
LINE
  5
39C2
330
8C5B
100
AcDbEntity
  8
0
100
AcDbLine
 10
467.9860842851485
 20
224.7406943315251
 30
0.0
 11
467.9860842851485
 21
209.7378561967594
 31
0.0
  0
LINE
  5
39C3
330
8C5B
100
AcDbEntity
  8
0
100
AcDbLine
 10
434.4860684867285
 20
176.9871641497824
 30
0.0
 11
463.3860241629651
 21
171.8913220755451
 31
0.0
  0
LINE
  5
39C4
330
8C5B
100
AcDbEntity
  8
0
100
AcDbLine
 10
434.4860842851485
 20
176.9871542924625
 30
0.0
 11
401.4861299567543
 21
176.9871542924625
 31
0.0
  0
LINE
  5
39C5
330
8C5B
100
AcDbEntity
  8
0
100
AcDbLine
 10
434.4860842851485
 20
181.0378745073066
 30
0.0
 11
401.4860842851485
 21
181.0378745073061
 31
0.0
  0
LINE
  5
39C6
330
8C5B
100
AcDbEntity
  8
0
100
AcDbLine
 10
428.9860842851484
 20
181.0378745073066
 30
0.0
 11
428.9860842851484
 21
176.9871542924625
 31
0.0
  0
LINE
  5
39C7
330
8C5B
100
AcDbEntity
  8
0
100
AcDbLine
 10
406.9860842851484
 20
176.9871542924625
 30
0.0
 11
406.9860842851484
 21
181.0378745073061
 31
0.0
  0
LINE
  5
39C8
330
8C5B
100
AcDbEntity
  8
0
100
AcDbLine
 10
401.4860842851485
 20
209.7378561967594
 30
0.0
 11
401.4860842851485
 21
181.0378745073061
 31
0.0
  0
LINE
  5
39C9
330
8C5B
100
AcDbEntity
  8
0
100
AcDbLine
 10
434.4860842851485
 20
209.7378561967594
 30
0.0
 11
434.4860842851485
 21
181.0378745073066
 31
0.0
  0
ARC
  5
39CA
330
8C5B
100
AcDbEntity
  8
0
100
AcDbCircle
 10
417.9860842851485
 20
104.7406943315247
 30
0.0
 40
130.0
100
AcDbArc
 50
67.38013505195964
 51
84.03931258066554
  0
LINE
  5
39CB
330
8C5B
100
AcDbEntity
  8
0
100
AcDbLine
 10
431.4860842851484
 20
234.0378439897282
 30
0.0
 11
404.4860842851484
 21
234.0378439897282
 31
0.0
  0
LINE
  5
39CC
330
8C5B
100
AcDbEntity
  8
0
100
AcDbLine
 10
372.5861819413987
 20
171.8913135690451
 30
0.0
 11
372.5861819413987
 21
148.3872092241031
 31
0.0
  0
LINE
  5
39CD
330
8C5B
100
AcDbEntity
  8
0
100
AcDbLine
 10
463.3860241629651
 20
171.8913220755451
 30
0.0
 11
463.3859866288404
 21
148.3871367244371
 31
0.0
  0
CIRCLE
  5
39CE
330
8C5B
100
AcDbEntity
  8
0
100
AcDbCircle
 10
417.9860842851485
 20
103.2871873781894
 30
0.0
 40
23.89996337890647
  0
CIRCLE
  5
39CF
330
8C5B
100
AcDbEntity
  8
0
100
AcDbCircle
 10
417.9860842851485
 20
103.2871873781894
 30
0.0
 40
32.0
  0
LINE
  5
3FA3
330
8C5B
100
AcDbEntity
  8
0
100
AcDbLine
 10
589.4031451619585
 20
128.687196533463
 30
0.0
 11
589.4032223889405
 21
77.88717822291606
 31
0.0
  0
LINE
  5
3FA4
330
8C5B
100
AcDbEntity
  8
0
100
AcDbLine
 10
768.8987316649428
 20
128.687196533463
 30
0.0
 11
768.8987356282812
 21
77.88717822291606
 31
0.0
  0
LINE
  5
896C
330
8C5B
100
AcDbEntity
  8
0
100
AcDbLine
 10
708.0127489666543
 20
148.3872088044634
 30
0.0
 11
708.0127489131466
 21
125.6872576325885
 31
0.0
  0
LINE
  5
896D
330
8C5B
100
AcDbEntity
  8
0
100
AcDbLine
 10
650.2892382244664
 20
148.3872089405276
 30
0.0
 11
650.2892381709598
 21
125.6872577686525
 31
0.0
  0
LINE
  5
8C32
330
8C5B
100
AcDbEntity
  8
0
  6
Continuous
100
AcDbLine
 10
392.5861209062415
 20
492.0291540629521
 30
0.0
 11
443.3860476640544
 21
492.0291200079791
 31
0.0
  0
LINE
  5
8C33
330
8C5B
100
AcDbEntity
  8
0
  6
Continuous
100
AcDbLine
 10
392.5861209062415
 20
312.533627816384
 30
0.0
 11
443.386047664053
 21
312.5336293952291
 31
0.0
  0
LINE
  5
8D24
330
8C5B
100
AcDbEntity
  8
0
  6
CENTER
100
AcDbLine
 10
484.2357594057429
 20
402.2814074851681
 30
0.0
 11
351.7364091645522
 21
402.2814074851678
 31
0.0
  0
LINE
  5
8D25
330
8C5B
100
AcDbEntity
  8
0
  6
CENTER
100
AcDbLine
 10
417.9860842851476
 20
287.9494946597235
 30
0.0
 11
417.9860842851476
 21
516.6133203106125
 31
0.0
  0
LINE
  5
8D26
330
8C5B
100
AcDbEntity
  8
0
  6
CENTER
100
AcDbLine
 10
460.3635491053664
 20
103.2871873781896
 30
0.0
 11
375.6086194649304
 21
103.2871873781893
 31
0.0
  0
LINE
  5
8D27
330
8C5B
100
AcDbEntity
  8
0
  6
CENTER
100
AcDbLine
 10
417.9860842851484
 20
59.12710404473933
 30
0.0
 11
417.9860842851484
 21
244.749657590562
 31
0.0
  0
LINE
  5
8D28
330
8C5B
100
AcDbEntity
  8
0
  6
CENTER
100
AcDbLine
 10
786.0718803693356
 20
103.2871873781894
 30
0.0
 11
572.2300457866286
 21
103.2871873781894
 31
0.0
  0
LINE
  5
8D29
330
8C5B
100
AcDbEntity
  8
0
  6
CENTER
100
AcDbLine
 10
679.1509630779821
 20
86.87429188019041
 30
0.0
 11
679.1509630779821
 21
252.3009332703109
 31
0.0
  0
LINE
  5
8EEA
330
8C5B
100
AcDbEntity
  8
Visible (ISO)
100
AcDbLine
 10
1566.066446569871
 20
195.5720240856697
 30
0.0
 11
1579.60932508999
 21
202.4724653510819
 31
0.0
  0
LINE
  5
8EEB
330
8C5B
100
AcDbEntity
  8
Visible (ISO)
100
AcDbLine
 10
1576.729608962026
 20
174.644389552919
 30
0.0
 11
1566.06644656987
 21
195.5720240856697
 31
0.0
  0
LINE
  5
8EEC
330
8C5B
100
AcDbEntity
  8
Visible (ISO)
100
AcDbLine
 10
1590.272487482144
 20
181.5448308183312
 30
0.0
 11
1576.729608962026
 21
174.644389552919
 31
0.0
  0
SPLINE
  5
8EED
330
8C5B
100
AcDbEntity
  8
Visible (ISO)
100
AcDbSpline
210
0.0
220
0.0
230
1.0
 70
     8
 71
     3
 72
    18
 73
    14
 74
     0
 42
0.0000000001
 43
0.0000000001
 40
8.693796455454393
 40
8.693796455454393
 40
8.693796455454393
 40
8.693796455454393
 40
8.91551135198194
 40
8.91551135198194
 40
9.518705262616244
 40
9.518705262616244
 40
10.12189917325054
 40
10.12189917325054
 40
10.72509308388485
 40
10.72509308388485
 40
11.32828699451915
 40
11.32828699451915
 40
11.5500018910467
 40
11.5500018910467
 40
11.5500018910467
 40
11.5500018910467
 10
1579.60932508999
 20
202.472465351081
 30
0.0
 10
1580.086937472955
 20
201.8839633697242
 30
0.0
 10
1580.555041524535
 20
201.2935908309771
 30
0.0
 10
1582.232104578467
 20
199.1282753886178
 30
0.0
 10
1583.52130814968
 20
197.3551717234621
 30
0.0
 10
1585.841234213263
 20
193.8262998967037
 30
0.0
 10
1586.86903008671
 20
192.0688368642093
 30
0.0
 10
1588.450070918378
 20
188.9658695183487
 30
0.0
 10
1589.124699396598
 20
187.3821366334303
 30
0.0
 10
1590.02391102856
 20
184.5930950002437
 30
0.0
 10
1590.251889575965
 20
183.3885611006333
 30
0.0
 10
1590.311079593545
 20
182.1462880246288
 30
0.0
 10
1590.304191527845
 20
181.8314732241804
 30
0.0
 10
1590.272487482144
 20
181.5448308183311
 30
0.0
  0
LINE
  5
8EEE
330
8C5B
100
AcDbEntity
  8
Visible (ISO)
100
AcDbLine
 10
1574.016536465563
 20
213.4489310604511
 30
0.0
 11
1560.473657945444
 21
206.548489795039
 31
0.0
  0
SPLINE
  5
8EEF
330
8C5B
100
AcDbEntity
  8
Visible (ISO)
100
AcDbSpline
210
0.0
220
0.0
230
1.0
 70
     8
 71
     3
 72
    12
 73
     8
 74
     0
 42
0.0000000001
 43
0.0000000001
 40
10.12189917325041
 40
10.12189917325041
 40
10.12189917325054
 40
10.12189917325054
 40
10.72509308388484
 40
10.72509308388484
 40
11.32828699451914
 40
11.32828699451914
 40
11.55000189104669
 40
11.55000189104669
 40
11.55000189104669
 40
11.55000189104669
 10
1577.898754758145
 20
209.6739934613286
 30
0.0
 10
1577.898754758144
 20
209.6739934613286
 30
0.0
 10
1577.650638197894
 20
209.9012496828161
 30
0.0
 10
1576.644237321948
 20
210.8521831770739
 30
0.0
 10
1575.889266007977
 20
211.576797001784
 30
0.0
 10
1574.7269124682
 20
212.7319381443829
 30
0.0
 10
1574.384733997308
 20
213.0751678155573
 30
0.0
 10
1574.016536465563
 20
213.4489310604511
 30
0.0
  0
LINE
  5
8EF0
330
8C5B
100
AcDbEntity
  8
Visible (ISO)
100
AcDbLine
 10
1604.171137227461
 20
120.7873578920588
 30
0.0
 11
1617.714015747581
 21
127.68779915747
 31
0.0
  0
SPLINE
  5
8EF1
330
8C5B
100
AcDbEntity
  8
Visible (ISO)
100
AcDbSpline
210
0.0
220
0.0
230
1.0
 70
     8
 71
     3
 72
    12
 73
     8
 74
     0
 42
0.0000000001
 43
0.0000000001
 40
8.693796455454393
 40
8.693796455454393
 40
8.693796455454393
 40
8.693796455454393
 40
8.915511351981944
 40
8.915511351981944
 40
9.518705262616245
 40
9.518705262616245
 40
10.12189917325054
 40
10.12189917325054
 40
10.1218991732507
 40
10.1218991732507
 10
1617.71401574758
 20
127.68779915747
 30
0.0
 10
1617.628056009678
 20
128.2053697411364
 30
0.0
 10
1617.551504831567
 20
128.6839432780614
 30
0.0
 10
1617.300190284935
 20
130.3032819731505
 30
0.0
 10
1617.157726390639
 20
131.3399839161901
 30
0.0
 10
1616.979952626041
 20
132.7131240118195
 30
0.0
 10
1616.941937735745
 20
133.0474323811302
 30
0.0
 10
1616.941937735745
 20
133.0474323811302
 30
0.0
  0
LINE
  5
8EF2
330
8C5B
100
AcDbEntity
  8
Visible (ISO)
100
AcDbLine
 10
1610.102727870714
 20
162.6713049106773
 30
0.0
 11
1597.844984377746
 21
186.7284810637628
 31
0.0
  0
LINE
  5
8EF3
330
8C5B
100
AcDbEntity
  8
Visible (ISO)
100
AcDbLine
 10
1601.458064730998
 20
159.5918993995909
 30
0.0
 11
1590.272487482144
 21
181.5448308183312
 31
0.0
  0
LINE
  5
8EF4
330
8C5B
100
AcDbEntity
  8
Visible (ISO)
100
AcDbLine
 10
1617.71401574758
 20
127.68779915747
 30
0.0
 11
1612.121227123154
 21
138.6642648668402
 31
0.0
  0
LINE
  5
8EF5
330
8C5B
100
AcDbEntity
  8
Visible (ISO)
100
AcDbLine
 10
1579.60932508999
 20
202.4724653510819
 30
0.0
 11
1574.016536465563
 21
213.4489310604511
 31
0.0
  0
LINE
  5
8EF6
330
8C5B
100
AcDbEntity
  8
Visible (ISO)
100
AcDbLine
 10
1587.915186210879
 20
152.6914581341787
 30
0.0
 11
1576.729608962026
 21
174.644389552919
 31
0.0
  0
LINE
  5
8EF7
330
8C5B
100
AcDbEntity
  8
Visible (ISO)
100
AcDbLine
 10
1604.171137227461
 20
120.7873578920579
 30
0.0
 11
1598.578348603035
 21
131.763823601428
 31
0.0
  0
LINE
  5
8EF8
330
8C5B
100
AcDbEntity
  8
Visible (ISO)
100
AcDbLine
 10
1543.353654381111
 20
94.99116610851876
 30
0.0
 11
1503.85648090377
 21
172.5087337129069
 31
0.0
  0
LINE
  5
8EF9
330
8C5B
100
AcDbEntity
  8
Visible (ISO)
100
AcDbLine
 10
1536.358158694308
 20
127.9023857473802
 30
0.0
 11
1526.370367700037
 21
147.5045292795247
 31
0.0
  0
LINE
  5
8EFA
330
8C5B
100
AcDbEntity
  8
Visible (ISO)
100
AcDbLine
 10
1563.350347063761
 20
135.4827983521762
 30
0.0
 11
1548.368660572357
 21
164.8860136503916
 31
0.0
  0
LINE
  5
8EFB
330
8C5B
100
AcDbEntity
  8
Visible (ISO)
100
AcDbLine
 10
1566.066446569871
 20
195.5720240856697
 30
0.0
 11
1560.473657945444
 21
206.548489795039
 31
0.0
  0
LINE
  5
8EFC
330
8C5B
100
AcDbEntity
  8
Visible (ISO)
100
AcDbLine
 10
1610.102727870714
 20
162.6713049106773
 30
0.0
 11
1616.941937735745
 21
133.0474323811303
 31
0.0
  0
LINE
  5
8EFD
330
8C5B
100
AcDbEntity
  8
Visible (ISO)
100
AcDbLine
 10
1597.844984377746
 20
186.7284810637628
 30
0.0
 11
1577.898754758144
 21
209.6739934613286
 31
0.0
  0
LINE
  5
8EFE
330
8C5B
100
AcDbEntity
  8
Visible (ISO)
100
AcDbLine
 10
1484.967142590976
 20
162.8841351184281
 30
0.0
 11
1503.85648090377
 21
172.5087337129069
 31
0.0
  0
LINE
  5
8EFF
330
8C5B
100
AcDbEntity
  8
Visible (ISO)
100
AcDbLine
 10
1524.464316068317
 20
85.36656751403995
 30
0.0
 11
1543.353654381111
 21
94.99116610851876
 31
0.0
  0
LINE
  5
8F00
330
8C5B
100
AcDbEntity
  8
Visible (ISO)
100
AcDbLine
 10
1536.358158694307
 20
127.9023857473802
 30
0.0
 11
1543.353654381111
 21
94.99116610851876
 31
0.0
  0
LINE
  5
8F01
330
8C5B
100
AcDbEntity
  8
Visible (ISO)
100
AcDbLine
 10
1526.370367700037
 20
147.5045292795256
 30
0.0
 11
1503.85648090377
 21
172.5087337129069
 31
0.0
  0
LINE
  5
8F02
330
8C5B
100
AcDbEntity
  8
Visible (ISO)
100
AcDbLine
 10
1526.370367700038
 20
147.5045292795256
 30
0.0
 11
1550.865608320924
 21
159.9854777673571
 31
0.0
  0
LINE
  5
8F03
330
8C5B
100
AcDbEntity
  8
0
  6
CENTER
100
AcDbLine
 10
1428.786354869923
 20
85.43740266481369
 30
0.0
 11
1622.698710931503
 21
184.2406830496137
 31
0.0
  0
LINE
  5
8F04
330
8C5B
100
AcDbEntity
  8
Visible (ISO)
100
AcDbLine
 10
1536.358158694308
 20
127.9023857473802
 30
0.0
 11
1560.853399315194
 21
140.3833342352126
 31
0.0
  0
LINE
  5
8F05
330
8C5B
100
AcDbEntity
  8
Visible (ISO)
100
AcDbLine
 10
1548.368660572357
 20
164.8860136503916
 30
0.0
 11
1574.831554340751
 21
178.369531492657
 31
0.0
  0
LINE
  5
8F06
330
8C5B
100
AcDbEntity
  8
Visible (ISO)
100
AcDbLine
 10
1563.350347063762
 20
135.4827983521762
 30
0.0
 11
1589.813240832156
 21
148.9663161944407
 31
0.0
  0
SPLINE
  5
8F07
330
8C5B
100
AcDbEntity
  8
Visible (ISO)
100
AcDbSpline
210
0.0
220
0.0
230
1.0
 70
     8
 71
     3
 72
    18
 73
    14
 74
     0
 42
0.0000000001
 43
0.0000000001
 40
8.693796455454391
 40
8.693796455454391
 40
8.693796455454391
 40
8.693796455454391
 40
8.91551135198194
 40
8.91551135198194
 40
9.518705262616242
 40
9.518705262616242
 40
10.12189917325054
 40
10.12189917325054
 40
10.72509308388484
 40
10.72509308388484
 40
11.32828699451914
 40
11.32828699451914
 40
11.5500018910467
 40
11.5500018910467
 40
11.5500018910467
 40
11.5500018910467
 10
1601.458064730998
 20
159.5918993995909
 30
0.0
 10
1601.70859847914
 20
159.4490643325133
 30
0.0
 10
1601.967337706219
 20
159.2695933978164
 30
0.0
 10
1602.937566716945
 20
158.4915178743011
 30
0.0
 10
1603.778052684026
 20
157.5990720930202
 30
0.0
 10
1605.505891427336
 20
155.2322370612063
 30
0.0
 10
1606.390621575511
 20
153.7555563241101
 30
0.0
 10
1607.971662407177
 20
150.6525889782495
 30
0.0
 10
1608.789356610671
 20
148.788073797932
 30
0.0
 10
1610.280655562906
 20
144.8369953698018
 30
0.0
 10
1610.957351714445
 20
142.7518035863166
 30
0.0
 10
1611.72337577523
 20
140.1222905914672
 30
0.0
 10
1611.925852534031
 20
139.3965741869704
 30
0.0
 10
1612.121227123154
 20
138.6642648668401
 30
0.0
  0
LINE
  5
8F08
330
8C5B
100
AcDbEntity
  8
Visible (ISO)
100
AcDbLine
 10
1587.915186210879
 20
152.6914581341787
 30
0.0
 11
1601.458064730998
 21
159.5918993995909
 31
0.0
  0
LINE
  5
8F09
330
8C5B
100
AcDbEntity
  8
Visible (ISO)
100
AcDbLine
 10
1612.121227123154
 20
138.6642648668402
 30
0.0
 11
1598.578348603035
 21
131.763823601428
 31
0.0
  0
LINE
  5
8F0A
330
8C5B
100
AcDbEntity
  8
Visible (ISO)
100
AcDbLine
 10
1598.578348603035
 20
131.763823601428
 30
0.0
 11
1587.915186210879
 21
152.6914581341787
 31
0.0
  0
LINE
  5
8F0B
330
8C5B
100
AcDbEntity
  8
Visible (ISO)
100
AcDbLine
 10
1458.768676267052
 20
141.5651374585084
 30
0.0
 11
1452.780576785647
 21
133.3232255943202
 31
0.0
  0
LINE
  5
8F0C
330
8C5B
100
AcDbEntity
  8
Visible (ISO)
100
AcDbLine
 10
1481.630249191818
 20
76.70255544958479
 30
0.0
 11
1491.817812520518
 21
76.70255544958479
 31
0.0
  0
LINE
  5
8F0D
330
8C5B
100
AcDbEntity
  8
Visible (ISO)
100
AcDbLine
 10
1471.814426343082
 20
136.9345964847187
 30
0.0
 11
1468.033906541219
 21
135.0083254333511
 31
0.0
  0
LINE
  5
8F0E
330
8C5B
100
AcDbEntity
  8
Visible (ISO)
100
AcDbLine
 10
1491.959205877493
 20
88.05228160862487
 30
0.0
 11
1495.739725679356
 21
89.97855265999158
 31
0.0
  0
LINE
  5
8F0F
330
8C5B
100
AcDbEntity
  8
Visible (ISO)
100
AcDbLine
 10
1470.674120527047
 20
139.1725726587573
 30
0.0
 11
1471.814426343082
 21
136.9345964847187
 31
0.0
  0
LINE
  5
8F10
330
8C5B
100
AcDbEntity
  8
Visible (ISO)
100
AcDbLine
 10
1470.674120527047
 20
139.1725726587573
 30
0.0
 11
1458.353608025805
 21
163.3529399269044
 31
0.0
  0
LINE
  5
8F11
330
8C5B
100
AcDbEntity
  8
Visible (ISO)
100
AcDbLine
 10
1509.200543996634
 20
63.5602092178068
 30
0.0
 11
1496.880031495391
 21
87.74057648595396
 31
0.0
  0
LINE
  5
8F12
330
8C5B
100
AcDbEntity
  8
Visible (ISO)
100
AcDbLine
 10
1495.739725679356
 20
89.97855265999158
 30
0.0
 11
1496.880031495391
 21
87.74057648595396
 31
0.0
  0
LINE
  5
8F13
330
8C5B
100
AcDbEntity
  8
Visible (ISO)
100
AcDbLine
 10
1472.164209150726
 20
170.3897926728667
 30
0.0
 11
1484.484721651968
 21
146.2094254047195
 31
0.0
  0
LINE
  5
8F14
330
8C5B
100
AcDbEntity
  8
Visible (ISO)
100
AcDbLine
 10
1510.690632620311
 20
94.77742923191625
 30
0.0
 11
1484.484721651968
 21
146.2094254047195
 31
0.0
  0
LINE
  5
8F15
330
8C5B
100
AcDbEntity
  8
Visible (ISO)
100
AcDbLine
 10
1510.69063262031
 20
94.77742923191625
 30
0.0
 11
1523.011145121554
 21
70.59706196376907
 31
0.0
  0
LINE
  5
8F16
330
8C5B
100
AcDbEntity
  8
Visible (ISO)
100
AcDbLine
 10
1484.484721651968
 20
146.2094254047195
 30
0.0
 11
1470.674120527047
 21
139.1725726587573
 31
0.0
  0
LINE
  5
8F17
330
8C5B
100
AcDbEntity
  8
Visible (ISO)
100
AcDbLine
 10
1472.164209150725
 20
170.3897926728667
 30
0.0
 11
1458.353608025805
 21
163.3529399269044
 31
0.0
  0
LINE
  5
8F18
330
8C5B
100
AcDbEntity
  8
Visible (ISO)
100
AcDbLine
 10
1510.690632620311
 20
94.77742923191625
 30
0.0
 11
1496.880031495391
 21
87.74057648595396
 31
0.0
  0
LINE
  5
8F19
330
8C5B
100
AcDbEntity
  8
Visible (ISO)
100
AcDbLine
 10
1523.011145121554
 20
70.59706196376999
 30
0.0
 11
1509.200543996634
 21
63.5602092178068
 31
0.0
  0
LINE
  5
8F1A
330
8C5B
100
AcDbEntity
  8
Visible (ISO)
100
AcDbLine
 10
1452.440566145989
 20
152.9310453938704
 30
0.0
 11
1458.342442642603
 21
141.3479605794217
 31
0.0
  0
LINE
  5
8F1B
330
8C5B
100
AcDbEntity
  8
Visible (ISO)
100
AcDbLine
 10
1452.440566145989
 20
152.9310453938704
 30
0.0
 11
1461.350631387873
 21
157.4709503912662
 31
0.0
  0
LINE
  5
8F1C
330
8C5B
100
AcDbEntity
  8
Visible (ISO)
100
AcDbLine
 10
1458.342442642603
 20
141.3479605794217
 30
0.0
 11
1467.252507884487
 21
145.8878655768165
 31
0.0
  0
LINE
  5
8F1D
330
8C5B
100
AcDbEntity
  8
Visible (ISO)
100
AcDbLine
 10
1497.293455392683
 20
64.90229375604929
 30
0.0
 11
1491.391578896068
 21
76.48537857049802
 31
0.0
  0
LINE
  5
8F1E
330
8C5B
100
AcDbEntity
  8
Visible (ISO)
100
AcDbLine
 10
1506.203520634566
 20
69.44219875344413
 30
0.0
 11
1497.293455392683
 21
64.90229375604929
 31
0.0
  0
LINE
  5
8F1F
330
8C5B
100
AcDbEntity
  8
Visible (ISO)
100
AcDbLine
 10
1500.301644137952
 20
81.02528356789287
 30
0.0
 11
1491.391578896068
 21
76.48537857049802
 31
0.0
  0
CIRCLE
  5
8F20
330
8C5B
100
AcDbEntity
  8
Visible (ISO)
100
AcDbCircle
 10
1463.8185298694
 20
103.2871873781895
 30
0.0
 40
31.99999999999997
  0
CIRCLE
  5
8F21
330
8C5B
100
AcDbEntity
  8
Visible (ISO)
100
AcDbCircle
 10
1463.8185298694
 20
103.2871873781895
 30
0.0
 40
23.89999999999998
  0
LINE
  5
8F22
330
8C5B
100
AcDbEntity
  8
Visible (ISO)
100
AcDbLine
 10
1529.248190790872
 20
73.77499546194655
 30
0.0
 11
1516.92767828963
 21
97.95536273009373
 31
0.0
  0
SPLINE
  5
8F23
330
8C5B
100
AcDbEntity
  8
Visible (ISO)
100
AcDbSpline
210
0.0
220
0.0
230
1.0
 70
    24
 71
     3
 72
     8
 73
     4
 74
     0
 42
0.0000000001
 43
0.0000000001
 40
-0.1435004186556541
 40
-0.1435004186556541
 40
-0.1435004186556541
 40
-0.1435004186556541
 40
0.0
 40
0.0
 40
0.0
 40
0.0
 10
1529.248190790872
 20
73.77499546194653
 30
0.0
 10
1529.3938774188
 20
74.22337279830376
 30
0.0
 10
1529.539555743495
 20
74.6717245799426
 30
0.0
 10
1529.685206815321
 20
75.11999248587367
 30
0.0
  0
LINE
  5
8F24
330
8C5B
100
AcDbEntity
  8
Visible (ISO)
100
AcDbLine
 10
1517.708109372819
 20
98.62636975198791
 30
0.0
 11
1529.685206815321
 21
75.11999248587369
 31
0.0
  0
SPLINE
  5
8F25
330
8C5B
100
AcDbEntity
  8
Visible (ISO)
100
AcDbSpline
210
0.0
220
0.0
230
1.0
 70
     8
 71
     3
 72
     8
 73
     4
 74
     0
 42
0.0000000001
 43
0.0000000001
 40
-0.1435004186556769
 40
-0.1435004186556769
 40
-0.1435004186556769
 40
-0.1435004186556769
 40
0.0
 40
0.0
 40
0.0
 40
0.0
 10
1516.92767828963
 20
97.9553627300937
 30
0.0
 10
1517.188003631691
 20
98.178748921753
 30
0.0
 10
1517.448159891768
 20
98.40242510476295
 30
0.0
 10
1517.708109372819
 20
98.62636975198789
 30
0.0
  0
SPLINE
  5
8F26
330
8C5B
100
AcDbEntity
  8
Visible (ISO)
100
AcDbSpline
210
0.0
220
0.0
230
1.0
 70
    24
 71
     3
 72
     8
 73
     4
 74
     0
 42
0.0000000001
 43
0.0000000001
 40
-0.1435004186549885
 40
-0.1435004186549885
 40
-0.1435004186549885
 40
-0.1435004186549885
 40
0.0
 40
0.0
 40
0.0
 40
0.0
 10
1478.401254820044
 20
173.5677261710432
 30
0.0
 10
1478.849632156405
 20
173.4220395431155
 30
0.0
 10
1479.297983938042
 20
173.2763612184206
 30
0.0
 10
1479.746251843972
 20
173.1307101465953
 30
0.0
  0
LINE
  5
8F27
330
8C5B
100
AcDbEntity
  8
Visible (ISO)
100
AcDbLine
 10
1490.721767321286
 20
149.387358902897
 30
0.0
 11
1478.401254820044
 21
173.5677261710433
 31
0.0
  0
SPLINE
  5
8F28
330
8C5B
100
AcDbEntity
  8
Visible (ISO)
100
AcDbSpline
210
0.0
220
0.0
230
1.0
 70
     8
 71
     3
 72
     8
 73
     4
 74
     0
 42
0.0000000001
 43
0.0000000001
 40
-0.1435004186556541
 40
-0.1435004186556541
 40
-0.1435004186556541
 40
-0.1435004186556541
 40
0.0
 40
0.0
 40
0.0
 40
0.0
 10
1490.721767321286
 20
149.387358902897
 30
0.0
 10
1491.055505943508
 20
149.4666634196672
 30
0.0
 10
1491.389379789765
 20
149.5456606936002
 30
0.0
 10
1491.723349286473
 20
149.624332880481
 30
0.0
  0
LINE
  5
8F29
330
8C5B
100
AcDbEntity
  8
Visible (ISO)
100
AcDbLine
 10
1479.746251843972
 20
173.1307101465953
 30
0.0
 11
1491.723349286472
 21
149.6243328804811
 31
0.0
  0
LINE
  5
8F2A
330
8C5B
100
AcDbEntity
  8
Visible (ISO)
100
AcDbLine
 10
1490.721767321286
 20
149.387358902897
 30
0.0
 11
1516.927678289629
 21
97.95536273009373
 31
0.0
  0
LINE
  5
8F2B
330
8C5B
100
AcDbEntity
  8
Visible (ISO)
100
AcDbLine
 10
1517.708109372819
 20
98.62636975198791
 30
0.0
 11
1491.723349286472
 21
149.6243328804811
 31
0.0
  0
LINE
  5
8F2C
330
8C5B
100
AcDbEntity
  8
Visible (ISO)
100
AcDbLine
 10
1473.055215674913
 20
170.8437831726058
 30
0.0
 11
1485.375728176156
 21
146.6634159044596
 31
0.0
  0
SPLINE
  5
8F2D
330
8C5B
100
AcDbEntity
  8
Visible (ISO)
100
AcDbSpline
210
0.0
220
0.0
230
1.0
 70
    24
 71
     3
 72
     8
 73
     4
 74
     0
 42
0.0000000001
 43
0.0000000001
 40
-0.1435004111845601
 40
-0.1435004111845601
 40
-0.1435004111845601
 40
-0.1435004111845601
 40
0.0
 40
0.0
 40
0.0
 40
0.0
 10
1522.557154621814
 20
71.48806848795707
 30
0.0
 10
1523.005422527746
 20
71.34241741613172
 30
0.0
 10
1523.453774309385
 20
71.19673909143589
 30
0.0
 10
1523.902151645742
 20
71.05105246350908
 30
0.0
  0
SPLINE
  5
8F2E
330
8C5B
100
AcDbEntity
  8
Visible (ISO)
100
AcDbSpline
210
0.0
220
0.0
230
1.0
 70
    24
 71
     3
 72
     8
 73
     4
 74
     0
 42
0.0000000001
 43
0.0000000001
 40
-0.1435004111849822
 40
-0.1435004111849822
 40
-0.1435004111849822
 40
-0.1435004111849822
 40
0.0
 40
0.0
 40
0.0
 40
0.0
 10
1472.618199650465
 20
169.4987861486787
 30
0.0
 10
1472.76385072229
 20
169.9470540546097
 30
0.0
 10
1472.909529046986
 20
170.3954058362467
 30
0.0
 10
1473.055215674913
 20
170.8437831726058
 30
0.0
  0
SPLINE
  5
8F2F
330
8C5B
100
AcDbEntity
  8
Visible (ISO)
100
AcDbSpline
210
0.0
220
0.0
230
1.0
 70
     8
 71
     3
 72
     8
 73
     4
 74
     0
 42
0.0000000001
 43
0.0000000001
 40
-0.1435004111845601
 40
-0.1435004111845601
 40
-0.1435004111845601
 40
-0.1435004111845601
 40
0.0
 40
0.0
 40
0.0
 40
0.0
 10
1484.595297092967
 20
145.9924088825644
 30
0.0
 10
1484.855246574018
 20
146.2163535297894
 30
0.0
 10
1485.115402834094
 20
146.4400297127993
 30
0.0
 10
1485.375728176156
 20
146.6634159044595
 30
0.0
  0
SPLINE
  5
8F30
330
8C5B
100
AcDbEntity
  8
Visible (ISO)
100
AcDbSpline
210
0.0
220
0.0
230
1.0
 70
     8
 71
     3
 72
     8
 73
     4
 74
     0
 42
0.0000000001
 43
0.0000000001
 40
-0.1435004111849822
 40
-0.1435004111849822
 40
-0.1435004111849822
 40
-0.1435004111849822
 40
0.0
 40
0.0
 40
0.0
 40
0.0
 10
1510.580057179311
 20
94.99444575407128
 30
0.0
 10
1510.914026676019
 20
95.07311794095206
 30
0.0
 10
1511.247900522275
 20
95.15211521488513
 30
0.0
 10
1511.581639144499
 20
95.23141973165534
 30
0.0
  0
LINE
  5
8F31
330
8C5B
100
AcDbEntity
  8
Visible (ISO)
100
AcDbLine
 10
1511.581639144499
 20
95.23141973165536
 30
0.0
 11
1485.375728176156
 21
146.6634159044596
 31
0.0
  0
LINE
  5
8F32
330
8C5B
100
AcDbEntity
  8
Visible (ISO)
100
AcDbLine
 10
1511.581639144499
 20
95.23141973165536
 30
0.0
 11
1523.902151645742
 21
71.05105246350911
 31
0.0
  0
LINE
  5
8F33
330
8C5B
100
AcDbEntity
  8
Visible (ISO)
100
AcDbLine
 10
1478.401254820044
 20
173.5677261710442
 30
0.0
 11
1473.055215674913
 21
170.8437831726058
 31
0.0
  0
LINE
  5
8F34
330
8C5B
100
AcDbEntity
  8
Visible (ISO)
100
AcDbLine
 10
1490.721767321286
 20
149.387358902897
 30
0.0
 11
1485.375728176156
 21
146.6634159044596
 31
0.0
  0
LINE
  5
8F35
330
8C5B
100
AcDbEntity
  8
Visible (ISO)
100
AcDbLine
 10
1516.92767828963
 20
97.95536273009373
 30
0.0
 11
1511.581639144499
 21
95.23141973165536
 31
0.0
  0
LINE
  5
8F36
330
8C5B
100
AcDbEntity
  8
Visible (ISO)
100
AcDbLine
 10
1529.248190790872
 20
73.77499546194655
 30
0.0
 11
1523.902151645742
 21
71.05105246350911
 31
0.0
  0
LINE
  5
8F37
330
8C5B
100
AcDbEntity
  8
Visible (ISO)
100
AcDbLine
 10
1566.066446570939
 20
367.3833782530556
 30
0.0
 11
1579.609325091057
 21
367.3833782530565
 31
0.0
  0
ELLIPSE
  5
8F38
330
8C5B
100
AcDbEntity
  8
Visible (ISO)
100
AcDbEllipse
 10
1567.908199220789
 20
347.2887943448814
 30
0.0
 11
-0.0000000000027315
 21
20.49999999999994
 31
0.0
210
0.0
220
0.0
230
1.0
 40
0.453990499739547
 41
5.036779698993179
 42
6.083977250189755
  0
LINE
  5
8F39
330
8C5B
100
AcDbEntity
  8
Visible (ISO)
100
AcDbLine
 10
1590.272487483212
 20
353.8227868286595
 30
0.0
 11
1576.729608963094
 21
353.8227868286577
 31
0.0
  0
SPLINE
  5
8F3A
330
8C5B
100
AcDbEntity
  8
Visible (ISO)
100
AcDbSpline
210
0.0
220
0.0
230
1.0
 70
     8
 71
     3
 72
    18
 73
    14
 74
     0
 42
0.0000000001
 43
0.0000000001
 40
8.693796455454393
 40
8.693796455454393
 40
8.693796455454393
 40
8.693796455454393
 40
8.91551135198194
 40
8.91551135198194
 40
9.518705262616244
 40
9.518705262616244
 40
10.12189917325054
 40
10.12189917325054
 40
10.72509308388485
 40
10.72509308388485
 40
11.32828699451915
 40
11.32828699451915
 40
11.5500018910467
 40
11.5500018910467
 40
11.5500018910467
 40
11.5500018910467
 10
1579.609325091057
 20
367.3833782530574
 30
0.0
 10
1580.086937474022
 20
367.5330140211527
 30
0.0
 10
1580.555041525603
 20
367.639125646625
 30
0.0
 10
1582.232104579534
 20
367.8834548751648
 30
0.0
 10
1583.521308150748
 20
367.7747039034558
 30
0.0
 10
1585.84123421433
 20
366.8572346014208
 30
0.0
 10
1586.869030087778
 20
366.0476383068527
 30
0.0
 10
1588.450070919446
 20
364.036991938071
 30
0.0
 10
1589.124699397666
 20
362.6815756205352
 30
0.0
 10
1590.023911029628
 20
359.505192702869
 30
0.0
 10
1590.251889577033
 20
357.6845079152454
 30
0.0
 10
1590.311079594613
 20
355.232145305402
 30
0.0
 10
1590.304191528913
 20
354.5394945920971
 30
0.0
 10
1590.272487483212
 20
353.8227868286595
 30
0.0
  0
LINE
  5
8F3B
330
8C5B
100
AcDbEntity
  8
Visible (ISO)
100
AcDbLine
 10
1560.473657946513
 20
415.8419989095892
 30
0.0
 11
1574.016536466631
 21
415.8419989095911
 31
0.0
  0
ELLIPSE
  5
8F3C
330
8C5B
100
AcDbEntity
  8
Visible (ISO)
100
AcDbEllipse
 10
1553.494000854061
 20
402.2814074852013
 30
0.0
 11
-0.000000000003697
 21
20.49999999999993
 31
0.0
210
0.0
220
0.0
230
1.0
 40
0.4539904997395469
 41
3.989582147796216
 42
5.435195812971781
  0
LINE
  5
8F3D
330
8C5B
100
AcDbEntity
  8
Visible (ISO)
100
AcDbLine
 10
1574.016536466631
 20
388.720816060808
 30
0.0
 11
1560.473657946512
 21
388.7208160608062
 31
0.0
  0
SPLINE
  5
8F3E
330
8C5B
100
AcDbEntity
  8
Visible (ISO)
100
AcDbSpline
210
0.0
220
0.0
230
1.0
 70
     8
 71
     3
 72
    18
 73
    14
 74
     0
 42
0.0000000001
 43
0.0000000001
 40
8.693796455454387
 40
8.693796455454387
 40
8.693796455454387
 40
8.693796455454387
 40
8.915511351981937
 40
8.915511351981937
 40
9.51870526261624
 40
9.51870526261624
 40
10.12189917325054
 40
10.12189917325054
 40
10.72509308388484
 40
10.72509308388484
 40
11.32828699451914
 40
11.32828699451914
 40
11.55000189104669
 40
11.55000189104669
 40
11.55000189104669
 40
11.55000189104669
 10
1574.016536466631
 20
415.8419989095911
 30
0.0
 10
1574.384733998376
 20
415.2749269142496
 30
0.0
 10
1574.726912469268
 20
414.6883878264162
 30
0.0
 10
1575.889266009045
 20
412.4803544451134
 30
0.0
 10
1576.644237323016
 20
410.5509186857817
 30
0.0
 10
1577.650638198962
 20
406.4570664660815
 30
0.0
 10
1577.898754759212
 20
404.2920538539793
 30
0.0
 10
1577.898754759211
 20
400.2707611164169
 30
0.0
 10
1577.650638198962
 20
398.1057485043148
 30
0.0
 10
1576.644237323016
 20
394.0118962846155
 30
0.0
 10
1575.889266009045
 20
392.0824605252838
 30
0.0
 10
1574.726912469268
 20
389.8744271439828
 30
0.0
 10
1574.384733998376
 20
389.2878880561494
 30
0.0
 10
1574.016536466631
 20
388.720816060808
 30
0.0
  0
LINE
  5
8F3F
330
8C5B
100
AcDbEntity
  8
Visible (ISO)
100
AcDbLine
 10
1576.729608963096
 20
450.7400281417177
 30
0.0
 11
1590.272487483214
 21
450.7400281417204
 31
0.0
  0
ELLIPSE
  5
8F40
330
8C5B
100
AcDbEntity
  8
Visible (ISO)
100
AcDbEllipse
 10
1567.908199220791
 20
457.274020625504
 30
0.0
 11
0.0000000000027315
 21
-20.49999999999994
 31
0.0
210
0.0
220
0.0
230
1.0
 40
0.453990499739547
 41
0.1992080569891653
 42
1.246405608185787
  0
LINE
  5
8F41
330
8C5B
100
AcDbEntity
  8
Visible (ISO)
100
AcDbLine
 10
1579.609325091058
 20
437.1794367173343
 30
0.0
 11
1566.06644657094
 21
437.1794367173325
 31
0.0
  0
SPLINE
  5
8F42
330
8C5B
100
AcDbEntity
  8
Visible (ISO)
100
AcDbSpline
210
0.0
220
0.0
230
1.0
 70
     8
 71
     3
 72
    18
 73
    14
 74
     0
 42
0.0000000001
 43
0.0000000001
 40
8.693796455454391
 40
8.693796455454391
 40
8.693796455454391
 40
8.693796455454391
 40
8.91551135198194
 40
8.91551135198194
 40
9.518705262616244
 40
9.518705262616244
 40
10.12189917325054
 40
10.12189917325054
 40
10.72509308388485
 40
10.72509308388485
 40
11.32828699451915
 40
11.32828699451915
 40
11.5500018910467
 40
11.5500018910467
 40
11.5500018910467
 40
11.5500018910467
 10
1590.272487483214
 20
450.7400281417204
 30
0.0
 10
1590.304191528914
 20
450.0233203782819
 30
0.0
 10
1590.311079594616
 20
449.3306696649771
 30
0.0
 10
1590.251889577035
 20
446.8783070551345
 30
0.0
 10
1590.023911029629
 20
445.0576222675119
 30
0.0
 10
1589.124699397667
 20
441.8812393498475
 30
0.0
 10
1588.450070919446
 20
440.5258230323134
 30
0.0
 10
1586.86903008778
 20
438.5151766635328
 30
0.0
 10
1585.841234214332
 20
437.7055803689664
 30
0.0
 10
1583.521308150749
 20
436.7881110669324
 30
0.0
 10
1582.232104579536
 20
436.6793600952243
 30
0.0
 10
1580.555041525605
 20
436.9236893237667
 30
0.0
 10
1580.086937474024
 20
437.0298009492382
 30
0.0
 10
1579.609325091059
 20
437.1794367173343
 30
0.0
  0
LINE
  5
8F43
330
8C5B
100
AcDbEntity
  8
Visible (ISO)
100
AcDbLine
 10
1609.648248602961
 20
437.1794367173143
 30
0.0
 11
1612.121227124222
 21
437.1794367173143
 31
0.0
  0
SPLINE
  5
8F44
330
8C5B
100
AcDbEntity
  8
Visible (ISO)
100
AcDbSpline
210
0.0
220
0.0
230
1.0
 70
     8
 71
     3
 72
    18
 73
    14
 74
     0
 42
0.0000000001
 43
0.0000000001
 40
8.693796455454387
 40
8.693796455454387
 40
8.693796455454387
 40
8.693796455454387
 40
8.91551135198194
 40
8.91551135198194
 40
9.518705262616244
 40
9.518705262616244
 40
10.12189917325054
 40
10.12189917325054
 40
10.72509308388485
 40
10.72509308388485
 40
11.32828699451915
 40
11.32828699451915
 40
11.5500018910467
 40
11.5500018910467
 40
11.5500018910467
 40
11.5500018910467
 10
1612.121227124222
 20
437.1794367173152
 30
0.0
 10
1611.9258525351
 20
437.0298009492191
 30
0.0
 10
1611.723375776299
 20
436.9236893237476
 30
0.0
 10
1610.957351715513
 20
436.6793600952079
 30
0.0
 10
1610.280655563975
 20
436.7881110669169
 30
0.0
 10
1608.789356611741
 20
437.7055803689519
 30
0.0
 10
1607.971662408247
 20
438.515176663521
 30
0.0
 10
1606.390621576581
 20
440.5258230323026
 30
0.0
 10
1605.505891428406
 20
441.8812393498375
 30
0.0
 10
1603.778052685096
 20
445.0576222675046
 30
0.0
 10
1602.937566718014
 20
446.8783070551272
 30
0.0
 10
1601.967337707289
 20
449.3306696649698
 30
0.0
 10
1601.70859848021
 20
450.0233203782755
 30
0.0
 10
1601.458064732067
 20
450.7400281417131
 30
0.0
  0
SPLINE
  5
8F45
330
8C5B
100
AcDbEntity
  8
Visible (ISO)
100
AcDbSpline
210
0.0
220
0.0
230
1.0
 70
     8
 71
     3
 72
    18
 73
    14
 74
     0
 42
0.0000000001
 43
0.0000000001
 40
8.693796455454393
 40
8.693796455454393
 40
8.693796455454393
 40
8.693796455454393
 40
8.915511351981944
 40
8.915511351981944
 40
9.518705262616245
 40
9.518705262616245
 40
10.12189917325054
 40
10.12189917325054
 40
10.72509308388485
 40
10.72509308388485
 40
11.32828699451915
 40
11.32828699451915
 40
11.5500018910467
 40
11.5500018910467
 40
11.5500018910467
 40
11.5500018910467
 10
1617.714015748648
 20
388.7208160607816
 30
0.0
 10
1617.628056010746
 20
389.287888056123
 30
0.0
 10
1617.551504832635
 20
389.8744271439565
 30
0.0
 10
1617.300190286003
 20
392.0824605252584
 30
0.0
 10
1617.157726391707
 20
394.011896284591
 30
0.0
 10
1616.979952627109
 20
398.1057485042903
 30
0.0
 10
1616.941937736813
 20
400.2707611163933
 30
0.0
 10
1616.941937736813
 20
404.2920538539557
 30
0.0
 10
1616.979952627109
 20
406.4570664660578
 30
0.0
 10
1617.157726391707
 20
410.5509186857581
 30
0.0
 10
1617.300190286003
 20
412.4803544450888
 30
0.0
 10
1617.551504832635
 20
414.6883878263898
 30
0.0
 10
1617.628056010747
 20
415.2749269142232
 30
0.0
 10
1617.714015748648
 20
415.8419989095647
 30
0.0
  0
ELLIPSE
  5
8F46
330
8C5B
100
AcDbEntity
  8
Visible (ISO)
100
AcDbEllipse
 10
1603.973856125298
 20
402.2814074851877
 30
0.0
 11
-0.0000000000002423
 21
-13.49999999999995
 31
0.0
210
0.0
220
0.0
230
1.0
 40
0.453990499739547
 41
0.0
 42
6.283185307179585
  0
ELLIPSE
  5
8F47
330
8C5B
100
AcDbEntity
  8
Visible (ISO)
100
AcDbEllipse
 10
1595.865276107639
 20
402.2814074851859
 30
0.0
 11
0.0000000000066627
 21
-50.00000000000003
 31
0.0
210
0.0
220
0.0
230
1.0
 40
0.4539904997395469
 41
6.034238356973037
 42
6.53213225738548
  0
ELLIPSE
  5
8F48
330
8C5B
100
AcDbEntity
  8
Visible (ISO)
100
AcDbEllipse
 10
1595.865276107639
 20
402.2814074851859
 30
0.0
 11
-0.0000000000090039
 21
49.99999999999974
 31
0.0
210
0.0
220
0.0
230
1.0
 40
0.4539904997395469
 41
3.93984325457945
 42
4.437737154992067
  0
ELLIPSE
  5
8F49
330
8C5B
100
AcDbEntity
  8
Visible (ISO)
100
AcDbEllipse
 10
1595.865276107639
 20
402.2814074851859
 30
0.0
 11
-0.0000000000066586
 21
49.99999999999961
 31
0.0
210
0.0
220
0.0
230
1.0
 40
0.4539904997395471
 41
4.98704080577644
 42
5.484934706188883
  0
ELLIPSE
  5
8F4A
330
8C5B
100
AcDbEntity
  8
Visible (ISO)
100
AcDbEllipse
 10
1595.865276107639
 20
402.2814074851859
 30
0.0
 11
-0.0000000000066606
 21
49.99999999999976
 31
0.0
210
0.0
220
0.0
230
1.0
 40
0.453990499739547
 41
6.034238356973037
 42
6.532132257385484
  0
ELLIPSE
  5
8F4B
330
8C5B
100
AcDbEntity
  8
Visible (ISO)
100
AcDbEllipse
 10
1595.865276107639
 20
402.2814074851859
 30
0.0
 11
0.0000000000090192
 21
-50.00000000000008
 31
0.0
210
0.0
220
0.0
230
1.0
 40
0.453990499739547
 41
3.939843254579438
 42
4.437737154992075
  0
ELLIPSE
  5
8F4C
330
8C5B
100
AcDbEntity
  8
Visible (ISO)
100
AcDbEllipse
 10
1595.865276107639
 20
402.2814074851859
 30
0.0
 11
0.0000000000066641
 21
-49.99999999999981
 31
0.0
210
0.0
220
0.0
230
1.0
 40
0.4539904997395469
 41
4.98704080577644
 42
5.484934706188882
  0
ELLIPSE
  5
8F4D
330
8C5B
100
AcDbEntity
  8
Visible (ISO)
100
AcDbEllipse
 10
1582.322397587521
 20
402.281407485185
 30
0.0
 11
0.00000000000666
 21
-50.0
 31
0.0
210
0.0
220
0.0
230
1.0
 40
0.4539904997395471
 41
6.034238356973037
 42
6.283185307179262
  0
ELLIPSE
  5
8F4E
330
8C5B
100
AcDbEntity
  8
Visible (ISO)
100
AcDbEllipse
 10
1582.322397587521
 20
402.2814074851859
 30
0.0
 11
0.0000000000009431
 21
49.999999999999
 31
0.0
210
0.0
220
0.0
230
1.0
 40
0.453990499739547
 41
0.0000000000026154
 42
0.2489469502087234
  0
ELLIPSE
  5
8F4F
330
8C5B
100
AcDbEntity
  8
Visible (ISO)
100
AcDbEllipse
 10
1582.322397587521
 20
402.281407485185
 30
0.0
 11
0.0000000000090108
 21
-49.99999999999984
 31
0.0
210
0.0
220
0.0
230
1.0
 40
0.4539904997395471
 41
3.939843254579439
 42
4.437737154992067
  0
ELLIPSE
  5
8F50
330
8C5B
100
AcDbEntity
  8
Visible (ISO)
100
AcDbEllipse
 10
1523.605067643508
 20
402.2814074851768
 30
0.0
 11
-0.0000000000057919
 21
43.49999999999987
 31
0.0
210
0.0
220
0.0
230
1.0
 40
0.4539904997395469
 41
4.968038181182654
 42
10.73992508676568
  0
ELLIPSE
  5
8F51
330
8C5B
100
AcDbEntity
  8
Visible (ISO)
100
AcDbEllipse
 10
1504.715729330715
 20
402.2814074851741
 30
0.0
 11
-0.0000000000007819
 21
-43.49999999999987
 31
0.0
210
0.0
220
0.0
230
1.0
 40
0.453990499739547
 41
3.141592653592375
 42
6.283185307182168
  0
ELLIPSE
  5
8F52
330
8C5B
100
AcDbEntity
  8
Visible (ISO)
100
AcDbEllipse
 10
1531.36426319824
 20
402.2814074851777
 30
0.0
 11
0.0000000000002289
 21
10.99999999999997
 31
0.0
210
0.0
220
0.0
230
1.0
 40
0.4539904997395471
 41
0.0000000000027756
 42
3.141592653592568
  0
ELLIPSE
  5
8F53
330
8C5B
100
AcDbEntity
  8
Visible (ISO)
100
AcDbEllipse
 10
1555.859503819126
 20
402.2814074851813
 30
0.0
 11
0.0000000000002668
 21
16.49999999999996
 31
0.0
210
0.0
220
0.0
230
1.0
 40
0.4539904997395471
 41
0.0000000000026312
 42
3.141592653592424
  0
ELLIPSE
  5
8F54
330
8C5B
100
AcDbEntity
  8
Visible (ISO)
100
AcDbEllipse
 10
1582.322397587521
 20
402.281407485185
 30
0.0
 11
0.0000000000066662
 21
-49.99999999999984
 31
0.0
210
0.0
220
0.0
230
1.0
 40
0.453990499739547
 41
4.987040805776439
 42
5.484934706188882
  0
ELLIPSE
  5
8F55
330
8C5B
100
AcDbEntity
  8
Visible (ISO)
100
AcDbEllipse
 10
1603.973856125298
 20
402.2814074851877
 30
0.0
 11
-0.0000000000001211
 21
-6.749999999999981
 31
0.0
210
0.0
220
0.0
230
1.0
 40
0.453990499739547
 41
0.0
 42
6.283185307179585
  0
ELLIPSE
  5
8F56
330
8C5B
100
AcDbEntity
  8
Visible (ISO)
100
AcDbEllipse
 10
1602.726446991435
 20
402.2814074851868
 30
0.0
 11
0.0000000000008997
 21
-6.749999999999984
 31
0.0
210
0.0
220
0.0
230
1.0
 40
0.4539904997395469
 41
0.2049620233976507
 42
2.936630630191325
  0
LINE
  5
8F57
330
8C5B
100
AcDbEntity
  8
Visible (ISO)
100
AcDbLine
 10
1582.32239758752
 20
352.2814074851841
 30
0.0
 11
1595.865276107639
 21
352.2814074851859
 31
0.0
  0
LINE
  5
8F58
330
8C5B
100
AcDbEntity
  8
Visible (ISO)
100
AcDbLine
 10
1582.322397587522
 20
452.2814074851841
 30
0.0
 11
1595.86527610764
 21
452.2814074851859
 31
0.0
  0
LINE
  5
8F59
330
8C5B
100
AcDbEntity
  8
Visible (ISO)
100
AcDbLine
 10
1504.715729330716
 20
445.781407485174
 30
0.0
 11
1523.605067643509
 21
445.7814074851768
 31
0.0
  0
LINE
  5
8F5A
330
8C5B
100
AcDbEntity
  8
0
  6
CENTER
100
AcDbLine
 10
1442.373491072149
 20
402.281407485165
 30
0.0
 11
1631.02655566705
 21
402.2814074851923
 31
0.0
  0
LINE
  5
8F5B
330
8C5B
100
AcDbEntity
  8
Visible (ISO)
100
AcDbLine
 10
1504.715729330714
 20
358.7814074851741
 30
0.0
 11
1523.605067643507
 21
358.7814074851768
 31
0.0
  0
LINE
  5
8F5C
330
8C5B
100
AcDbEntity
  8
Visible (ISO)
100
AcDbLine
 10
1531.36426319824
 20
413.2814074851777
 30
0.0
 11
1550.276158917065
 21
413.2814074851804
 31
0.0
  0
LINE
  5
8F5D
330
8C5B
100
AcDbEntity
  8
Visible (ISO)
100
AcDbLine
 10
1531.36426319824
 20
391.2814074851777
 30
0.0
 11
1550.276158917065
 21
391.2814074851804
 31
0.0
  0
LINE
  5
8F5E
330
8C5B
100
AcDbEntity
  8
Visible (ISO)
100
AcDbLine
 10
1555.859503819127
 20
418.7814074851814
 30
0.0
 11
1560.894478834113
 21
418.7814074851822
 31
0.0
  0
LINE
  5
8F5F
330
8C5B
100
AcDbEntity
  8
Visible (ISO)
100
AcDbLine
 10
1555.859503819126
 20
385.7814074851804
 30
0.0
 11
1560.894478834112
 21
385.7814074851813
 31
0.0
  0
SPLINE
  5
8F60
330
8C5B
100
AcDbEntity
  8
Visible (ISO)
100
AcDbSpline
210
0.0
220
0.0
230
1.0
 70
     8
 71
     3
 72
    18
 73
    14
 74
     0
 42
0.0000000001
 43
0.0000000001
 40
8.693796455454391
 40
8.693796455454391
 40
8.693796455454391
 40
8.693796455454391
 40
8.91551135198194
 40
8.91551135198194
 40
9.518705262616242
 40
9.518705262616242
 40
10.12189917325054
 40
10.12189917325054
 40
10.72509308388484
 40
10.72509308388484
 40
11.32828699451914
 40
11.32828699451914
 40
11.5500018910467
 40
11.5500018910467
 40
11.5500018910467
 40
11.5500018910467
 10
1601.458064732065
 20
353.8227868286532
 30
0.0
 10
1601.708598480208
 20
354.5394945920899
 30
0.0
 10
1601.967337707287
 20
355.2321453053956
 30
0.0
 10
1602.937566718013
 20
357.6845079152373
 30
0.0
 10
1603.778052685094
 20
359.5051927028599
 30
0.0
 10
1605.505891428403
 20
362.6815756205261
 30
0.0
 10
1606.390621576579
 20
364.0369919380601
 30
0.0
 10
1607.971662408245
 20
366.0476383068399
 30
0.0
 10
1608.789356611739
 20
366.8572346014071
 30
0.0
 10
1610.280655563974
 20
367.7747039034394
 30
0.0
 10
1610.957351715512
 20
367.8834548751475
 30
0.0
 10
1611.723375776298
 20
367.6391256466069
 30
0.0
 10
1611.925852535099
 20
367.5330140211336
 30
0.0
 10
1612.121227124221
 20
367.3833782530374
 30
0.0
  0
LINE
  5
8F61
330
8C5B
100
AcDbEntity
  8
Visible (ISO)
100
AcDbLine
 10
1612.121227124221
 20
367.3833782530374
 30
0.0
 11
1609.648248602959
 21
367.3833782530374
 31
0.0
  0
ELLIPSE
  5
8F62
330
8C5B
100
AcDbEntity
  8
Visible (ISO)
100
AcDbEllipse
 10
1458.705897399011
 20
362.3479941574915
 30
0.0
 11
-12.94708265106166
 21
-0.0000000000050553
 31
0.0
210
0.0
220
0.0
230
1.0
 40
0.7723747711751856
 41
5.450846650753667
 42
6.283185307180604
  0
ELLIPSE
  5
8F63
330
8C5B
100
AcDbEntity
  8
Visible (ISO)
100
AcDbEllipse
 10
1458.705897399012
 20
442.2148208128684
 30
0.0
 11
-12.94708265106166
 21
-0.0000000000050542
 31
0.0
210
0.0
220
0.0
230
1.0
 40
0.7723747711751856
 41
0.000000000001018
 42
0.832338656427135
  0
ELLIPSE
  5
8F64
330
8C5B
100
AcDbEntity
  8
Visible (ISO)
100
AcDbEllipse
 10
1411.643251962402
 20
402.2814074851623
 30
0.0
 11
-56.96716366467134
 21
-0.0000000000222432
 31
0.0
210
0.0
220
0.0
230
1.0
 40
0.7723747711751854
 41
2.309253997163827
 42
2.532123987147071
  0
ELLIPSE
  5
8F65
330
8C5B
100
AcDbEntity
  8
Visible (ISO)
100
AcDbEllipse
 10
1411.643251962402
 20
402.2814074851623
 30
0.0
 11
-56.96716366467134
 21
-0.0000000000222388
 31
0.0
210
0.0
220
0.0
230
1.0
 40
0.7723747711751854
 41
3.751061320034066
 42
3.973931310016947
  0
LINE
  5
8F66
330
8C5B
100
AcDbEntity
  8
Visible (ISO)
100
AcDbLine
 10
1445.758814747951
 20
458.281407485175
 30
0.0
 11
1470.674120528117
 21
458.2814074851777
 31
0.0
  0
LINE
  5
8F67
330
8C5B
100
AcDbEntity
  8
Visible (ISO)
100
AcDbLine
 10
1445.758814747951
 20
442.2148208128638
 30
0.0
 11
1445.758814747951
 21
458.281407485175
 31
0.0
  0
LINE
  5
8F68
330
8C5B
100
AcDbEntity
  8
Visible (ISO)
100
AcDbLine
 10
1445.758814747948
 20
346.2814074851749
 30
0.0
 11
1445.758814747949
 21
362.347994157487
 31
0.0
  0
LINE
  5
8F69
330
8C5B
100
AcDbEntity
  8
Visible (ISO)
100
AcDbLine
 10
1470.674120528115
 20
346.2814074851777
 30
0.0
 11
1445.758814747948
 21
346.2814074851749
 31
0.0
  0
ELLIPSE
  5
8F6A
330
8C5B
100
AcDbEntity
  8
Visible (ISO)
100
AcDbEllipse
 10
1483.777076012288
 20
402.2814074851713
 30
0.0
 11
0.0000000000083961
 21
-62.99999999999973
 31
0.0
210
0.0
220
0.0
230
1.0
 40
0.453990499739547
 41
5.188271230044772
 42
5.807303057518842
  0
LINE
  5
8F6B
330
8C5B
100
AcDbEntity
  8
Visible (ISO)
100
AcDbLine
 10
1458.353608026874
 20
431.1431468645097
 30
0.0
 11
1458.353608026873
 21
373.419668105863
 31
0.0
  0
ELLIPSE
  5
8F6C
330
8C5B
100
AcDbEntity
  8
Visible (ISO)
100
AcDbEllipse
 10
1483.777076012288
 20
402.2814074851713
 30
0.0
 11
0.0000000000113617
 21
-62.99999999999973
 31
0.0
210
0.0
220
0.0
230
1.0
 40
0.453990499739547
 41
3.617474903249156
 42
4.236506730723514
  0
LINE
  5
8F6D
330
8C5B
100
AcDbEntity
  8
Visible (ISO)
100
AcDbLine
 10
1484.484721653037
 20
458.2814074851804
 30
0.0
 11
1470.674120528117
 21
458.2814074851795
 31
0.0
  0
LINE
  5
8F6E
330
8C5B
100
AcDbEntity
  8
Visible (ISO)
100
AcDbLine
 10
1484.484721653037
 20
458.2814074851804
 30
0.0
 11
1485.375728177225
 21
458.2814074851804
 31
0.0
  0
LINE
  5
8F6F
330
8C5B
100
AcDbEntity
  8
Visible (ISO)
100
AcDbLine
 10
1472.164209151793
 20
373.4196681058648
 30
0.0
 11
1472.164209151793
 21
431.1431468645124
 31
0.0
  0
ELLIPSE
  5
8F70
330
8C5B
100
AcDbEntity
  8
Visible (ISO)
100
AcDbEllipse
 10
1497.587677137208
 20
402.2814074851732
 30
0.0
 11
-0.0000000000054401
 21
62.99999999999986
 31
0.0
210
0.0
220
0.0
230
1.0
 40
0.453990499739547
 41
2.046678576455411
 42
2.665710403929754
  0
LINE
  5
8F71
330
8C5B
100
AcDbEntity
  8
Visible (ISO)
100
AcDbLine
 10
1485.375728177223
 20
346.2814074851804
 30
0.0
 11
1484.484721653035
 21
346.2814074851813
 31
0.0
  0
ELLIPSE
  5
8F72
330
8C5B
100
AcDbEntity
  8
Visible (ISO)
100
AcDbEllipse
 10
1497.587677137208
 20
402.2814074851732
 30
0.0
 11
-0.0000000000083988
 21
62.99999999999986
 31
0.0
210
0.0
220
0.0
230
1.0
 40
0.453990499739547
 41
0.4758822496600921
 42
1.09491407713415
  0
ELLIPSE
  5
8F73
330
8C5B
100
AcDbEntity
  8
Visible (ISO)
100
AcDbEllipse
 10
1497.587677137208
 20
402.2814074851732
 30
0.0
 11
0.0000000000082656
 21
-61.99999999999977
 31
0.0
210
0.0
220
0.0
230
1.0
 40
0.453990499739547
 41
5.192168370610419
 42
5.748552117767291
  0
LINE
  5
8F74
330
8C5B
100
AcDbEntity
  8
Visible (ISO)
100
AcDbLine
 10
1472.618199651533
 20
430.8995835276966
 30
0.0
 11
1472.618199651533
 21
373.6632314426798
 31
0.0
  0
ELLIPSE
  5
8F75
330
8C5B
100
AcDbEntity
  8
Visible (ISO)
100
AcDbEllipse
 10
1497.587677137208
 20
402.2814074851732
 30
0.0
 11
0.0000000000111605
 21
-61.99999999999977
 31
0.0
210
0.0
220
0.0
230
1.0
 40
0.4539904997395471
 41
3.67622584300077
 42
4.232609590157894
  0
LINE
  5
8F76
330
8C5B
100
AcDbEntity
  8
Visible (ISO)
100
AcDbLine
 10
1484.484721653035
 20
346.2814074851813
 30
0.0
 11
1470.674120528115
 21
346.2814074851795
 31
0.0
  0
LINE
  5
8F77
330
8C5B
100
AcDbEntity
  8
Visible (ISO)
100
AcDbLine
 10
1472.164209151793
 20
373.4196681058648
 30
0.0
 11
1458.353608026873
 21
373.419668105863
 31
0.0
  0
LINE
  5
8F78
330
8C5B
100
AcDbEntity
  8
Visible (ISO)
100
AcDbLine
 10
1472.164209151793
 20
431.1431468645124
 30
0.0
 11
1458.353608026874
 21
431.1431468645097
 31
0.0
  0
ELLIPSE
  5
8F79
330
8C5B
100
AcDbEntity
  8
Visible (ISO)
100
AcDbEllipse
 10
1455.391504395366
 20
438.2775136276278
 30
0.0
 11
0.0000000000001448
 21
6.499999999999979
 31
0.0
210
0.0
220
0.0
230
1.0
 40
0.453990499739547
 41
0.0000000000028132
 42
3.141592653592605
  0
ELLIPSE
  5
8F7A
330
8C5B
100
AcDbEntity
  8
Visible (ISO)
100
AcDbEllipse
 10
1455.391504395364
 20
366.2853013427358
 30
0.0
 11
-0.0000000000001851
 21
-6.499999999999979
 31
0.0
210
0.0
220
0.0
230
1.0
 40
0.453990499739547
 41
3.141592653592672
 42
6.283185307182465
  0
LINE
  5
8F7B
330
8C5B
100
AcDbEntity
  8
Visible (ISO)
100
AcDbLine
 10
1458.504114725236
 20
431.7775136276288
 30
0.0
 11
1455.391504395365
 21
431.7775136276278
 31
0.0
  0
LINE
  5
8F7C
330
8C5B
100
AcDbEntity
  8
Visible (ISO)
100
AcDbLine
 10
1462.662461721203
 20
444.7775136276288
 30
0.0
 11
1455.391504395366
 21
444.7775136276278
 31
0.0
  0
LINE
  5
8F7D
330
8C5B
100
AcDbEntity
  8
Visible (ISO)
100
AcDbLine
 10
1455.391504395364
 20
372.7853013427357
 30
0.0
 11
1458.504114725235
 21
372.7853013427357
 31
0.0
  0
LINE
  5
8F7E
330
8C5B
100
AcDbEntity
  8
Visible (ISO)
100
AcDbLine
 10
1455.391504395364
 20
359.7853013427358
 30
0.0
 11
1462.662461721201
 21
359.7853013427367
 31
0.0
  0
LINE
  5
8F7F
330
8C5B
100
AcDbEntity
  8
Visible (ISO)
100
AcDbLine
 10
1445.758814747951
 20
458.281407485175
 30
0.0
 11
1432.527408128434
 21
458.2814074851695
 31
0.0
  0
LINE
  5
8F80
330
8C5B
100
AcDbEntity
  8
Visible (ISO)
100
AcDbLine
 10
1432.527408128433
 20
425.4814074851693
 30
0.0
 11
1432.527408128434
 21
458.2814074851704
 31
0.0
  0
LINE
  5
8F81
330
8C5B
100
AcDbEntity
  8
Visible (ISO)
100
AcDbLine
 10
1432.527408128432
 20
346.2814074851695
 30
0.0
 11
1432.527408128432
 21
379.0814074851697
 31
0.0
  0
LINE
  5
8F82
330
8C5B
100
AcDbEntity
  8
Visible (ISO)
100
AcDbLine
 10
1432.527408128432
 20
346.2814074851695
 30
0.0
 11
1445.758814747949
 21
346.2814074851749
 31
0.0
  0
LINE
  5
8F83
330
8C5B
100
AcDbEntity
  8
Visible (ISO)
100
AcDbLine
 10
1432.527408128433
 20
425.4814074851693
 30
0.0
 11
1447.161622435372
 21
412.6737123305893
 31
0.0
  0
ELLIPSE
  5
8F84
330
8C5B
100
AcDbEntity
  8
Visible (ISO)
100
AcDbEllipse
 10
1443.203501570918
 20
402.2814074851741
 30
0.0
 11
-0.0000000000002163
 21
-11.99999999999996
 31
0.0
210
0.0
220
0.0
230
1.0
 40
0.659686810742374
 41
0.5235987755981153
 42
2.617993877991345
  0
LINE
  5
8F85
330
8C5B
100
AcDbEntity
  8
Visible (ISO)
100
AcDbLine
 10
1447.161622435371
 20
391.8891026397624
 30
0.0
 11
1432.527408128432
 21
379.0814074851697
 31
0.0
  0
LINE
  5
8F86
330
8C5B
100
AcDbEntity
  8
Visible (ISO)
100
AcDbLine
 10
1495.81852987047
 20
497.2814074851677
 30
0.0
 11
1431.81852987047
 21
497.2814074851696
 31
0.0
  0
LINE
  5
8F87
330
8C5B
100
AcDbEntity
  8
Visible (ISO)
100
AcDbLine
 10
1495.81852987047
 20
494.4314074851682
 30
0.0
 11
1431.81852987047
 21
494.4314074851692
 31
0.0
  0
LINE
  5
8F88
330
8C5B
100
AcDbEntity
  8
Visible (ISO)
100
AcDbLine
 10
1489.21852987047
 20
492.0292039390107
 30
0.0
 11
1438.418529870471
 21
492.0292039390125
 31
0.0
  0
LINE
  5
8F89
330
8C5B
100
AcDbEntity
  8
Visible (ISO)
100
AcDbLine
 10
1431.81852987047
 20
494.4314074851692
 30
0.0
 11
1431.81852987047
 21
497.2814074851686
 31
0.0
  0
LINE
  5
8F8A
330
8C5B
100
AcDbEntity
  8
Visible (ISO)
100
AcDbLine
 10
1495.81852987047
 20
494.4314074851682
 30
0.0
 11
1495.81852987047
 21
497.2814074851677
 31
0.0
  0
LINE
  5
8F8B
330
8C5B
100
AcDbEntity
  8
Visible (ISO)
100
AcDbLine
 10
1438.418529870471
 20
492.0292039390115
 30
0.0
 11
1431.81852987047
 21
494.4314074851682
 31
0.0
  0
LINE
  5
8F8C
330
8C5B
100
AcDbEntity
  8
Visible (ISO)
100
AcDbLine
 10
1489.218529870471
 20
492.0292039390107
 30
0.0
 11
1495.81852987047
 21
494.4314074851682
 31
0.0
  0
LINE
  5
8F8D
330
8C5B
100
AcDbEntity
  8
Visible (ISO)
100
AcDbLine
 10
1438.41852987047
 20
458.2814074851686
 30
0.0
 11
1438.418529870471
 21
492.0292039390115
 31
0.0
  0
LINE
  5
8F8E
330
8C5B
100
AcDbEntity
  8
0
  6
CENTER
100
AcDbLine
 10
1463.818529870465
 20
280.9078512193993
 30
0.0
 11
1463.818529870471
 21
523.6549637509352
 31
0.0
  0
LINE
  5
8F8F
330
8C5B
100
AcDbEntity
  8
Visible (ISO)
100
AcDbLine
 10
1489.21852987047
 20
458.2814074851677
 30
0.0
 11
1489.218529870471
 21
492.0292039390107
 31
0.0
  0
LINE
  5
8F90
330
8C5B
100
AcDbEntity
  8
Visible (ISO)
100
AcDbLine
 10
1495.818529870468
 20
307.2814074851677
 30
0.0
 11
1431.818529870468
 21
307.2814074851695
 31
0.0
  0
LINE
  5
8F91
330
8C5B
100
AcDbEntity
  8
Visible (ISO)
100
AcDbLine
 10
1495.818529870468
 20
310.1314074851681
 30
0.0
 11
1431.818529870468
 21
310.1314074851699
 31
0.0
  0
LINE
  5
8F92
330
8C5B
100
AcDbEntity
  8
Visible (ISO)
100
AcDbLine
 10
1489.218529870467
 20
312.5336110313256
 30
0.0
 11
1438.418529870467
 21
312.5336110313265
 31
0.0
  0
LINE
  5
8F93
330
8C5B
100
AcDbEntity
  8
Visible (ISO)
100
AcDbLine
 10
1431.818529870468
 20
307.2814074851695
 30
0.0
 11
1431.818529870468
 21
310.1314074851699
 31
0.0
  0
LINE
  5
8F94
330
8C5B
100
AcDbEntity
  8
Visible (ISO)
100
AcDbLine
 10
1495.818529870468
 20
307.2814074851686
 30
0.0
 11
1495.818529870468
 21
310.1314074851681
 31
0.0
  0
LINE
  5
8F95
330
8C5B
100
AcDbEntity
  8
Visible (ISO)
100
AcDbLine
 10
1489.218529870467
 20
312.5336110313256
 30
0.0
 11
1495.818529870468
 21
310.1314074851681
 31
0.0
  0
LINE
  5
8F96
330
8C5B
100
AcDbEntity
  8
Visible (ISO)
100
AcDbLine
 10
1438.418529870467
 20
312.5336110313265
 30
0.0
 11
1431.818529870468
 21
310.1314074851699
 31
0.0
  0
LINE
  5
8F97
330
8C5B
100
AcDbEntity
  8
Visible (ISO)
100
AcDbLine
 10
1438.418529870467
 20
312.5336110313265
 30
0.0
 11
1438.418529870468
 21
346.2814074851686
 31
0.0
  0
LINE
  5
8F98
330
8C5B
100
AcDbEntity
  8
Visible (ISO)
100
AcDbLine
 10
1489.218529870467
 20
312.5336110313256
 30
0.0
 11
1489.218529870468
 21
346.2814074851677
 31
0.0
  0
ELLIPSE
  5
8F99
330
8C5B
100
AcDbEntity
  8
Visible (ISO)
100
AcDbEllipse
 10
1503.824722806522
 20
402.2814074851913
 30
0.0
 11
-0.0000000000113548
 21
63.00000000001918
 31
0.0
210
0.0
220
0.0
230
1.0
 40
0.4539904997395469
 41
3.617474903249171
 42
3.676225843000721
  0
ELLIPSE
  5
8F9A
330
8C5B
100
AcDbEntity
  8
Visible (ISO)
100
AcDbEllipse
 10
1504.715729330715
 20
402.281407485175
 30
0.0
 11
0.0000000000082601
 21
-62.00000000000051
 31
0.0
210
0.0
220
0.0
230
1.0
 40
0.453990499739547
 41
0.4797793902257368
 42
0.7949659505522054
  0
SPLINE
  5
8F9B
330
8C5B
100
AcDbEntity
  8
Visible (ISO)
100
AcDbSpline
210
0.0
220
0.0
230
1.0
 70
     8
 71
     3
 72
     8
 73
     4
 74
     0
 42
0.0000000001
 43
0.0000000001
 40
-0.1435004186556769
 40
-0.1435004186556769
 40
-0.1435004186556769
 40
-0.1435004186556769
 40
0.0
 40
0.0
 40
0.0
 40
0.0
 10
1516.927678290697
 20
346.2814074851659
 30
0.0
 10
1517.188003632758
 20
346.6147742721406
 30
0.0
 10
1517.448159892835
 20
346.9481220592825
 30
0.0
 10
1517.708109373886
 20
347.2814074851668
 30
0.0
  0
LINE
  5
8F9C
330
8C5B
100
AcDbEntity
  8
Visible (ISO)
100
AcDbLine
 10
1516.927678290698
 20
458.2814074851659
 30
0.0
 11
1490.721767322356
 21
458.2814074851813
 31
0.0
  0
SPLINE
  5
8F9D
330
8C5B
100
AcDbEntity
  8
Visible (ISO)
100
AcDbSpline
210
0.0
220
0.0
230
1.0
 70
     8
 71
     3
 72
     8
 73
     4
 74
     0
 42
0.0000000001
 43
0.0000000001
 40
-0.1435004186556769
 40
-0.1435004186556769
 40
-0.1435004186556769
 40
-0.1435004186556769
 40
0.0
 40
0.0
 40
0.0
 40
0.0
 10
1490.721767322356
 20
458.2814074851813
 30
0.0
 10
1491.055505944579
 20
457.9480406982066
 30
0.0
 10
1491.389379790835
 20
457.6146929110656
 30
0.0
 10
1491.723349287543
 20
457.2814074851813
 30
0.0
  0
LINE
  5
8F9E
330
8C5B
100
AcDbEntity
  8
Visible (ISO)
100
AcDbLine
 10
1491.723349287543
 20
457.2814074851813
 30
0.0
 11
1517.708109373889
 21
457.2814074851659
 31
0.0
  0
SPLINE
  5
8F9F
330
8C5B
100
AcDbEntity
  8
Visible (ISO)
100
AcDbSpline
210
0.0
220
0.0
230
1.0
 70
     8
 71
     3
 72
     8
 73
     4
 74
     0
 42
0.0000000001
 43
0.0000000001
 40
-0.1435004111842926
 40
-0.1435004111842926
 40
-0.1435004111842926
 40
-0.1435004111842926
 40
0.0
 40
0.0
 40
0.0
 40
0.0
 10
1517.708109373888
 20
457.2814074851659
 30
0.0
 10
1517.448159892838
 20
457.6146929110501
 30
0.0
 10
1517.188003632759
 20
457.9480406981921
 30
0.0
 10
1516.927678290699
 20
458.2814074851659
 30
0.0
  0
ELLIPSE
  5
8FA0
330
8C5B
100
AcDbEntity
  8
Visible (ISO)
100
AcDbEllipse
 10
1503.824722806526
 20
402.2814074851722
 30
0.0
 11
-0.0000000000083877
 21
63.00000000000223
 31
0.0
210
0.0
220
0.0
230
1.0
 40
0.4539904997395471
 41
5.748552117767304
 42
5.807303057518812
  0
ELLIPSE
  5
8FA1
330
8C5B
100
AcDbEntity
  8
Visible (ISO)
100
AcDbEllipse
 10
1504.715729330715
 20
402.2814074851741
 30
0.0
 11
0.0000000000053582
 21
-62.00000000000025
 31
0.0
210
0.0
220
0.0
230
1.0
 40
0.4539904997395469
 41
2.346626703037461
 42
2.661813263364088
  0
ELLIPSE
  5
8FA2
330
8C5B
100
AcDbEntity
  8
Visible (ISO)
100
AcDbEllipse
 10
1503.824722806526
 20
402.2814074851741
 30
0.0
 11
0.000000000011359
 21
-62.99999999999988
 31
0.0
210
0.0
220
0.0
230
1.0
 40
0.4539904997395469
 41
3.617474903249185
 42
4.236506730723523
  0
SPLINE
  5
8FA3
330
8C5B
100
AcDbEntity
  8
Visible (ISO)
100
AcDbSpline
210
0.0
220
0.0
230
1.0
 70
     8
 71
     3
 72
     8
 73
     4
 74
     0
 42
0.0000000001
 43
0.0000000001
 40
-0.1435004186556541
 40
-0.1435004186556541
 40
-0.1435004186556541
 40
-0.1435004186556541
 40
0.0
 40
0.0
 40
0.0
 40
0.0
 10
1478.401254821112
 20
431.1431468645124
 30
0.0
 10
1478.84963215747
 20
431.0622935424673
 30
0.0
 10
1479.297983939108
 20
430.9811050746239
 30
0.0
 10
1479.74625184504
 20
430.8995835276975
 30
0.0
  0
ELLIPSE
  5
8FA4
330
8C5B
100
AcDbEntity
  8
Visible (ISO)
100
AcDbEllipse
 10
1504.715729330715
 20
402.2814074851741
 30
0.0
 11
-0.0000000000082614
 21
61.99999999999995
 31
0.0
210
0.0
220
0.0
230
1.0
 40
0.4539904997395469
 41
0.4797793902257137
 42
1.091016936568486
  0
LINE
  5
8FA5
330
8C5B
100
AcDbEntity
  8
Visible (ISO)
100
AcDbLine
 10
1478.401254821112
 20
431.1431468645124
 30
0.0
 11
1478.401254821111
 21
373.4196681058657
 31
0.0
  0
SPLINE
  5
8FA6
330
8C5B
100
AcDbEntity
  8
Visible (ISO)
100
AcDbSpline
210
0.0
220
0.0
230
1.0
 70
     8
 71
     3
 72
     8
 73
     4
 74
     0
 42
0.0000000001
 43
0.0000000001
 40
-0.1435004186549885
 40
-0.1435004186549885
 40
-0.1435004186549885
 40
-0.1435004186549885
 40
0.0
 40
0.0
 40
0.0
 40
0.0
 10
1478.401254821111
 20
373.4196681058657
 30
0.0
 10
1478.849632157473
 20
373.5005214279118
 30
0.0
 10
1479.297983939109
 20
373.5817098957551
 30
0.0
 10
1479.746251845039
 20
373.6632314426807
 30
0.0
  0
LINE
  5
8FA7
330
8C5B
100
AcDbEntity
  8
Visible (ISO)
100
AcDbLine
 10
1479.746251845039
 20
373.6632314426807
 30
0.0
 11
1479.74625184504
 21
430.8995835276975
 31
0.0
  0
ELLIPSE
  5
8FA8
330
8C5B
100
AcDbEntity
  8
Visible (ISO)
100
AcDbEllipse
 10
1503.824722806526
 20
402.2814074851741
 30
0.0
 11
0.0000000000083974
 21
-62.99999999999986
 31
0.0
210
0.0
220
0.0
230
1.0
 40
0.453990499739547
 41
5.188271230044762
 42
5.807303057518841
  0
SPLINE
  5
8FA9
330
8C5B
100
AcDbEntity
  8
Visible (ISO)
100
AcDbSpline
210
0.0
220
0.0
230
1.0
 70
     8
 71
     3
 72
     8
 73
     4
 74
     0
 42
0.0000000001
 43
0.0000000001
 40
-0.1435004186556541
 40
-0.1435004186556541
 40
-0.1435004186556541
 40
-0.1435004186556541
 40
0.0
 40
0.0
 40
0.0
 40
0.0
 10
1490.721767322354
 20
346.2814074851813
 30
0.0
 10
1491.055505944576
 20
346.6147742721569
 30
0.0
 10
1491.389379790833
 20
346.9481220592989
 30
0.0
 10
1491.723349287541
 20
347.2814074851823
 30
0.0
  0
ELLIPSE
  5
8FAA
330
8C5B
100
AcDbEntity
  8
Visible (ISO)
100
AcDbEllipse
 10
1504.715729330715
 20
402.2814074851741
 30
0.0
 11
-0.0000000000053541
 21
61.99999999999992
 31
0.0
210
0.0
220
0.0
230
1.0
 40
0.453990499739547
 41
2.050575717021041
 42
2.661813263364084
  0
LINE
  5
8FAB
330
8C5B
100
AcDbEntity
  8
Visible (ISO)
100
AcDbLine
 10
1490.721767322354
 20
346.2814074851822
 30
0.0
 11
1516.927678290696
 21
346.2814074851659
 31
0.0
  0
LINE
  5
8FAC
330
8C5B
100
AcDbEntity
  8
Visible (ISO)
100
AcDbLine
 10
1517.708109373886
 20
347.2814074851668
 30
0.0
 11
1491.72334928754
 21
347.2814074851823
 31
0.0
  0
ELLIPSE
  5
8FAD
330
8C5B
100
AcDbEntity
  8
Visible (ISO)
100
AcDbEllipse
 10
1498.478683661396
 20
402.2814074851732
 30
0.0
 11
-0.0000000000054359
 21
62.99999999999972
 31
0.0
210
0.0
220
0.0
230
1.0
 40
0.4539904997395471
 41
2.046678576455411
 42
2.665710403929754
  0
LINE
  5
8FAE
330
8C5B
100
AcDbEntity
  8
Visible (ISO)
100
AcDbLine
 10
1473.055215675981
 20
373.4196681058648
 30
0.0
 11
1473.055215675982
 21
431.1431468645124
 31
0.0
  0
ELLIPSE
  5
8FAF
330
8C5B
100
AcDbEntity
  8
Visible (ISO)
100
AcDbEllipse
 10
1498.478683661396
 20
402.2814074851732
 30
0.0
 11
-0.0000000000083919
 21
62.99999999999973
 31
0.0
210
0.0
220
0.0
230
1.0
 40
0.453990499739547
 41
0.4758822496600708
 42
1.09491407713415
  0
SPLINE
  5
8FB0
330
8C5B
100
AcDbEntity
  8
Visible (ISO)
100
AcDbSpline
210
0.0
220
0.0
230
1.0
 70
     8
 71
     3
 72
     8
 73
     4
 74
     0
 42
0.0000000001
 43
0.0000000001
 40
-0.1435004111845601
 40
-0.1435004111845601
 40
-0.1435004111845601
 40
-0.1435004111845601
 40
0.0
 40
0.0
 40
0.0
 40
0.0
 10
1472.618199651533
 20
430.8995835276966
 30
0.0
 10
1472.76385072336
 20
430.9811050746222
 30
0.0
 10
1472.909529048056
 20
431.0622935424663
 30
0.0
 10
1473.055215675982
 20
431.1431468645124
 30
0.0
  0
SPLINE
  5
8FB1
330
8C5B
100
AcDbEntity
  8
Visible (ISO)
100
AcDbSpline
210
0.0
220
0.0
230
1.0
 70
     8
 71
     3
 72
     8
 73
     4
 74
     0
 42
0.0000000001
 43
0.0000000001
 40
-0.1435004111849822
 40
-0.1435004111849822
 40
-0.1435004111849822
 40
-0.1435004111849822
 40
0.0
 40
0.0
 40
0.0
 40
0.0
 10
1472.618199651533
 20
373.6632314426798
 30
0.0
 10
1472.763850723358
 20
373.5817098957542
 30
0.0
 10
1472.909529048054
 20
373.50052142791
 30
0.0
 10
1473.055215675981
 20
373.4196681058648
 30
0.0
  0
LINE
  5
8FB2
330
8C5B
100
AcDbEntity
  8
Visible (ISO)
100
AcDbLine
 10
1519.057551564365
 20
348.9331611229419
 30
0.0
 11
1518.397864753623
 21
348.0727055364542
 31
0.0
  0
LINE
  5
8FB3
330
8C5B
100
AcDbEntity
  8
Visible (ISO)
100
AcDbLine
 10
1519.057551564368
 20
455.6296538473881
 30
0.0
 11
1518.397864753624
 21
456.4901094338758
 31
0.0
  0
LINE
  5
8FB4
330
8C5B
100
AcDbEntity
  8
Visible (ISO)
100
AcDbLine
 10
1483.245854903557
 20
455.6296538474044
 30
0.0
 11
1483.9055417143
 21
456.4901094338921
 31
0.0
  0
LINE
  5
8FB5
330
8C5B
100
AcDbEntity
  8
Visible (ISO)
100
AcDbLine
 10
1483.245854903556
 20
348.9331611229591
 30
0.0
 11
1483.905541714297
 21
348.0727055364715
 31
0.0
  0
LINE
  5
8FB6
330
8C5B
100
AcDbEntity
  8
Visible (ISO)
100
AcDbLine
 10
1478.401254821111
 20
373.4196681058657
 30
0.0
 11
1473.055215675981
 21
373.4196681058648
 31
0.0
  0
LINE
  5
8FB7
330
8C5B
100
AcDbEntity
  8
Visible (ISO)
100
AcDbLine
 10
1490.721767322354
 20
346.2814074851822
 30
0.0
 11
1485.375728177223
 21
346.2814074851813
 31
0.0
  0
LINE
  5
8FB8
330
8C5B
100
AcDbEntity
  8
Visible (ISO)
100
AcDbLine
 10
1478.401254821112
 20
431.1431468645124
 30
0.0
 11
1473.055215675982
 21
431.1431468645124
 31
0.0
  0
LINE
  5
8FB9
330
8C5B
100
AcDbEntity
  8
Visible (ISO)
100
AcDbLine
 10
1490.721767322356
 20
458.2814074851813
 30
0.0
 11
1485.375728177225
 21
458.2814074851804
 31
0.0
  0
LINE
  5
8FBA
330
8C5B
100
AcDbEntity
  8
Visible (ISO)
100
AcDbLine
 10
1733.920500637287
 20
195.8599733537129
 30
0.0
 11
1733.92050063729
 21
202.472465351081
 31
0.0
  0
SPLINE
  5
8FBB
330
8C5B
100
AcDbEntity
  8
Visible (ISO)
100
AcDbSpline
210
0.0
220
0.0
230
1.0
 70
     8
 71
     3
 72
    18
 73
    14
 74
     0
 42
0.0000000001
 43
0.0000000001
 40
8.693796455454393
 40
8.693796455454393
 40
8.693796455454393
 40
8.693796455454393
 40
8.91551135198194
 40
8.91551135198194
 40
9.518705262616244
 40
9.518705262616244
 40
10.12189917325054
 40
10.12189917325054
 40
10.72509308388485
 40
10.72509308388485
 40
11.32828699451915
 40
11.32828699451915
 40
11.5500018910467
 40
11.5500018910467
 40
11.5500018910467
 40
11.5500018910467
 10
1733.920500637291
 20
202.472465351081
 30
0.0
 10
1734.070136405388
 20
201.8839633697242
 30
0.0
 10
1734.176248030859
 20
201.2935908309771
 30
0.0
 10
1734.4205772594
 20
199.1282753886178
 30
0.0
 10
1734.311826287692
 20
197.3551717234621
 30
0.0
 10
1733.394356985659
 20
193.8262998967037
 30
0.0
 10
1732.584760691091
 20
192.0688368642093
 30
0.0
 10
1730.574114322311
 20
188.9658695183487
 30
0.0
 10
1729.218698004777
 20
187.3821366334303
 30
0.0
 10
1726.042315087111
 20
184.5930950002437
 30
0.0
 10
1724.221630299487
 20
183.3885611006333
 30
0.0
 10
1721.769267689645
 20
182.1462880246288
 30
0.0
 10
1721.076616976339
 20
181.8314732241804
 30
0.0
 10
1720.359909212902
 20
181.5448308183311
 30
0.0
  0
SPLINE
  5
8FBC
330
8C5B
100
AcDbEntity
  8
Visible (ISO)
100
AcDbSpline
210
0.0
220
0.0
230
1.0
 70
     8
 71
     3
 72
    18
 73
    14
 74
     0
 42
0.0000000001
 43
0.0000000001
 40
8.693796455454387
 40
8.693796455454387
 40
8.693796455454387
 40
8.693796455454387
 40
8.915511351981937
 40
8.915511351981937
 40
9.51870526261624
 40
9.51870526261624
 40
10.12189917325054
 40
10.12189917325054
 40
10.72509308388484
 40
10.72509308388484
 40
11.32828699451914
 40
11.32828699451914
 40
11.55000189104669
 40
11.55000189104669
 40
11.55000189104669
 40
11.55000189104669
 10
1782.37912129382
 20
213.4489310604511
 30
0.0
 10
1781.812049298478
 20
213.0751678155573
 30
0.0
 10
1781.225510210645
 20
212.7319381443829
 30
0.0
 10
1779.017476829343
 20
211.576797001784
 30
0.0
 10
1777.088041070012
 20
210.8521831770739
 30
0.0
 10
1772.994188850312
 20
209.9012496828161
 30
0.0
 10
1770.829176238209
 20
209.6739934613286
 30
0.0
 10
1766.807883500647
 20
209.6739934613286
 30
0.0
 10
1764.642870888545
 20
209.9012496828161
 30
0.0
 10
1760.549018668845
 20
210.8521831770739
 30
0.0
 10
1758.619582909513
 20
211.576797001784
 30
0.0
 10
1756.411549528211
 20
212.7319381443829
 30
0.0
 10
1755.825010440377
 20
213.0751678155573
 30
0.0
 10
1755.257938445036
 20
213.4489310604511
 30
0.0
  0
LINE
  5
8FBD
330
8C5B
100
AcDbEntity
  8
Visible (ISO)
100
AcDbLine
 10
1803.716559101568
 20
202.472465351081
 30
0.0
 11
1803.716559101564
 21
195.8599733537101
 31
0.0
  0
SPLINE
  5
8FBE
330
8C5B
100
AcDbEntity
  8
Visible (ISO)
100
AcDbSpline
210
0.0
220
0.0
230
1.0
 70
     8
 71
     3
 72
    18
 73
    14
 74
     0
 42
0.0000000001
 43
0.0000000001
 40
8.693796455454391
 40
8.693796455454391
 40
8.693796455454391
 40
8.693796455454391
 40
8.91551135198194
 40
8.91551135198194
 40
9.518705262616244
 40
9.518705262616244
 40
10.12189917325054
 40
10.12189917325054
 40
10.72509308388485
 40
10.72509308388485
 40
11.32828699451915
 40
11.32828699451915
 40
11.5500018910467
 40
11.5500018910467
 40
11.5500018910467
 40
11.5500018910467
 10
1817.277150525962
 20
181.5448308183311
 30
0.0
 10
1816.560442762524
 20
181.8314732241804
 30
0.0
 10
1815.86779204922
 20
182.1462880246288
 30
0.0
 10
1813.415429439377
 20
183.3885611006333
 30
0.0
 10
1811.594744651754
 20
184.5930950002437
 30
0.0
 10
1808.418361734087
 20
187.3821366334303
 30
0.0
 10
1807.062945416553
 20
188.9658695183487
 30
0.0
 10
1805.052299047772
 20
192.0688368642093
 30
0.0
 10
1804.242702753203
 20
193.8262998967037
 30
0.0
 10
1803.325233451169
 20
197.3551717234621
 30
0.0
 10
1803.216482479459
 20
199.1282753886178
 30
0.0
 10
1803.460811708
 20
201.2935908309771
 30
0.0
 10
1803.566923333472
 20
201.8839633697242
 30
0.0
 10
1803.716559101568
 20
202.472465351081
 30
0.0
  0
LINE
  5
8FBF
330
8C5B
100
AcDbEntity
  8
Visible (ISO)
100
AcDbLine
 10
1803.716559101574
 20
131.763823601428
 30
0.0
 11
1803.716559101576
 21
138.6642648668402
 31
0.0
  0
ELLIPSE
  5
8FC0
330
8C5B
100
AcDbEntity
  8
Visible (ISO)
100
AcDbEllipse
 10
1823.811143009745
 20
135.3784667005682
 30
0.0
 11
-20.49999999999996
 21
0.0000000000112237
 31
0.0
210
0.0
220
0.0
230
1.0
 40
0.8910065241883703
 41
5.036779698994143
 42
6.092680886843229
  0
LINE
  5
8FC1
330
8C5B
100
AcDbEntity
  8
Visible (ISO)
100
AcDbLine
 10
1817.277150525965
 20
159.5918993995909
 30
0.0
 11
1817.277150525962
 21
152.6914581341787
 31
0.0
  0
SPLINE
  5
8FC2
330
8C5B
100
AcDbEntity
  8
Visible (ISO)
100
AcDbSpline
210
0.0
220
0.0
230
1.0
 70
     8
 71
     3
 72
    18
 73
    14
 74
     0
 42
0.0000000001
 43
0.0000000001
 40
8.693796455454387
 40
8.693796455454387
 40
8.693796455454387
 40
8.693796455454387
 40
8.91551135198194
 40
8.91551135198194
 40
9.518705262616244
 40
9.518705262616244
 40
10.12189917325054
 40
10.12189917325054
 40
10.72509308388485
 40
10.72509308388485
 40
11.32828699451915
 40
11.32828699451915
 40
11.5500018910467
 40
11.5500018910467
 40
11.5500018910467
 40
11.5500018910467
 10
1803.716559101576
 20
138.6642648668401
 30
0.0
 10
1803.56692333348
 20
139.3965741869704
 30
0.0
 10
1803.460811708009
 20
140.1222905914672
 30
0.0
 10
1803.216482479468
 20
142.7518035863166
 30
0.0
 10
1803.325233451176
 20
144.8369953698018
 30
0.0
 10
1804.24270275321
 20
148.788073797932
 30
0.0
 10
1805.052299047778
 20
150.6525889782495
 30
0.0
 10
1807.062945416558
 20
153.7555563241101
 30
0.0
 10
1808.418361734093
 20
155.2322370612063
 30
0.0
 10
1811.594744651759
 20
157.5990720930202
 30
0.0
 10
1813.415429439381
 20
158.4915178743011
 30
0.0
 10
1815.867792049223
 20
159.2695933978164
 30
0.0
 10
1816.560442762527
 20
159.4490643325133
 30
0.0
 10
1817.277150525965
 20
159.5918993995909
 30
0.0
  0
LINE
  5
8FC3
330
8C5B
100
AcDbEntity
  8
Visible (ISO)
100
AcDbLine
 10
1755.257938445044
 20
120.7873578920588
 30
0.0
 11
1755.257938445049
 21
127.68779915747
 31
0.0
  0
ELLIPSE
  5
8FC4
330
8C5B
100
AcDbEntity
  8
Visible (ISO)
100
AcDbEllipse
 10
1768.818529869438
 20
107.0890095575876
 30
0.0
 11
-20.49999999999993
 21
0.000000000009337
 31
0.0
210
0.0
220
0.0
230
1.0
 40
0.8910065241883703
 41
3.989582147797415
 42
5.435195812972999
  0
LINE
  5
8FC5
330
8C5B
100
AcDbEntity
  8
Visible (ISO)
100
AcDbLine
 10
1782.379121293831
 20
127.68779915747
 30
0.0
 11
1782.379121293828
 21
120.7873578920588
 31
0.0
  0
SPLINE
  5
8FC6
330
8C5B
100
AcDbEntity
  8
Visible (ISO)
100
AcDbSpline
210
0.0
220
0.0
230
1.0
 70
     8
 71
     3
 72
    18
 73
    14
 74
     0
 42
0.0000000001
 43
0.0000000001
 40
8.693796455454393
 40
8.693796455454393
 40
8.693796455454393
 40
8.693796455454393
 40
8.915511351981944
 40
8.915511351981944
 40
9.518705262616245
 40
9.518705262616245
 40
10.12189917325054
 40
10.12189917325054
 40
10.72509308388485
 40
10.72509308388485
 40
11.32828699451915
 40
11.32828699451915
 40
11.5500018910467
 40
11.5500018910467
 40
11.5500018910467
 40
11.5500018910467
 10
1755.257938445049
 20
127.68779915747
 30
0.0
 10
1755.82501044039
 20
128.2053697411364
 30
0.0
 10
1756.411549528222
 20
128.6839432780614
 30
0.0
 10
1758.619582909525
 20
130.3032819731505
 30
0.0
 10
1760.549018668856
 20
131.3399839161901
 30
0.0
 10
1764.642870888555
 20
132.7131240118195
 30
0.0
 10
1766.807883500658
 20
133.0474323811302
 30
0.0
 10
1770.829176238221
 20
133.0474323811302
 30
0.0
 10
1772.994188850324
 20
132.7131240118195
 30
0.0
 10
1777.088041070023
 20
131.3399839161901
 30
0.0
 10
1779.017476829354
 20
130.3032819731505
 30
0.0
 10
1781.225510210656
 20
128.6839432780614
 30
0.0
 10
1781.812049298489
 20
128.2053697411364
 30
0.0
 10
1782.379121293831
 20
127.68779915747
 30
0.0
  0
ELLIPSE
  5
8FC7
330
8C5B
100
AcDbEntity
  8
Visible (ISO)
100
AcDbEllipse
 10
1768.818529869435
 20
174.6998929872205
 30
0.0
 11
-13.49999999999995
 21
-0.0000000000000001
 31
0.0
210
0.0
220
0.0
230
1.0
 40
0.8910065241883705
 41
0.0
 42
6.283185307179586
  0
ELLIPSE
  5
8FC8
330
8C5B
100
AcDbEntity
  8
Visible (ISO)
100
AcDbEllipse
 10
1768.818529869434
 20
170.568365108961
 30
0.0
 11
-50.00000000000004
 21
0.0000000000273503
 31
0.0
210
0.0
220
0.0
230
1.0
 40
0.8910065241883703
 41
6.034238356973984
 42
6.532132257386436
  0
ELLIPSE
  5
8FC9
330
8C5B
100
AcDbEntity
  8
Visible (ISO)
100
AcDbEllipse
 10
1768.818529869434
 20
170.568365108961
 30
0.0
 11
49.99999999999973
 21
-0.000000000022729
 31
0.0
210
0.0
220
0.0
230
1.0
 40
0.8910065241883705
 41
3.939843254580673
 42
4.437737154993135
  0
ELLIPSE
  5
8FCA
330
8C5B
100
AcDbEntity
  8
Visible (ISO)
100
AcDbEllipse
 10
1768.818529869434
 20
170.5683651089601
 30
0.0
 11
49.99999999999962
 21
-0.0000000000273739
 31
0.0
210
0.0
220
0.0
230
1.0
 40
0.8910065241883705
 41
4.987040805777367
 42
5.484934706189815
  0
ELLIPSE
  5
8FCB
330
8C5B
100
AcDbEntity
  8
Visible (ISO)
100
AcDbEllipse
 10
1768.818529869434
 20
170.568365108961
 30
0.0
 11
49.99999999999976
 21
-0.0000000000273559
 31
0.0
210
0.0
220
0.0
230
1.0
 40
0.8910065241883703
 41
6.034238356973985
 42
6.53213225738642
  0
ELLIPSE
  5
8FCC
330
8C5B
100
AcDbEntity
  8
Visible (ISO)
100
AcDbEllipse
 10
1768.818529869434
 20
170.568365108961
 30
0.0
 11
-50.00000000000008
 21
0.0000000000226791
 31
0.0
210
0.0
220
0.0
230
1.0
 40
0.8910065241883703
 41
3.939843254580678
 42
4.437737154993139
  0
ELLIPSE
  5
8FCD
330
8C5B
100
AcDbEntity
  8
Visible (ISO)
100
AcDbEllipse
 10
1768.818529869434
 20
170.568365108961
 30
0.0
 11
-49.99999999999981
 21
0.000000000027342
 31
0.0
210
0.0
220
0.0
230
1.0
 40
0.8910065241883703
 41
4.987040805777368
 42
5.484934706189845
  0
ELLIPSE
  5
8FCE
330
8C5B
100
AcDbEntity
  8
Visible (ISO)
100
AcDbEllipse
 10
1768.81852986943
 20
163.6679238435479
 30
0.0
 11
-49.99999999999981
 21
-0.0000000000016935
 31
0.0
210
0.0
220
0.0
230
1.0
 40
0.8910065241883703
 41
0.0
 42
0.2489469502058474
  0
ELLIPSE
  5
8FCF
330
8C5B
100
AcDbEntity
  8
Visible (ISO)
100
AcDbEllipse
 10
1768.81852986943
 20
163.6679238435479
 30
0.0
 11
49.99999999999989
 21
-0.0000000000227235
 31
0.0
210
0.0
220
0.0
230
1.0
 40
0.8910065241883703
 41
3.939843254580673
 42
4.437737154993138
  0
ELLIPSE
  5
8FD0
330
8C5B
100
AcDbEntity
  8
Visible (ISO)
100
AcDbEllipse
 10
1768.81852986943
 20
163.6679238435479
 30
0.0
 11
49.99999999999981
 21
-0.0000000000273698
 31
0.0
210
0.0
220
0.0
230
1.0
 40
0.8910065241883707
 41
4.987040805777368
 42
5.484934706189846
  0
ELLIPSE
  5
8FD1
330
8C5B
100
AcDbEntity
  8
Visible (ISO)
100
AcDbEllipse
 10
1768.81852986943
 20
163.6679238435479
 30
0.0
 11
49.99999999999952
 21
-0.0000000000273476
 31
0.0
210
0.0
220
0.0
230
1.0
 40
0.8910065241883703
 41
6.034238356973978
 42
6.283185307180247
  0
ELLIPSE
  5
8FD2
330
8C5B
100
AcDbEntity
  8
Visible (ISO)
100
AcDbEllipse
 10
1768.818529869414
 20
133.7499499107123
 30
0.0
 11
-43.49999999999986
 21
0.0000000000237838
 31
0.0
210
0.0
220
0.0
230
1.0
 40
0.8910065241883707
 41
5.901641972671196
 42
9.806321295279047
  0
ELLIPSE
  5
8FD3
330
8C5B
100
AcDbEntity
  8
Visible (ISO)
100
AcDbEllipse
 10
1768.818529869408
 20
124.1253513162344
 30
0.0
 11
43.49999999999987
 21
0.0000000000016399
 31
0.0
210
0.0
220
0.0
230
1.0
 40
0.8910065241883703
 41
3.14159265358946
 42
6.283185307179254
  0
ELLIPSE
  5
8FD4
330
8C5B
100
AcDbEntity
  8
Visible (ISO)
100
AcDbEllipse
 10
1768.818529869435
 20
174.6998929872205
 30
0.0
 11
-6.749999999999981
 21
-0.0000000000000001
 31
0.0
210
0.0
220
0.0
230
1.0
 40
0.8910065241883707
 41
0.0
 42
6.283185307179586
  0
ELLIPSE
  5
8FD5
330
8C5B
100
AcDbEntity
  8
Visible (ISO)
100
AcDbEllipse
 10
1768.818529869435
 20
174.0643062875841
 30
0.0
 11
6.749999999999981
 21
-0.0000000000036922
 31
0.0
210
0.0
220
0.0
230
1.0
 40
0.8910065241883703
 41
0.0528642955284188
 42
3.088728358063202
  0
LINE
  5
8FD6
330
8C5B
100
AcDbEntity
  8
Visible (ISO)
100
AcDbLine
 10
1718.81852986943
 20
163.6679238435471
 30
0.0
 11
1718.818529869434
 21
170.5683651089583
 31
0.0
  0
LINE
  5
8FD7
330
8C5B
100
AcDbEntity
  8
Visible (ISO)
100
AcDbLine
 10
1818.81852986943
 20
163.6679238435507
 30
0.0
 11
1818.818529869433
 21
170.5683651089619
 31
0.0
  0
LINE
  5
8FD8
330
8C5B
100
AcDbEntity
  8
Visible (ISO)
100
AcDbLine
 10
1725.318529869408
 20
124.1253513162336
 30
0.0
 11
1725.318529869413
 21
133.7499499107115
 31
0.0
  0
LINE
  5
8FD9
330
8C5B
100
AcDbEntity
  8
Visible (ISO)
100
AcDbLine
 10
1812.318529869409
 20
124.1253513162354
 30
0.0
 11
1812.318529869415
 21
133.7499499107142
 31
0.0
  0
SPLINE
  5
8FDA
330
8C5B
100
AcDbEntity
  8
Visible (ISO)
100
AcDbSpline
210
0.0
220
0.0
230
1.0
 70
     8
 71
     3
 72
    18
 73
    14
 74
     0
 42
0.0000000001
 43
0.0000000001
 40
8.693796455454391
 40
8.693796455454391
 40
8.693796455454391
 40
8.693796455454391
 40
8.91551135198194
 40
8.91551135198194
 40
9.518705262616242
 40
9.518705262616242
 40
10.12189917325054
 40
10.12189917325054
 40
10.72509308388484
 40
10.72509308388484
 40
11.32828699451914
 40
11.32828699451914
 40
11.5500018910467
 40
11.5500018910467
 40
11.5500018910467
 40
11.5500018910467
 10
1720.359909212905
 20
159.5918993995909
 30
0.0
 10
1721.076616976344
 20
159.4490643325133
 30
0.0
 10
1721.769267689648
 20
159.2695933978164
 30
0.0
 10
1724.22163029949
 20
158.4915178743011
 30
0.0
 10
1726.042315087114
 20
157.5990720930202
 30
0.0
 10
1729.21869800478
 20
155.2322370612063
 30
0.0
 10
1730.574114322315
 20
153.7555563241101
 30
0.0
 10
1732.584760691097
 20
150.6525889782495
 30
0.0
 10
1733.394356985665
 20
148.788073797932
 30
0.0
 10
1734.311826287699
 20
144.8369953698018
 30
0.0
 10
1734.420577259408
 20
142.7518035863166
 30
0.0
 10
1734.176248030867
 20
140.1222905914672
 30
0.0
 10
1734.070136405396
 20
139.3965741869704
 30
0.0
 10
1733.920500637299
 20
138.6642648668401
 30
0.0
  0
LINE
  5
8FDB
330
8C5B
100
AcDbEntity
  8
Visible (ISO)
100
AcDbLine
 10
1720.359909212902
 20
152.6914581341787
 30
0.0
 11
1720.359909212905
 21
159.5918993995909
 31
0.0
  0
LINE
  5
8FDC
330
8C5B
100
AcDbEntity
  8
Visible (ISO)
100
AcDbLine
 10
1733.920500637299
 20
138.6642648668402
 30
0.0
 11
1733.920500637295
 21
131.763823601428
 31
0.0
  0
ELLIPSE
  5
8FDD
330
8C5B
100
AcDbEntity
  8
Visible (ISO)
100
AcDbEllipse
 10
1713.825916729123
 20
135.3784667005682
 30
0.0
 11
20.49999999999993
 21
-0.0000000000112181
 31
0.0
210
0.0
220
0.0
230
1.0
 40
0.8910065241883707
 41
0.1905044203376976
 42
1.246405608186641
  0
ELLIPSE
  5
8FDE
330
8C5B
100
AcDbEntity
  8
Visible (ISO)
100
AcDbEllipse
 10
1768.818529869403
 20
113.4565745723556
 30
0.0
 11
62.99999999999986
 21
-0.0000000000344946
 31
0.0
210
0.0
220
0.0
230
1.0
 40
0.8910065241883707
 41
5.188271230045713
 42
5.807303057519774
  0
LINE
  5
8FDF
330
8C5B
100
AcDbEntity
  8
Visible (ISO)
100
AcDbLine
 10
1739.956790490087
 20
63.5602092178068
 30
0.0
 11
1797.680269248733
 21
63.5602092178068
 31
0.0
  0
ELLIPSE
  5
8FE0
330
8C5B
100
AcDbEntity
  8
Visible (ISO)
100
AcDbEllipse
 10
1768.818529869403
 20
113.4565745723556
 30
0.0
 11
62.99999999999973
 21
-0.0000000000286604
 31
0.0
210
0.0
220
0.0
230
1.0
 40
0.8910065241883705
 41
3.617474903250677
 42
4.236506730724777
  0
LINE
  5
8FE1
330
8C5B
100
AcDbEntity
  8
Visible (ISO)
100
AcDbLine
 10
1824.81852986941
 20
95.23141973165536
 30
0.0
 11
1824.81852986941
 21
94.77742923191716
 31
0.0
  0
LINE
  5
8FE2
330
8C5B
100
AcDbEntity
  8
Visible (ISO)
100
AcDbLine
 10
1824.81852986941
 20
94.77742923191625
 30
0.0
 11
1824.818529869405
 21
87.74057648595396
 31
0.0
  0
LINE
  5
8FE3
330
8C5B
100
AcDbEntity
  8
Visible (ISO)
100
AcDbLine
 10
1712.81852986941
 20
94.77742923191625
 30
0.0
 11
1712.81852986941
 21
95.23141973165536
 31
0.0
  0
ELLIPSE
  5
8FE4
330
8C5B
100
AcDbEntity
  8
Visible (ISO)
100
AcDbEllipse
 10
1768.818529869407
 20
120.4934273183178
 30
0.0
 11
-62.99999999999988
 21
0.0000000000344752
 31
0.0
210
0.0
220
0.0
230
1.0
 40
0.8910065241883703
 41
0.4758822496610389
 42
1.094914077135104
  0
LINE
  5
8FE5
330
8C5B
100
AcDbEntity
  8
Visible (ISO)
100
AcDbLine
 10
1797.680269248737
 20
70.59706196376999
 30
0.0
 11
1739.95679049009
 21
70.59706196376999
 31
0.0
  0
ELLIPSE
  5
8FE6
330
8C5B
100
AcDbEntity
  8
Visible (ISO)
100
AcDbEllipse
 10
1768.818529869407
 20
120.4934273183178
 30
0.0
 11
-62.99999999999988
 21
0.0000000000403344
 31
0.0
210
0.0
220
0.0
230
1.0
 40
0.8910065241883703
 41
2.046678576456036
 42
2.66571040393013
  0
LINE
  5
8FE7
330
8C5B
100
AcDbEntity
  8
Visible (ISO)
100
AcDbLine
 10
1712.81852986941
 20
94.77742923191625
 30
0.0
 11
1712.818529869406
 21
87.74057648595396
 31
0.0
  0
LINE
  5
8FE8
330
8C5B
100
AcDbEntity
  8
Visible (ISO)
100
AcDbLine
 10
1739.95679049009
 20
70.59706196376999
 30
0.0
 11
1739.956790490087
 21
63.5602092178068
 31
0.0
  0
LINE
  5
8FE9
330
8C5B
100
AcDbEntity
  8
Visible (ISO)
100
AcDbLine
 10
1797.680269248737
 20
70.59706196376999
 30
0.0
 11
1797.680269248733
 21
63.5602092178068
 31
0.0
  0
LINE
  5
8FEA
330
8C5B
100
AcDbEntity
  8
Visible (ISO)
100
AcDbLine
 10
1824.818529869404
 20
87.74057648595396
 30
0.0
 11
1824.818529869399
 21
76.70255544958479
 31
0.0
  0
LINE
  5
8FEB
330
8C5B
100
AcDbEntity
  8
Visible (ISO)
100
AcDbLine
 10
1824.818529869399
 20
76.70255544958479
 30
0.0
 11
1816.436147407447
 21
76.70255544958479
 31
0.0
  0
LINE
  5
8FEC
330
8C5B
100
AcDbEntity
  8
Visible (ISO)
100
AcDbLine
 10
1721.200912331348
 20
76.70255544958479
 30
0.0
 11
1712.818529869398
 21
76.70255544958479
 31
0.0
  0
LINE
  5
8FED
330
8C5B
100
AcDbEntity
  8
Visible (ISO)
100
AcDbLine
 10
1712.818529869398
 20
76.70255544958479
 30
0.0
 11
1712.818529869405
 21
87.74057648595396
 31
0.0
  0
ELLIPSE
  5
8FEE
330
8C5B
100
AcDbEntity
  8
Visible (ISO)
100
AcDbEllipse
 10
1804.814636011851
 20
70.69383616327272
 30
0.0
 11
6.499999999999987
 21
0.0000000000002374
 31
0.0
210
0.0
220
0.0
230
1.0
 40
0.8910065241883703
 41
4.218650092312296
 42
6.283185307179313
  0
LINE
  5
8FEF
330
8C5B
100
AcDbEntity
  8
Visible (ISO)
100
AcDbLine
 10
1811.314636011851
 20
70.69383616327366
 30
0.0
 11
1811.314636011853
 21
72.01681074498072
 31
0.0
  0
ELLIPSE
  5
8FF0
330
8C5B
100
AcDbEntity
  8
Visible (ISO)
100
AcDbEllipse
 10
1732.82242372696
 20
70.69383616327272
 30
0.0
 11
-6.499999999999983
 21
-0.0000000000003324
 31
0.0
210
0.0
220
0.0
230
1.0
 40
0.8910065241883705
 41
0.0
 42
2.064535214867042
  0
LINE
  5
8FF1
330
8C5B
100
AcDbEntity
  8
Visible (ISO)
100
AcDbLine
 10
1726.32242372696
 20
72.01681074498072
 30
0.0
 11
1726.32242372696
 21
70.69383616327275
 31
0.0
  0
LINE
  5
8FF2
330
8C5B
100
AcDbEntity
  8
Visible (ISO)
100
AcDbLine
 10
1863.818529869397
 20
71.28718737818951
 30
0.0
 11
1863.818529869397
 21
135.2871873781895
 31
0.0
  0
LINE
  5
8FF3
330
8C5B
100
AcDbEntity
  8
Visible (ISO)
100
AcDbLine
 10
1860.968529869397
 20
71.28718737818951
 30
0.0
 11
1860.968529869397
 21
135.2871873781895
 31
0.0
  0
LINE
  5
8FF4
330
8C5B
100
AcDbEntity
  8
Visible (ISO)
100
AcDbLine
 10
1858.566326323239
 20
77.88718737818896
 30
0.0
 11
1858.566326323239
 21
128.6871873781891
 31
0.0
  0
LINE
  5
8FF5
330
8C5B
100
AcDbEntity
  8
Visible (ISO)
100
AcDbLine
 10
1860.968529869397
 20
135.2871873781895
 30
0.0
 11
1863.818529869396
 21
135.2871873781895
 31
0.0
  0
LINE
  5
8FF6
330
8C5B
100
AcDbEntity
  8
Visible (ISO)
100
AcDbLine
 10
1860.968529869397
 20
71.28718737818951
 30
0.0
 11
1863.818529869396
 21
71.28718737818951
 31
0.0
  0
LINE
  5
8FF7
330
8C5B
100
AcDbEntity
  8
Visible (ISO)
100
AcDbLine
 10
1858.566326323239
 20
128.6871873781891
 30
0.0
 11
1860.968529869397
 21
135.2871873781895
 31
0.0
  0
LINE
  5
8FF8
330
8C5B
100
AcDbEntity
  8
Visible (ISO)
100
AcDbLine
 10
1858.566326323239
 20
77.88718737818988
 30
0.0
 11
1860.968529869397
 21
71.28718737818951
 31
0.0
  0
LINE
  5
8FF9
330
8C5B
100
AcDbEntity
  8
Visible (ISO)
100
AcDbLine
 10
1824.818529869397
 20
128.6871873781891
 30
0.0
 11
1858.566326323239
 21
128.6871873781891
 31
0.0
  0
LINE
  5
8FFA
330
8C5B
100
AcDbEntity
  8
0
  6
CENTER
100
AcDbLine
 10
1642.143270707187
 20
103.2871873781895
 30
0.0
 11
1895.493789031683
 21
103.2871873781895
 31
0.0
  0
LINE
  5
8FFB
330
8C5B
100
AcDbEntity
  8
Visible (ISO)
100
AcDbLine
 10
1824.818529869397
 20
77.88718737818988
 30
0.0
 11
1858.566326323239
 21
77.88718737818988
 31
0.0
  0
LINE
  5
8FFC
330
8C5B
100
AcDbEntity
  8
Visible (ISO)
100
AcDbLine
 10
1673.818529869396
 20
71.28718737818951
 30
0.0
 11
1673.818529869396
 21
135.2871873781895
 31
0.0
  0
LINE
  5
8FFD
330
8C5B
100
AcDbEntity
  8
Visible (ISO)
100
AcDbLine
 10
1676.668529869397
 20
71.28718737818951
 30
0.0
 11
1676.668529869397
 21
135.2871873781895
 31
0.0
  0
LINE
  5
8FFE
330
8C5B
100
AcDbEntity
  8
Visible (ISO)
100
AcDbLine
 10
1679.070733415554
 20
77.88718737818896
 30
0.0
 11
1679.070733415554
 21
128.6871873781891
 31
0.0
  0
LINE
  5
8FFF
330
8C5B
100
AcDbEntity
  8
Visible (ISO)
100
AcDbLine
 10
1673.818529869396
 20
135.2871873781895
 30
0.0
 11
1676.668529869397
 21
135.2871873781895
 31
0.0
  0
LINE
  5
9000
330
8C5B
100
AcDbEntity
  8
Visible (ISO)
100
AcDbLine
 10
1673.818529869396
 20
71.28718737818951
 30
0.0
 11
1676.668529869397
 21
71.28718737818951
 31
0.0
  0
LINE
  5
9001
330
8C5B
100
AcDbEntity
  8
Visible (ISO)
100
AcDbLine
 10
1679.070733415554
 20
77.88718737818896
 30
0.0
 11
1676.668529869397
 21
71.28718737818951
 31
0.0
  0
LINE
  5
9002
330
8C5B
100
AcDbEntity
  8
Visible (ISO)
100
AcDbLine
 10
1679.070733415554
 20
128.6871873781891
 30
0.0
 11
1676.668529869397
 21
135.2871873781895
 31
0.0
  0
LINE
  5
9003
330
8C5B
100
AcDbEntity
  8
Visible (ISO)
100
AcDbLine
 10
1679.070733415554
 20
128.6871873781891
 30
0.0
 11
1712.818529869396
 21
128.6871873781891
 31
0.0
  0
LINE
  5
9004
330
8C5B
100
AcDbEntity
  8
Visible (ISO)
100
AcDbLine
 10
1679.070733415554
 20
77.88718737818988
 30
0.0
 11
1712.818529869396
 21
77.88718737818988
 31
0.0
  0
ELLIPSE
  5
9005
330
8C5B
100
AcDbEntity
  8
Visible (ISO)
100
AcDbEllipse
 10
1768.818529869408
 20
123.6713608164953
 30
0.0
 11
62.99999999999986
 21
-0.0000000000286965
 31
0.0
210
0.0
220
0.0
230
1.0
 40
0.8910065241883707
 41
3.617474903250684
 42
4.236506730724779
  0
SPLINE
  5
9006
330
8C5B
100
AcDbEntity
  8
Visible (ISO)
100
AcDbSpline
210
0.0
220
0.0
230
1.0
 70
     8
 71
     3
 72
     8
 73
     4
 74
     0
 42
0.0000000001
 43
0.0000000001
 40
-0.1435004186556541
 40
-0.1435004186556541
 40
-0.1435004186556541
 40
-0.1435004186556541
 40
0.0
 40
0.0
 40
0.0
 40
0.0
 10
1739.95679049009
 20
73.77499546194653
 30
0.0
 10
1740.037643812138
 20
74.22337279830376
 30
0.0
 10
1740.118832279982
 20
74.6717245799426
 30
0.0
 10
1740.200353826907
 20
75.11999248587367
 30
0.0
  0
ELLIPSE
  5
9007
330
8C5B
100
AcDbEntity
  8
Visible (ISO)
100
AcDbEllipse
 10
1768.818529869408
 20
124.1253513162344
 30
0.0
 11
-61.99999999999993
 21
0.0000000000339118
 31
0.0
210
0.0
220
0.0
230
1.0
 40
0.8910065241883707
 41
0.4797793902266783
 42
1.091016936569452
  0
SPLINE
  5
9008
330
8C5B
100
AcDbEntity
  8
Visible (ISO)
100
AcDbSpline
210
0.0
220
0.0
230
1.0
 70
     8
 71
     3
 72
     8
 73
     4
 74
     0
 42
0.0000000001
 43
0.0000000001
 40
-0.1435004186556769
 40
-0.1435004186556769
 40
-0.1435004186556769
 40
-0.1435004186556769
 40
0.0
 40
0.0
 40
0.0
 40
0.0
 10
1712.818529869413
 20
97.9553627300937
 30
0.0
 10
1713.151896656386
 20
98.178748921753
 30
0.0
 10
1713.485244443528
 20
98.40242510476295
 30
0.0
 10
1713.818529869412
 20
98.62636975198789
 30
0.0
  0
LINE
  5
9009
330
8C5B
100
AcDbEntity
  8
Visible (ISO)
100
AcDbLine
 10
1739.956790490092
 20
73.77499546194655
 30
0.0
 11
1797.680269248738
 21
73.77499546194655
 31
0.0
  0
SPLINE
  5
900A
330
8C5B
100
AcDbEntity
  8
Visible (ISO)
100
AcDbSpline
210
0.0
220
0.0
230
1.0
 70
     8
 71
     3
 72
     8
 73
     4
 74
     0
 42
0.0000000001
 43
0.0000000001
 40
-0.1435004186549885
 40
-0.1435004186549885
 40
-0.1435004186549885
 40
-0.1435004186549885
 40
0.0
 40
0.0
 40
0.0
 40
0.0
 10
1797.680269248738
 20
73.77499546194653
 30
0.0
 10
1797.599415926692
 20
74.22337279830739
 30
0.0
 10
1797.51822745885
 20
74.67172457994442
 30
0.0
 10
1797.436705911923
 20
75.11999248587367
 30
0.0
  0
LINE
  5
900B
330
8C5B
100
AcDbEntity
  8
Visible (ISO)
100
AcDbLine
 10
1797.436705911923
 20
75.11999248587369
 30
0.0
 11
1740.200353826907
 21
75.11999248587369
 31
0.0
  0
LINE
  5
900C
330
8C5B
100
AcDbEntity
  8
Visible (ISO)
100
AcDbLine
 10
1824.818529869412
 20
97.95536273009373
 30
0.0
 11
1824.818529869404
 21
149.387358902897
 31
0.0
  0
SPLINE
  5
900D
330
8C5B
100
AcDbEntity
  8
Visible (ISO)
100
AcDbSpline
210
0.0
220
0.0
230
1.0
 70
     8
 71
     3
 72
     8
 73
     4
 74
     0
 42
0.0000000001
 43
0.0000000001
 40
-0.1435004186556769
 40
-0.1435004186556769
 40
-0.1435004186556769
 40
-0.1435004186556769
 40
0.0
 40
0.0
 40
0.0
 40
0.0
 10
1824.818529869404
 20
149.387358902897
 30
0.0
 10
1824.485163082431
 20
149.4666634196672
 30
0.0
 10
1824.151815295288
 20
149.5456606936002
 30
0.0
 10
1823.818529869405
 20
149.624332880481
 30
0.0
  0
LINE
  5
900E
330
8C5B
100
AcDbEntity
  8
Visible (ISO)
100
AcDbLine
 10
1823.818529869405
 20
149.6243328804811
 30
0.0
 11
1823.818529869413
 21
98.62636975198791
 31
0.0
  0
SPLINE
  5
900F
330
8C5B
100
AcDbEntity
  8
Visible (ISO)
100
AcDbSpline
210
0.0
220
0.0
230
1.0
 70
     8
 71
     3
 72
     8
 73
     4
 74
     0
 42
0.0000000001
 43
0.0000000001
 40
-0.1435004111842926
 40
-0.1435004111842926
 40
-0.1435004111842926
 40
-0.1435004111842926
 40
0.0
 40
0.0
 40
0.0
 40
0.0
 10
1823.818529869413
 20
98.62636975198789
 30
0.0
 10
1824.151815295295
 20
98.40242510476205
 30
0.0
 10
1824.485163082437
 20
98.178748921753
 30
0.0
 10
1824.818529869412
 20
97.9553627300937
 30
0.0
  0
ELLIPSE
  5
9010
330
8C5B
100
AcDbEntity
  8
Visible (ISO)
100
AcDbEllipse
 10
1768.818529869408
 20
123.6713608164953
 30
0.0
 11
62.99999999999984
 21
-0.0000000000344752
 31
0.0
210
0.0
220
0.0
230
1.0
 40
0.8910065241883707
 41
5.188271230045713
 42
5.807303057519774
  0
ELLIPSE
  5
9011
330
8C5B
100
AcDbEntity
  8
Visible (ISO)
100
AcDbEllipse
 10
1768.818529869408
 20
124.1253513162344
 30
0.0
 11
-61.99999999999992
 21
0.0000000000396405
 31
0.0
210
0.0
220
0.0
230
1.0
 40
0.8910065241883703
 41
2.050575717021692
 42
2.661813263364479
  0
ELLIPSE
  5
9012
330
8C5B
100
AcDbEntity
  8
Visible (ISO)
100
AcDbEllipse
 10
1768.818529869407
 20
123.6713608164944
 30
0.0
 11
-63.00000000000133
 21
0.0000000000287048
 31
0.0
210
0.0
220
0.0
230
1.0
 40
0.8910065241883707
 41
3.617474903250686
 42
3.805229487824859
  0
ELLIPSE
  5
9013
330
8C5B
100
AcDbEntity
  8
Visible (ISO)
100
AcDbEllipse
 10
1768.818529869408
 20
124.1253513162335
 30
0.0
 11
62.00000000000024
 21
-0.0000000000339007
 31
0.0
210
0.0
220
0.0
230
1.0
 40
0.8910065241883705
 41
0.479779390226673
 42
0.6461631018694387
  0
ELLIPSE
  5
9014
330
8C5B
100
AcDbEntity
  8
Visible (ISO)
100
AcDbEllipse
 10
1768.818529869408
 20
123.6713608164953
 30
0.0
 11
-62.99999999999986
 21
0.0000000000345002
 31
0.0
210
0.0
220
0.0
230
1.0
 40
0.8910065241883703
 41
5.619548472945677
 42
5.80730305751978
  0
SPLINE
  5
9015
330
8C5B
100
AcDbEntity
  8
Visible (ISO)
100
AcDbSpline
210
0.0
220
0.0
230
1.0
 70
     8
 71
     3
 72
     8
 73
     4
 74
     0
 42
0.0000000001
 43
0.0000000001
 40
-0.1435004186556541
 40
-0.1435004186556541
 40
-0.1435004186556541
 40
-0.1435004186556541
 40
0.0
 40
0.0
 40
0.0
 40
0.0
 10
1712.818529869405
 20
149.387358902897
 30
0.0
 10
1713.151896656379
 20
149.4666634196672
 30
0.0
 10
1713.485244443521
 20
149.5456606936002
 30
0.0
 10
1713.818529869404
 20
149.624332880481
 30
0.0
  0
ELLIPSE
  5
9016
330
8C5B
100
AcDbEntity
  8
Visible (ISO)
100
AcDbEllipse
 10
1768.81852986941
 20
124.1253513162335
 30
0.0
 11
62.0000000000014
 21
-0.0000000000396183
 31
0.0
210
0.0
220
0.0
230
1.0
 40
0.8910065241883705
 41
2.495429551721773
 42
2.661813263364477
  0
LINE
  5
9017
330
8C5B
100
AcDbEntity
  8
Visible (ISO)
100
AcDbLine
 10
1712.818529869405
 20
149.387358902897
 30
0.0
 11
1712.818529869413
 21
97.95536273009373
 31
0.0
  0
LINE
  5
9018
330
8C5B
100
AcDbEntity
  8
Visible (ISO)
100
AcDbLine
 10
1713.818529869412
 20
98.62636975198791
 30
0.0
 11
1713.818529869404
 21
149.6243328804811
 31
0.0
  0
LINE
  5
9019
330
8C5B
100
AcDbEntity
  8
Visible (ISO)
100
AcDbLine
 10
1797.680269248737
 20
71.05105246350911
 30
0.0
 11
1739.95679049009
 21
71.05105246350911
 31
0.0
  0
ELLIPSE
  5
901A
330
8C5B
100
AcDbEntity
  8
Visible (ISO)
100
AcDbEllipse
 10
1768.818529869407
 20
120.947417818057
 30
0.0
 11
-62.99999999999988
 21
0.0000000000402789
 31
0.0
210
0.0
220
0.0
230
1.0
 40
0.8910065241883703
 41
2.046678576456034
 42
2.665710403930129
  0
ELLIPSE
  5
901B
330
8C5B
100
AcDbEntity
  8
Visible (ISO)
100
AcDbEllipse
 10
1768.818529869407
 20
120.947417818057
 30
0.0
 11
-62.99999999999973
 21
0.000000000034478
 31
0.0
210
0.0
220
0.0
230
1.0
 40
0.8910065241883705
 41
0.4758822496610389
 42
1.094914077135102
  0
LINE
  5
901C
330
8C5B
100
AcDbEntity
  8
Visible (ISO)
100
AcDbLine
 10
1824.818529869412
 20
97.95536273009373
 30
0.0
 11
1824.81852986941
 21
95.23141973165536
 31
0.0
  0
LINE
  5
901D
330
8C5B
100
AcDbEntity
  8
Visible (ISO)
100
AcDbLine
 10
1712.818529869413
 20
97.95536273009373
 30
0.0
 11
1712.818529869411
 21
95.23141973165536
 31
0.0
  0
LINE
  5
901E
330
8C5B
100
AcDbEntity
  8
Visible (ISO)
100
AcDbLine
 10
1739.956790490092
 20
73.77499546194655
 30
0.0
 11
1739.95679049009
 21
71.05105246350911
 31
0.0
  0
LINE
  5
901F
330
8C5B
100
AcDbEntity
  8
Visible (ISO)
100
AcDbLine
 10
1797.680269248738
 20
73.77499546194655
 30
0.0
 11
1797.680269248737
 21
71.05105246350911
 31
0.0
  0
LINE
  5
9020
330
8C5B
100
AcDbEntity
  8
Visible (ISO)
100
AcDbLine
 10
1193.716559101567
 20
195.5720240856697
 30
0.0
 11
1193.716559101572
 21
202.4724653510819
 31
0.0
  0
ELLIPSE
  5
9021
330
8C5B
100
AcDbEntity
  8
Visible (ISO)
100
AcDbEllipse
 10
1213.811143009741
 20
191.9573809865304
 30
0.0
 11
-20.49999999999992
 21
0.0000000000126496
 31
0.0
210
0.0
220
0.0
230
1.0
 40
0.8910065241883707
 41
6.083977250190825
 42
7.52959091536635
  0
LINE
  5
9022
330
8C5B
100
AcDbEntity
  8
Visible (ISO)
100
AcDbLine
 10
1207.277150525966
 20
181.5448308183312
 30
0.0
 11
1207.277150525962
 21
174.644389552919
 31
0.0
  0
SPLINE
  5
9023
330
8C5B
100
AcDbEntity
  8
Visible (ISO)
100
AcDbSpline
210
0.0
220
0.0
230
1.0
 70
     8
 71
     3
 72
    16
 73
    12
 74
     0
 42
0.0000000001
 43
0.0000000001
 40
9.488028758566024
 40
9.488028758566024
 40
9.488028758566024
 40
9.488028758566024
 40
9.518705262616244
 40
9.518705262616244
 40
10.12189917325054
 40
10.12189917325054
 40
10.72509308388485
 40
10.72509308388485
 40
11.32828699451915
 40
11.32828699451915
 40
11.5500018910467
 40
11.5500018910467
 40
11.5500018910467
 40
11.5500018910467
 10
1193.716686167401
 20
195.8599775859355
 30
0.0
 10
1193.738213763846
 20
195.7702253102423
 30
0.0
 10
1193.760638331893
 20
195.680469350971
 30
0.0
 10
1194.242702753208
 20
193.8262998967046
 30
0.0
 10
1195.052299047776
 20
192.0688368642102
 30
0.0
 10
1197.062945416557
 20
188.9658695183496
 30
0.0
 10
1198.418361734092
 20
187.3821366334312
 30
0.0
 10
1201.594744651758
 20
184.5930950002437
 30
0.0
 10
1203.415429439381
 20
183.3885611006342
 30
0.0
 10
1205.867792049224
 20
182.1462880246288
 30
0.0
 10
1206.560442762529
 20
181.8314732241814
 30
0.0
 10
1207.277150525966
 20
181.5448308183311
 30
0.0
  0
LINE
  5
9024
330
8C5B
100
AcDbEntity
  8
Visible (ISO)
100
AcDbLine
 10
1145.257938445036
 20
206.5484897950399
 30
0.0
 11
1145.257938445039
 21
213.4489310604521
 31
0.0
  0
ELLIPSE
  5
9025
330
8C5B
100
AcDbEntity
  8
Visible (ISO)
100
AcDbEllipse
 10
1158.818529869424
 20
220.246838129511
 30
0.0
 11
-20.49999999999993
 21
0.0000000000145439
 31
0.0
210
0.0
220
0.0
230
1.0
 40
0.8910065241883703
 41
0.847989494207912
 42
2.293603159383444
  0
LINE
  5
9026
330
8C5B
100
AcDbEntity
  8
Visible (ISO)
100
AcDbLine
 10
1172.379121293822
 20
213.4489310604521
 30
0.0
 11
1172.379121293819
 21
206.5484897950399
 31
0.0
  0
SPLINE
  5
9027
330
8C5B
100
AcDbEntity
  8
Visible (ISO)
100
AcDbSpline
210
0.0
220
0.0
230
1.0
 70
     8
 71
     3
 72
    18
 73
    14
 74
     0
 42
0.0000000001
 43
0.0000000001
 40
8.693796455454387
 40
8.693796455454387
 40
8.693796455454387
 40
8.693796455454387
 40
8.915511351981937
 40
8.915511351981937
 40
9.51870526261624
 40
9.51870526261624
 40
10.12189917325054
 40
10.12189917325054
 40
10.72509308388484
 40
10.72509308388484
 40
11.32828699451914
 40
11.32828699451914
 40
11.55000189104669
 40
11.55000189104669
 40
11.55000189104669
 40
11.55000189104669
 10
1145.257938445039
 20
213.448931060452
 30
0.0
 10
1145.825010440381
 20
213.0751678155582
 30
0.0
 10
1146.411549528215
 20
212.7319381443838
 30
0.0
 10
1148.619582909517
 20
211.5767970017849
 30
0.0
 10
1150.549018668848
 20
210.8521831770739
 30
0.0
 10
1154.642870888549
 20
209.9012496828171
 30
0.0
 10
1156.807883500652
 20
209.6739934613295
 30
0.0
 10
1160.829176238213
 20
209.6739934613295
 30
0.0
 10
1162.994188850315
 20
209.9012496828171
 30
0.0
 10
1167.088041070015
 20
210.8521831770739
 30
0.0
 10
1169.017476829346
 20
211.5767970017849
 30
0.0
 10
1171.225510210647
 20
212.7319381443838
 30
0.0
 10
1171.812049298481
 20
213.0751678155582
 30
0.0
 10
1172.379121293822
 20
213.448931060452
 30
0.0
  0
LINE
  5
9028
330
8C5B
100
AcDbEntity
  8
Visible (ISO)
100
AcDbLine
 10
1110.359909212901
 20
174.644389552919
 30
0.0
 11
1110.359909212906
 21
181.5448308183312
 31
0.0
  0
ELLIPSE
  5
9029
330
8C5B
100
AcDbEntity
  8
Visible (ISO)
100
AcDbEllipse
 10
1103.825916729117
 20
191.9573809865304
 30
0.0
 11
20.49999999999994
 21
-0.0000000000126565
 31
0.0
210
0.0
220
0.0
230
1.0
 40
0.8910065241883703
 41
5.036779698994209
 42
6.48239336416977
  0
LINE
  5
902A
330
8C5B
100
AcDbEntity
  8
Visible (ISO)
100
AcDbLine
 10
1123.920500637294
 20
202.4724653510819
 30
0.0
 11
1123.920500637289
 21
195.5720240856697
 31
0.0
  0
SPLINE
  5
902B
330
8C5B
100
AcDbEntity
  8
Visible (ISO)
100
AcDbSpline
210
0.0
220
0.0
230
1.0
 70
     8
 71
     3
 72
    16
 73
    12
 74
     0
 42
0.0000000001
 43
0.0000000001
 40
8.693796455454391
 40
8.693796455454391
 40
8.693796455454391
 40
8.693796455454391
 40
8.91551135198194
 40
8.91551135198194
 40
9.518705262616244
 40
9.518705262616244
 40
10.12189917325054
 40
10.12189917325054
 40
10.72509308388485
 40
10.72509308388485
 40
10.75576958793475
 40
10.75576958793475
 40
10.75576958793475
 40
10.75576958793475
 10
1110.359909212906
 20
181.5448308183311
 30
0.0
 10
1111.076616976344
 20
181.8314732241814
 30
0.0
 10
1111.769267689649
 20
182.1462880246288
 30
0.0
 10
1114.221630299491
 20
183.3885611006342
 30
0.0
 10
1116.042315087115
 20
184.5930950002437
 30
0.0
 10
1119.21869800478
 20
187.3821366334312
 30
0.0
 10
1120.574114322314
 20
188.9658695183496
 30
0.0
 10
1122.584760691095
 20
192.0688368642102
 30
0.0
 10
1123.394356985663
 20
193.8262998967046
 30
0.0
 10
1123.876421406976
 20
195.6804693509701
 30
0.0
 10
1123.898845975022
 20
195.7702253102414
 30
0.0
 10
1123.920373571468
 20
195.8599775859328
 30
0.0
  0
ELLIPSE
  5
902C
330
8C5B
100
AcDbEntity
  8
Visible (ISO)
100
AcDbEllipse
 10
1158.818529869438
 20
170.5683651089619
 30
0.0
 11
49.99999999999968
 21
-0.0000000000308711
 31
0.0
210
0.0
220
0.0
230
1.0
 40
0.8910065241883707
 41
0.0
 42
0.2489469502069124
  0
ELLIPSE
  5
902D
330
8C5B
100
AcDbEntity
  8
Visible (ISO)
100
AcDbEllipse
 10
1158.818529869437
 20
170.5683651089619
 30
0.0
 11
-49.99999999999914
 21
0.0000000000017603
 31
0.0
210
0.0
220
0.0
230
1.0
 40
0.8910065241883705
 41
6.034238356973087
 42
6.283185307179264
  0
ELLIPSE
  5
902E
330
8C5B
100
AcDbEntity
  8
Visible (ISO)
100
AcDbEllipse
 10
1158.818529869438
 20
170.5683651089619
 30
0.0
 11
50.00000000000008
 21
-0.0000000000355271
 31
0.0
210
0.0
220
0.0
230
1.0
 40
0.8910065241883703
 41
1.845448152187756
 42
2.343342052600213
  0
ELLIPSE
  5
902F
330
8C5B
100
AcDbEntity
  8
Visible (ISO)
100
AcDbEllipse
 10
1158.818529869438
 20
170.5683651089619
 30
0.0
 11
49.9999999999998
 21
-0.0000000000308753
 31
0.0
210
0.0
220
0.0
230
1.0
 40
0.8910065241883703
 41
0.798250600991076
 42
1.296144501403514
  0
ELLIPSE
  5
9030
330
8C5B
100
AcDbEntity
  8
Visible (ISO)
100
AcDbEllipse
 10
1158.818529869434
 20
163.6679238435488
 30
0.0
 11
49.99999999999996
 21
-0.0000000000308906
 31
0.0
210
0.0
220
0.0
230
1.0
 40
0.8910065241883707
 41
6.16124165336937
 42
6.532132257386498
  0
ELLIPSE
  5
9031
330
8C5B
100
AcDbEntity
  8
Visible (ISO)
100
AcDbEllipse
 10
1158.818529869434
 20
163.6679238435488
 30
0.0
 11
-49.99999999999989
 21
0.0000000000308739
 31
0.0
210
0.0
220
0.0
230
1.0
 40
0.8910065241883703
 41
6.034238356974061
 42
6.405128960991108
  0
ELLIPSE
  5
9032
330
8C5B
100
AcDbEntity
  8
Visible (ISO)
100
AcDbEllipse
 10
1158.818529869434
 20
163.6679238435488
 30
0.0
 11
49.99999999999984
 21
-0.0000000000354689
 31
0.0
210
0.0
220
0.0
230
1.0
 40
0.8910065241883705
 41
1.845448152187749
 42
2.34334205260021
  0
ELLIPSE
  5
9033
330
8C5B
100
AcDbEntity
  8
Visible (ISO)
100
AcDbEllipse
 10
1158.818529869434
 20
163.6679238435488
 30
0.0
 11
16.49999999999997
 21
-0.0000000000117142
 31
0.0
210
0.0
220
0.0
230
1.0
 40
0.8910065241883707
 41
0.7387743439677248
 42
2.402818309623722
  0
ELLIPSE
  5
9034
330
8C5B
100
AcDbEntity
  8
Visible (ISO)
100
AcDbEllipse
 10
1158.818529869434
 20
163.6679238435488
 30
0.0
 11
49.99999999999984
 21
-0.000000000030867
 31
0.0
210
0.0
220
0.0
230
1.0
 40
0.8910065241883705
 41
0.7982506009910733
 42
1.296144501403514
  0
LINE
  5
9035
330
8C5B
100
AcDbEntity
  8
Visible (ISO)
100
AcDbLine
 10
1208.818529869434
 20
163.667923843548
 30
0.0
 11
1208.818529869438
 21
170.5683651089592
 31
0.0
  0
LINE
  5
9036
330
8C5B
100
AcDbEntity
  8
Visible (ISO)
100
AcDbLine
 10
1108.818529869434
 20
163.6679238435516
 30
0.0
 11
1108.818529869438
 21
170.5683651089628
 31
0.0
  0
ELLIPSE
  5
9037
330
8C5B
100
AcDbEntity
  8
Visible (ISO)
100
AcDbEllipse
 10
1198.751943197086
 20
145.8446617266025
 30
0.0
 11
9.999999999999966
 21
-0.0000000000052569
 31
0.0
210
0.0
220
0.0
230
1.0
 40
0.8910065241883705
 41
3.880050323958688
 42
4.712388980385282
  0
ELLIPSE
  5
9038
330
8C5B
100
AcDbEntity
  8
Visible (ISO)
100
AcDbEllipse
 10
1198.751943197083
 20
141.4787297580795
 30
0.0
 11
-0.0000000000040722
 21
-17.82013048376735
 31
0.0
210
0.0
220
0.0
230
1.0
 40
0.5611631188171789
 41
5.450846650752509
 42
6.283185307178769
  0
ELLIPSE
  5
9039
330
8C5B
100
AcDbEntity
  8
Visible (ISO)
100
AcDbEllipse
 10
1118.885116541709
 20
145.8446617266025
 30
0.0
 11
9.999999999999964
 21
0.0
 31
0.0
210
0.0
220
0.0
230
1.0
 40
0.8910065241883707
 41
4.712388980384973
 42
5.54472763681135
  0
ELLIPSE
  5
903A
330
8C5B
100
AcDbEntity
  8
Visible (ISO)
100
AcDbEllipse
 10
1118.885116541706
 20
141.4787297580795
 30
0.0
 11
-0.0000000000040733
 21
-17.82013048376735
 31
0.0
210
0.0
220
0.0
230
1.0
 40
0.5611631188171789
 41
0.0
 42
0.8323386564260379
  0
ELLIPSE
  5
903B
330
8C5B
100
AcDbEntity
  8
Visible (ISO)
100
AcDbEllipse
 10
1158.818529869404
 20
113.4565745723556
 30
0.0
 11
-43.99999999999966
 21
0.0000000000231648
 31
0.0
210
0.0
220
0.0
230
1.0
 40
0.8910065241883707
 41
3.880050323958707
 42
4.356967778695062
  0
ELLIPSE
  5
903C
330
8C5B
100
AcDbEntity
  8
Visible (ISO)
100
AcDbEllipse
 10
1158.81852986938
 20
76.70255544958476
 30
0.0
 11
-0.000000000017918
 21
-78.40857412857636
 31
0.0
210
0.0
220
0.0
230
1.0
 40
0.5611631188171789
 41
2.309253997162711
 42
2.786171451898815
  0
LINE
  5
903D
330
8C5B
100
AcDbEntity
  8
Visible (ISO)
100
AcDbLine
 10
1214.818529869399
 20
136.9345964847196
 30
0.0
 11
1198.751943197088
 21
136.9345964847196
 31
0.0
  0
LINE
  5
903E
330
8C5B
100
AcDbEntity
  8
Visible (ISO)
100
AcDbLine
 10
1102.818529869399
 20
136.9345964847196
 30
0.0
 11
1118.885116541711
 21
136.9345964847196
 31
0.0
  0
ELLIPSE
  5
903F
330
8C5B
100
AcDbEntity
  8
Visible (ISO)
100
AcDbEllipse
 10
1158.818529869402
 20
113.4565745723556
 30
0.0
 11
43.99999999999966
 21
-0.0000000000311945
 31
0.0
210
0.0
220
0.0
230
1.0
 40
0.8910065241883703
 41
1.926217528485905
 42
2.403134983222262
  0
ELLIPSE
  5
9040
330
8C5B
100
AcDbEntity
  8
Visible (ISO)
100
AcDbEllipse
 10
1158.81852986938
 20
76.70255544958476
 30
0.0
 11
-0.0000000000179224
 21
-78.40857412857636
 31
0.0
210
0.0
220
0.0
230
1.0
 40
0.5611631188171789
 41
3.497013855279263
 42
3.97393131001583
  0
LINE
  5
9041
330
8C5B
100
AcDbEntity
  8
Visible (ISO)
100
AcDbLine
 10
1102.818529869391
 20
123.6585992743129
 30
0.0
 11
1102.8185298694
 21
136.9345964847196
 31
0.0
  0
LINE
  5
9042
330
8C5B
100
AcDbEntity
  8
Visible (ISO)
100
AcDbLine
 10
1118.885116541703
 20
123.6585992743129
 30
0.0
 11
1102.818529869391
 21
123.6585992743129
 31
0.0
  0
LINE
  5
9043
330
8C5B
100
AcDbEntity
  8
Visible (ISO)
100
AcDbLine
 10
1214.818529869391
 20
123.6585992743129
 30
0.0
 11
1198.751943197079
 21
123.6585992743129
 31
0.0
  0
LINE
  5
9044
330
8C5B
100
AcDbEntity
  8
Visible (ISO)
100
AcDbLine
 10
1214.818529869399
 20
136.9345964847196
 30
0.0
 11
1214.818529869391
 21
123.6585992743129
 31
0.0
  0
LINE
  5
9045
330
8C5B
100
AcDbEntity
  8
Visible (ISO)
100
AcDbLine
 10
1214.818529869398
 20
139.1725726587573
 30
0.0
 11
1214.818529869399
 21
136.9345964847196
 31
0.0
  0
ELLIPSE
  5
9046
330
8C5B
100
AcDbEntity
  8
Visible (ISO)
100
AcDbEllipse
 10
1158.818529869402
 20
113.4565745723556
 30
0.0
 11
62.99999999999973
 21
-0.0000000000389411
 31
0.0
210
0.0
220
0.0
230
1.0
 40
0.8910065241883705
 41
0.4758822496611126
 42
1.094914077135175
  0
LINE
  5
9047
330
8C5B
100
AcDbEntity
  8
Visible (ISO)
100
AcDbLine
 10
1129.956790490072
 20
163.3529399269044
 30
0.0
 11
1187.680269248718
 21
163.3529399269044
 31
0.0
  0
ELLIPSE
  5
9048
330
8C5B
100
AcDbEntity
  8
Visible (ISO)
100
AcDbEllipse
 10
1158.818529869402
 20
113.4565745723556
 30
0.0
 11
62.99999999999972
 21
-0.0000000000447253
 31
0.0
210
0.0
220
0.0
230
1.0
 40
0.8910065241883707
 41
2.046678576456113
 42
2.665710403930203
  0
LINE
  5
9049
330
8C5B
100
AcDbEntity
  8
Visible (ISO)
100
AcDbLine
 10
1102.818529869399
 20
136.9345964847196
 30
0.0
 11
1102.818529869399
 21
139.1725726587573
 31
0.0
  0
ELLIPSE
  5
904A
330
8C5B
100
AcDbEntity
  8
Visible (ISO)
100
AcDbEllipse
 10
1158.818529869398
 20
113.4565745723474
 30
0.0
 11
-62.99999999998927
 21
0.0000000000389022
 31
0.0
210
0.0
220
0.0
230
1.0
 40
0.8910065241883707
 41
1.021050998771052
 42
1.09491407713518
  0
ELLIPSE
  5
904B
330
8C5B
100
AcDbEntity
  8
Visible (ISO)
100
AcDbEllipse
 10
1158.818529869404
 20
113.4565745723574
 30
0.0
 11
-63.0000000000023
 21
0.0000000000388911
 31
0.0
210
0.0
220
0.0
230
1.0
 40
0.8910065241883703
 41
0.7138675680190918
 42
0.8304530549774495
  0
LINE
  5
904C
330
8C5B
100
AcDbEntity
  8
Visible (ISO)
100
AcDbLine
 10
1187.680269248734
 20
63.5602092178068
 30
0.0
 11
1129.956790490087
 21
63.5602092178068
 31
0.0
  0
ELLIPSE
  5
904D
330
8C5B
100
AcDbEntity
  8
Visible (ISO)
100
AcDbEllipse
 10
1158.818529869405
 20
113.4565745723528
 30
0.0
 11
-62.99999999999606
 21
0.0000000000447253
 31
0.0
210
0.0
220
0.0
230
1.0
 40
0.8910065241883707
 41
2.311139598613831
 42
2.427725085572202
  0
ELLIPSE
  5
904E
330
8C5B
100
AcDbEntity
  8
Visible (ISO)
100
AcDbEllipse
 10
1158.818529869402
 20
113.4565745723565
 30
0.0
 11
-63.00000000000148
 21
0.0000000000447364
 31
0.0
210
0.0
220
0.0
230
1.0
 40
0.8910065241883703
 41
2.046678576456089
 42
2.120541654820199
  0
LINE
  5
904F
330
8C5B
100
AcDbEntity
  8
Visible (ISO)
100
AcDbLine
 10
1102.818529869403
 20
146.2094254047204
 30
0.0
 11
1102.818529869399
 21
139.1725726587573
 31
0.0
  0
LINE
  5
9050
330
8C5B
100
AcDbEntity
  8
Visible (ISO)
100
AcDbLine
 10
1187.680269248723
 20
170.3897926728676
 30
0.0
 11
1129.956790490075
 21
170.3897926728676
 31
0.0
  0
ELLIPSE
  5
9051
330
8C5B
100
AcDbEntity
  8
Visible (ISO)
100
AcDbEllipse
 10
1158.818529869407
 20
120.4934273183188
 30
0.0
 11
-62.99999999999986
 21
0.0000000000331318
 31
0.0
210
0.0
220
0.0
230
1.0
 40
0.8910065241883707
 41
3.617474903250762
 42
4.236506730724855
  0
ELLIPSE
  5
9052
330
8C5B
100
AcDbEntity
  8
Visible (ISO)
100
AcDbEllipse
 10
1158.818529869407
 20
120.4934273183188
 30
0.0
 11
-62.99999999999986
 21
0.0000000000389244
 31
0.0
210
0.0
220
0.0
230
1.0
 40
0.8910065241883707
 41
5.188271230045797
 42
5.807303057519862
  0
LINE
  5
9053
330
8C5B
100
AcDbEntity
  8
Visible (ISO)
100
AcDbLine
 10
1214.818529869402
 20
146.2094254047204
 30
0.0
 11
1214.818529869398
 21
139.1725726587573
 31
0.0
  0
LINE
  5
9054
330
8C5B
100
AcDbEntity
  8
Visible (ISO)
100
AcDbLine
 10
1187.680269248723
 20
170.3897926728676
 30
0.0
 11
1187.680269248718
 21
163.3529399269044
 31
0.0
  0
LINE
  5
9055
330
8C5B
100
AcDbEntity
  8
Visible (ISO)
100
AcDbLine
 10
1129.956790490075
 20
170.3897926728676
 30
0.0
 11
1129.956790490072
 21
163.3529399269044
 31
0.0
  0
LINE
  5
9056
330
8C5B
100
AcDbEntity
  8
Visible (ISO)
100
AcDbLine
 10
1143.507177871615
 20
150.2105936951255
 30
0.0
 11
1174.129881867179
 21
150.2105936951255
 31
0.0
  0
LINE
  5
9057
330
8C5B
100
AcDbEntity
  8
Visible (ISO)
100
AcDbLine
 10
1102.818529869391
 20
123.6585992743129
 30
0.0
 11
1102.818529869387
 21
105.4471304208062
 31
0.0
  0
LINE
  5
9058
330
8C5B
100
AcDbEntity
  8
Visible (ISO)
100
AcDbLine
 10
1135.618529869386
 20
105.4471304208062
 30
0.0
 11
1102.818529869387
 21
105.4471304208062
 31
0.0
  0
LINE
  5
9059
330
8C5B
100
AcDbEntity
  8
Visible (ISO)
100
AcDbLine
 10
1214.818529869386
 20
105.4471304208062
 30
0.0
 11
1182.018529869386
 21
105.4471304208062
 31
0.0
  0
LINE
  5
905A
330
8C5B
100
AcDbEntity
  8
Visible (ISO)
100
AcDbLine
 10
1214.818529869386
 20
105.4471304208062
 30
0.0
 11
1214.818529869391
 21
123.6585992743129
 31
0.0
  0
LINE
  5
905B
330
8C5B
100
AcDbEntity
  8
Visible (ISO)
100
AcDbLine
 10
1102.818529869387
 20
105.4471304208062
 30
0.0
 11
1102.818529869391
 21
76.7025554495857
 31
0.0
  0
LINE
  5
905C
330
8C5B
100
AcDbEntity
  8
Visible (ISO)
100
AcDbLine
 10
1182.018529869391
 20
76.7025554495857
 30
0.0
 11
1214.818529869391
 21
76.70255544958479
 31
0.0
  0
LINE
  5
905D
330
8C5B
100
AcDbEntity
  8
Visible (ISO)
100
AcDbLine
 10
1102.818529869391
 20
76.7025554495857
 30
0.0
 11
1135.618529869392
 21
76.7025554495857
 31
0.0
  0
LINE
  5
905E
330
8C5B
100
AcDbEntity
  8
Visible (ISO)
100
AcDbLine
 10
1214.818529869391
 20
76.7025554495857
 30
0.0
 11
1214.818529869386
 21
105.4471304208062
 31
0.0
  0
ELLIPSE
  5
905F
330
8C5B
100
AcDbEntity
  8
Visible (ISO)
100
AcDbEllipse
 10
1194.814636011843
 20
151.6794079840418
 30
0.0
 11
-6.499999999999983
 21
0.0
 31
0.0
210
0.0
220
0.0
230
1.0
 40
0.8910065241883705
 41
3.141592653589428
 42
6.283185307179222
  0
ELLIPSE
  5
9060
330
8C5B
100
AcDbEntity
  8
Visible (ISO)
100
AcDbEllipse
 10
1122.822423726951
 20
151.6794079840418
 30
0.0
 11
-6.499999999999979
 21
0.0000000000002612
 31
0.0
210
0.0
220
0.0
230
1.0
 40
0.8910065241883703
 41
3.141592653589423
 42
6.283185307179217
  0
ELLIPSE
  5
9061
330
8C5B
100
AcDbEntity
  8
Visible (ISO)
100
AcDbEllipse
 10
1122.822423726948
 20
147.1395029866469
 30
0.0
 11
6.499999999999979
 21
0.0
 31
0.0
210
0.0
220
0.0
230
1.0
 40
0.8910065241883707
 41
0.0
 42
6.283185307179586
  0
ELLIPSE
  5
9062
330
8C5B
100
AcDbEntity
  8
Visible (ISO)
100
AcDbEllipse
 10
1194.81463601184
 20
147.1395029866469
 30
0.0
 11
-6.499999999999979
 21
0.0
 31
0.0
210
0.0
220
0.0
230
1.0
 40
0.8910065241883707
 41
0.0
 42
6.283185307179586
  0
LINE
  5
9063
330
8C5B
100
AcDbEntity
  8
Visible (ISO)
100
AcDbLine
 10
1129.322423726951
 20
151.6794079840418
 30
0.0
 11
1129.322423726948
 21
147.1395029866461
 31
0.0
  0
LINE
  5
9064
330
8C5B
100
AcDbEntity
  8
Visible (ISO)
100
AcDbLine
 10
1116.322423726951
 20
151.6794079840418
 30
0.0
 11
1116.322423726947
 21
147.139502986647
 31
0.0
  0
LINE
  5
9065
330
8C5B
100
AcDbEntity
  8
Visible (ISO)
100
AcDbLine
 10
1188.31463601184
 20
147.139502986647
 30
0.0
 11
1188.314636011843
 21
151.6794079840418
 31
0.0
  0
LINE
  5
9066
330
8C5B
100
AcDbEntity
  8
Visible (ISO)
100
AcDbLine
 10
1201.31463601184
 20
147.1395029866461
 30
0.0
 11
1201.314636011843
 21
151.6794079840418
 31
0.0
  0
ELLIPSE
  5
9067
330
8C5B
100
AcDbEntity
  8
Visible (ISO)
100
AcDbEllipse
 10
1194.814636011855
 20
75.23374116066938
 30
0.0
 11
-6.500000000000338
 21
0.0000000000000317
 31
0.0
210
0.0
220
0.0
230
1.0
 40
0.8910065241883701
 41
6.026771067456703
 42
6.283185307179229
  0
ELLIPSE
  5
9068
330
8C5B
100
AcDbEntity
  8
Visible (ISO)
100
AcDbEllipse
 10
1194.814636011854
 20
75.23374116066938
 30
0.0
 11
6.50000000000021
 21
-0.0000000000040109
 31
0.0
210
0.0
220
0.0
230
1.0
 40
0.8910065241883701
 41
0.0
 42
0.2564142397232398
  0
ELLIPSE
  5
9069
330
8C5B
100
AcDbEntity
  8
Visible (ISO)
100
AcDbEllipse
 10
1194.814636011853
 20
70.69383616327363
 30
0.0
 11
6.499999999999979
 21
0.0
 31
0.0
210
0.0
220
0.0
230
1.0
 40
0.8910065241883707
 41
0.0
 42
6.283185307179586
  0
LINE
  5
906A
330
8C5B
100
AcDbEntity
  8
Visible (ISO)
100
AcDbLine
 10
1201.314636011854
 20
75.23374116066941
 30
0.0
 11
1201.314636011853
 21
70.69383616327366
 31
0.0
  0
LINE
  5
906B
330
8C5B
100
AcDbEntity
  8
Visible (ISO)
100
AcDbLine
 10
1188.314636011854
 20
75.23374116066941
 30
0.0
 11
1188.314636011853
 21
70.69383616327456
 31
0.0
  0
ELLIPSE
  5
906C
330
8C5B
100
AcDbEntity
  8
Visible (ISO)
100
AcDbEllipse
 10
1122.822423726962
 20
75.23374116066938
 30
0.0
 11
-6.499999999999965
 21
0.0000000000003245
 31
0.0
210
0.0
220
0.0
230
1.0
 40
0.8910065241883707
 41
6.026771067456753
 42
6.283185307179231
  0
ELLIPSE
  5
906D
330
8C5B
100
AcDbEntity
  8
Visible (ISO)
100
AcDbEllipse
 10
1122.822423726963
 20
75.23374116066938
 30
0.0
 11
6.499999999999774
 21
-0.0000000000040133
 31
0.0
210
0.0
220
0.0
230
1.0
 40
0.8910065241883705
 41
0.0
 42
0.2564142397232567
  0
ELLIPSE
  5
906E
330
8C5B
100
AcDbEntity
  8
Visible (ISO)
100
AcDbEllipse
 10
1122.82242372696
 20
70.69383616327363
 30
0.0
 11
-6.499999999999979
 21
0.0
 31
0.0
210
0.0
220
0.0
230
1.0
 40
0.8910065241883707
 41
0.0
 42
6.283185307179586
  0
LINE
  5
906F
330
8C5B
100
AcDbEntity
  8
Visible (ISO)
100
AcDbLine
 10
1116.32242372696
 20
70.69383616327456
 30
0.0
 11
1116.322423726962
 21
75.23374116066941
 31
0.0
  0
LINE
  5
9070
330
8C5B
100
AcDbEntity
  8
Visible (ISO)
100
AcDbLine
 10
1129.32242372696
 20
70.69383616327366
 30
0.0
 11
1129.322423726962
 21
75.23374116066941
 31
0.0
  0
LINE
  5
9071
330
8C5B
100
AcDbEntity
  8
Visible (ISO)
100
AcDbLine
 10
1135.618529869386
 20
105.4471304208062
 30
0.0
 11
1148.426225023978
 21
125.5893984131779
 31
0.0
  0
ELLIPSE
  5
9072
330
8C5B
100
AcDbEntity
  8
Visible (ISO)
100
AcDbEllipse
 10
1158.81852986939
 20
120.141512416303
 30
0.0
 11
11.99999999999996
 21
-0.0000000000000016
 31
0.0
210
0.0
220
0.0
230
1.0
 40
0.9079809994790968
 41
0.5235987755982184
 42
2.617993877991434
  0
LINE
  5
9073
330
8C5B
100
AcDbEntity
  8
Visible (ISO)
100
AcDbLine
 10
1169.210834714804
 20
125.5893984131779
 30
0.0
 11
1182.018529869386
 21
105.4471304208062
 31
0.0
  0
LINE
  5
9074
330
8C5B
100
AcDbEntity
  8
Visible (ISO)
100
AcDbLine
 10
1182.018529869391
 20
76.7025554495857
 30
0.0
 11
1169.210834714812
 21
76.70255544958479
 31
0.0
  0
LINE
  5
9075
330
8C5B
100
AcDbEntity
  8
Visible (ISO)
100
AcDbLine
 10
1169.210834714812
 20
76.70255544958479
 30
0.0
 11
1148.426225023985
 21
76.70255544958479
 31
0.0
  0
LINE
  5
9076
330
8C5B
100
AcDbEntity
  8
Visible (ISO)
100
AcDbLine
 10
1148.426225023985
 20
76.70255544958479
 30
0.0
 11
1135.618529869392
 21
76.70255544958479
 31
0.0
  0
LINE
  5
9077
330
8C5B
100
AcDbEntity
  8
Visible (ISO)
100
AcDbLine
 10
1182.018529869386
 20
105.4471304208062
 30
0.0
 11
1182.018529869391
 21
76.70255544958479
 31
0.0
  0
LINE
  5
9078
330
8C5B
100
AcDbEntity
  8
Visible (ISO)
100
AcDbLine
 10
1135.618529869392
 20
76.7025554495857
 30
0.0
 11
1135.618529869386
 21
105.4471304208062
 31
0.0
  0
LINE
  5
9079
330
8C5B
100
AcDbEntity
  8
0
  6
CENTER
100
AcDbLine
 10
1158.818529869392
 20
76.70255544959025
 30
0.0
 11
1158.818529869364
 21
219.8837100775589
 31
0.0
  0
LINE
  5
907A
330
8C5B
100
AcDbEntity
  8
Visible (ISO)
100
AcDbLine
 10
1063.818529869396
 20
135.2871873781895
 30
0.0
 11
1063.818529869396
 21
71.28718737818951
 31
0.0
  0
LINE
  5
907B
330
8C5B
100
AcDbEntity
  8
Visible (ISO)
100
AcDbLine
 10
1066.668529869396
 20
135.2871873781895
 30
0.0
 11
1066.668529869396
 21
71.28718737818951
 31
0.0
  0
LINE
  5
907C
330
8C5B
100
AcDbEntity
  8
Visible (ISO)
100
AcDbLine
 10
1069.070733415553
 20
128.6871873781891
 30
0.0
 11
1069.070733415553
 21
77.88718737818988
 31
0.0
  0
LINE
  5
907D
330
8C5B
100
AcDbEntity
  8
Visible (ISO)
100
AcDbLine
 10
1066.668529869396
 20
71.28718737818951
 30
0.0
 11
1063.818529869397
 21
71.28718737818951
 31
0.0
  0
LINE
  5
907E
330
8C5B
100
AcDbEntity
  8
Visible (ISO)
100
AcDbLine
 10
1066.668529869396
 20
135.2871873781895
 30
0.0
 11
1063.818529869397
 21
135.2871873781895
 31
0.0
  0
LINE
  5
907F
330
8C5B
100
AcDbEntity
  8
Visible (ISO)
100
AcDbLine
 10
1069.070733415553
 20
77.88718737818988
 30
0.0
 11
1066.668529869396
 21
71.28718737818951
 31
0.0
  0
LINE
  5
9080
330
8C5B
100
AcDbEntity
  8
Visible (ISO)
100
AcDbLine
 10
1069.070733415553
 20
128.6871873781891
 30
0.0
 11
1066.668529869396
 21
135.2871873781895
 31
0.0
  0
LINE
  5
9081
330
8C5B
100
AcDbEntity
  8
Visible (ISO)
100
AcDbLine
 10
1102.818529869396
 20
77.88718737818988
 30
0.0
 11
1069.070733415554
 21
77.88718737818988
 31
0.0
  0
LINE
  5
9082
330
8C5B
100
AcDbEntity
  8
Visible (ISO)
100
AcDbLine
 10
1102.818529869396
 20
128.6871873781891
 30
0.0
 11
1069.070733415554
 21
128.6871873781891
 31
0.0
  0
LINE
  5
9083
330
8C5B
100
AcDbEntity
  8
Visible (ISO)
100
AcDbLine
 10
1253.818529869396
 20
135.2871873781895
 30
0.0
 11
1253.818529869396
 21
71.28718737818951
 31
0.0
  0
LINE
  5
9084
330
8C5B
100
AcDbEntity
  8
Visible (ISO)
100
AcDbLine
 10
1250.968529869396
 20
135.2871873781895
 30
0.0
 11
1250.968529869396
 21
71.28718737818951
 31
0.0
  0
LINE
  5
9085
330
8C5B
100
AcDbEntity
  8
Visible (ISO)
100
AcDbLine
 10
1248.566326323239
 20
128.6871873781891
 30
0.0
 11
1248.566326323239
 21
77.88718737818988
 31
0.0
  0
LINE
  5
9086
330
8C5B
100
AcDbEntity
  8
Visible (ISO)
100
AcDbLine
 10
1253.818529869396
 20
71.28718737818951
 30
0.0
 11
1250.968529869396
 21
71.28718737818951
 31
0.0
  0
LINE
  5
9087
330
8C5B
100
AcDbEntity
  8
Visible (ISO)
100
AcDbLine
 10
1253.818529869396
 20
135.2871873781895
 30
0.0
 11
1250.968529869396
 21
135.2871873781895
 31
0.0
  0
LINE
  5
9088
330
8C5B
100
AcDbEntity
  8
Visible (ISO)
100
AcDbLine
 10
1248.566326323239
 20
128.6871873781891
 30
0.0
 11
1250.968529869396
 21
135.2871873781895
 31
0.0
  0
LINE
  5
9089
330
8C5B
100
AcDbEntity
  8
Visible (ISO)
100
AcDbLine
 10
1248.566326323239
 20
77.88718737818988
 30
0.0
 11
1250.968529869396
 21
71.28718737818951
 31
0.0
  0
LINE
  5
908A
330
8C5B
100
AcDbEntity
  8
Visible (ISO)
100
AcDbLine
 10
1248.566326323239
 20
77.88718737818988
 30
0.0
 11
1214.818529869396
 21
77.88718737818988
 31
0.0
  0
LINE
  5
908B
330
8C5B
100
AcDbEntity
  8
Visible (ISO)
100
AcDbLine
 10
1248.566326323239
 20
128.6871873781891
 30
0.0
 11
1214.818529869396
 21
128.6871873781891
 31
0.0
  0
LINE
  5
908C
330
8C5B
100
AcDbEntity
  8
0
  6
CENTER
100
AcDbLine
 10
1273.776135904638
 20
103.2871873781895
 30
0.0
 11
1043.860923834134
 21
103.2871873781895
 31
0.0
  0
ELLIPSE
  5
908D
330
8C5B
100
AcDbEntity
  8
Visible (ISO)
100
AcDbEllipse
 10
1158.818529869409
 20
123.6713608164953
 30
0.0
 11
62.99999999999988
 21
-0.000000000044692
 31
0.0
210
0.0
220
0.0
230
1.0
 40
0.8910065241883705
 41
2.046678576456113
 42
2.665710403930203
  0
LINE
  5
908E
330
8C5B
100
AcDbEntity
  8
Visible (ISO)
100
AcDbLine
 10
1129.956790490077
 20
173.5677261710442
 30
0.0
 11
1187.680269248724
 21
173.5677261710442
 31
0.0
  0
ELLIPSE
  5
908F
330
8C5B
100
AcDbEntity
  8
Visible (ISO)
100
AcDbEllipse
 10
1158.818529869409
 20
123.6713608164953
 30
0.0
 11
62.99999999999986
 21
-0.0000000000389161
 31
0.0
210
0.0
220
0.0
230
1.0
 40
0.8910065241883707
 41
0.47588224966111
 42
1.09491407713517
  0
ELLIPSE
  5
9090
330
8C5B
100
AcDbEntity
  8
Visible (ISO)
100
AcDbEllipse
 10
1158.818529869407
 20
120.9474178180579
 30
0.0
 11
-62.99999999999972
 21
0.0000000000331207
 31
0.0
210
0.0
220
0.0
230
1.0
 40
0.8910065241883707
 41
3.617474903250762
 42
4.236506730724855
  0
LINE
  5
9091
330
8C5B
100
AcDbEntity
  8
Visible (ISO)
100
AcDbLine
 10
1187.680269248723
 20
170.8437831726067
 30
0.0
 11
1129.956790490076
 21
170.8437831726067
 31
0.0
  0
ELLIPSE
  5
9092
330
8C5B
100
AcDbEntity
  8
Visible (ISO)
100
AcDbEllipse
 10
1158.818529869407
 20
120.9474178180579
 30
0.0
 11
-62.99999999999973
 21
0.0000000000388994
 31
0.0
210
0.0
220
0.0
230
1.0
 40
0.8910065241883705
 41
5.188271230045799
 42
5.807303057519867
  0
LINE
  5
9093
330
8C5B
100
AcDbEntity
  8
Visible (ISO)
100
AcDbLine
 10
1102.818529869403
 20
146.6634159044605
 30
0.0
 11
1102.818529869403
 21
146.2094254047204
 31
0.0
  0
SPLINE
  5
9094
330
8C5B
100
AcDbEntity
  8
Visible (ISO)
100
AcDbSpline
210
0.0
220
0.0
230
1.0
 70
     8
 71
     3
 72
     8
 73
     4
 74
     0
 42
0.0000000001
 43
0.0000000001
 40
-0.027310398285868
 40
-0.027310398285868
 40
-0.027310398285868
 40
-0.027310398285868
 40
0.0
 40
0.0
 40
0.0
 40
0.0
 10
1103.008862425276
 20
146.5358427642166
 30
0.0
 10
1102.945419127429
 20
146.5783775488888
 30
0.0
 10
1102.881974842504
 20
146.6209019784335
 30
0.0
 10
1102.818529869403
 20
146.6634159044605
 30
0.0
  0
SPLINE
  5
9095
330
8C5B
100
AcDbEntity
  8
Visible (ISO)
100
AcDbSpline
210
0.0
220
0.0
230
1.0
 70
     8
 71
     3
 72
     8
 73
     4
 74
     0
 42
0.0000000001
 43
0.0000000001
 40
-0.0484334607700605
 40
-0.0484334607700605
 40
-0.0484334607700605
 40
-0.0484334607700605
 40
0.0
 40
0.0
 40
0.0
 40
0.0
 10
1130.038772436898
 20
170.3897926728676
 30
0.0
 10
1130.011406995798
 20
170.5411184334605
 30
0.0
 10
1129.984079653703
 20
170.6924493474879
 30
0.0
 10
1129.956790490076
 20
170.8437831726067
 30
0.0
  0
SPLINE
  5
9096
330
8C5B
100
AcDbEntity
  8
Visible (ISO)
100
AcDbSpline
210
0.0
220
0.0
230
1.0
 70
     8
 71
     3
 72
     8
 73
     4
 74
     0
 42
0.0000000001
 43
0.0000000001
 40
-0.0484334607701241
 40
-0.0484334607701241
 40
-0.0484334607701241
 40
-0.0484334607701241
 40
0.0
 40
0.0
 40
0.0
 40
0.0
 10
1187.598287301899
 20
170.3897926728676
 30
0.0
 10
1187.625652743001
 20
170.5411184334605
 30
0.0
 10
1187.652980085096
 20
170.6924493474879
 30
0.0
 10
1187.680269248723
 20
170.8437831726067
 30
0.0
  0
SPLINE
  5
9097
330
8C5B
100
AcDbEntity
  8
Visible (ISO)
100
AcDbSpline
210
0.0
220
0.0
230
1.0
 70
     8
 71
     3
 72
     8
 73
     4
 74
     0
 42
0.0000000001
 43
0.0000000001
 40
-0.0273103982858794
 40
-0.0273103982858794
 40
-0.0273103982858794
 40
-0.0273103982858794
 40
0.0
 40
0.0
 40
0.0
 40
0.0
 10
1214.62819731353
 20
146.5358427642166
 30
0.0
 10
1214.691640611377
 20
146.5783775488888
 30
0.0
 10
1214.755084896302
 20
146.6209019784335
 30
0.0
 10
1214.818529869403
 20
146.6634159044605
 30
0.0
  0
LINE
  5
9098
330
8C5B
100
AcDbEntity
  8
Visible (ISO)
100
AcDbLine
 10
1214.818529869403
 20
146.2094254047204
 30
0.0
 11
1214.818529869403
 21
146.6634159044605
 31
0.0
  0
LINE
  5
9099
330
8C5B
100
AcDbEntity
  8
Visible (ISO)
100
AcDbLine
 10
1187.680269248724
 20
173.5677261710442
 30
0.0
 11
1187.680269248723
 21
170.8437831726067
 31
0.0
  0
LINE
  5
909A
330
8C5B
100
AcDbEntity
  8
Visible (ISO)
100
AcDbLine
 10
1214.818529869404
 20
149.387358902897
 30
0.0
 11
1214.818529869403
 21
146.6634159044605
 31
0.0
  0
LINE
  5
909B
330
8C5B
100
AcDbEntity
  8
Visible (ISO)
100
AcDbLine
 10
1129.956790490077
 20
173.5677261710442
 30
0.0
 11
1129.956790490075
 21
170.8437831726067
 31
0.0
  0
LINE
  5
909C
330
8C5B
100
AcDbEntity
  8
Visible (ISO)
100
AcDbLine
 10
1102.818529869405
 20
149.387358902897
 30
0.0
 11
1102.818529869403
 21
146.6634159044605
 31
0.0
  0
LINE
  5
909D
330
8C5B
100
AcDbEntity
  8
0
  6
CENTER
100
AcDbLine
 10
1768.818529869435
 20
54.42178156066972
 30
0.0
 11
1768.818529869435
 21
219.6728868518329
 31
0.0
  0
LINE
  5
909E
330
8C5B
100
AcDbEntity
  8
0
  6
CENTER
100
AcDbLine
 10
1463.818529869396
 20
65.6921963253252
 30
0.0
 11
1463.818529869396
 21
140.882178431072
 31
0.0
  0
LINE
  5
909F
330
8C5B
100
AcDbEntity
  8
0
  6
CENTER
100
AcDbLine
 10
1426.223538816523
 20
103.2871873781986
 30
0.0
 11
1501.41352092227
 21
103.2871873781986
 31
0.0
  0
ENDSEC
  0
SECTION
  2
OBJECTS
  0
DICTIONARY
  5
8C49
330
0
100
AcDbDictionary
281
     1
  3
ACAD_GROUP
350
8C4A
  3
ACAD_LAYOUT
350
8C56
  3
ACAD_MLINESTYLE
350
8C53
  3
ACAD_PLOTSETTINGS
350
8C55
  3
ACAD_PLOTSTYLENAME
350
8C4B
  3
AcDbVariableDictionary
350
8CA1
  0
DICTIONARY
  5
8D18
330
8C3F
100
AcDbDictionary
280
     1
281
     1
  3
ACAD_LAYERSTATES
360
8D19
  0
DICTIONARY
  5
8C6D
330
8C5B
100
AcDbDictionary
280
     1
281
     1
  3
ACAD_LAYOUTSELFREF
360
8D10
  0
DICTIONARY
  5
8C6F
330
8C57
100
AcDbDictionary
280
     1
281
     1
  3
ACAD_LAYOUTSELFREF
360
8D0F
  0
DICTIONARY
  5
8C4A
102
{ACAD_REACTORS
330
8C49
102
}
330
8C49
100
AcDbDictionary
281
     1
  0
DICTIONARY
  5
8C56
102
{ACAD_REACTORS
330
8C49
102
}
330
8C49
100
AcDbDictionary
281
     1
  3
Model
350
8C5E
  3
ﾚｲｱｳﾄ1
350
8C5A
  0
DICTIONARY
  5
8C53
102
{ACAD_REACTORS
330
8C49
102
}
330
8C49
100
AcDbDictionary
281
     1
  3
Standard
350
8C54
  0
DICTIONARY
  5
8C55
102
{ACAD_REACTORS
330
8C49
102
}
330
8C49
100
AcDbDictionary
281
     1
  0
ACDBDICTIONARYWDFLT
  5
8C4B
102
{ACAD_REACTORS
330
8C49
102
}
330
8C49
100
AcDbDictionary
281
     1
  3
Normal
350
8C4C
100
AcDbDictionaryWithDefault
340
8C4C
  0
DICTIONARY
  5
8CA1
102
{ACAD_REACTORS
330
8C49
102
}
330
8C49
100
AcDbDictionary
281
     1
  3
DIMASSOC
350
8CA2
  0
DICTIONARY
  5
8D19
102
{ACAD_REACTORS
330
8D18
102
}
330
8D18
100
AcDbDictionary
281
     1
  0
XRECORD
  5
8D10
102
{ACAD_REACTORS
330
8C6D
102
}
330
8C6D
100
AcDbXrecord
280
     1
340
8C5B
  0
XRECORD
  5
8D0F
102
{ACAD_REACTORS
330
8C6F
102
}
330
8C6F
100
AcDbXrecord
280
     1
340
8C57
  0
LAYOUT
  5
8C5E
102
{ACAD_REACTORS
330
8C56
102
}
330
8C56
100
AcDbPlotSettings
  1

  2
SII LP-2150 (D-SCAN C2)
  4

  6

 40
0.0
 41
0.0
 42
0.0
 43
0.0
 44
0.0
 45
0.0
 46
0.0
 47
0.0
 48
0.0
 49
0.0
140
0.0
141
0.0
142
1.0
143
1.0
 70
  1712
 72
     0
 73
     0
 74
     0
  7

 75
     0
147
1.0
148
0.0
149
0.0
100
AcDbLayout
  1
Model
 70
     1
 71
     0
 10
0.0
 20
0.0
 11
12.0
 21
9.0
 12
0.0
 22
0.0
 32
0.0
 14
0.0
 24
0.0
 34
0.0
 15
0.0
 25
0.0
 35
0.0
146
0.0
 13
0.0
 23
0.0
 33
0.0
 16
1.0
 26
0.0
 36
0.0
 17
0.0
 27
1.0
 37
0.0
 76
     0
330
8C5B
  0
LAYOUT
  5
8C5A
102
{ACAD_REACTORS
330
8C56
102
}
330
8C56
100
AcDbPlotSettings
  1

  2
SII LP-2150 (D-SCAN C2)
  4

  6

 40
0.0
 41
0.0
 42
0.0
 43
0.0
 44
0.0
 45
0.0
 46
0.0
 47
0.0
 48
0.0
 49
0.0
140
0.0
141
0.0
142
1.0
143
1.0
 70
   688
 72
     0
 73
     0
 74
     5
  7

 75
    16
147
1.0
148
0.0
149
0.0
100
AcDbLayout
  1
ﾚｲｱｳﾄ1
 70
     1
 71
     1
 10
-580.5701293945312
 20
0.0
 11
0.0
 21
407.8999938964844
 12
0.0
 22
0.0
 32
0.0
 14
-580.5701293945312
 24
0.0
 34
0.0
 15
0.0
 25
407.8999938964844
 35
0.0
146
0.0
 13
0.0
 23
0.0
 33
0.0
 16
1.0
 26
0.0
 36
0.0
 17
0.0
 27
1.0
 37
0.0
 76
     0
330
8C57
  0
MLINESTYLE
  5
8C54
102
{ACAD_REACTORS
330
8C53
102
}
330
8C53
100
AcDbMlineStyle
  2
STANDARD
 70
     0
  3

 62
   256
 51
90.0
 52
90.0
 71
     2
 49
0.5
 62
   256
  6
BYLAYER
 49
-0.5
 62
   256
  6
BYLAYER
  0
ACDBPLACEHOLDER
  5
8C4C
102
{ACAD_REACTORS
330
8C4B
102
}
330
8C4B
  0
DICTIONARYVAR
  5
8CA2
102
{ACAD_REACTORS
330
8CA1
102
}
330
8CA1
100
DictionaryVariables
280
     0
  1
1
  0
ENDSEC
  0
EOF
