  0
SECTION
  2
HEADER
  9
$ACADVER
  1
AC1015
  9
$ACADMAINTVER
 70
    14
  9
$DWGCODEPAGE
  3
ANSI_932
  9
$INSBASE
 10
0.0
 20
0.0
 30
0.0
  9
$EXTMIN
 10
290.6980749039167
 20
93.10515785308689
 30
-0.000000000000013
  9
$EXTMAX
 10
1399.84034948722
 20
619.8781085140512
 30
0.0000000000000023
  9
$LIMMIN
 10
-580.5701293945312
 20
0.0
  9
$LIMMAX
 10
0.0
 20
407.8999938964844
  9
$ORTHOMODE
 70
     0
  9
$REGENMODE
 70
     1
  9
$FILLMODE
 70
     1
  9
$QTEXTMODE
 70
     0
  9
$MIRRTEXT
 70
     1
  9
$LTSCALE
 40
1.0
  9
$ATTMODE
 70
     1
  9
$TEXTSIZE
 40
0.2
  9
$TRACEWID
 40
0.05
  9
$TEXTSTYLE
  7
STANDARD
  9
$CLAYER
  8
0
  9
$CELTYPE
  6
CONTINUOUS
  9
$CECOLOR
 62
   256
  9
$CELTSCALE
 40
1.0
  9
$DISPSILH
 70
     0
  9
$DIMSCALE
 40
1.0
  9
$DIMASZ
 40
1.0
  9
$DIMEXO
 40
2.54
  9
$DIMDLI
 40
0.38
  9
$DIMRND
 40
0.0
  9
$DIMDLE
 40
0.0
  9
$DIMEXE
 40
2.54
  9
$DIMTP
 40
0.0
  9
$DIMTM
 40
0.0
  9
$DIMTXT
 40
3.200000047683714
  9
$DIMCEN
 40
0.09
  9
$DIMTSZ
 40
0.0
  9
$DIMTOL
 70
     0
  9
$DIMLIM
 70
     0
  9
$DIMTIH
 70
     0
  9
$DIMTOH
 70
     0
  9
$DIMSE1
 70
     0
  9
$DIMSE2
 70
     0
  9
$DIMTAD
 70
     1
  9
$DIMZIN
 70
     0
  9
$DIMBLK
  1

  9
$DIMASO
 70
     1
  9
$DIMSHO
 70
     0
  9
$DIMPOST
  1

  9
$DIMAPOST
  1

  9
$DIMALT
 70
     0
  9
$DIMALTD
 70
     2
  9
$DIMALTF
 40
25.4
  9
$DIMLFAC
 40
1.0
  9
$DIMTOFL
 70
     0
  9
$DIMTVP
 40
1.0
  9
$DIMTIX
 70
     0
  9
$DIMSOXD
 70
     0
  9
$DIMSAH
 70
     0
  9
$DIMBLK1
  1

  9
$DIMBLK2
  1

  9
$DIMSTYLE
  2
STANDARD
  9
$DIMCLRD
 70
     0
  9
$DIMCLRE
 70
     0
  9
$DIMCLRT
 70
     0
  9
$DIMTFAC
 40
1.0
  9
$DIMGAP
 40
1.600000023841857
  9
$DIMJUST
 70
     0
  9
$DIMSD1
 70
     0
  9
$DIMSD2
 70
     0
  9
$DIMTOLJ
 70
     1
  9
$DIMTZIN
 70
     0
  9
$DIMALTZ
 70
     0
  9
$DIMALTTZ
 70
     0
  9
$DIMUPT
 70
     0
  9
$DIMDEC
 70
     4
  9
$DIMTDEC
 70
     4
  9
$DIMALTU
 70
     2
  9
$DIMALTTD
 70
     2
  9
$DIMTXSTY
  7
STANDARD
  9
$DIMAUNIT
 70
     0
  9
$DIMADEC
 70
     0
  9
$DIMALTRND
 40
0.0
  9
$DIMAZIN
 70
     0
  9
$DIMDSEP
 70
    46
  9
$DIMATFIT
 70
     3
  9
$DIMFRAC
 70
     0
  9
$DIMLDRBLK
  1

  9
$DIMLUNIT
 70
     2
  9
$DIMLWD
 70
    -2
  9
$DIMLWE
 70
    -2
  9
$DIMTMOVE
 70
     0
  9
$LUNITS
 70
     2
  9
$LUPREC
 70
     4
  9
$SKETCHINC
 40
0.1
  9
$FILLETRAD
 40
0.0
  9
$AUNITS
 70
     0
  9
$AUPREC
 70
     0
  9
$MENU
  1
.
  9
$ELEVATION
 40
0.0
  9
$PELEVATION
 40
0.0
  9
$THICKNESS
 40
0.0
  9
$LIMCHECK
 70
     0
  9
$CHAMFERA
 40
0.0
  9
$CHAMFERB
 40
0.0
  9
$CHAMFERC
 40
0.0
  9
$CHAMFERD
 40
0.0
  9
$SKPOLY
 70
     0
  9
$TDCREATE
 40
2452717.604314595
  9
$TDUCREATE
 40
2452717.229314595
  9
$TDUPDATE
 40
2456899.672971285
  9
$TDUUPDATE
 40
2456899.297971285
  9
$TDINDWG
 40
0.2838739236
  9
$TDUSRTIMER
 40
0.2838739236
  9
$USRTIMER
 70
     1
  9
$ANGBASE
 50
0.0
  9
$ANGDIR
 70
     0
  9
$PDMODE
 70
     0
  9
$PDSIZE
 40
0.0
  9
$PLINEWID
 40
0.0
  9
$SPLFRAME
 70
     0
  9
$SPLINETYPE
 70
     6
  9
$SPLINESEGS
 70
     8
  9
$HANDSEED
  5
9096
  9
$SURFTAB1
 70
     6
  9
$SURFTAB2
 70
     6
  9
$SURFTYPE
 70
     6
  9
$SURFU
 70
     6
  9
$SURFV
 70
     6
  9
$UCSBASE
  2

  9
$UCSNAME
  2

  9
$UCSORG
 10
0.0
 20
0.0
 30
0.0
  9
$UCSXDIR
 10
1.0
 20
0.0
 30
0.0
  9
$UCSYDIR
 10
0.0
 20
1.0
 30
0.0
  9
$UCSORTHOREF
  2

  9
$UCSORTHOVIEW
 70
     0
  9
$UCSORGTOP
 10
0.0
 20
0.0
 30
0.0
  9
$UCSORGBOTTOM
 10
0.0
 20
0.0
 30
0.0
  9
$UCSORGLEFT
 10
0.0
 20
0.0
 30
0.0
  9
$UCSORGRIGHT
 10
0.0
 20
0.0
 30
0.0
  9
$UCSORGFRONT
 10
0.0
 20
0.0
 30
0.0
  9
$UCSORGBACK
 10
0.0
 20
0.0
 30
0.0
  9
$PUCSBASE
  2

  9
$PUCSNAME
  2

  9
$PUCSORG
 10
0.0
 20
0.0
 30
0.0
  9
$PUCSXDIR
 10
1.0
 20
0.0
 30
0.0
  9
$PUCSYDIR
 10
0.0
 20
1.0
 30
0.0
  9
$PUCSORTHOREF
  2

  9
$PUCSORTHOVIEW
 70
     0
  9
$PUCSORGTOP
 10
0.0
 20
0.0
 30
0.0
  9
$PUCSORGBOTTOM
 10
0.0
 20
0.0
 30
0.0
  9
$PUCSORGLEFT
 10
0.0
 20
0.0
 30
0.0
  9
$PUCSORGRIGHT
 10
0.0
 20
0.0
 30
0.0
  9
$PUCSORGFRONT
 10
0.0
 20
0.0
 30
0.0
  9
$PUCSORGBACK
 10
0.0
 20
0.0
 30
0.0
  9
$USERI1
 70
     0
  9
$USERI2
 70
     0
  9
$USERI3
 70
     0
  9
$USERI4
 70
     0
  9
$USERI5
 70
     0
  9
$USERR1
 40
0.0
  9
$USERR2
 40
0.0
  9
$USERR3
 40
0.0
  9
$USERR4
 40
0.0
  9
$USERR5
 40
0.0
  9
$WORLDVIEW
 70
     1
  9
$SHADEDGE
 70
     3
  9
$SHADEDIF
 70
    70
  9
$TILEMODE
 70
     1
  9
$MAXACTVP
 70
    48
  9
$PINSBASE
 10
0.0
 20
0.0
 30
0.0
  9
$PLIMCHECK
 70
     0
  9
$PEXTMIN
 10
-580.5701293945312
 20
0.0
 30
0.0
  9
$PEXTMAX
 10
0.0
 20
407.8999938964844
 30
0.0
  9
$PLIMMIN
 10
-580.5701293945312
 20
0.0
  9
$PLIMMAX
 10
0.0
 20
407.8999938964844
  9
$UNITMODE
 70
     0
  9
$VISRETAIN
 70
     1
  9
$PLINEGEN
 70
     0
  9
$PSLTSCALE
 70
     1
  9
$TREEDEPTH
 70
  3020
  9
$CMLSTYLE
  2
Standard
  9
$CMLJUST
 70
     0
  9
$CMLSCALE
 40
1.0
  9
$PROXYGRAPHICS
 70
     1
  9
$MEASUREMENT
 70
     0
  9
$CELWEIGHT
370
    -1
  9
$ENDCAPS
280
     0
  9
$JOINSTYLE
280
     0
  9
$LWDISPLAY
290
     0
  9
$INSUNITS
 70
     0
  9
$HYPERLINKBASE
  1

  9
$STYLESHEET
  1

  9
$XEDIT
290
     1
  9
$CEPSNTYPE
380
     0
  9
$PSTYLEMODE
290
     1
  9
$FINGERPRINTGUID
  2
{07B47841-C1E4-41BE-96E3-EDE406F5718D}
  9
$VERSIONGUID
  2
{22F551CE-C96C-4C41-8B75-CB84B0B2AA53}
  9
$EXTNAMES
290
     1
  9
$PSVPSCALE
 40
0.0
  9
$OLESTARTUP
290
     0
  0
ENDSEC
  0
SECTION
  2
CLASSES
  0
CLASS
  1
ACDBDICTIONARYWDFLT
  2
AcDbDictionaryWithDefault
  3
AutoCAD 2000
 90
        0
280
     0
281
     0
  0
CLASS
  1
ACDBPLACEHOLDER
  2
AcDbPlaceHolder
  3
AutoCAD 2000
 90
        0
280
     0
281
     0
  0
CLASS
  1
LAYOUT
  2
AcDbLayout
  3
AutoCAD 2000
 90
        0
280
     0
281
     0
  0
CLASS
  1
DICTIONARYVAR
  2
AcDbDictionaryVar
  3
AutoCAD 2000
 90
        0
280
     0
281
     0
  0
CLASS
  1
LONG_TRANSACTION
  2
AcDbLongTransaction
  3
AutoCAD 2000
 90
    32768
280
     0
281
     0
  0
CLASS
  1
LWPOLYLINE
  2
AcDbPolyline
  3
AutoCAD 2000
 90
    32768
280
     0
281
     1
  0
CLASS
  1
HATCH
  2
AcDbHatch
  3
AutoCAD 2000
 90
    32768
280
     0
281
     1
  0
CLASS
  1
XRECORD
  2
AcDbXrecord
  3
AutoCAD 2000
 90
    32768
280
     0
281
     0
  0
CLASS
  1
LONG_TRANSACTION
  2
AcDbLongTransaction
  3
AutoCAD 2000
 90
    32768
280
     0
281
     0
  0
CLASS
  1
LWPOLYLINE
  2
AcDbPolyline
  3
AutoCAD 2000
 90
    32768
280
     0
281
     1
  0
CLASS
  1
HATCH
  2
AcDbHatch
  3
AutoCAD 2000
 90
    32768
280
     0
281
     1
  0
CLASS
  1
XRECORD
  2
AcDbXrecord
  3
AutoCAD 2000
 90
    32768
280
     0
281
     0
  0
CLASS
  1
LONG_TRANSACTION
  2
AcDbLongTransaction
  3
AutoCAD 2000
 90
    32768
280
     0
281
     0
  0
CLASS
  1
LWPOLYLINE
  2
AcDbPolyline
  3
AutoCAD 2000
 90
    32768
280
     0
281
     1
  0
CLASS
  1
HATCH
  2
AcDbHatch
  3
AutoCAD 2000
 90
    32768
280
     0
281
     1
  0
CLASS
  1
XRECORD
  2
AcDbXrecord
  3
AutoCAD 2000
 90
    32768
280
     0
281
     0
  0
ENDSEC
  0
SECTION
  2
TABLES
  0
TABLE
  2
VPORT
  5
8C3C
330
0
100
AcDbSymbolTable
 70
     2
  0
VPORT
  5
9095
330
8C3C
100
AcDbSymbolTableRecord
100
AcDbViewportTableRecord
  2
*Active
 70
     0
 10
0.0
 20
0.0
 11
1.0
 21
1.0
 12
845.2692121955683
 22
356.491633183569
 13
0.0
 23
0.0
 14
1.0
 24
1.0
 15
0.0
 25
0.0
 16
0.0
 26
0.0
 36
1.0
 17
0.0
 27
0.0
 37
0.0
 40
699.4049540145006
 41
1.592161016949152
 42
50.0
 43
0.0
 44
0.0
 50
0.0
 51
0.0
 71
     0
 72
   100
 73
     1
 74
     3
 75
     0
 76
     0
 77
     0
 78
     0
281
     0
 65
     1
110
0.0
120
0.0
130
0.0
111
1.0
121
0.0
131
0.0
112
0.0
122
1.0
132
0.0
 79
     0
146
0.0
  0
ENDTAB
  0
TABLE
  2
LTYPE
  5
8C39
330
0
100
AcDbSymbolTable
 70
     2
  0
LTYPE
  5
8C47
330
8C39
100
AcDbSymbolTableRecord
100
AcDbLinetypeTableRecord
  2
ByBlock
 70
     0
  3

 72
    65
 73
     0
 40
0.0
  0
LTYPE
  5
8C48
330
8C39
100
AcDbSymbolTableRecord
100
AcDbLinetypeTableRecord
  2
ByLayer
 70
     0
  3

 72
    65
 73
     0
 40
0.0
  0
LTYPE
  5
8C49
330
8C39
100
AcDbSymbolTableRecord
100
AcDbLinetypeTableRecord
  2
CONTINUOUS
 70
     0
  3
Solid line
 72
    65
 73
     0
 40
0.0
  0
LTYPE
  5
8D0E
330
8C39
100
AcDbSymbolTableRecord
100
AcDbLinetypeTableRecord
  2
CENTER
 70
     0
  3
Center ____ _ ____ _ ____ _ ____ _ ____ _ ____
 72
    65
 73
     4
 40
50.8
 49
31.75
 74
     0
 49
-6.349999999999999
 74
     0
 49
6.349999999999999
 74
     0
 49
-6.349999999999999
 74
     0
  0
ENDTAB
  0
TABLE
  2
LAYER
  5
8C36
102
{ACAD_XDICTIONARY
360
8D0F
102
}
330
0
100
AcDbSymbolTable
 70
     2
  0
LAYER
  5
8C44
330
8C36
100
AcDbSymbolTableRecord
100
AcDbLayerTableRecord
  2
0
 70
     0
 62
     7
  6
CONTINUOUS
370
    -3
390
8C43
  0
LAYER
  5
8D26
330
8C36
100
AcDbSymbolTableRecord
100
AcDbLayerTableRecord
  2
Visible (ISO)
 70
     0
 62
     7
  6
CONTINUOUS
370
    35
390
8C43
  0
ENDTAB
  0
TABLE
  2
STYLE
  5
8C37
330
0
100
AcDbSymbolTable
 70
     1
  0
STYLE
  5
8C45
330
8C37
100
AcDbSymbolTableRecord
100
AcDbTextStyleTableRecord
  2
STANDARD
 70
     0
 40
0.0
 41
1.0
 50
0.0
 71
     0
 42
0.2
  3
txt
  4
BIGFONT
  0
ENDTAB
  0
TABLE
  2
VIEW
  5
8C3A
330
0
100
AcDbSymbolTable
 70
     0
  0
ENDTAB
  0
TABLE
  2
UCS
  5
8C3B
330
0
100
AcDbSymbolTable
 70
     0
  0
ENDTAB
  0
TABLE
  2
APPID
  5
8C3D
330
0
100
AcDbSymbolTable
 70
     4
  0
APPID
  5
8C46
330
8C3D
100
AcDbSymbolTableRecord
100
AcDbRegAppTableRecord
  2
ACAD
 70
     0
  0
APPID
  5
8C58
330
8C3D
100
AcDbSymbolTableRecord
100
AcDbRegAppTableRecord
  2
MCAD_NO_VIS
 70
     0
  0
APPID
  5
8C59
330
8C3D
100
AcDbSymbolTableRecord
100
AcDbRegAppTableRecord
  2
ACAD_TEMP_GRAPHIC
 70
     0
  0
APPID
  5
8C5A
330
8C3D
100
AcDbSymbolTableRecord
100
AcDbRegAppTableRecord
  2
ACATTRIBSERVICES
 70
     0
  0
ENDTAB
  0
TABLE
  2
DIMSTYLE
  5
8C3E
330
0
100
AcDbSymbolTable
 70
     1
100
AcDbDimStyleTable
 71
     0
  0
DIMSTYLE
105
8C5B
330
8C3E
100
AcDbSymbolTableRecord
100
AcDbDimStyleTableRecord
  2
STANDARD
 70
     0
279
     2
340
8C45
  0
ENDTAB
  0
TABLE
  2
BLOCK_RECORD
  5
8C35
330
0
100
AcDbSymbolTable
 70
     0
  0
BLOCK_RECORD
  5
8C52
102
{ACAD_XDICTIONARY
360
8C64
102
}
330
8C35
100
AcDbSymbolTableRecord
100
AcDbBlockTableRecord
  2
*Model_Space
340
8C55
  0
BLOCK_RECORD
  5
8C4E
102
{ACAD_XDICTIONARY
360
8C66
102
}
330
8C35
100
AcDbSymbolTableRecord
100
AcDbBlockTableRecord
  2
*Paper_Space
340
8C51
  0
ENDTAB
  0
ENDSEC
  0
SECTION
  2
BLOCKS
  0
BLOCK
  5
8C53
330
8C52
100
AcDbEntity
  8
0
100
AcDbBlockBegin
  2
*Model_Space
 70
     0
 10
0.0
 20
0.0
 30
0.0
  3
*Model_Space
  1

  0
ENDBLK
  5
8C54
330
8C52
100
AcDbEntity
  8
0
100
AcDbBlockEnd
  0
BLOCK
  5
8C4F
330
8C4E
100
AcDbEntity
 67
     1
  8
0
100
AcDbBlockBegin
  2
*Paper_Space
 70
     0
 10
0.0
 20
0.0
 30
0.0
  3
*Paper_Space
  1

  0
ENDBLK
  5
8C50
330
8C4E
100
AcDbEntity
 67
     1
  8
0
100
AcDbBlockEnd
  0
ENDSEC
  0
SECTION
  2
ENTITIES
  0
TEXT
  5
4517
330
8C52
100
AcDbEntity
  8
0
100
AcDbText
 10
290.8082932617485
 20
571.8781014626419
 30
0.0
 40
48.000002
  1
DHS2S 1S
 41
1.32095
100
AcDbText
  0
LINE
  5
76F9
330
8C52
100
AcDbEntity
  8
0
100
AcDbLine
 10
588.0442154415097
 20
177.9725648091861
 30
0.0
 11
588.0442154415097
 21
182.1725464986393
 31
0.0
  0
LINE
  5
7701
330
8C52
100
AcDbEntity
  8
0
100
AcDbLine
 10
593.5442154415096
 20
205.0725403951243
 30
0.0
 11
593.5442154415096
 21
182.1725464986393
 31
0.0
  0
LINE
  5
7703
330
8C52
100
AcDbEntity
  8
0
100
AcDbLine
 10
560.5442154415096
 20
205.0725403951243
 30
0.0
 11
560.5442154415096
 21
182.1725464986393
 31
0.0
  0
CIRCLE
  5
7714
330
8C52
100
AcDbEntity
  8
0
100
AcDbCircle
 10
389.458705187606
 20
366.1418142686184
 30
0.0
 40
38.49999618530272
  0
ARC
  5
7717
330
8C52
100
AcDbEntity
  8
0
100
AcDbCircle
 10
368.4587051876059
 20
402.5148916611973
 30
0.0
 40
12.0
100
AcDbArc
 50
263.8448973928873
 51
336.1550992678101
  0
ARC
  5
7718
330
8C52
100
AcDbEntity
  8
0
100
AcDbCircle
 10
368.4587051876059
 20
329.7687368760405
 30
0.0
 40
12.0
100
AcDbArc
 50
23.84494683597062
 51
96.15506845616815
  0
LINE
  5
771B
330
8C52
100
AcDbEntity
  8
0
100
AcDbLine
 10
364.2087051876059
 20
305.4917599208033
 30
0.0
 11
376.7587234981533
 21
310.0595931889053
 31
0.0
  0
LINE
  5
771C
330
8C52
100
AcDbEntity
  8
0
100
AcDbLine
 10
414.7087051876068
 20
302.6417837510413
 30
0.0
 11
364.2087051876059
 21
302.6417837510413
 31
0.0
  0
LINE
  5
771E
330
8C52
100
AcDbEntity
  8
0
100
AcDbLine
 10
411.7746231563568
 20
404.6418447861973
 30
0.0
 11
367.1427872188568
 21
404.6418447861973
 31
0.0
  0
LINE
  5
771F
330
8C52
100
AcDbEntity
  8
0
100
AcDbLine
 10
411.7746231563568
 20
327.6418142686184
 30
0.0
 11
367.1427872188568
 21
327.6418142686184
 31
0.0
  0
LINE
  5
7721
330
8C52
100
AcDbEntity
  8
0
100
AcDbLine
 10
364.2087051876059
 20
426.7918531686213
 30
0.0
 11
376.7587234981533
 21
422.2240199005208
 31
0.0
  0
LINE
  5
7722
330
8C52
100
AcDbEntity
  8
0
100
AcDbLine
 10
414.7087051876068
 20
429.6418447861973
 30
0.0
 11
364.2087051876059
 21
429.6418447861973
 31
0.0
  0
LINE
  5
7724
330
8C52
100
AcDbEntity
  8
0
100
AcDbLine
 10
364.2087051876059
 20
429.6418447861973
 30
0.0
 11
364.2087051876059
 21
426.7918531686213
 31
0.0
  0
ARC
  5
7726
330
8C52
100
AcDbEntity
  8
0
100
AcDbCircle
 10
347.4587051876059
 20
366.1418142686184
 30
0.0
 40
12.0
100
AcDbArc
 50
323.8449024776355
 51
36.15509410728039
  0
LINE
  5
7729
330
8C52
100
AcDbEntity
  8
0
100
AcDbLine
 10
350.9587051876059
 20
388.4577627549473
 30
0.0
 11
350.9587051876059
 21
343.8258962998684
 31
0.0
  0
ARC
  5
772A
330
8C52
100
AcDbEntity
  8
0
100
AcDbCircle
 10
389.458705187606
 20
366.1418142686184
 30
0.0
 40
44.5
100
AcDbArc
 50
210.0980568517713
 51
239.9019424649616
  0
ARC
  5
772B
330
8C52
100
AcDbEntity
  8
0
100
AcDbCircle
 10
389.458705187606
 20
366.1418142686184
 30
0.0
 40
44.0
100
AcDbArc
 50
208.9550246941844
 51
241.0449746225773
  0
LINE
  5
772D
330
8C52
100
AcDbEntity
  8
0
100
AcDbLine
 10
364.2087051876059
 20
302.6417837510413
 30
0.0
 11
364.2087051876059
 21
305.4917599208033
 31
0.0
  0
ARC
  5
772E
330
8C52
100
AcDbEntity
  8
0
100
AcDbCircle
 10
389.458705187606
 20
366.1418142686184
 30
0.0
 40
35.0
100
AcDbArc
 50
199.5310711868489
 51
220.4689477856435
  0
ARC
  5
772F
330
8C52
100
AcDbEntity
  8
0
100
AcDbCircle
 10
366.6359817989345
 20
346.6707449326812
 30
0.0
 40
5.0
100
AcDbArc
 50
220.4689477856435
 51
276.1550566170325
  0
ARC
  5
7734
330
8C52
100
AcDbEntity
  8
0
100
AcDbCircle
 10
361.1849014766693
 20
356.1122732529943
 30
0.0
 40
5.0
100
AcDbArc
 50
143.8449040715029
 51
199.531067544399
  0
ARC
  5
7739
330
8C52
100
AcDbEntity
  8
0
100
AcDbCircle
 10
389.458705187606
 20
366.1418142686184
 30
0.0
 40
44.0
100
AcDbArc
 50
118.954943415155
 51
151.0449753058155
  0
ARC
  5
773A
330
8C52
100
AcDbEntity
  8
0
100
AcDbCircle
 10
389.458705187606
 20
366.1418142686184
 30
0.0
 40
44.5
100
AcDbArc
 50
120.0980575350383
 51
149.9019431482285
  0
ARC
  5
773B
330
8C52
100
AcDbEntity
  8
0
100
AcDbCircle
 10
389.458705187606
 20
366.1418142686184
 30
0.0
 40
35.0
100
AcDbArc
 50
139.5310795351149
 51
160.4689288131511
  0
ARC
  5
773E
330
8C52
100
AcDbEntity
  8
0
100
AcDbCircle
 10
361.1849014766693
 20
376.1713552842443
 30
0.0
 40
5.0
100
AcDbArc
 50
160.4689288131511
 51
216.1550922860485
  0
ARC
  5
7743
330
8C52
100
AcDbEntity
  8
0
100
AcDbCircle
 10
366.6359512813559
 20
385.6128836045562
 30
0.0
 40
5.0
100
AcDbArc
 50
83.84489557163602
 51
139.5310795351149
  0
LINE
  5
7758
330
8C52
100
AcDbEntity
  8
0
100
AcDbLine
 10
414.7087051876068
 20
429.6418447861973
 30
0.0
 11
414.7087051876068
 21
426.7918364510351
 31
0.0
  0
ARC
  5
775D
330
8C52
100
AcDbEntity
  8
0
100
AcDbCircle
 10
431.4587051876059
 20
366.1418142686184
 30
0.0
 40
12.0
100
AcDbArc
 50
143.8449040715029
 51
216.1550922860485
  0
LINE
  5
7761
330
8C52
100
AcDbEntity
  8
0
100
AcDbLine
 10
427.9587051876069
 20
388.4577627549473
 30
0.0
 11
427.9587051876069
 21
343.8258962998684
 31
0.0
  0
ARC
  5
7763
330
8C52
100
AcDbEntity
  8
0
100
AcDbCircle
 10
389.458705187606
 20
366.1418142686184
 30
0.0
 40
44.5
100
AcDbArc
 50
300.0980593562542
 51
329.90194155436
  0
ARC
  5
7764
330
8C52
100
AcDbEntity
  8
0
100
AcDbCircle
 10
389.458705187606
 20
366.1418142686184
 30
0.0
 40
35.0
100
AcDbArc
 50
319.5310506204919
 51
340.4689289268338
  0
ARC
  5
7768
330
8C52
100
AcDbEntity
  8
0
100
AcDbCircle
 10
389.458705187606
 20
366.1418142686184
 30
0.0
 40
44.0
100
AcDbArc
 50
298.9550271986605
 51
331.0449737119582
  0
ARC
  5
776A
330
8C52
100
AcDbEntity
  8
0
100
AcDbCircle
 10
394.9097855098735
 20
336.6412039170563
 30
0.0
 40
5.0
100
AcDbArc
 50
280.46894262511
 51
336.1550497489421
  0
ARC
  5
776B
330
8C52
100
AcDbEntity
  8
0
100
AcDbCircle
 10
384.0076248653412
 20
336.6412039170563
 30
0.0
 40
5.0
100
AcDbArc
 50
203.8449503647481
 51
259.5310591961311
  0
LINE
  5
776E
330
8C52
100
AcDbEntity
  8
0
100
AcDbLine
 10
376.7587234981533
 20
310.0595931889053
 30
0.0
 11
376.7587234981533
 21
327.6418142686184
 31
0.0
  0
ARC
  5
7770
330
8C52
100
AcDbEntity
  8
0
100
AcDbCircle
 10
389.458705187606
 20
366.1418142686184
 30
0.0
 40
35.0
100
AcDbArc
 50
259.5310591961311
 51
280.4689357949277
  0
LINE
  5
7773
330
8C52
100
AcDbEntity
  8
0
100
AcDbLine
 10
402.1587173946381
 20
310.0596272156123
 30
0.0
 11
402.1587173946381
 21
327.6418142686184
 31
0.0
  0
LINE
  5
7774
330
8C52
100
AcDbEntity
  8
0
100
AcDbLine
 10
402.1587173946381
 20
310.0596272156123
 30
0.0
 11
414.7087051876068
 21
305.4918050550027
 31
0.0
  0
LINE
  5
7777
330
8C52
100
AcDbEntity
  8
0
100
AcDbLine
 10
414.7087051876068
 20
302.6417837510413
 30
0.0
 11
414.7087051876068
 21
305.4918050550027
 31
0.0
  0
ARC
  5
7782
330
8C52
100
AcDbEntity
  8
0
100
AcDbCircle
 10
410.4587051876069
 20
329.7687368760405
 30
0.0
 40
12.0
100
AcDbArc
 50
83.84493655277397
 51
156.1550496352515
  0
ARC
  5
7783
330
8C52
100
AcDbEntity
  8
0
100
AcDbCircle
 10
412.2814285762792
 20
346.6707449326812
 30
0.0
 40
5.0
100
AcDbArc
 50
263.8449247136355
 51
319.5310472054056
  0
ARC
  5
7786
330
8C52
100
AcDbEntity
  8
0
100
AcDbCircle
 10
417.7325088985443
 20
356.1122732529943
 30
0.0
 40
5.0
100
AcDbArc
 50
340.4689289268338
 51
36.15509410728039
  0
ARC
  5
7788
330
8C52
100
AcDbEntity
  8
0
100
AcDbCircle
 10
389.458705187606
 20
366.1418142686184
 30
0.0
 40
44.0
100
AcDbArc
 50
28.95502628804159
 51
61.04506159379698
  0
ARC
  5
7789
330
8C52
100
AcDbEntity
  8
0
100
AcDbCircle
 10
389.458705187606
 20
366.1418142686184
 30
0.0
 40
44.5
100
AcDbArc
 50
30.09805844563977
 51
59.90194064374574
  0
ARC
  5
778A
330
8C52
100
AcDbEntity
  8
0
100
AcDbCircle
 10
389.458705187606
 20
366.1418142686184
 30
0.0
 40
35.0
100
AcDbArc
 50
19.53107448825907
 51
40.46891522855654
  0
ARC
  5
778F
330
8C52
100
AcDbEntity
  8
0
100
AcDbCircle
 10
410.4587051876069
 20
402.5148916611973
 30
0.0
 40
12.0
100
AcDbArc
 50
203.8448820628496
 51
276.1550975981676
  0
ARC
  5
779E
330
8C52
100
AcDbEntity
  8
0
100
AcDbCircle
 10
412.2814590938559
 20
385.6128836045562
 30
0.0
 40
5.0
100
AcDbArc
 50
40.46891522855654
 51
96.15510260711261
  0
ARC
  5
779F
330
8C52
100
AcDbEntity
  8
0
100
AcDbCircle
 10
394.9097549922943
 20
395.6424551377591
 30
0.0
 40
5.0
100
AcDbArc
 50
23.84489219444231
 51
79.53107786546681
  0
LINE
  5
77A1
330
8C52
100
AcDbEntity
  8
0
100
AcDbLine
 10
376.7587234981533
 20
422.2240199005208
 30
0.0
 11
376.7587234981533
 21
404.6418447861973
 31
0.0
  0
ARC
  5
77A2
330
8C52
100
AcDbEntity
  8
0
100
AcDbCircle
 10
389.458705187606
 20
366.1418142686184
 30
0.0
 40
35.0
100
AcDbArc
 50
79.53107786546681
 51
100.4689203132919
  0
ARC
  5
77A3
330
8C52
100
AcDbEntity
  8
0
100
AcDbCircle
 10
384.0076553829193
 20
395.6424551377591
 30
0.0
 40
5.0
100
AcDbArc
 50
100.4689203132919
 51
156.15511793715
  0
LINE
  5
77A6
330
8C52
100
AcDbEntity
  8
0
100
AcDbLine
 10
402.1587173946381
 20
422.2240142904247
 30
0.0
 11
402.1587173946381
 21
404.6418462288622
 31
0.0
  0
LINE
  5
77A9
330
8C52
100
AcDbEntity
  8
0
100
AcDbLine
 10
402.1587173946381
 20
422.2240142904247
 30
0.0
 11
414.7087051876068
 21
426.7918364510351
 31
0.0
  0
ARC
  5
77AC
330
8C52
100
AcDbEntity
  8
0
100
AcDbCircle
 10
417.7325088985443
 20
376.1713552842443
 30
0.0
 40
5.0
100
AcDbArc
 50
323.8449024776355
 51
19.53107448825907
  0
LINE
  5
77B0
330
8C52
100
AcDbEntity
  8
0
100
AcDbLine
 10
612.0442154415096
 20
205.0725403951243
 30
0.0
 11
542.0442154415097
 21
205.0725403951243
 31
0.0
  0
LINE
  5
77B1
330
8C52
100
AcDbEntity
  8
0
100
AcDbLine
 10
590.5443999563584
 20
222.1725464986393
 30
0.0
 11
563.5440309266583
 21
222.1725464986393
 31
0.0
  0
LINE
  5
77BB
330
8C52
100
AcDbEntity
  8
0
100
AcDbLine
 10
542.0442154415097
 20
218.0752676135041
 30
0.0
 11
542.0442154415097
 21
205.0725403951243
 31
0.0
  0
LINE
  5
77BE
330
8C52
100
AcDbEntity
  8
0
100
AcDbLine
 10
568.2188370235413
 20
219.0769349263744
 30
0.0
 11
568.2188370235413
 21
205.0725403951243
 31
0.0
  0
LINE
  5
77BF
330
8C52
100
AcDbEntity
  8
0
100
AcDbLine
 10
552.1254532344783
 20
219.0769349263744
 30
0.0
 11
552.1254532344783
 21
205.0725403951243
 31
0.0
  0
ARC
  5
77C1
330
8C52
100
AcDbEntity
  8
0
100
AcDbCircle
 10
577.0442154415096
 20
92.87542735801523
 30
0.0
 40
130.0
100
AcDbArc
 50
95.96067375894705
 51
105.6184982756485
  0
LINE
  5
77C5
330
8C52
100
AcDbEntity
  8
0
100
AcDbLine
 10
608.2400402819152
 20
219.0769349263744
 30
0.0
 11
545.8483906011023
 21
219.0769349263744
 31
0.0
  0
ARC
  5
77CC
330
8C52
100
AcDbEntity
  8
0
100
AcDbCircle
 10
577.0442154415096
 20
92.87542735801523
 30
0.0
 40
130.0
100
AcDbArc
 50
74.38150172435125
 51
84.03922560920607
  0
LINE
  5
780E
330
8C52
100
AcDbEntity
  8
0
100
AcDbLine
 10
612.0442154415096
 20
218.0752676135041
 30
0.0
 11
612.0442154415096
 21
205.0725403951243
 31
0.0
  0
LINE
  5
7863
330
8C52
100
AcDbEntity
  8
0
100
AcDbLine
 10
640.5442154415096
 20
108.5224915669994
 30
0.0
 11
637.694228478701
 21
108.5224915669987
 31
0.0
  0
LINE
  5
7864
330
8C52
100
AcDbEntity
  8
0
100
AcDbLine
 10
640.5442154415096
 20
159.0224915669994
 30
0.0
 11
637.694214772544
 21
159.0224915669994
 31
0.0
  0
ARC
  5
786F
330
8C52
100
AcDbEntity
  8
0
100
AcDbCircle
 10
576.5082962520563
 20
126.7724915669993
 30
0.0
 40
7.0
100
AcDbArc
 50
90.00000865141487
 51
149.9999966606827
  0
LINE
  5
7870
330
8C52
100
AcDbEntity
  8
0
100
AcDbLine
 10
593.5441672444416
 20
177.9725648091861
 30
0.0
 11
560.5442154415096
 21
177.9725648091861
 31
0.0
  0
LINE
  5
7874
330
8C52
100
AcDbEntity
  8
0
100
AcDbLine
 10
615.5442154415096
 20
143.2725220845775
 30
0.0
 11
538.5442154415096
 21
143.2725220845775
 31
0.0
  0
LINE
  5
7875
330
8C52
100
AcDbEntity
  8
0
100
AcDbLine
 10
560.5442154415096
 20
182.1725464986393
 30
0.0
 11
593.5442154415096
 21
182.1725464986393
 31
0.0
  0
LINE
  5
7878
330
8C52
100
AcDbEntity
  8
0
100
AcDbLine
 10
513.5442154415096
 20
159.0224915669994
 30
0.0
 11
513.5442154415096
 21
108.5224915669994
 31
0.0
  0
LINE
  5
787D
330
8C52
100
AcDbEntity
  8
0
100
AcDbLine
 10
538.5442154415096
 20
165.0725403951244
 30
0.0
 11
538.5442154415096
 21
119.2724915669993
 31
0.0
  0
LINE
  5
7895
330
8C52
100
AcDbEntity
  8
0
100
AcDbLine
 10
520.9620065852082
 20
146.4725037740315
 30
0.0
 11
538.5442154415096
 21
146.4725037740315
 31
0.0
  0
LINE
  5
7896
330
8C52
100
AcDbEntity
  8
0
100
AcDbLine
 10
520.9620065852082
 20
146.4725037740315
 30
0.0
 11
516.3941844245973
 21
159.0224915669994
 31
0.0
  0
LINE
  5
789A
330
8C52
100
AcDbEntity
  8
0
100
AcDbLine
 10
513.5442154415096
 20
159.0224915669994
 30
0.0
 11
516.3941844245973
 21
159.0224915669994
 31
0.0
  0
LINE
  5
78A2
330
8C52
100
AcDbEntity
  8
0
100
AcDbLine
 10
554.7282974727585
 20
165.0725403951244
 30
0.0
 11
554.7282974727585
 21
143.2725220845775
 31
0.0
  0
LINE
  5
78A3
330
8C52
100
AcDbEntity
  8
0
100
AcDbLine
 10
560.544200979324
 20
177.9725602435711
 30
0.0
 11
548.1443130977585
 21
173.4593699848335
 31
0.0
  0
LINE
  5
78AA
330
8C52
100
AcDbEntity
  8
0
100
AcDbLine
 10
548.1443130977585
 20
173.4593699848335
 30
0.0
 11
548.1443130977585
 21
165.0725403951234
 31
0.0
  0
LINE
  5
78B3
330
8C52
100
AcDbEntity
  8
0
100
AcDbLine
 10
566.0442154415096
 20
177.9725648091861
 30
0.0
 11
566.0442154415096
 21
182.1725464986393
 31
0.0
  0
LINE
  5
78B8
330
8C52
100
AcDbEntity
  8
0
100
AcDbLine
 10
538.5341751583062
 20
119.2724915669993
 30
0.0
 11
559.4764969356502
 21
119.2724915669993
 31
0.0
  0
LINE
  5
78B9
330
8C52
100
AcDbEntity
  8
0
100
AcDbLine
 10
516.3941707184411
 20
108.5224915669994
 30
0.0
 11
520.961992879052
 21
121.0724793599682
 31
0.0
  0
LINE
  5
78BF
330
8C52
100
AcDbEntity
  8
0
100
AcDbLine
 10
520.961992879052
 20
121.0724793599682
 30
0.0
 11
538.5341751583062
 21
121.0724793599682
 31
0.0
  0
LINE
  5
78C5
330
8C52
100
AcDbEntity
  8
0
100
AcDbLine
 10
513.5442154415096
 20
108.5224915669994
 30
0.0
 11
516.3941707184411
 21
108.5224915669994
 31
0.0
  0
LINE
  5
78CA
330
8C52
100
AcDbEntity
  8
0
100
AcDbLine
 10
570.4461611052932
 20
130.2725310619042
 30
0.0
 11
566.4047029210073
 21
123.2725202756934
 31
0.0
  0
ARC
  5
78CB
330
8C52
100
AcDbEntity
  8
0
100
AcDbCircle
 10
559.4764969356502
 20
127.2724915669994
 30
0.0
 40
8.0
100
AcDbArc
 50
269.9999974955312
 51
330.0000016696514
  0
LINE
  5
7900
330
8C52
100
AcDbEntity
  8
0
100
AcDbLine
 10
593.5441672444416
 20
177.9725648091861
 30
0.0
 11
605.9441177852585
 21
173.4593517443455
 31
0.0
  0
LINE
  5
7903
330
8C52
100
AcDbEntity
  8
0
100
AcDbLine
 10
605.9441177852585
 20
173.4593517443455
 30
0.0
 11
605.9441177852585
 21
165.0725403951244
 31
0.0
  0
LINE
  5
7980
330
8C52
100
AcDbEntity
  8
0
100
AcDbLine
 10
615.5442154415096
 20
165.0725403951244
 30
0.0
 11
538.5442154415096
 21
165.0725403951244
 31
0.0
  0
LINE
  5
7981
330
8C52
100
AcDbEntity
  8
0
100
AcDbLine
 10
633.1263926119332
 20
146.4725037740315
 30
0.0
 11
615.5442154415096
 21
146.4725037740315
 31
0.0
  0
LINE
  5
7984
330
8C52
100
AcDbEntity
  8
0
100
AcDbLine
 10
615.5442154415096
 20
165.0725403951244
 30
0.0
 11
615.5442154415096
 21
119.2724915669993
 31
0.0
  0
LINE
  5
7986
330
8C52
100
AcDbEntity
  8
0
100
AcDbLine
 10
615.5442154415096
 20
157.0725403951244
 30
0.0
 11
538.5442154415096
 21
157.0725403951244
 31
0.0
  0
LINE
  5
7995
330
8C52
100
AcDbEntity
  8
0
100
AcDbLine
 10
633.1263926119332
 20
146.4725037740315
 30
0.0
 11
637.694214772544
 21
159.0224915669994
 31
0.0
  0
LINE
  5
7998
330
8C52
100
AcDbEntity
  8
0
100
AcDbLine
 10
615.5442154415096
 20
119.2724915669993
 30
0.0
 11
594.611933947368
 21
119.2724915669993
 31
0.0
  0
ARC
  5
799A
330
8C52
100
AcDbEntity
  8
0
100
AcDbCircle
 10
594.611933947368
 20
127.2724915669994
 30
0.0
 40
8.0
100
AcDbArc
 50
210.0000051605295
 51
270.0000043257204
  0
LINE
  5
799B
330
8C52
100
AcDbEntity
  8
0
100
AcDbLine
 10
583.6422722772481
 20
130.2725102928341
 30
0.0
 11
587.6837304615341
 21
123.2724995066254
 31
0.0
  0
ARC
  5
799C
330
8C52
100
AcDbEntity
  8
0
100
AcDbCircle
 10
577.5801346309622
 20
126.7724915669993
 30
0.0
 40
7.0
100
AcDbArc
 50
30.00000333931728
 51
89.99999134858509
  0
LINE
  5
799D
330
8C52
100
AcDbEntity
  8
0
100
AcDbLine
 10
576.5082962520563
 20
133.7724915669994
 30
0.0
 11
577.0442154415096
 21
133.7724915669994
 31
0.0
  0
LINE
  5
799E
330
8C52
100
AcDbEntity
  8
0
100
AcDbLine
 10
637.694228478701
 20
108.5224915669987
 30
0.0
 11
633.1263952105987
 21
121.0725098775464
 31
0.0
  0
LINE
  5
799F
330
8C52
100
AcDbEntity
  8
0
100
AcDbLine
 10
633.1263952105987
 20
121.0725098775464
 30
0.0
 11
615.5442154415096
 21
121.0725098775464
 31
0.0
  0
LINE
  5
79B0
330
8C52
100
AcDbEntity
  8
0
100
AcDbLine
 10
640.5442154415096
 20
159.0224915669994
 30
0.0
 11
640.5442154415096
 21
108.5224915669994
 31
0.0
  0
LINE
  5
79CB
330
8C52
100
AcDbEntity
  8
0
100
AcDbLine
 10
585.8696187661572
 20
219.0769192304944
 30
0.0
 11
585.8695938594641
 21
205.0725246992664
 31
0.0
  0
LINE
  5
79CC
330
8C52
100
AcDbEntity
  8
0
100
AcDbLine
 10
601.963002555194
 20
219.0768906085533
 30
0.0
 11
601.9629776485021
 21
205.0724960773251
 31
0.0
  0
LINE
  5
79CD
330
8C52
100
AcDbEntity
  8
0
100
AcDbLine
 10
599.3601334102585
 20
165.0725403951244
 30
0.0
 11
599.3601334102585
 21
143.2725220845775
 31
0.0
  0
LINE
  5
79D1
330
8C52
100
AcDbEntity
  8
0
100
AcDbLine
 10
520.9620065852082
 20
146.4725037740315
 30
0.0
 11
520.9620065852082
 21
121.0724793599682
 31
0.0
  0
LINE
  5
79D2
330
8C52
100
AcDbEntity
  8
0
100
AcDbLine
 10
633.1263926119332
 20
146.4725037740315
 30
0.0
 11
633.1263952105987
 21
121.0725098775464
 31
0.0
  0
LINE
  5
79D3
330
8C52
100
AcDbEntity
  8
0
100
AcDbLine
 10
376.7587234981533
 20
310.0595931889053
 30
0.0
 11
402.1587173946381
 21
310.0596272156123
 31
0.0
  0
LINE
  5
79D4
330
8C52
100
AcDbEntity
  8
0
100
AcDbLine
 10
376.7587234981533
 20
422.2240199005208
 30
0.0
 11
402.1587173946381
 21
422.2240142904247
 31
0.0
  0
LINE
  5
79D5
330
8C52
100
AcDbEntity
  8
0
100
AcDbLine
 10
427.9587051876069
 20
143.2725220845775
 30
0.0
 11
412.8534037358912
 21
143.2725220845775
 31
0.0
  0
LINE
  5
79D6
330
8C52
100
AcDbEntity
  8
0
100
AcDbLine
 10
420.6545300280121
 20
219.0769349263744
 30
0.0
 11
358.2628803472002
 21
219.0769349263744
 31
0.0
  0
LINE
  5
79D7
330
8C52
100
AcDbEntity
  8
0
100
AcDbLine
 10
427.9587051876069
 20
157.0725403951244
 30
0.0
 11
399.1885677049854
 21
157.0725403951244
 31
0.0
  0
LINE
  5
79D8
330
8C52
100
AcDbEntity
  8
0
100
AcDbLine
 10
372.9587051876068
 20
182.1725464986393
 30
0.0
 11
405.9587051876069
 21
182.1725464986393
 31
0.0
  0
LINE
  5
79D9
330
8C52
100
AcDbEntity
  8
0
100
AcDbLine
 10
424.458705187606
 20
205.0725403951243
 30
0.0
 11
354.4587051876059
 21
205.0725403951243
 31
0.0
  0
ARC
  5
79DA
330
8C52
100
AcDbEntity
  8
0
100
AcDbCircle
 10
389.458705187606
 20
92.87542735801523
 30
0.0
 40
130.0
100
AcDbArc
 50
74.38150172435125
 51
84.03922560920607
  0
LINE
  5
79DB
330
8C52
100
AcDbEntity
  8
0
100
AcDbLine
 10
405.958656990538
 20
177.9725648091861
 30
0.0
 11
372.9587051876068
 21
177.9725648091861
 31
0.0
  0
LINE
  5
79DC
330
8C52
100
AcDbEntity
  8
0
100
AcDbLine
 10
427.9587051876069
 20
165.0725403951244
 30
0.0
 11
350.9587051876059
 21
165.0725403951244
 31
0.0
  0
LINE
  5
79DF
330
8C52
100
AcDbEntity
  8
0
100
AcDbLine
 10
350.9587051876059
 20
165.0725403951244
 30
0.0
 11
350.9587051876059
 21
119.2724915669993
 31
0.0
  0
LINE
  5
79E3
330
8C52
100
AcDbEntity
  8
0
100
AcDbLine
 10
372.9587051876068
 20
205.0725403951243
 30
0.0
 11
372.9587051876068
 21
182.1725464986393
 31
0.0
  0
LINE
  5
79E4
330
8C52
100
AcDbEntity
  8
0
100
AcDbLine
 10
398.2841085122558
 20
219.0769192304944
 30
0.0
 11
398.2840836055619
 21
205.0725246992664
 31
0.0
  0
LINE
  5
79E5
330
8C52
100
AcDbEntity
  8
0
100
AcDbLine
 10
364.5399429805751
 20
219.0769349263744
 30
0.0
 11
364.5399429805751
 21
205.0725403951243
 31
0.0
  0
LINE
  5
79E6
330
8C52
100
AcDbEntity
  8
0
100
AcDbLine
 10
380.6333267696381
 20
219.0769349263744
 30
0.0
 11
380.6333267696381
 21
205.0725403951243
 31
0.0
  0
LINE
  5
79E7
330
8C52
100
AcDbEntity
  8
0
100
AcDbLine
 10
402.9588897024563
 20
222.1725464986393
 30
0.0
 11
375.9585206727564
 21
222.1725464986393
 31
0.0
  0
ARC
  5
79E8
330
8C52
100
AcDbEntity
  8
0
100
AcDbCircle
 10
389.458705187606
 20
92.87542735801523
 30
0.0
 40
130.0
100
AcDbArc
 50
95.96067375894705
 51
105.6184982756485
  0
LINE
  5
79E9
330
8C52
100
AcDbEntity
  8
0
100
AcDbLine
 10
354.4587051876059
 20
218.0752676135041
 30
0.0
 11
354.4587051876059
 21
205.0725403951243
 31
0.0
  0
LINE
  5
79ED
330
8C52
100
AcDbEntity
  8
0
100
AcDbLine
 10
360.5588028438568
 20
173.4593699848335
 30
0.0
 11
360.5588028438559
 21
165.0725403951234
 31
0.0
  0
LINE
  5
79EE
330
8C52
100
AcDbEntity
  8
0
100
AcDbLine
 10
378.4587051876068
 20
177.9725648091861
 30
0.0
 11
378.4587051876068
 21
182.1725464986393
 31
0.0
  0
LINE
  5
79EF
330
8C52
100
AcDbEntity
  8
0
100
AcDbLine
 10
400.4587051876059
 20
177.9725648091861
 30
0.0
 11
400.4587051876059
 21
182.1725464986393
 31
0.0
  0
LINE
  5
79F0
330
8C52
100
AcDbEntity
  8
0
100
AcDbLine
 10
372.9586907254223
 20
177.9725602435711
 30
0.0
 11
360.5588028438568
 21
173.4593699848335
 31
0.0
  0
LINE
  5
79F1
330
8C52
100
AcDbEntity
  8
0
100
AcDbLine
 10
367.1427872188568
 20
165.0725403951244
 30
0.0
 11
367.1427872188568
 21
145.5861406735234
 31
0.0
  0
LINE
  5
79F8
330
8C52
100
AcDbEntity
  8
0
100
AcDbLine
 10
350.9486649044033
 20
119.2724915669993
 30
0.0
 11
368.7871667833191
 21
119.2724915669993
 31
0.0
  0
LINE
  5
79FB
330
8C52
100
AcDbEntity
  8
0
100
AcDbLine
 10
427.9587051876069
 20
165.0725403951244
 30
0.0
 11
427.9587051876069
 21
119.2724915669993
 31
0.0
  0
LINE
  5
79FD
330
8C52
100
AcDbEntity
  8
0
100
AcDbLine
 10
405.9587051876069
 20
205.0725403951243
 30
0.0
 11
405.9587051876069
 21
182.1725464986393
 31
0.0
  0
LINE
  5
79FE
330
8C52
100
AcDbEntity
  8
0
100
AcDbLine
 10
414.3774923012919
 20
219.0768906085533
 30
0.0
 11
414.3774673945985
 21
205.0724960773251
 31
0.0
  0
LINE
  5
79FF
330
8C52
100
AcDbEntity
  8
0
100
AcDbLine
 10
424.458705187606
 20
218.0752676135041
 30
0.0
 11
424.458705187606
 21
205.0725403951243
 31
0.0
  0
LINE
  5
7A00
330
8C52
100
AcDbEntity
  8
0
100
AcDbLine
 10
418.3586075313568
 20
173.4593517443455
 30
0.0
 11
418.3586075313568
 21
165.0725403951244
 31
0.0
  0
LINE
  5
7A01
330
8C52
100
AcDbEntity
  8
0
100
AcDbLine
 10
405.958656990538
 20
177.9725648091861
 30
0.0
 11
418.3586075313568
 21
173.4593517443455
 31
0.0
  0
LINE
  5
7A02
330
8C52
100
AcDbEntity
  8
0
100
AcDbLine
 10
411.7746231563568
 20
165.0725403951244
 30
0.0
 11
411.7746231563568
 21
145.5861406735234
 31
0.0
  0
LINE
  5
7A09
330
8C52
100
AcDbEntity
  8
0
100
AcDbLine
 10
427.9587051876069
 20
119.2724915669993
 30
0.0
 11
410.1302435918942
 21
119.2724915669993
 31
0.0
  0
CIRCLE
  5
7A0A
330
8C52
100
AcDbEntity
  8
0
100
AcDbCircle
 10
389.458705187606
 20
133.7724915670013
 30
0.0
 40
25.25
  0
CIRCLE
  5
7A0B
330
8C52
100
AcDbEntity
  8
0
100
AcDbCircle
 10
389.458705187606
 20
133.7724915670013
 30
0.0
 40
12.70001220703125
  0
LINE
  5
7A0D
330
8C52
100
AcDbEntity
  8
0
100
AcDbLine
 10
366.064006639322
 20
143.2725220845775
 30
0.0
 11
350.9587051876059
 21
143.2725220845775
 31
0.0
  0
LINE
  5
7A0E
330
8C52
100
AcDbEntity
  8
0
100
AcDbLine
 10
379.7288426702265
 20
157.0725403951244
 30
0.0
 11
350.9587051876059
 21
157.0725403951244
 31
0.0
  0
LINE
  5
8D1B
330
8C52
100
AcDbEntity
  8
0
  6
CENTER
100
AcDbLine
 10
438.9085307278398
 20
366.1418142686185
 30
0.0
 11
340.008879647372
 21
366.1418142686183
 31
0.0
  0
LINE
  5
8D1C
330
8C52
100
AcDbEntity
  8
0
  6
CENTER
100
AcDbLine
 10
389.4587051876058
 20
291.8403356954217
 30
0.0
 11
389.4587051876058
 21
440.4432928418151
 31
0.0
  0
LINE
  5
8D1D
330
8C52
100
AcDbEntity
  8
0
  6
CENTER
100
AcDbLine
 10
420.2898366491917
 20
133.7724915670015
 30
0.0
 11
358.6275737260202
 21
133.7724915670012
 31
0.0
  0
LINE
  5
8D1E
330
8C52
100
AcDbEntity
  8
0
  6
CENTER
100
AcDbLine
 10
389.458705187606
 20
104.905711349748
 30
0.0
 11
389.458705187606
 21
238.8045734413582
 31
0.0
  0
LINE
  5
8D1F
330
8C52
100
AcDbEntity
  8
0
  6
CENTER
100
AcDbLine
 10
651.8300169318917
 20
133.7724915669994
 30
0.0
 11
502.2583657540594
 21
133.7724915669994
 31
0.0
  0
LINE
  5
8D20
330
8C52
100
AcDbEntity
  8
0
  6
CENTER
100
AcDbLine
 10
577.0441913429756
 20
119.7973935100955
 30
0.0
 11
577.0441913429756
 21
225.9721508431135
 31
0.0
  0
LINE
  5
8EDA
330
8C52
100
AcDbEntity
  8
Visible (ISO)
100
AcDbLine
 10
1193.443533033192
 20
198.3917857699241
 30
0.0
 11
1204.605374390379
 21
205.6403703013472
 31
0.0
  0
LINE
  5
8EDB
330
8C52
100
AcDbEntity
  8
Visible (ISO)
100
AcDbLine
 10
1201.768903923656
 20
185.5718388249385
 30
0.0
 11
1193.443533033192
 21
198.391785769925
 31
0.0
  0
LINE
  5
8EDC
330
8C52
100
AcDbEntity
  8
Visible (ISO)
100
AcDbLine
 10
1212.930745280843
 20
192.8204233563608
 30
0.0
 11
1201.768903923656
 21
185.5718388249376
 31
0.0
  0
SPLINE
  5
8EDD
330
8C52
100
AcDbEntity
  8
Visible (ISO)
100
AcDbSpline
210
0.0
220
0.0
230
1.0
 70
     8
 71
     3
 72
    18
 73
    14
 74
     0
 42
0.0000000001
 43
0.0000000001
 40
4.878907132466681
 40
4.878907132466681
 40
4.878907132466681
 40
4.878907132466681
 40
5.100268441792191
 40
5.100268441792191
 40
5.465460057973961
 40
5.465460057973961
 40
5.830651674155731
 40
5.830651674155731
 40
6.195843290337501
 40
6.195843290337501
 40
6.561034906519272
 40
6.561034906519272
 40
6.78239621584478
 40
6.78239621584478
 40
6.78239621584478
 40
6.78239621584478
 10
1204.605374390379
 20
205.6403703013472
 30
0.0
 10
1205.109593141956
 20
205.085452140506
 30
0.0
 10
1205.612546017157
 20
204.5156150050422
 30
0.0
 10
1206.877455236718
 20
203.0409811545357
 30
0.0
 10
1207.718270076619
 20
202.01427881032
 30
0.0
 10
1209.273474953608
 20
199.9802616605545
 30
0.0
 10
1209.986910319982
 20
198.9722825267433
 30
0.0
 10
1211.135246203454
 20
197.2040003330928
 30
0.0
 10
1211.658520088232
 20
196.3076142206316
 30
0.0
 10
1212.438497385958
 20
194.7457661554278
 30
0.0
 10
1212.696304509359
 20
194.0807390298766
 30
0.0
 10
1212.901046639774
 20
193.2923082575332
 30
0.0
 10
1212.939422649169
 20
193.0285720097069
 30
0.0
 10
1212.930745280843
 20
192.8204233563608
 30
0.0
  0
LINE
  5
8EDE
330
8C52
100
AcDbEntity
  8
Visible (ISO)
100
AcDbLine
 10
1199.544857129553
 20
213.4328835300727
 30
0.0
 11
1188.383015772366
 21
206.1842989986496
 31
0.0
  0
SPLINE
  5
8EDF
330
8C52
100
AcDbEntity
  8
Visible (ISO)
100
AcDbSpline
210
0.0
220
0.0
230
1.0
 70
     8
 71
     3
 72
    12
 73
     8
 74
     0
 42
0.0000000001
 43
0.0000000001
 40
5.830651674155729
 40
5.830651674155729
 40
5.830651674161957
 40
5.830651674161957
 40
6.195843290337499
 40
6.195843290337499
 40
6.561034906519269
 40
6.561034906519269
 40
6.78239621584478
 40
6.78239621584478
 40
6.78239621584478
 40
6.78239621584478
 10
1202.391492736493
 20
210.668199949099
 30
0.0
 10
1202.391492736488
 20
210.6681999491045
 30
0.0
 10
1202.242721711517
 20
210.8066722472729
 30
0.0
 10
1201.632292412268
 20
211.3858625862137
 30
0.0
 10
1201.171717586978
 20
211.8270466540868
 30
0.0
 10
1200.327675044585
 20
212.6536026539868
 30
0.0
 10
1199.956573235072
 20
213.0204069529552
 30
0.0
 10
1199.544857129553
 20
213.4328835300727
 30
0.0
  0
LINE
  5
8EE0
330
8C52
100
AcDbEntity
  8
Visible (ISO)
100
AcDbLine
 10
1225.275826596598
 20
149.3743521937756
 30
0.0
 11
1236.437667953785
 21
156.6229367251978
 31
0.0
  0
SPLINE
  5
8EE1
330
8C52
100
AcDbEntity
  8
Visible (ISO)
100
AcDbSpline
210
0.0
220
0.0
230
1.0
 70
     8
 71
     3
 72
    12
 73
     8
 74
     0
 42
0.0000000001
 43
0.0000000001
 40
4.878907132466679
 40
4.878907132466679
 40
4.878907132466679
 40
4.878907132466679
 40
5.100268441792188
 40
5.100268441792188
 40
5.465460057973958
 40
5.465460057973958
 40
5.830651674155729
 40
5.830651674155729
 40
5.830651674162005
 40
5.830651674162005
 10
1236.437667953785
 20
156.6229367251978
 30
0.0
 10
1236.228311877035
 20
157.1668274415576
 30
0.0
 10
1236.044160180108
 20
157.6550385631897
 30
0.0
 10
1235.632366731219
 20
158.7623004065642
 30
0.0
 10
1235.416657688352
 20
159.3625021728564
 30
0.0
 10
1235.135824949113
 20
160.1557350205673
 30
0.0
 10
1235.069834837394
 20
160.3479658723733
 30
0.0
 10
1235.069834837394
 20
160.3479658723733
 30
0.0
  0
LINE
  5
8EE2
330
8C52
100
AcDbEntity
  8
Visible (ISO)
100
AcDbLine
 10
1228.523314869052
 20
175.7706004277058
 30
0.0
 11
1213.818060923646
 21
198.4147057622319
 31
0.0
  0
LINE
  5
8EE3
330
8C52
100
AcDbEntity
  8
Visible (ISO)
100
AcDbLine
 10
1223.051779802496
 20
177.2353968989107
 30
0.0
 11
1212.930745280843
 21
192.8204233563608
 31
0.0
  0
LINE
  5
8EE4
330
8C52
100
AcDbEntity
  8
Visible (ISO)
100
AcDbLine
 10
1236.437667953785
 20
156.6229367251987
 30
0.0
 11
1231.377150692959
 21
164.4154499539233
 31
0.0
  0
LINE
  5
8EE5
330
8C52
100
AcDbEntity
  8
Visible (ISO)
100
AcDbLine
 10
1204.605374390379
 20
205.6403703013482
 30
0.0
 11
1199.544857129553
 21
213.4328835300727
 31
0.0
  0
LINE
  5
8EE6
330
8C52
100
AcDbEntity
  8
Visible (ISO)
100
AcDbLine
 10
1211.889938445309
 20
169.9868123674875
 30
0.0
 11
1201.768903923656
 21
185.5718388249376
 31
0.0
  0
LINE
  5
8EE7
330
8C52
100
AcDbEntity
  8
Visible (ISO)
100
AcDbLine
 10
1225.275826596598
 20
149.3743521937756
 30
0.0
 11
1220.215309335772
 21
157.1668654225011
 31
0.0
  0
LINE
  5
8EE8
330
8C52
100
AcDbEntity
  8
Visible (ISO)
100
AcDbLine
 10
1185.505387530952
 20
131.73752731744
 30
0.0
 11
1156.094879640141
 21
177.025737986494
 31
0.0
  0
LINE
  5
8EE9
330
8C52
100
AcDbEntity
  8
Visible (ISO)
100
AcDbLine
 10
1184.538469821347
 20
150.187416300201
 30
0.0
 11
1172.556411051017
 21
168.6381687950004
 31
0.0
  0
LINE
  5
8EEA
330
8C52
100
AcDbEntity
  8
Visible (ISO)
100
AcDbLine
 10
1195.771738688334
 20
150.9243882882544
 30
0.0
 11
1177.798650532838
 21
178.6005170304531
 31
0.0
  0
LINE
  5
8EEB
330
8C52
100
AcDbEntity
  8
Visible (ISO)
100
AcDbLine
 10
1193.443533033192
 20
198.391785769925
 30
0.0
 11
1188.383015772366
 21
206.1842989986496
 31
0.0
  0
LINE
  5
8EEC
330
8C52
100
AcDbEntity
  8
Visible (ISO)
100
AcDbLine
 10
1228.523314869052
 20
175.7706004277058
 30
0.0
 11
1235.069834837394
 21
160.3479658723733
 31
0.0
  0
LINE
  5
8EED
330
8C52
100
AcDbEntity
  8
Visible (ISO)
100
AcDbLine
 10
1213.818060923646
 20
198.4147057622319
 30
0.0
 11
1202.391492736493
 21
210.668199949099
 31
0.0
  0
LINE
  5
8EEE
330
8C52
100
AcDbEntity
  8
Visible (ISO)
100
AcDbLine
 10
1150.609974125778
 20
173.4637986974955
 30
0.0
 11
1156.094879640141
 21
177.0257379864931
 31
0.0
  0
LINE
  5
8EEF
330
8C52
100
AcDbEntity
  8
Visible (ISO)
100
AcDbLine
 10
1180.020482016589
 20
128.1755880284415
 30
0.0
 11
1185.505387530952
 21
131.73752731744
 31
0.0
  0
LINE
  5
8EF0
330
8C52
100
AcDbEntity
  8
Visible (ISO)
100
AcDbLine
 10
1184.538469821347
 20
150.187416300201
 30
0.0
 11
1185.505387530952
 21
131.73752731744
 31
0.0
  0
LINE
  5
8EF1
330
8C52
100
AcDbEntity
  8
Visible (ISO)
100
AcDbLine
 10
1172.556411051017
 20
168.6381687950004
 30
0.0
 11
1156.094879640141
 21
177.0257379864931
 31
0.0
  0
LINE
  5
8EF2
330
8C52
100
AcDbEntity
  8
Visible (ISO)
100
AcDbLine
 10
1172.556411051017
 20
168.6381687950004
 30
0.0
 11
1180.794165225422
 21
173.9878289067526
 31
0.0
  0
LINE
  5
8EF3
330
8C52
100
AcDbEntity
  8
Visible (ISO)
100
AcDbLine
 10
1184.538469821347
 20
150.187416300201
 30
0.0
 11
1192.776223995752
 21
155.5370764119541
 31
0.0
  0
LINE
  5
8EF4
330
8C52
100
AcDbEntity
  8
Visible (ISO)
100
AcDbLine
 10
1177.798650532838
 20
178.6005170304531
 30
0.0
 11
1197.842877106734
 21
191.6173899673119
 31
0.0
  0
LINE
  5
8EF5
330
8C52
100
AcDbEntity
  8
0
  6
CENTER
100
AcDbLine
 10
1112.609232292973
 20
116.5920194975649
 30
0.0
 11
1234.910386355199
 21
196.0153176023902
 31
0.0
  0
LINE
  5
8EF6
330
8C52
100
AcDbEntity
  8
Visible (ISO)
100
AcDbLine
 10
1195.771738688334
 20
150.9243882882544
 30
0.0
 11
1215.81596526223
 21
163.9412612251123
 31
0.0
  0
SPLINE
  5
8EF7
330
8C52
100
AcDbEntity
  8
Visible (ISO)
100
AcDbSpline
210
0.0
220
0.0
230
1.0
 70
     8
 71
     3
 72
    18
 73
    14
 74
     0
 42
0.0000000001
 43
0.0000000001
 40
4.878907132466679
 40
4.878907132466679
 40
4.878907132466679
 40
4.878907132466679
 40
5.100268441792187
 40
5.100268441792187
 40
5.465460057973958
 40
5.465460057973958
 40
5.830651674155728
 40
5.830651674155728
 40
6.195843290337498
 40
6.195843290337498
 40
6.561034906519268
 40
6.561034906519268
 40
6.782396215844778
 40
6.782396215844778
 40
6.782396215844778
 40
6.782396215844778
 10
1223.051779802495
 20
177.2353968989098
 30
0.0
 10
1223.245462462938
 20
177.1586623848067
 30
0.0
 10
1223.470788584919
 20
177.0163329596432
 30
0.0
 10
1224.107779808838
 20
176.5086080307735
 30
0.0
 10
1224.610452714661
 20
176.0025986036414
 30
0.0
 10
1225.720026572403
 20
174.654793047204
 30
0.0
 10
1226.326081370433
 20
173.8121654883796
 30
0.0
 10
1227.474417253904
 20
172.0438832947309
 30
0.0
 10
1228.105071707026
 20
170.9821456072811
 30
0.0
 10
1229.330680024
 20
168.7340859487501
 30
0.0
 10
1229.926629081479
 20
167.5483659061153
 30
0.0
 10
1230.759289207536
 20
165.7930262121351
 30
0.0
 10
1231.075291970151
 20
165.1017822540077
 30
0.0
 10
1231.377150692959
 20
164.4154499539233
 30
0.0
  0
LINE
  5
8EF8
330
8C52
100
AcDbEntity
  8
Visible (ISO)
100
AcDbLine
 10
1211.889938445308
 20
169.9868123674875
 30
0.0
 11
1223.051779802495
 21
177.2353968989098
 31
0.0
  0
LINE
  5
8EF9
330
8C52
100
AcDbEntity
  8
Visible (ISO)
100
AcDbLine
 10
1231.377150692959
 20
164.4154499539233
 30
0.0
 11
1220.215309335771
 21
157.1668654225002
 31
0.0
  0
LINE
  5
8EFA
330
8C52
100
AcDbEntity
  8
Visible (ISO)
100
AcDbLine
 10
1220.215309335771
 20
157.1668654225011
 30
0.0
 11
1211.889938445308
 21
169.9868123674875
 31
0.0
  0
LINE
  5
8EFB
330
8C52
100
AcDbEntity
  8
Visible (ISO)
100
AcDbLine
 10
1134.290536898763
 20
158.5670179112164
 30
0.0
 11
1126.063606841895
 21
171.2353792655392
 31
0.0
  0
LINE
  5
8EFC
330
8C52
100
AcDbEntity
  8
Visible (ISO)
100
AcDbLine
 10
1168.000812538052
 20
106.6577455337426
 30
0.0
 11
1159.773882481184
 21
119.3261068880653
 31
0.0
  0
LINE
  5
8EFD
330
8C52
100
AcDbEntity
  8
Visible (ISO)
100
AcDbLine
 10
1137.637260679541
 20
178.7513979487464
 30
0.0
 11
1146.451745876629
 21
165.1782810196889
 31
0.0
  0
LINE
  5
8EFE
330
8C52
100
AcDbEntity
  8
Visible (ISO)
100
AcDbLine
 10
1170.759981178611
 20
127.7468811460073
 30
0.0
 11
1163.905190143257
 21
138.3023336956182
 31
0.0
  0
LINE
  5
8EFF
330
8C52
100
AcDbEntity
  8
Visible (ISO)
100
AcDbLine
 10
1153.306536911982
 20
154.6228284700789
 30
0.0
 11
1146.451745876629
 21
165.1782810196889
 31
0.0
  0
LINE
  5
8F00
330
8C52
100
AcDbEntity
  8
Visible (ISO)
100
AcDbLine
 10
1170.75998117861
 20
127.7468811460073
 30
0.0
 11
1179.574466375699
 21
114.1737642169498
 31
0.0
  0
LINE
  5
8F01
330
8C52
100
AcDbEntity
  8
Visible (ISO)
100
AcDbLine
 10
1146.451745876629
 20
165.1782810196889
 30
0.0
 11
1136.818488363334
 21
158.9223704433286
 31
0.0
  0
LINE
  5
8F02
330
8C52
100
AcDbEntity
  8
Visible (ISO)
100
AcDbLine
 10
1137.637260679541
 20
178.7513979487464
 30
0.0
 11
1126.063606841894
 21
171.2353792655392
 31
0.0
  0
LINE
  5
8F03
330
8C52
100
AcDbEntity
  8
Visible (ISO)
100
AcDbLine
 10
1170.759981178611
 20
127.7468811460073
 30
0.0
 11
1161.126723665315
 21
121.4909705696461
 31
0.0
  0
LINE
  5
8F04
330
8C52
100
AcDbEntity
  8
Visible (ISO)
100
AcDbLine
 10
1179.574466375699
 20
114.1737642169498
 30
0.0
 11
1168.000812538052
 21
106.6577455337426
 31
0.0
  0
LINE
  5
8F05
330
8C52
100
AcDbEntity
  8
Visible (ISO)
100
AcDbLine
 10
1122.962508245103
 20
164.4433580537822
 30
0.0
 11
1128.10733421209
 21
156.5210208022942
 31
0.0
  0
LINE
  5
8F06
330
8C52
100
AcDbEntity
  8
Visible (ISO)
100
AcDbLine
 10
1122.962508245103
 20
164.4433580537822
 30
0.0
 11
1128.246132823159
 21
167.8745839743767
 31
0.0
  0
LINE
  5
8F07
330
8C52
100
AcDbEntity
  8
Visible (ISO)
100
AcDbLine
 10
1130.872541124434
 20
157.6565605397024
 30
0.0
 11
1133.692523173309
 21
159.4878782949215
 31
0.0
  0
LINE
  5
8F08
330
8C52
100
AcDbEntity
  8
Visible (ISO)
100
AcDbLine
 10
1160.534661978731
 20
106.5873149043106
 30
0.0
 11
1155.389836011744
 21
114.5096521557986
 31
0.0
  0
LINE
  5
8F09
330
8C52
100
AcDbEntity
  8
Visible (ISO)
100
AcDbLine
 10
1165.818286556788
 20
110.0185408249051
 30
0.0
 11
1160.534661978732
 21
106.5873149043106
 31
0.0
  0
LINE
  5
8F0A
330
8C52
100
AcDbEntity
  8
Visible (ISO)
100
AcDbLine
 10
1160.371896206637
 20
118.4052465043603
 30
0.0
 11
1157.551914157762
 21
116.5739287491394
 31
0.0
  0
CIRCLE
  5
8F0B
330
8C52
100
AcDbEntity
  8
Visible (ISO)
100
AcDbCircle
 10
1139.064839294491
 20
133.7724915669985
 30
0.0
 40
25.24999999999998
  0
CIRCLE
  5
8F0C
330
8C52
100
AcDbEntity
  8
Visible (ISO)
100
AcDbCircle
 10
1139.064839294491
 20
133.7724915669985
 30
0.0
 40
11.49999999999999
  0
LINE
  5
8F0D
330
8C52
100
AcDbEntity
  8
Visible (ISO)
100
AcDbLine
 10
1185.445160351316
 20
117.9862374620549
 30
0.0
 11
1176.630675154229
 21
131.5593543911125
 31
0.0
  0
SPLINE
  5
8F0E
330
8C52
100
AcDbEntity
  8
Visible (ISO)
100
AcDbSpline
210
0.0
220
0.0
230
1.0
 70
    24
 71
     3
 72
     8
 73
     4
 74
     0
 42
0.0000000001
 43
0.0000000001
 40
-0.1439790587594044
 40
-0.1439790587594044
 40
-0.1439790587594044
 40
-0.1439790587594044
 40
0.0
 40
0.0
 40
0.0
 40
0.0
 10
1185.445160351317
 20
117.9862374620549
 30
0.0
 10
1185.543187583473
 20
118.4474193300072
 30
0.0
 10
1185.641206826689
 20
118.9085636129473
 30
0.0
 10
1185.739191884247
 20
119.3695470650152
 30
0.0
  0
LINE
  5
8F0F
330
8C52
100
AcDbEntity
  8
Visible (ISO)
100
AcDbLine
 10
1177.322017639281
 20
132.3308587791605
 30
0.0
 11
1185.739191884247
 21
119.3695470650152
 31
0.0
  0
SPLINE
  5
8F10
330
8C52
100
AcDbEntity
  8
Visible (ISO)
100
AcDbSpline
210
0.0
220
0.0
230
1.0
 70
     8
 71
     3
 72
     8
 73
     4
 74
     0
 42
0.0000000001
 43
0.0000000001
 40
-0.1439790587599179
 40
-0.1439790587599179
 40
-0.1439790587599179
 40
-0.1439790587599179
 40
0.0
 40
0.0
 40
0.0
 40
0.0
 10
1176.630675154229
 20
131.5593543911125
 30
0.0
 10
1176.861459659236
 20
131.8161079859053
 30
0.0
 10
1177.091931209135
 20
132.0732936024121
 30
0.0
 10
1177.322017639281
 20
132.3308587791605
 30
0.0
  0
SPLINE
  5
8F11
330
8C52
100
AcDbEntity
  8
Visible (ISO)
100
AcDbSpline
210
0.0
220
0.0
230
1.0
 70
    24
 71
     3
 72
     8
 73
     4
 74
     0
 42
0.0000000001
 43
0.0000000001
 40
-0.1439790587594307
 40
-0.1439790587594307
 40
-0.1439790587594307
 40
-0.1439790587594307
 40
0.0
 40
0.0
 40
0.0
 40
0.0
 10
1143.50795465516
 20
182.5638711938515
 30
0.0
 10
1143.969136523112
 20
182.4658439616957
 30
0.0
 10
1144.430280806053
 20
182.3678247184805
 30
0.0
 10
1144.89126425812
 20
182.2698396609228
 30
0.0
  0
LINE
  5
8F12
330
8C52
100
AcDbEntity
  8
Visible (ISO)
100
AcDbLine
 10
1152.322439852246
 20
168.990754264794
 30
0.0
 11
1143.507954655159
 21
182.5638711938515
 31
0.0
  0
SPLINE
  5
8F13
330
8C52
100
AcDbEntity
  8
Visible (ISO)
100
AcDbSpline
210
0.0
220
0.0
230
1.0
 70
     8
 71
     3
 72
     8
 73
     4
 74
     0
 42
0.0000000001
 43
0.0000000001
 40
-0.1439790587594705
 40
-0.1439790587594705
 40
-0.1439790587594705
 40
-0.1439790587594705
 40
0.0
 40
0.0
 40
0.0
 40
0.0
 10
1152.322439852247
 20
168.990754264794
 30
0.0
 10
1152.650864447347
 20
169.0971553057959
 30
0.0
 10
1152.979556423606
 20
169.2030947290147
 30
0.0
 10
1153.308438503086
 20
169.3085279467766
 30
0.0
  0
LINE
  5
8F14
330
8C52
100
AcDbEntity
  8
Visible (ISO)
100
AcDbLine
 10
1144.89126425812
 20
182.2698396609228
 30
0.0
 11
1153.308438503086
 21
169.3085279467766
 31
0.0
  0
LINE
  5
8F15
330
8C52
100
AcDbEntity
  8
Visible (ISO)
100
AcDbLine
 10
1152.322439852247
 20
168.990754264794
 30
0.0
 11
1176.630675154229
 21
131.5593543911125
 31
0.0
  0
LINE
  5
8F16
330
8C52
100
AcDbEntity
  8
Visible (ISO)
100
AcDbLine
 10
1177.322017639281
 20
132.3308587791605
 30
0.0
 11
1153.308438503086
 21
169.3085279467766
 31
0.0
  0
LINE
  5
8F17
330
8C52
100
AcDbEntity
  8
Visible (ISO)
100
AcDbLine
 10
1138.475931247487
 20
179.2960369837617
 30
0.0
 11
1147.290416444575
 21
165.7229200547042
 31
0.0
  0
SPLINE
  5
8F18
330
8C52
100
AcDbEntity
  8
Visible (ISO)
100
AcDbSpline
210
0.0
220
0.0
230
1.0
 70
    24
 71
     3
 72
     8
 73
     4
 74
     0
 42
0.0000000001
 43
0.0000000001
 40
-0.1439790369032782
 40
-0.1439790369032782
 40
-0.1439790369032782
 40
-0.1439790369032782
 40
0.0
 40
0.0
 40
0.0
 40
0.0
 10
1179.029827340684
 20
115.0124347848948
 30
0.0
 10
1179.490810792753
 20
114.9144497273361
 30
0.0
 10
1179.951955075697
 20
114.81643048412
 30
0.0
 10
1180.413136943644
 20
114.7184032519651
 30
0.0
  0
SPLINE
  5
8F19
330
8C52
100
AcDbEntity
  8
Visible (ISO)
100
AcDbSpline
210
0.0
220
0.0
230
1.0
 70
    24
 71
     3
 72
     8
 73
     4
 74
     0
 42
0.0000000001
 43
0.0000000001
 40
-0.1439790369035114
 40
-0.1439790369035114
 40
-0.1439790369035114
 40
-0.1439790369035114
 40
0.0
 40
0.0
 40
0.0
 40
0.0
 10
1138.181899714556
 20
177.9127273808023
 30
0.0
 10
1138.279884772115
 20
178.3737108328712
 30
0.0
 10
1138.377904015331
 20
178.8348551158139
 30
0.0
 10
1138.475931247487
 20
179.2960369837617
 30
0.0
  0
SPLINE
  5
8F1A
330
8C52
100
AcDbEntity
  8
Visible (ISO)
100
AcDbSpline
210
0.0
220
0.0
230
1.0
 70
     8
 71
     3
 72
     8
 73
     4
 74
     0
 42
0.0000000001
 43
0.0000000001
 40
-0.1439790369046692
 40
-0.1439790369046692
 40
-0.1439790369046692
 40
-0.1439790369046692
 40
0.0
 40
0.0
 40
0.0
 40
0.0
 10
1146.599073959522
 20
164.9514156666571
 30
0.0
 10
1146.829160389669
 20
165.2089808434045
 30
0.0
 10
1147.059631939566
 20
165.4661664599104
 30
0.0
 10
1147.290416444575
 20
165.7229200547042
 30
0.0
  0
SPLINE
  5
8F1B
330
8C52
100
AcDbEntity
  8
Visible (ISO)
100
AcDbSpline
210
0.0
220
0.0
230
1.0
 70
     8
 71
     3
 72
     8
 73
     4
 74
     0
 42
0.0000000001
 43
0.0000000001
 40
-0.1439790369035114
 40
-0.1439790369035114
 40
-0.1439790369035114
 40
-0.1439790369035114
 40
0.0
 40
0.0
 40
0.0
 40
0.0
 10
1170.612653095718
 20
127.97374649904
 30
0.0
 10
1170.941535175199
 20
128.0791797168028
 30
0.0
 10
1171.27022715146
 20
128.1851191400217
 30
0.0
 10
1171.598651746557
 20
128.2915201810226
 30
0.0
  0
LINE
  5
8F1C
330
8C52
100
AcDbEntity
  8
Visible (ISO)
100
AcDbLine
 10
1171.598651746556
 20
128.2915201810226
 30
0.0
 11
1163.181269928402
 21
141.2531515298476
 31
0.0
  0
LINE
  5
8F1D
330
8C52
100
AcDbEntity
  8
Visible (ISO)
100
AcDbLine
 10
1155.707798262728
 20
152.7612887058792
 30
0.0
 11
1147.290416444575
 21
165.7229200547042
 31
0.0
  0
LINE
  5
8F1E
330
8C52
100
AcDbEntity
  8
Visible (ISO)
100
AcDbLine
 10
1171.598651746556
 20
128.2915201810226
 30
0.0
 11
1180.413136943644
 21
114.7184032519651
 31
0.0
  0
LINE
  5
8F1F
330
8C52
100
AcDbEntity
  8
Visible (ISO)
100
AcDbLine
 10
1143.50795465516
 20
182.5638711938515
 30
0.0
 11
1138.475931247487
 21
179.2960369837617
 31
0.0
  0
LINE
  5
8F20
330
8C52
100
AcDbEntity
  8
Visible (ISO)
100
AcDbLine
 10
1152.322439852247
 20
168.990754264794
 30
0.0
 11
1147.290416444574
 21
165.7229200547042
 31
0.0
  0
LINE
  5
8F21
330
8C52
100
AcDbEntity
  8
Visible (ISO)
100
AcDbLine
 10
1176.630675154229
 20
131.5593543911125
 30
0.0
 11
1171.598651746556
 21
128.2915201810226
 31
0.0
  0
LINE
  5
8F22
330
8C52
100
AcDbEntity
  8
Visible (ISO)
100
AcDbLine
 10
1185.445160351317
 20
117.9862374620549
 30
0.0
 11
1180.413136943644
 21
114.7184032519651
 31
0.0
  0
LINE
  5
8F23
330
8C52
100
AcDbEntity
  8
Visible (ISO)
100
AcDbLine
 10
1193.443533034261
 20
341.2230565951893
 30
0.0
 11
1204.605374391447
 21
341.2230565951911
 31
0.0
  0
ELLIPSE
  5
8F24
330
8C52
100
AcDbEntity
  8
Visible (ISO)
100
AcDbEllipse
 10
1195.392001450235
 20
329.7687473096955
 30
0.0
 11
-0.0000000000022742
 21
11.99999999999997
 31
0.0
210
0.0
220
0.0
230
1.0
 40
0.5446390350150274
 41
4.933256460695755
 42
5.980454011892358
  0
LINE
  5
8F25
330
8C52
100
AcDbEntity
  8
Visible (ISO)
100
AcDbLine
 10
1212.930745281912
 20
332.3976606619341
 30
0.0
 11
1201.768903924725
 21
332.3976606619323
 31
0.0
  0
SPLINE
  5
8F26
330
8C52
100
AcDbEntity
  8
Visible (ISO)
100
AcDbSpline
210
0.0
220
0.0
230
1.0
 70
     8
 71
     3
 72
    18
 73
    14
 74
     0
 42
0.0000000001
 43
0.0000000001
 40
4.878907132466681
 40
4.878907132466681
 40
4.878907132466681
 40
4.878907132466681
 40
5.100268441792191
 40
5.100268441792191
 40
5.465460057973961
 40
5.465460057973961
 40
5.830651674155731
 40
5.830651674155731
 40
6.195843290337501
 40
6.195843290337501
 40
6.561034906519272
 40
6.561034906519272
 40
6.78239621584478
 40
6.78239621584478
 40
6.78239621584478
 40
6.78239621584478
 10
1204.605374391447
 20
341.2230565951911
 30
0.0
 10
1205.109593143025
 20
341.454185214541
 30
0.0
 10
1205.612546018226
 20
341.6087162470719
 30
0.0
 10
1206.877455237787
 20
341.8282031489868
 30
0.0
 10
1207.718270077687
 20
341.7835766412151
 30
0.0
 10
1209.273474954677
 20
341.2544532646659
 30
0.0
 10
1209.98691032105
 20
340.7697048487459
 30
0.0
 10
1211.135246204523
 20
339.552399461472
 30
0.0
 10
1211.658520089301
 20
338.7261613832977
 30
0.0
 10
1212.438497387027
 20
336.7798506273254
 30
0.0
 10
1212.696304510427
 20
335.6598715055486
 30
0.0
 10
1212.901046640843
 20
333.8824654168463
 30
0.0
 10
1212.939422650237
 20
333.1540930744765
 30
0.0
 10
1212.930745281912
 20
332.3976606619341
 30
0.0
  0
LINE
  5
8F27
330
8C52
100
AcDbEntity
  8
Visible (ISO)
100
AcDbLine
 10
1188.383015773434
 20
374.9672102018982
 30
0.0
 11
1199.544857130622
 21
374.9672102019001
 31
0.0
  0
ELLIPSE
  5
8F28
330
8C52
100
AcDbEntity
  8
Visible (ISO)
100
AcDbEllipse
 10
1183.954581714919
 20
366.1418142686468
 30
0.0
 11
-0.0000000000029525
 21
11.99999999999996
 31
0.0
210
0.0
220
0.0
230
1.0
 40
0.5446390350150273
 41
3.886058909498821
 42
5.538719051269199
  0
LINE
  5
8F29
330
8C52
100
AcDbEntity
  8
Visible (ISO)
100
AcDbLine
 10
1199.544857130621
 20
357.3164183353935
 30
0.0
 11
1188.383015773434
 21
357.3164183353917
 31
0.0
  0
SPLINE
  5
8F2A
330
8C52
100
AcDbEntity
  8
Visible (ISO)
100
AcDbSpline
210
0.0
220
0.0
230
1.0
 70
     8
 71
     3
 72
    18
 73
    14
 74
     0
 42
0.0000000001
 43
0.0000000001
 40
4.87890713246668
 40
4.87890713246668
 40
4.87890713246668
 40
4.87890713246668
 40
5.100268441792188
 40
5.100268441792188
 40
5.465460057973958
 40
5.465460057973958
 40
5.830651674155729
 40
5.830651674155729
 40
6.195843290337499
 40
6.195843290337499
 40
6.561034906519269
 40
6.561034906519269
 40
6.78239621584478
 40
6.78239621584478
 40
6.78239621584478
 40
6.78239621584478
 10
1199.544857130622
 20
374.9672102019001
 30
0.0
 10
1199.956573236141
 20
374.4419064087076
 30
0.0
 10
1200.327675045654
 20
373.8680650988697
 30
0.0
 10
1201.171717588047
 20
372.3101459120823
 30
0.0
 10
1201.632292413336
 20
371.1455402825329
 30
0.0
 10
1202.242721712592
 20
368.6701061500132
 30
0.0
 10
1202.391492737562
 20
367.359119655918
 30
0.0
 10
1202.391492737562
 20
364.9245088813729
 30
0.0
 10
1202.242721712592
 20
363.6135223872786
 30
0.0
 10
1201.632292413336
 20
361.1380882547589
 30
0.0
 10
1201.171717588047
 20
359.9734826252104
 30
0.0
 10
1200.327675045654
 20
358.4155634384239
 30
0.0
 10
1199.956573236141
 20
357.841722128586
 30
0.0
 10
1199.544857130621
 20
357.3164183353935
 30
0.0
  0
LINE
  5
8F2B
330
8C52
100
AcDbEntity
  8
Visible (ISO)
100
AcDbLine
 10
1201.768903924725
 20
399.8859678753449
 30
0.0
 11
1212.930745281912
 21
399.8859678753476
 31
0.0
  0
ELLIPSE
  5
8F2C
330
8C52
100
AcDbEntity
  8
Visible (ISO)
100
AcDbEllipse
 10
1195.392001450235
 20
402.5148812275872
 30
0.0
 11
0.0000000000022746
 21
-11.99999999999996
 31
0.0
210
0.0
220
0.0
230
1.0
 40
0.5446390350150273
 41
0.3027312952865406
 42
1.349928846483196
  0
LINE
  5
8F2D
330
8C52
100
AcDbEntity
  8
Visible (ISO)
100
AcDbLine
 10
1204.605374391447
 20
391.060571942098
 30
0.0
 11
1193.443533034261
 21
391.0605719420962
 31
0.0
  0
SPLINE
  5
8F2E
330
8C52
100
AcDbEntity
  8
Visible (ISO)
100
AcDbSpline
210
0.0
220
0.0
230
1.0
 70
     8
 71
     3
 72
    18
 73
    14
 74
     0
 42
0.0000000001
 43
0.0000000001
 40
4.878907132466679
 40
4.878907132466679
 40
4.878907132466679
 40
4.878907132466679
 40
5.100268441792188
 40
5.100268441792188
 40
5.465460057973958
 40
5.465460057973958
 40
5.830651674155729
 40
5.830651674155729
 40
6.195843290337498
 40
6.195843290337498
 40
6.561034906519267
 40
6.561034906519267
 40
6.782396215844777
 40
6.782396215844777
 40
6.782396215844777
 40
6.782396215844777
 10
1212.930745281912
 20
399.8859678753476
 30
0.0
 10
1212.939422650237
 20
399.1295354628043
 30
0.0
 10
1212.901046640843
 20
398.4011631204355
 30
0.0
 10
1212.696304510428
 20
396.6237570317332
 30
0.0
 10
1212.438497387027
 20
395.5037779099573
 30
0.0
 10
1211.658520089301
 20
393.5574671539859
 30
0.0
 10
1211.135246204523
 20
392.7312290758115
 30
0.0
 10
1209.986910321051
 20
391.5139236885395
 30
0.0
 10
1209.273474954677
 20
391.0291752726195
 30
0.0
 10
1207.718270077688
 20
390.5000518960712
 30
0.0
 10
1206.877455237787
 20
390.4554253883004
 30
0.0
 10
1205.612546018226
 20
390.6749122902163
 30
0.0
 10
1205.109593143025
 20
390.8294433227472
 30
0.0
 10
1204.605374391447
 20
391.060571942098
 30
0.0
  0
LINE
  5
8F2F
330
8C52
100
AcDbEntity
  8
Visible (ISO)
100
AcDbLine
 10
1228.159668791761
 20
391.0605719420843
 30
0.0
 11
1231.377150694028
 21
391.0605719420852
 31
0.0
  0
SPLINE
  5
8F30
330
8C52
100
AcDbEntity
  8
Visible (ISO)
100
AcDbSpline
210
0.0
220
0.0
230
1.0
 70
     8
 71
     3
 72
    18
 73
    14
 74
     0
 42
0.0000000001
 43
0.0000000001
 40
4.878907132466678
 40
4.878907132466678
 40
4.878907132466678
 40
4.878907132466678
 40
5.100268441792186
 40
5.100268441792186
 40
5.465460057973956
 40
5.465460057973956
 40
5.830651674155726
 40
5.830651674155726
 40
6.195843290337496
 40
6.195843290337496
 40
6.561034906519267
 40
6.561034906519267
 40
6.782396215844777
 40
6.782396215844777
 40
6.782396215844777
 40
6.782396215844777
 10
1231.377150694028
 20
391.0605719420852
 30
0.0
 10
1231.075291971219
 20
390.8294433227354
 30
0.0
 10
1230.759289208605
 20
390.6749122902045
 30
0.0
 10
1229.926629082548
 20
390.4554253882904
 30
0.0
 10
1229.330680025069
 20
390.5000518960612
 30
0.0
 10
1228.105071708095
 20
391.0291752726104
 30
0.0
 10
1227.474417254974
 20
391.5139236885313
 30
0.0
 10
1226.326081371501
 20
392.7312290758043
 30
0.0
 10
1225.720026573473
 20
393.5574671539796
 30
0.0
 10
1224.61045271573
 20
395.5037779099518
 30
0.0
 10
1224.107779809907
 20
396.6237570317287
 30
0.0
 10
1223.470788585988
 20
398.4011631204309
 30
0.0
 10
1223.245462464006
 20
399.1295354627998
 30
0.0
 10
1223.051779803564
 20
399.8859678753431
 30
0.0
  0
SPLINE
  5
8F31
330
8C52
100
AcDbEntity
  8
Visible (ISO)
100
AcDbSpline
210
0.0
220
0.0
230
1.0
 70
     8
 71
     3
 72
    18
 73
    14
 74
     0
 42
0.0000000001
 43
0.0000000001
 40
4.878907132466679
 40
4.878907132466679
 40
4.878907132466679
 40
4.878907132466679
 40
5.100268441792188
 40
5.100268441792188
 40
5.465460057973958
 40
5.465460057973958
 40
5.830651674155729
 40
5.830651674155729
 40
6.195843290337499
 40
6.195843290337499
 40
6.561034906519269
 40
6.561034906519269
 40
6.78239621584478
 40
6.78239621584478
 40
6.78239621584478
 40
6.78239621584478
 10
1236.437667954853
 20
357.3164183353763
 30
0.0
 10
1236.228311878104
 20
357.8417221285697
 30
0.0
 10
1236.044160181177
 20
358.4155634384076
 30
0.0
 10
1235.632366732287
 20
359.9734826251949
 30
0.0
 10
1235.416657689421
 20
361.1380882547434
 30
0.0
 10
1235.135824950181
 20
363.613522387264
 30
0.0
 10
1235.069834838462
 20
364.9245088813584
 30
0.0
 10
1235.069834838462
 20
367.3591196559034
 30
0.0
 10
1235.135824950181
 20
368.6701061499977
 30
0.0
 10
1235.416657689421
 20
371.1455402825183
 30
0.0
 10
1235.632366732287
 20
372.3101459120659
 30
0.0
 10
1236.044160181177
 20
373.8680650988533
 30
0.0
 10
1236.228311878104
 20
374.4419064086903
 30
0.0
 10
1236.437667954853
 20
374.9672102018828
 30
0.0
  0
ELLIPSE
  5
8F32
330
8C52
100
AcDbEntity
  8
Visible (ISO)
100
AcDbEllipse
 10
1221.170687897418
 20
366.1418142686386
 30
0.0
 11
-0.000000000000041
 21
-13.49999999999996
 31
0.0
210
0.0
220
0.0
230
1.0
 40
0.5446390350150274
 41
0.0
 42
6.283185307179585
  0
ELLIPSE
  5
8F33
330
8C52
100
AcDbEntity
  8
Visible (ISO)
100
AcDbEllipse
 10
1217.991262542738
 20
366.1418142686386
 30
0.0
 11
0.0000000000066329
 21
-34.99999999999991
 31
0.0
210
0.0
220
0.0
230
1.0
 40
0.5446390350150274
 41
6.014492244660916
 42
6.55187836969752
  0
ELLIPSE
  5
8F34
330
8C52
100
AcDbEntity
  8
Visible (ISO)
100
AcDbEllipse
 10
1217.991262542738
 20
366.1418142686386
 30
0.0
 11
-0.0000000000086112
 21
34.9999999999999
 31
0.0
210
0.0
220
0.0
230
1.0
 40
0.5446390350150273
 41
3.920097142267485
 42
4.457483267304228
  0
ELLIPSE
  5
8F35
330
8C52
100
AcDbEntity
  8
Visible (ISO)
100
AcDbEllipse
 10
1217.991262542738
 20
366.1418142686386
 30
0.0
 11
-0.0000000000066315
 21
34.99999999999989
 31
0.0
210
0.0
220
0.0
230
1.0
 40
0.5446390350150274
 41
4.967294693464321
 42
5.504680818500976
  0
ELLIPSE
  5
8F36
330
8C52
100
AcDbEntity
  8
Visible (ISO)
100
AcDbEllipse
 10
1217.991262542738
 20
366.1418142686386
 30
0.0
 11
-0.0000000000066308
 21
34.99999999999992
 31
0.0
210
0.0
220
0.0
230
1.0
 40
0.5446390350150273
 41
6.014492244660916
 42
6.551878369697515
  0
ELLIPSE
  5
8F37
330
8C52
100
AcDbEntity
  8
Visible (ISO)
100
AcDbEllipse
 10
1217.991262542738
 20
366.1418142686386
 30
0.0
 11
0.0000000000086028
 21
-34.9999999999998
 31
0.0
210
0.0
220
0.0
230
1.0
 40
0.5446390350150275
 41
3.920097142267485
 42
4.457483267304229
  0
ELLIPSE
  5
8F38
330
8C52
100
AcDbEntity
  8
Visible (ISO)
100
AcDbEllipse
 10
1217.991262542738
 20
366.1418142686386
 30
0.0
 11
0.0000000000066322
 21
-34.99999999999985
 31
0.0
210
0.0
220
0.0
230
1.0
 40
0.5446390350150274
 41
4.967294693464321
 42
5.504680818500976
  0
ELLIPSE
  5
8F39
330
8C52
100
AcDbEntity
  8
Visible (ISO)
100
AcDbEllipse
 10
1206.829421185551
 20
366.1418142686359
 30
0.0
 11
0.0000000000066294
 21
-34.99999999999976
 31
0.0
210
0.0
220
0.0
230
1.0
 40
0.5446390350150274
 41
6.014492244660917
 42
6.283185307179201
  0
ELLIPSE
  5
8F3A
330
8C52
100
AcDbEntity
  8
Visible (ISO)
100
AcDbEllipse
 10
1206.829421185551
 20
366.1418142686359
 30
0.0
 11
0.0000000000001103
 21
34.99999999999973
 31
0.0
210
0.0
220
0.0
230
1.0
 40
0.5446390350150274
 41
0.0000000000017017
 42
0.2686930625199004
  0
ELLIPSE
  5
8F3B
330
8C52
100
AcDbEntity
  8
Visible (ISO)
100
AcDbEllipse
 10
1206.829421185551
 20
366.1418142686359
 30
0.0
 11
0.0000000000086015
 21
-34.99999999999983
 31
0.0
210
0.0
220
0.0
230
1.0
 40
0.5446390350150275
 41
3.920097142267485
 42
4.457483267304229
  0
ELLIPSE
  5
8F3C
330
8C52
100
AcDbEntity
  8
Visible (ISO)
100
AcDbEllipse
 10
1170.800133586615
 20
366.1418142686286
 30
0.0
 11
-0.0000000000051112
 21
26.9999999999999
 31
0.0
210
0.0
220
0.0
230
1.0
 40
0.5446390350150275
 41
5.30101281665152
 42
10.40695045129673
  0
ELLIPSE
  5
8F3D
330
8C52
100
AcDbEntity
  8
Visible (ISO)
100
AcDbEllipse
 10
1165.315228072252
 20
366.1418142686286
 30
0.0
 11
-0.000000000000083
 21
-26.99999999999992
 31
0.0
210
0.0
220
0.0
230
1.0
 40
0.5446390350150274
 41
3.141592653591458
 42
6.283185307181251
  0
ELLIPSE
  5
8F3E
330
8C52
100
AcDbEntity
  8
Visible (ISO)
100
AcDbEllipse
 10
1178.54744043725
 20
366.1418142686313
 30
0.0
 11
-0.0000000000000022
 21
10.99999999999996
 31
0.0
210
0.0
220
0.0
230
1.0
 40
0.5446390350150274
 41
0.0000000000016539
 42
3.141592653591446
  0
ELLIPSE
  5
8F3F
330
8C52
100
AcDbEntity
  8
Visible (ISO)
100
AcDbEllipse
 10
1186.785194611655
 20
366.1418142686323
 30
0.0
 11
0.0000000000000167
 21
16.49999999999994
 31
0.0
210
0.0
220
0.0
230
1.0
 40
0.5446390350150274
 41
0.0000000000017009
 42
3.141592653591493
  0
ELLIPSE
  5
8F40
330
8C52
100
AcDbEntity
  8
Visible (ISO)
100
AcDbEllipse
 10
1206.829421185551
 20
366.1418142686359
 30
0.0
 11
0.0000000000066315
 21
-34.99999999999983
 31
0.0
210
0.0
220
0.0
230
1.0
 40
0.5446390350150274
 41
4.967294693464321
 42
5.504680818500976
  0
ELLIPSE
  5
8F41
330
8C52
100
AcDbEntity
  8
Visible (ISO)
100
AcDbEllipse
 10
1221.170687897418
 20
366.1418142686386
 30
0.0
 11
-0.0000000000000205
 21
-6.749999999999981
 31
0.0
210
0.0
220
0.0
230
1.0
 40
0.5446390350150274
 41
0.0
 42
6.283185307179585
  0
ELLIPSE
  5
8F42
330
8C52
100
AcDbEntity
  8
Visible (ISO)
100
AcDbEllipse
 10
1219.996549102294
 20
366.1418142686386
 30
0.0
 11
0.0000000000012792
 21
-6.749999999999978
 31
0.0
210
0.0
220
0.0
230
1.0
 40
0.5446390350150273
 41
0.1603763111413789
 42
2.981216342447714
  0
LINE
  5
8F43
330
8C52
100
AcDbEntity
  8
Visible (ISO)
100
AcDbLine
 10
1206.829421185551
 20
331.1418142686359
 30
0.0
 11
1217.991262542738
 21
331.1418142686377
 31
0.0
  0
LINE
  5
8F44
330
8C52
100
AcDbEntity
  8
Visible (ISO)
100
AcDbLine
 10
1206.829421185551
 20
401.1418142686359
 30
0.0
 11
1217.991262542738
 21
401.1418142686386
 31
0.0
  0
LINE
  5
8F45
330
8C52
100
AcDbEntity
  8
Visible (ISO)
100
AcDbLine
 10
1165.315228072252
 20
393.1418142686277
 30
0.0
 11
1170.800133586616
 21
393.1418142686295
 31
0.0
  0
LINE
  5
8F46
330
8C52
100
AcDbEntity
  8
Visible (ISO)
100
AcDbLine
 10
1165.315228072252
 20
339.1418142686286
 30
0.0
 11
1170.800133586615
 21
339.1418142686295
 31
0.0
  0
LINE
  5
8F47
330
8C52
100
AcDbEntity
  8
Visible (ISO)
100
AcDbLine
 10
1178.54744043725
 20
377.1418142686314
 30
0.0
 11
1180.087020131441
 21
377.1418142686314
 31
0.0
  0
LINE
  5
8F48
330
8C52
100
AcDbEntity
  8
Visible (ISO)
100
AcDbLine
 10
1178.54744043725
 20
355.1418142686304
 30
0.0
 11
1180.087020131441
 21
355.1418142686313
 31
0.0
  0
LINE
  5
8F49
330
8C52
100
AcDbEntity
  8
Visible (ISO)
100
AcDbLine
 10
1186.785194611655
 20
382.6418142686323
 30
0.0
 11
1190.018239440808
 21
382.6418142686332
 31
0.0
  0
LINE
  5
8F4A
330
8C52
100
AcDbEntity
  8
0
  6
CENTER
100
AcDbLine
 10
1120.340804473705
 20
366.1418142686132
 30
0.0
 11
1228.117320785398
 21
366.1418142686441
 31
0.0
  0
LINE
  5
8F4B
330
8C52
100
AcDbEntity
  8
Visible (ISO)
100
AcDbLine
 10
1186.785194611655
 20
349.6418142686323
 30
0.0
 11
1190.018239440808
 21
349.6418142686331
 31
0.0
  0
SPLINE
  5
8F4C
330
8C52
100
AcDbEntity
  8
Visible (ISO)
100
AcDbSpline
210
0.0
220
0.0
230
1.0
 70
     8
 71
     3
 72
    18
 73
    14
 74
     0
 42
0.0000000001
 43
0.0000000001
 40
4.878907132466679
 40
4.878907132466679
 40
4.878907132466679
 40
4.878907132466679
 40
5.100268441792187
 40
5.100268441792187
 40
5.465460057973958
 40
5.465460057973958
 40
5.830651674155728
 40
5.830651674155728
 40
6.195843290337498
 40
6.195843290337498
 40
6.561034906519268
 40
6.561034906519268
 40
6.782396215844778
 40
6.782396215844778
 40
6.782396215844778
 40
6.782396215844778
 10
1223.051779803563
 20
332.3976606619296
 30
0.0
 10
1223.245462464006
 20
333.1540930744729
 30
0.0
 10
1223.470788585988
 20
333.8824654168409
 30
0.0
 10
1224.107779809906
 20
335.6598715055431
 30
0.0
 10
1224.61045271573
 20
336.7798506273199
 30
0.0
 10
1225.720026573472
 20
338.7261613832913
 30
0.0
 10
1226.326081371501
 20
339.5523994614657
 30
0.0
 10
1227.474417254973
 20
340.7697048487377
 30
0.0
 10
1228.105071708095
 20
341.2544532646577
 30
0.0
 10
1229.330680025069
 20
341.7835766412051
 30
0.0
 10
1229.926629082548
 20
341.8282031489759
 30
0.0
 10
1230.759289208605
 20
341.608716247061
 30
0.0
 10
1231.075291971219
 20
341.4541852145291
 30
0.0
 10
1231.377150694028
 20
341.2230565951793
 30
0.0
  0
LINE
  5
8F4D
330
8C52
100
AcDbEntity
  8
Visible (ISO)
100
AcDbLine
 10
1231.377150694028
 20
341.2230565951793
 30
0.0
 11
1228.15966879176
 21
341.2230565951783
 31
0.0
  0
ELLIPSE
  5
8F4E
330
8C52
100
AcDbEntity
  8
Visible (ISO)
100
AcDbEllipse
 10
1147.032209691042
 20
366.141814268625
 30
0.0
 11
0.000000000008428
 21
-44.49999999999977
 31
0.0
210
0.0
220
0.0
230
1.0
 40
0.5446390350150274
 41
5.23769894985345
 42
5.757875337710141
  0
LINE
  5
8F4F
330
8C52
100
AcDbEntity
  8
Visible (ISO)
100
AcDbLine
 10
1126.063606842964
 20
388.4577278730555
 30
0.0
 11
1126.063606842963
 21
343.8259006642126
 31
0.0
  0
ELLIPSE
  5
8F50
330
8C52
100
AcDbEntity
  8
Visible (ISO)
100
AcDbEllipse
 10
1147.032209691042
 20
366.141814268625
 30
0.0
 11
0.000000000010944
 21
-44.49999999999982
 31
0.0
210
0.0
220
0.0
230
1.0
 40
0.5446390350150274
 41
3.666902623058099
 42
4.187079010914975
  0
LINE
  5
8F51
330
8C52
100
AcDbEntity
  8
Visible (ISO)
100
AcDbLine
 10
1146.451745877698
 20
404.6418142686323
 30
0.0
 11
1134.878092040052
 21
404.6418142686304
 31
0.0
  0
LINE
  5
8F52
330
8C52
100
AcDbEntity
  8
Visible (ISO)
100
AcDbLine
 10
1146.451745877698
 20
404.6418142686323
 30
0.0
 11
1147.290416445644
 21
404.6418142686323
 31
0.0
  0
LINE
  5
8F53
330
8C52
100
AcDbEntity
  8
Visible (ISO)
100
AcDbLine
 10
1137.63726068061
 20
343.8259006642153
 30
0.0
 11
1137.637260680611
 21
388.4577278730582
 31
0.0
  0
ELLIPSE
  5
8F54
330
8C52
100
AcDbEntity
  8
Visible (ISO)
100
AcDbEllipse
 10
1158.605863528689
 20
366.1418142686268
 30
0.0
 11
-0.0000000000059217
 21
44.49999999999987
 31
0.0
210
0.0
220
0.0
230
1.0
 40
0.5446390350150274
 41
2.096106296263908
 42
2.616282684120792
  0
LINE
  5
8F55
330
8C52
100
AcDbEntity
  8
Visible (ISO)
100
AcDbLine
 10
1147.290416445644
 20
327.6418142686322
 30
0.0
 11
1146.451745877698
 21
327.6418142686332
 31
0.0
  0
ELLIPSE
  5
8F56
330
8C52
100
AcDbEntity
  8
Visible (ISO)
100
AcDbEllipse
 10
1158.605863528689
 20
366.1418142686268
 30
0.0
 11
-0.0000000000084335
 21
44.49999999999993
 31
0.0
210
0.0
220
0.0
230
1.0
 40
0.5446390350150274
 41
0.5253099694687187
 42
1.045486357325446
  0
ELLIPSE
  5
8F57
330
8C52
100
AcDbEntity
  8
Visible (ISO)
100
AcDbEllipse
 10
1158.605863528689
 20
366.1418142686268
 30
0.0
 11
0.0000000000082379
 21
-43.49999999999964
 31
0.0
210
0.0
220
0.0
230
1.0
 40
0.5446390350150276
 41
5.243847218323161
 42
5.576380160931944
  0
LINE
  5
8F58
330
8C52
100
AcDbEntity
  8
Visible (ISO)
100
AcDbLine
 10
1138.181899715625
 20
388.1872219536851
 30
0.0
 11
1138.181899715625
 21
344.0964065835885
 31
0.0
  0
ELLIPSE
  5
8F59
330
8C52
100
AcDbEntity
  8
Visible (ISO)
100
AcDbEllipse
 10
1158.605863528689
 20
366.1418142686268
 30
0.0
 11
0.0000000000106928
 21
-43.4999999999998
 31
0.0
210
0.0
220
0.0
230
1.0
 40
0.5446390350150274
 41
3.848397799836387
 42
4.180930742445279
  0
LINE
  5
8F5A
330
8C52
100
AcDbEntity
  8
Visible (ISO)
100
AcDbLine
 10
1146.451745877698
 20
327.6418142686332
 30
0.0
 11
1134.878092040052
 21
327.6418142686304
 31
0.0
  0
LINE
  5
8F5B
330
8C52
100
AcDbEntity
  8
Visible (ISO)
100
AcDbLine
 10
1137.63726068061
 20
343.8259006642153
 30
0.0
 11
1126.063606842963
 21
343.8259006642126
 31
0.0
  0
LINE
  5
8F5C
330
8C52
100
AcDbEntity
  8
Visible (ISO)
100
AcDbLine
 10
1137.637260680611
 20
388.4577278730582
 30
0.0
 11
1126.063606842964
 21
388.4577278730555
 31
0.0
  0
ELLIPSE
  5
8F5D
330
8C52
100
AcDbEntity
  8
Visible (ISO)
100
AcDbEllipse
 10
1125.685703421247
 20
390.8891372415626
 30
0.0
 11
-0.0000000000000304
 21
4.999999999999985
 31
0.0
210
0.0
220
0.0
230
1.0
 40
0.5446390350150274
 41
0.0000000000015701
 42
3.141592653591362
  0
ELLIPSE
  5
8F5E
330
8C52
100
AcDbEntity
  8
Visible (ISO)
100
AcDbEllipse
 10
1125.685703421247
 20
341.3944912956992
 30
0.0
 11
0.0000000000000158
 21
-4.999999999999985
 31
0.0
210
0.0
220
0.0
230
1.0
 40
0.5446390350150274
 41
3.141592653591381
 42
6.283185307181174
  0
LINE
  5
8F5F
330
8C52
100
AcDbEntity
  8
Visible (ISO)
100
AcDbLine
 10
1126.063606842964
 20
385.8891372415635
 30
0.0
 11
1125.685703421247
 21
385.8891372415635
 31
0.0
  0
LINE
  5
8F60
330
8C52
100
AcDbEntity
  8
Visible (ISO)
100
AcDbLine
 10
1129.006823352704
 20
395.8891372415635
 30
0.0
 11
1125.685703421247
 21
395.8891372415635
 31
0.0
  0
LINE
  5
8F61
330
8C52
100
AcDbEntity
  8
Visible (ISO)
100
AcDbLine
 10
1125.685703421247
 20
346.3944912956992
 30
0.0
 11
1126.063606842963
 21
346.3944912956992
 31
0.0
  0
LINE
  5
8F62
330
8C52
100
AcDbEntity
  8
Visible (ISO)
100
AcDbLine
 10
1125.685703421247
 20
336.3944912957001
 30
0.0
 11
1129.006823352704
 21
336.3944912957001
 31
0.0
  0
LINE
  5
8F63
330
8C52
100
AcDbEntity
  8
Visible (ISO)
100
AcDbLine
 10
1127.508896618161
 20
404.6418142686259
 30
0.0
 11
1134.878092040052
 21
404.6418142686277
 31
0.0
  0
LINE
  5
8F64
330
8C52
100
AcDbEntity
  8
Visible (ISO)
100
AcDbLine
 10
1127.508896618161
 20
395.889137241558
 30
0.0
 11
1127.508896618161
 21
404.6418142686259
 31
0.0
  0
LINE
  5
8F65
330
8C52
100
AcDbEntity
  8
Visible (ISO)
100
AcDbLine
 10
1127.508896618161
 20
327.6418142686268
 30
0.0
 11
1127.508896618161
 21
336.3944912956938
 31
0.0
  0
LINE
  5
8F66
330
8C52
100
AcDbEntity
  8
Visible (ISO)
100
AcDbLine
 10
1134.878092040052
 20
327.6418142686277
 30
0.0
 11
1127.508896618161
 21
327.6418142686268
 31
0.0
  0
LINE
  5
8F67
330
8C52
100
AcDbEntity
  8
Visible (ISO)
100
AcDbLine
 10
1127.508896618161
 20
404.6418142686259
 30
0.0
 11
1122.702651941874
 21
404.6418142686231
 31
0.0
  0
LINE
  5
8F68
330
8C52
100
AcDbEntity
  8
Visible (ISO)
100
AcDbLine
 10
1122.702651941874
 20
379.091814268623
 30
0.0
 11
1122.702651941874
 21
404.6418142686231
 31
0.0
  0
LINE
  5
8F69
330
8C52
100
AcDbEntity
  8
Visible (ISO)
100
AcDbLine
 10
1122.702651941874
 20
327.6418142686232
 30
0.0
 11
1122.702651941874
 21
353.1918142686233
 31
0.0
  0
LINE
  5
8F6A
330
8C52
100
AcDbEntity
  8
Visible (ISO)
100
AcDbLine
 10
1122.702651941874
 20
327.6418142686232
 30
0.0
 11
1127.508896618161
 21
327.6418142686268
 31
0.0
  0
LINE
  5
8F6B
330
8C52
100
AcDbEntity
  8
Visible (ISO)
100
AcDbLine
 10
1122.702651941874
 20
379.091814268623
 30
0.0
 11
1126.063606842963
 21
375.090707321852
 31
0.0
  0
LINE
  5
8F6C
330
8C52
100
AcDbEntity
  8
Visible (ISO)
100
AcDbLine
 10
1126.063606842963
 20
357.1929212153988
 30
0.0
 11
1122.702651941874
 21
353.1918142686233
 31
0.0
  0
LINE
  5
8F6D
330
8C52
100
AcDbEntity
  8
Visible (ISO)
100
AcDbLine
 10
1164.31483929556
 20
429.6418142686231
 30
0.0
 11
1113.814839295561
 21
429.6418142686231
 31
0.0
  0
LINE
  5
8F6E
330
8C52
100
AcDbEntity
  8
Visible (ISO)
100
AcDbLine
 10
1164.31483929556
 20
426.7918142686228
 30
0.0
 11
1113.814839295561
 21
426.7918142686228
 31
0.0
  0
LINE
  5
8F6F
330
8C52
100
AcDbEntity
  8
Visible (ISO)
100
AcDbLine
 10
1151.76483929556
 20
422.2239878285824
 30
0.0
 11
1126.36483929556
 21
422.2239878285824
 31
0.0
  0
LINE
  5
8F70
330
8C52
100
AcDbEntity
  8
Visible (ISO)
100
AcDbLine
 10
1113.814839295561
 20
426.7918142686228
 30
0.0
 11
1113.814839295561
 21
429.6418142686231
 31
0.0
  0
LINE
  5
8F71
330
8C52
100
AcDbEntity
  8
Visible (ISO)
100
AcDbLine
 10
1164.314839295561
 20
426.7918142686228
 30
0.0
 11
1164.314839295561
 21
429.6418142686231
 31
0.0
  0
LINE
  5
8F72
330
8C52
100
AcDbEntity
  8
Visible (ISO)
100
AcDbLine
 10
1126.364839295561
 20
422.2239878285824
 30
0.0
 11
1113.814839295561
 21
426.7918142686228
 31
0.0
  0
LINE
  5
8F73
330
8C52
100
AcDbEntity
  8
Visible (ISO)
100
AcDbLine
 10
1151.76483929556
 20
422.2239878285824
 30
0.0
 11
1164.314839295561
 21
426.7918142686228
 31
0.0
  0
LINE
  5
8F74
330
8C52
100
AcDbEntity
  8
Visible (ISO)
100
AcDbLine
 10
1126.364839295561
 20
404.6418142686231
 30
0.0
 11
1126.364839295561
 21
422.2239878285824
 31
0.0
  0
LINE
  5
8F75
330
8C52
100
AcDbEntity
  8
0
  6
CENTER
100
AcDbLine
 10
1139.064839295561
 20
292.8256839996872
 30
0.0
 11
1139.064839295561
 21
439.4579445375491
 31
0.0
  0
LINE
  5
8F76
330
8C52
100
AcDbEntity
  8
Visible (ISO)
100
AcDbLine
 10
1151.76483929556
 20
404.6418142686231
 30
0.0
 11
1151.76483929556
 21
422.2239878285824
 31
0.0
  0
LINE
  5
8F77
330
8C52
100
AcDbEntity
  8
Visible (ISO)
100
AcDbLine
 10
1164.31483929556
 20
302.6418142686232
 30
0.0
 11
1113.814839295561
 21
302.6418142686232
 31
0.0
  0
LINE
  5
8F78
330
8C52
100
AcDbEntity
  8
Visible (ISO)
100
AcDbLine
 10
1164.31483929556
 20
305.4918142686235
 30
0.0
 11
1113.814839295561
 21
305.4918142686235
 31
0.0
  0
LINE
  5
8F79
330
8C52
100
AcDbEntity
  8
Visible (ISO)
100
AcDbLine
 10
1151.76483929556
 20
310.0596407086648
 30
0.0
 11
1126.36483929556
 21
310.0596407086648
 31
0.0
  0
LINE
  5
8F7A
330
8C52
100
AcDbEntity
  8
Visible (ISO)
100
AcDbLine
 10
1113.814839295561
 20
302.6418142686232
 30
0.0
 11
1113.814839295561
 21
305.4918142686235
 31
0.0
  0
LINE
  5
8F7B
330
8C52
100
AcDbEntity
  8
Visible (ISO)
100
AcDbLine
 10
1164.31483929556
 20
302.6418142686232
 30
0.0
 11
1164.31483929556
 21
305.4918142686235
 31
0.0
  0
LINE
  5
8F7C
330
8C52
100
AcDbEntity
  8
Visible (ISO)
100
AcDbLine
 10
1151.76483929556
 20
310.0596407086648
 30
0.0
 11
1164.31483929556
 21
305.4918142686235
 31
0.0
  0
LINE
  5
8F7D
330
8C52
100
AcDbEntity
  8
Visible (ISO)
100
AcDbLine
 10
1126.36483929556
 20
310.0596407086648
 30
0.0
 11
1113.814839295561
 21
305.4918142686235
 31
0.0
  0
LINE
  5
8F7E
330
8C52
100
AcDbEntity
  8
Visible (ISO)
100
AcDbLine
 10
1126.36483929556
 20
310.0596407086648
 30
0.0
 11
1126.36483929556
 21
327.6418142686232
 31
0.0
  0
LINE
  5
8F7F
330
8C52
100
AcDbEntity
  8
Visible (ISO)
100
AcDbLine
 10
1151.76483929556
 20
310.0596407086648
 30
0.0
 11
1151.76483929556
 21
327.6418142686232
 31
0.0
  0
ELLIPSE
  5
8F80
330
8C52
100
AcDbEntity
  8
Visible (ISO)
100
AcDbEllipse
 10
1164.476557504307
 20
366.1418142686286
 30
0.0
 11
-0.0000000000109426
 21
44.49999999999969
 31
0.0
210
0.0
220
0.0
230
1.0
 40
0.5446390350150275
 41
3.666902623058099
 42
3.848397799836332
  0
ELLIPSE
  5
8F81
330
8C52
100
AcDbEntity
  8
Visible (ISO)
100
AcDbEllipse
 10
1165.315228072252
 20
366.1418142686286
 30
0.0
 11
0.0000000000082309
 21
-43.49999999999987
 31
0.0
210
0.0
220
0.0
230
1.0
 40
0.5446390350150273
 41
0.5314582379384927
 42
1.0393380888557
  0
SPLINE
  5
8F82
330
8C52
100
AcDbEntity
  8
Visible (ISO)
100
AcDbSpline
210
0.0
220
0.0
230
1.0
 70
     8
 71
     3
 72
     8
 73
     4
 74
     0
 42
0.0000000001
 43
0.0000000001
 40
-0.1439790587599179
 40
-0.1439790587599179
 40
-0.1439790587599179
 40
-0.1439790587599179
 40
0.0
 40
0.0
 40
0.0
 40
0.0
 10
1176.630675155297
 20
327.6418142686232
 30
0.0
 10
1176.861459660305
 20
327.9752044706153
 30
0.0
 10
1177.091931210203
 20
328.3085675022573
 30
0.0
 10
1177.32201764035
 20
328.6418142686223
 30
0.0
  0
LINE
  5
8F83
330
8C52
100
AcDbEntity
  8
Visible (ISO)
100
AcDbLine
 10
1185.739191885316
 20
388.1872219536678
 30
0.0
 11
1185.739191885316
 21
382.5296608111709
 31
0.0
  0
LINE
  5
8F84
330
8C52
100
AcDbEntity
  8
Visible (ISO)
100
AcDbLine
 10
1185.739191885315
 20
349.7539677260663
 30
0.0
 11
1185.739191885315
 21
344.0964065835703
 31
0.0
  0
LINE
  5
8F85
330
8C52
100
AcDbEntity
  8
Visible (ISO)
100
AcDbLine
 10
1176.630675155297
 20
404.6418142686222
 30
0.0
 11
1152.322439853316
 21
404.6418142686341
 31
0.0
  0
SPLINE
  5
8F86
330
8C52
100
AcDbEntity
  8
Visible (ISO)
100
AcDbSpline
210
0.0
220
0.0
230
1.0
 70
     8
 71
     3
 72
     8
 73
     4
 74
     0
 42
0.0000000001
 43
0.0000000001
 40
-0.1439790587595074
 40
-0.1439790587595074
 40
-0.1439790587595074
 40
-0.1439790587595074
 40
0.0
 40
0.0
 40
0.0
 40
0.0
 10
1152.322439853316
 20
404.6418142686341
 30
0.0
 10
1152.650864448415
 20
404.3084240666392
 30
0.0
 10
1152.979556424675
 20
403.975061034999
 30
0.0
 10
1153.308438504154
 20
403.6418142686341
 30
0.0
  0
LINE
  5
8F87
330
8C52
100
AcDbEntity
  8
Visible (ISO)
100
AcDbLine
 10
1153.308438504154
 20
403.6418142686341
 30
0.0
 11
1177.32201764035
 21
403.6418142686223
 31
0.0
  0
SPLINE
  5
8F88
330
8C52
100
AcDbEntity
  8
Visible (ISO)
100
AcDbSpline
210
0.0
220
0.0
230
1.0
 70
     8
 71
     3
 72
     8
 73
     4
 74
     0
 42
0.0000000001
 43
0.0000000001
 40
-0.1439790369046828
 40
-0.1439790369046828
 40
-0.1439790369046828
 40
-0.1439790369046828
 40
0.0
 40
0.0
 40
0.0
 40
0.0
 10
1177.32201764035
 20
403.6418142686223
 30
0.0
 10
1177.091931210203
 20
403.9750610349872
 30
0.0
 10
1176.861459660306
 20
404.3084240666282
 30
0.0
 10
1176.630675155297
 20
404.6418142686222
 30
0.0
  0
ELLIPSE
  5
8F89
330
8C52
100
AcDbEntity
  8
Visible (ISO)
100
AcDbEllipse
 10
1164.476557504307
 20
366.1418142686286
 30
0.0
 11
-0.0000000000084363
 21
44.49999999999842
 31
0.0
210
0.0
220
0.0
230
1.0
 40
0.5446390350150274
 41
5.576380160931952
 42
5.757875337710125
  0
ELLIPSE
  5
8F8A
330
8C52
100
AcDbEntity
  8
Visible (ISO)
100
AcDbEllipse
 10
1165.315228072252
 20
366.1418142686286
 30
0.0
 11
0.0000000000057884
 21
-43.49999999999993
 31
0.0
210
0.0
220
0.0
230
1.0
 40
0.5446390350150271
 41
2.10225456473368
 42
2.610134415651044
  0
ELLIPSE
  5
8F8B
330
8C52
100
AcDbEntity
  8
Visible (ISO)
100
AcDbEllipse
 10
1164.476557504307
 20
366.1418142686286
 30
0.0
 11
0.0000000000109301
 21
-44.49999999999987
 31
0.0
210
0.0
220
0.0
230
1.0
 40
0.5446390350150275
 41
3.666902623058092
 42
4.187079010914976
  0
SPLINE
  5
8F8C
330
8C52
100
AcDbEntity
  8
Visible (ISO)
100
AcDbSpline
210
0.0
220
0.0
230
1.0
 70
     8
 71
     3
 72
     8
 73
     4
 74
     0
 42
0.0000000001
 43
0.0000000001
 40
-0.1439790587599232
 40
-0.1439790587599232
 40
-0.1439790587599232
 40
-0.1439790587599232
 40
0.0
 40
0.0
 40
0.0
 40
0.0
 10
1143.507954656229
 20
388.4577278730592
 30
0.0
 10
1143.969136524177
 20
388.3680904399959
 30
0.0
 10
1144.43028080712
 20
388.2779202354674
 30
0.0
 10
1144.891264259188
 20
388.187221953686
 30
0.0
  0
ELLIPSE
  5
8F8D
330
8C52
100
AcDbEntity
  8
Visible (ISO)
100
AcDbEllipse
 10
1165.315228072252
 20
366.1418142686286
 30
0.0
 11
-0.0000000000082392
 21
43.49999999999981
 31
0.0
210
0.0
220
0.0
230
1.0
 40
0.5446390350150274
 41
0.5314582379384918
 42
1.03933808885567
  0
LINE
  5
8F8E
330
8C52
100
AcDbEntity
  8
Visible (ISO)
100
AcDbLine
 10
1143.507954656229
 20
388.4577278730592
 30
0.0
 11
1143.507954656229
 21
343.8259006642163
 31
0.0
  0
SPLINE
  5
8F8F
330
8C52
100
AcDbEntity
  8
Visible (ISO)
100
AcDbSpline
210
0.0
220
0.0
230
1.0
 70
     8
 71
     3
 72
     8
 73
     4
 74
     0
 42
0.0000000001
 43
0.0000000001
 40
-0.1439790587594307
 40
-0.1439790587594307
 40
-0.1439790587594307
 40
-0.1439790587594307
 40
0.0
 40
0.0
 40
0.0
 40
0.0
 10
1143.507954656229
 20
343.8259006642163
 30
0.0
 10
1143.96913652418
 20
343.9155380972804
 30
0.0
 10
1144.430280807121
 20
344.0057083018089
 30
0.0
 10
1144.891264259188
 20
344.0964065835885
 30
0.0
  0
LINE
  5
8F90
330
8C52
100
AcDbEntity
  8
Visible (ISO)
100
AcDbLine
 10
1144.891264259188
 20
344.0964065835885
 30
0.0
 11
1144.891264259189
 21
388.187221953686
 31
0.0
  0
ELLIPSE
  5
8F91
330
8C52
100
AcDbEntity
  8
Visible (ISO)
100
AcDbEllipse
 10
1164.476557504307
 20
366.1418142686286
 30
0.0
 11
0.000000000008428
 21
-44.49999999999983
 31
0.0
210
0.0
220
0.0
230
1.0
 40
0.5446390350150275
 41
5.237698949853422
 42
5.757875337710116
  0
SPLINE
  5
8F92
330
8C52
100
AcDbEntity
  8
Visible (ISO)
100
AcDbSpline
210
0.0
220
0.0
230
1.0
 70
     8
 71
     3
 72
     8
 73
     4
 74
     0
 42
0.0000000001
 43
0.0000000001
 40
-0.1439790587594705
 40
-0.1439790587594705
 40
-0.1439790587594705
 40
-0.1439790587594705
 40
0.0
 40
0.0
 40
0.0
 40
0.0
 10
1152.322439853316
 20
327.6418142686341
 30
0.0
 10
1152.650864448415
 20
327.9752044706281
 30
0.0
 10
1152.979556424674
 20
328.3085675022691
 30
0.0
 10
1153.308438504154
 20
328.6418142686341
 30
0.0
  0
ELLIPSE
  5
8F93
330
8C52
100
AcDbEntity
  8
Visible (ISO)
100
AcDbEllipse
 10
1165.315228072252
 20
366.1418142686286
 30
0.0
 11
-0.0000000000057815
 21
43.49999999999965
 31
0.0
210
0.0
220
0.0
230
1.0
 40
0.5446390350150274
 41
2.10225456473368
 42
2.610134415651037
  0
LINE
  5
8F94
330
8C52
100
AcDbEntity
  8
Visible (ISO)
100
AcDbLine
 10
1152.322439853316
 20
327.6418142686332
 30
0.0
 11
1176.630675155297
 21
327.6418142686232
 31
0.0
  0
LINE
  5
8F95
330
8C52
100
AcDbEntity
  8
Visible (ISO)
100
AcDbLine
 10
1177.32201764035
 20
328.6418142686223
 30
0.0
 11
1153.308438504154
 21
328.6418142686341
 31
0.0
  0
ELLIPSE
  5
8F96
330
8C52
100
AcDbEntity
  8
Visible (ISO)
100
AcDbEllipse
 10
1159.444534096634
 20
366.1418142686268
 30
0.0
 11
-0.0000000000059189
 21
44.49999999999982
 31
0.0
210
0.0
220
0.0
230
1.0
 40
0.5446390350150274
 41
2.096106296263908
 42
2.616282684120784
  0
LINE
  5
8F97
330
8C52
100
AcDbEntity
  8
Visible (ISO)
100
AcDbLine
 10
1138.475931248555
 20
343.8259006642153
 30
0.0
 11
1138.475931248555
 21
388.4577278730582
 31
0.0
  0
ELLIPSE
  5
8F98
330
8C52
100
AcDbEntity
  8
Visible (ISO)
100
AcDbEllipse
 10
1159.444534096634
 20
366.1418142686268
 30
0.0
 11
-0.0000000000084321
 21
44.49999999999985
 31
0.0
210
0.0
220
0.0
230
1.0
 40
0.5446390350150274
 41
0.5253099694687187
 42
1.045486357325446
  0
SPLINE
  5
8F99
330
8C52
100
AcDbEntity
  8
Visible (ISO)
100
AcDbSpline
210
0.0
220
0.0
230
1.0
 70
     8
 71
     3
 72
     8
 73
     4
 74
     0
 42
0.0000000001
 43
0.0000000001
 40
-0.1439790369036189
 40
-0.1439790369036189
 40
-0.1439790369036189
 40
-0.1439790369036189
 40
0.0
 40
0.0
 40
0.0
 40
0.0
 10
1138.181899715625
 20
388.1872219536851
 30
0.0
 10
1138.279884773184
 20
388.2779202354656
 30
0.0
 10
1138.3779040164
 20
388.3680904399959
 30
0.0
 10
1138.475931248555
 20
388.4577278730582
 30
0.0
  0
SPLINE
  5
8F9A
330
8C52
100
AcDbEntity
  8
Visible (ISO)
100
AcDbSpline
210
0.0
220
0.0
230
1.0
 70
     8
 71
     3
 72
     8
 73
     4
 74
     0
 42
0.0000000001
 43
0.0000000001
 40
-0.1439790369035114
 40
-0.1439790369035114
 40
-0.1439790369035114
 40
-0.1439790369035114
 40
0.0
 40
0.0
 40
0.0
 40
0.0
 10
1138.181899715625
 20
344.0964065835885
 30
0.0
 10
1138.279884773184
 20
344.0057083018071
 30
0.0
 10
1138.3779040164
 20
343.9155380972786
 30
0.0
 10
1138.475931248555
 20
343.8259006642153
 30
0.0
  0
LINE
  5
8F9B
330
8C52
100
AcDbEntity
  8
Visible (ISO)
100
AcDbLine
 10
1180.70086160499
 20
333.0626518362621
 30
0.0
 11
1180.215883761934
 21
332.3022113205759
 31
0.0
  0
LINE
  5
8F9C
330
8C52
100
AcDbEntity
  8
Visible (ISO)
100
AcDbLine
 10
1180.70086160499
 20
399.2209767009796
 30
0.0
 11
1180.215883761935
 21
399.9814172166659
 31
0.0
  0
LINE
  5
8F9D
330
8C52
100
AcDbEntity
  8
Visible (ISO)
100
AcDbLine
 10
1143.220229995951
 20
399.2209767009933
 30
0.0
 11
1143.705207839007
 21
399.9814172166805
 31
0.0
  0
LINE
  5
8F9E
330
8C52
100
AcDbEntity
  8
Visible (ISO)
100
AcDbLine
 10
1143.220229995951
 20
333.0626518362748
 30
0.0
 11
1143.705207839006
 21
332.3022113205895
 31
0.0
  0
LINE
  5
8F9F
330
8C52
100
AcDbEntity
  8
Visible (ISO)
100
AcDbLine
 10
1143.507954656229
 20
343.8259006642163
 30
0.0
 11
1138.475931248555
 21
343.8259006642153
 31
0.0
  0
LINE
  5
8FA0
330
8C52
100
AcDbEntity
  8
Visible (ISO)
100
AcDbLine
 10
1152.322439853316
 20
327.6418142686332
 30
0.0
 11
1147.290416445643
 21
327.6418142686332
 31
0.0
  0
LINE
  5
8FA1
330
8C52
100
AcDbEntity
  8
Visible (ISO)
100
AcDbLine
 10
1143.507954656229
 20
388.4577278730592
 30
0.0
 11
1138.475931248555
 21
388.4577278730582
 31
0.0
  0
LINE
  5
8FA2
330
8C52
100
AcDbEntity
  8
Visible (ISO)
100
AcDbLine
 10
1152.322439853316
 20
404.6418142686341
 30
0.0
 11
1147.290416445644
 21
404.6418142686323
 31
0.0
  0
LINE
  5
8FA3
330
8C52
100
AcDbEntity
  8
Visible (ISO)
100
AcDbLine
 10
1302.646081621072
 20
200.0808569982025
 30
0.0
 11
1302.646081621075
 21
205.6403703013472
 31
0.0
  0
SPLINE
  5
8FA4
330
8C52
100
AcDbEntity
  8
Visible (ISO)
100
AcDbSpline
210
0.0
220
0.0
230
1.0
 70
     8
 71
     3
 72
    18
 73
    14
 74
     0
 42
0.0000000001
 43
0.0000000001
 40
4.878907132466681
 40
4.878907132466681
 40
4.878907132466681
 40
4.878907132466681
 40
5.100268441792191
 40
5.100268441792191
 40
5.465460057973961
 40
5.465460057973961
 40
5.830651674155731
 40
5.830651674155731
 40
6.195843290337501
 40
6.195843290337501
 40
6.561034906519272
 40
6.561034906519272
 40
6.78239621584478
 40
6.78239621584478
 40
6.78239621584478
 40
6.78239621584478
 10
1302.646081621075
 20
205.6403703013472
 30
0.0
 10
1302.877210240426
 20
205.0854521405069
 30
0.0
 10
1303.031741272957
 20
204.5156150050422
 30
0.0
 10
1303.251228174872
 20
203.0409811545357
 30
0.0
 10
1303.206601667101
 20
202.01427881032
 30
0.0
 10
1302.677478290553
 20
199.9802616605554
 30
0.0
 10
1302.192729874633
 20
198.9722825267433
 30
0.0
 10
1300.975424487361
 20
197.2040003330937
 30
0.0
 10
1300.149186409187
 20
196.3076142206325
 30
0.0
 10
1298.202875653216
 20
194.7457661554287
 30
0.0
 10
1297.082896531438
 20
194.0807390298775
 30
0.0
 10
1295.305490442736
 20
193.2923082575341
 30
0.0
 10
1294.577118100368
 20
193.0285720097069
 30
0.0
 10
1293.820685687824
 20
192.8204233563617
 30
0.0
  0
SPLINE
  5
8FA5
330
8C52
100
AcDbEntity
  8
Visible (ISO)
100
AcDbSpline
210
0.0
220
0.0
230
1.0
 70
     8
 71
     3
 72
    18
 73
    14
 74
     0
 42
0.0000000001
 43
0.0000000001
 40
4.87890713246668
 40
4.87890713246668
 40
4.87890713246668
 40
4.87890713246668
 40
5.100268441792188
 40
5.100268441792188
 40
5.465460057973958
 40
5.465460057973958
 40
5.830651674155729
 40
5.830651674155729
 40
6.195843290337499
 40
6.195843290337499
 40
6.561034906519269
 40
6.561034906519269
 40
6.78239621584478
 40
6.78239621584478
 40
6.78239621584478
 40
6.78239621584478
 10
1336.39023522778
 20
213.4328835300737
 30
0.0
 10
1335.864931434588
 20
213.0204069529561
 30
0.0
 10
1335.291090124751
 20
212.6536026539868
 30
0.0
 10
1333.733170937964
 20
211.8270466540868
 30
0.0
 10
1332.568565308415
 20
211.3858625862137
 30
0.0
 10
1330.093131175895
 20
210.8066722472683
 30
0.0
 10
1328.782144681799
 20
210.668199949099
 30
0.0
 10
1326.347533907255
 20
210.668199949099
 30
0.0
 10
1325.036547413161
 20
210.8066722472683
 30
0.0
 10
1322.56111328064
 20
211.3858625862137
 30
0.0
 10
1321.396507651092
 20
211.8270466540868
 30
0.0
 10
1319.838588464304
 20
212.6536026539868
 30
0.0
 10
1319.264747154467
 20
213.0204069529561
 30
0.0
 10
1318.739443361273
 20
213.4328835300737
 30
0.0
  0
LINE
  5
8FA6
330
8C52
100
AcDbEntity
  8
Visible (ISO)
100
AcDbLine
 10
1352.483596967982
 20
205.6403703013472
 30
0.0
 11
1352.483596967979
 21
200.0808569982025
 31
0.0
  0
SPLINE
  5
8FA7
330
8C52
100
AcDbEntity
  8
Visible (ISO)
100
AcDbSpline
210
0.0
220
0.0
230
1.0
 70
     8
 71
     3
 72
    18
 73
    14
 74
     0
 42
0.0000000001
 43
0.0000000001
 40
4.878907132466679
 40
4.878907132466679
 40
4.878907132466679
 40
4.878907132466679
 40
5.100268441792188
 40
5.100268441792188
 40
5.465460057973958
 40
5.465460057973958
 40
5.830651674155729
 40
5.830651674155729
 40
6.195843290337498
 40
6.195843290337498
 40
6.561034906519267
 40
6.561034906519267
 40
6.782396215844777
 40
6.782396215844777
 40
6.782396215844777
 40
6.782396215844777
 10
1361.308992901237
 20
192.8204233563617
 30
0.0
 10
1360.552560488694
 20
193.0285720097069
 30
0.0
 10
1359.824188146326
 20
193.2923082575341
 30
0.0
 10
1358.046782057622
 20
194.0807390298775
 30
0.0
 10
1356.926802935847
 20
194.7457661554287
 30
0.0
 10
1354.980492179874
 20
196.3076142206325
 30
0.0
 10
1354.154254101699
 20
197.2040003330937
 30
0.0
 10
1352.936948714426
 20
198.9722825267433
 30
0.0
 10
1352.452200298506
 20
199.9802616605554
 30
0.0
 10
1351.923076921957
 20
202.01427881032
 30
0.0
 10
1351.878450414186
 20
203.0409811545357
 30
0.0
 10
1352.097937316101
 20
204.5156150050422
 30
0.0
 10
1352.252468348632
 20
205.0854521405069
 30
0.0
 10
1352.483596967982
 20
205.6403703013472
 30
0.0
  0
LINE
  5
8FA8
330
8C52
100
AcDbEntity
  8
Visible (ISO)
100
AcDbLine
 10
1352.483596967986
 20
157.1668654225011
 30
0.0
 11
1352.483596967989
 21
164.4154499539233
 31
0.0
  0
ELLIPSE
  5
8FA9
330
8C52
100
AcDbEntity
  8
Visible (ISO)
100
AcDbEllipse
 10
1363.937906253478
 20
160.1672436693586
 30
0.0
 11
-11.99999999999997
 21
0.0000000000054304
 31
0.0
210
0.0
220
0.0
230
1.0
 40
0.8386705679454264
 41
4.933256460696607
 42
5.980454011893202
  0
LINE
  5
8FAA
330
8C52
100
AcDbEntity
  8
Visible (ISO)
100
AcDbLine
 10
1361.30899290124
 20
177.2353968989107
 30
0.0
 11
1361.308992901237
 21
169.9868123674875
 31
0.0
  0
SPLINE
  5
8FAB
330
8C52
100
AcDbEntity
  8
Visible (ISO)
100
AcDbSpline
210
0.0
220
0.0
230
1.0
 70
     8
 71
     3
 72
    18
 73
    14
 74
     0
 42
0.0000000001
 43
0.0000000001
 40
4.878907132466678
 40
4.878907132466678
 40
4.878907132466678
 40
4.878907132466678
 40
5.100268441792186
 40
5.100268441792186
 40
5.465460057973956
 40
5.465460057973956
 40
5.830651674155726
 40
5.830651674155726
 40
6.195843290337496
 40
6.195843290337496
 40
6.561034906519267
 40
6.561034906519267
 40
6.782396215844777
 40
6.782396215844777
 40
6.782396215844777
 40
6.782396215844777
 10
1352.483596967989
 20
164.4154499539233
 30
0.0
 10
1352.252468348639
 20
165.1017822540086
 30
0.0
 10
1352.097937316107
 20
165.7930262121351
 30
0.0
 10
1351.878450414193
 20
167.5483659061153
 30
0.0
 10
1351.923076921964
 20
168.7340859487501
 30
0.0
 10
1352.452200298512
 20
170.982145607282
 30
0.0
 10
1352.936948714432
 20
172.0438832947309
 30
0.0
 10
1354.154254101705
 20
173.8121654883805
 30
0.0
 10
1354.980492179878
 20
174.654793047204
 30
0.0
 10
1356.926802935849
 20
176.0025986036423
 30
0.0
 10
1358.046782057627
 20
176.5086080307744
 30
0.0
 10
1359.824188146329
 20
177.0163329596432
 30
0.0
 10
1360.552560488697
 20
177.1586623848067
 30
0.0
 10
1361.30899290124
 20
177.2353968989107
 30
0.0
  0
LINE
  5
8FAC
330
8C52
100
AcDbEntity
  8
Visible (ISO)
100
AcDbLine
 10
1318.73944336128
 20
149.3743521937756
 30
0.0
 11
1318.739443361285
 21
156.6229367251987
 31
0.0
  0
ELLIPSE
  5
8FAD
330
8C52
100
AcDbEntity
  8
Visible (ISO)
100
AcDbEllipse
 10
1327.564839294535
 20
142.5551617425051
 30
0.0
 11
-11.99999999999996
 21
0.0000000000043833
 31
0.0
210
0.0
220
0.0
230
1.0
 40
0.8386705679454264
 41
3.886058909499851
 42
5.538719051270233
  0
LINE
  5
8FAE
330
8C52
100
AcDbEntity
  8
Visible (ISO)
100
AcDbLine
 10
1336.390235227791
 20
156.6229367251987
 30
0.0
 11
1336.390235227787
 21
149.3743521937756
 31
0.0
  0
SPLINE
  5
8FAF
330
8C52
100
AcDbEntity
  8
Visible (ISO)
100
AcDbSpline
210
0.0
220
0.0
230
1.0
 70
     8
 71
     3
 72
    18
 73
    14
 74
     0
 42
0.0000000001
 43
0.0000000001
 40
4.878907132466679
 40
4.878907132466679
 40
4.878907132466679
 40
4.878907132466679
 40
5.100268441792188
 40
5.100268441792188
 40
5.465460057973958
 40
5.465460057973958
 40
5.830651674155729
 40
5.830651674155729
 40
6.195843290337499
 40
6.195843290337499
 40
6.561034906519269
 40
6.561034906519269
 40
6.78239621584478
 40
6.78239621584478
 40
6.78239621584478
 40
6.78239621584478
 10
1318.739443361285
 20
156.6229367251987
 30
0.0
 10
1319.264747154477
 20
157.1668274415585
 30
0.0
 10
1319.838588464314
 20
157.6550385631906
 30
0.0
 10
1321.396507651102
 20
158.7623004065642
 30
0.0
 10
1322.56111328065
 20
159.3625021728573
 30
0.0
 10
1325.036547413171
 20
160.1557350205673
 30
0.0
 10
1326.347533907265
 20
160.3479658723743
 30
0.0
 10
1328.782144681809
 20
160.3479658723743
 30
0.0
 10
1330.093131175903
 20
160.1557350205673
 30
0.0
 10
1332.568565308424
 20
159.3625021728573
 30
0.0
 10
1333.733170937974
 20
158.7623004065642
 30
0.0
 10
1335.291090124761
 20
157.6550385631906
 30
0.0
 10
1335.864931434598
 20
157.1668274415585
 30
0.0
 10
1336.390235227791
 20
156.6229367251987
 30
0.0
  0
ELLIPSE
  5
8FB0
330
8C52
100
AcDbEntity
  8
Visible (ISO)
100
AcDbEllipse
 10
1327.564839294534
 20
187.0926530949698
 30
0.0
 11
-13.49999999999996
 21
0.0000000000000008
 31
0.0
210
0.0
220
0.0
230
1.0
 40
0.8386705679454262
 41
0.0
 42
6.283185307179586
  0
ELLIPSE
  5
8FB1
330
8C52
100
AcDbEntity
  8
Visible (ISO)
100
AcDbEllipse
 10
1327.564839294533
 20
185.0279101276362
 30
0.0
 11
-34.99999999999991
 21
0.0000000000158262
 31
0.0
210
0.0
220
0.0
230
1.0
 40
0.8386705679454264
 41
6.014492244661827
 42
6.551878369698433
  0
ELLIPSE
  5
8FB2
330
8C52
100
AcDbEntity
  8
Visible (ISO)
100
AcDbEllipse
 10
1327.564839294533
 20
185.0279101276362
 30
0.0
 11
34.9999999999999
 21
-0.0000000000128064
 31
0.0
210
0.0
220
0.0
230
1.0
 40
0.838670567945426
 41
3.920097142268492
 42
4.457483267305126
  0
ELLIPSE
  5
8FB3
330
8C52
100
AcDbEntity
  8
Visible (ISO)
100
AcDbEllipse
 10
1327.564839294533
 20
185.0279101276362
 30
0.0
 11
34.99999999999988
 21
-0.0000000000158359
 31
0.0
210
0.0
220
0.0
230
1.0
 40
0.8386705679454266
 41
4.96729469346523
 42
5.504680818501831
  0
ELLIPSE
  5
8FB4
330
8C52
100
AcDbEntity
  8
Visible (ISO)
100
AcDbEllipse
 10
1327.564839294533
 20
185.0279101276362
 30
0.0
 11
34.99999999999992
 21
-0.0000000000158318
 31
0.0
210
0.0
220
0.0
230
1.0
 40
0.8386705679454264
 41
6.014492244661827
 42
6.551878369698433
  0
ELLIPSE
  5
8FB5
330
8C52
100
AcDbEntity
  8
Visible (ISO)
100
AcDbEllipse
 10
1327.564839294533
 20
185.0279101276362
 30
0.0
 11
-34.9999999999998
 21
0.000000000012787
 31
0.0
210
0.0
220
0.0
230
1.0
 40
0.8386705679454264
 41
3.920097142268474
 42
4.457483267305125
  0
ELLIPSE
  5
8FB6
330
8C52
100
AcDbEntity
  8
Visible (ISO)
100
AcDbEllipse
 10
1327.564839294533
 20
185.0279101276362
 30
0.0
 11
-34.99999999999985
 21
0.000000000015829
 31
0.0
210
0.0
220
0.0
230
1.0
 40
0.8386705679454266
 41
4.96729469346523
 42
5.504680818501839
  0
ELLIPSE
  5
8FB7
330
8C52
100
AcDbEntity
  8
Visible (ISO)
100
AcDbEllipse
 10
1327.56483929453
 20
177.779325596213
 30
0.0
 11
-34.99999999999992
 21
-0.000000000000149
 31
0.0
210
0.0
220
0.0
230
1.0
 40
0.8386705679454262
 41
0.0
 42
0.2686930625178574
  0
ELLIPSE
  5
8FB8
330
8C52
100
AcDbEntity
  8
Visible (ISO)
100
AcDbEllipse
 10
1327.56483929453
 20
177.779325596213
 30
0.0
 11
34.99999999999987
 21
-0.0000000000128064
 31
0.0
210
0.0
220
0.0
230
1.0
 40
0.8386705679454264
 41
3.920097142268492
 42
4.457483267305126
  0
ELLIPSE
  5
8FB9
330
8C52
100
AcDbEntity
  8
Visible (ISO)
100
AcDbEllipse
 10
1327.56483929453
 20
177.779325596213
 30
0.0
 11
34.99999999999992
 21
-0.0000000000158332
 31
0.0
210
0.0
220
0.0
230
1.0
 40
0.8386705679454262
 41
4.96729469346523
 42
5.504680818501831
  0
ELLIPSE
  5
8FBA
330
8C52
100
AcDbEntity
  8
Visible (ISO)
100
AcDbEllipse
 10
1327.56483929453
 20
177.779325596213
 30
0.0
 11
34.99999999999992
 21
-0.0000000000158318
 31
0.0
210
0.0
220
0.0
230
1.0
 40
0.838670567945426
 41
6.014492244661827
 42
6.283185307180125
  0
ELLIPSE
  5
8FBB
330
8C52
100
AcDbEntity
  8
Visible (ISO)
100
AcDbEllipse
 10
1327.564839294518
 20
154.3816326519679
 30
0.0
 11
-26.99999999999991
 21
0.0000000000122125
 31
0.0
210
0.0
220
0.0
230
1.0
 40
0.8386705679454262
 41
5.887978467114995
 42
9.819984800835104
  0
ELLIPSE
  5
8FBC
330
8C52
100
AcDbEntity
  8
Visible (ISO)
100
AcDbEllipse
 10
1327.564839294517
 20
150.8196933629694
 30
0.0
 11
26.99999999999991
 21
0.0000000000001838
 31
0.0
210
0.0
220
0.0
230
1.0
 40
0.8386705679454264
 41
3.14159265358935
 42
6.283185307179143
  0
ELLIPSE
  5
8FBD
330
8C52
100
AcDbEntity
  8
Visible (ISO)
100
AcDbEllipse
 10
1327.564839294521
 20
159.4127925476002
 30
0.0
 11
10.99999999999995
 21
-0.0000000000040266
 31
0.0
210
0.0
220
0.0
230
1.0
 40
0.8386705679454264
 41
4.180092572662006
 42
5.244685388108385
  0
ELLIPSE
  5
8FBE
330
8C52
100
AcDbEntity
  8
Visible (ISO)
100
AcDbEllipse
 10
1327.564839294522
 20
164.7624526593533
 30
0.0
 11
16.49999999999994
 21
-0.0000000000074635
 31
0.0
210
0.0
220
0.0
230
1.0
 40
0.8386705679454264
 41
4.392179194327955
 42
5.032598766442541
  0
ELLIPSE
  5
8FBF
330
8C52
100
AcDbEntity
  8
Visible (ISO)
100
AcDbEllipse
 10
1327.564839294534
 20
187.0926530949698
 30
0.0
 11
-6.749999999999981
 21
0.0000000000000004
 31
0.0
210
0.0
220
0.0
230
1.0
 40
0.8386705679454262
 41
0.0
 42
6.283185307179586
  0
ELLIPSE
  5
8FC0
330
8C52
100
AcDbEntity
  8
Visible (ISO)
100
AcDbEllipse
 10
1327.564839294533
 20
186.3301584459493
 30
0.0
 11
6.749999999999981
 21
-0.0000000000030526
 31
0.0
210
0.0
220
0.0
230
1.0
 40
0.8386705679454262
 41
0.0673969845297117
 42
3.074195669061172
  0
LINE
  5
8FC1
330
8C52
100
AcDbEntity
  8
Visible (ISO)
100
AcDbLine
 10
1292.564839294529
 20
177.779325596213
 30
0.0
 11
1292.564839294533
 21
185.0279101276353
 31
0.0
  0
LINE
  5
8FC2
330
8C52
100
AcDbEntity
  8
Visible (ISO)
100
AcDbLine
 10
1362.564839294529
 20
177.779325596213
 30
0.0
 11
1362.564839294532
 21
185.0279101276362
 31
0.0
  0
LINE
  5
8FC3
330
8C52
100
AcDbEntity
  8
Visible (ISO)
100
AcDbLine
 10
1300.564839294517
 20
150.8196933629694
 30
0.0
 11
1300.564839294519
 21
154.381632651967
 31
0.0
  0
LINE
  5
8FC4
330
8C52
100
AcDbEntity
  8
Visible (ISO)
100
AcDbLine
 10
1354.564839294516
 20
150.8196933629694
 30
0.0
 11
1354.564839294518
 21
154.3816326519679
 31
0.0
  0
SPLINE
  5
8FC5
330
8C52
100
AcDbEntity
  8
Visible (ISO)
100
AcDbSpline
210
0.0
220
0.0
230
1.0
 70
     8
 71
     3
 72
    18
 73
    14
 74
     0
 42
0.0000000001
 43
0.0000000001
 40
4.878907132466679
 40
4.878907132466679
 40
4.878907132466679
 40
4.878907132466679
 40
5.100268441792187
 40
5.100268441792187
 40
5.465460057973958
 40
5.465460057973958
 40
5.830651674155728
 40
5.830651674155728
 40
6.195843290337498
 40
6.195843290337498
 40
6.561034906519268
 40
6.561034906519268
 40
6.782396215844778
 40
6.782396215844778
 40
6.782396215844778
 40
6.782396215844778
 10
1293.820685687828
 20
177.2353968989107
 30
0.0
 10
1294.57711810037
 20
177.1586623848067
 30
0.0
 10
1295.305490442738
 20
177.0163329596432
 30
0.0
 10
1297.082896531442
 20
176.5086080307744
 30
0.0
 10
1298.202875653218
 20
176.0025986036423
 30
0.0
 10
1300.149186409192
 20
174.654793047204
 30
0.0
 10
1300.975424487366
 20
173.8121654883805
 30
0.0
 10
1302.192729874639
 20
172.0438832947309
 30
0.0
 10
1302.677478290559
 20
170.982145607282
 30
0.0
 10
1303.206601667107
 20
168.7340859487501
 30
0.0
 10
1303.251228174879
 20
167.5483659061153
 30
0.0
 10
1303.031741272964
 20
165.7930262121351
 30
0.0
 10
1302.877210240433
 20
165.1017822540086
 30
0.0
 10
1302.646081621082
 20
164.4154499539233
 30
0.0
  0
LINE
  5
8FC6
330
8C52
100
AcDbEntity
  8
Visible (ISO)
100
AcDbLine
 10
1293.820685687824
 20
169.9868123674875
 30
0.0
 11
1293.820685687828
 21
177.2353968989107
 31
0.0
  0
LINE
  5
8FC7
330
8C52
100
AcDbEntity
  8
Visible (ISO)
100
AcDbLine
 10
1302.646081621082
 20
164.4154499539233
 30
0.0
 11
1302.64608162108
 21
157.1668654225011
 31
0.0
  0
ELLIPSE
  5
8FC8
330
8C52
100
AcDbEntity
  8
Visible (ISO)
100
AcDbEllipse
 10
1291.191772335587
 20
160.1672436693586
 30
0.0
 11
11.99999999999996
 21
-0.0000000000054262
 31
0.0
210
0.0
220
0.0
230
1.0
 40
0.8386705679454266
 41
0.3027312952873995
 42
1.349928846483992
  0
ELLIPSE
  5
8FC9
330
8C52
100
AcDbEntity
  8
Visible (ISO)
100
AcDbEllipse
 10
1327.564839294511
 20
138.9465623996418
 30
0.0
 11
44.49999999999984
 21
-0.0000000000201228
 31
0.0
210
0.0
220
0.0
230
1.0
 40
0.8386705679454264
 41
5.237698949854318
 42
5.75787533771103
  0
LINE
  5
8FCA
330
8C52
100
AcDbEntity
  8
Visible (ISO)
100
AcDbLine
 10
1305.248925690096
 20
106.6577455337426
 30
0.0
 11
1349.880752898938
 21
106.6577455337426
 31
0.0
  0
ELLIPSE
  5
8FCB
330
8C52
100
AcDbEntity
  8
Visible (ISO)
100
AcDbEllipse
 10
1327.564839294511
 20
138.9465623996418
 30
0.0
 11
44.49999999999985
 21
-0.0000000000162703
 31
0.0
210
0.0
220
0.0
230
1.0
 40
0.8386705679454264
 41
3.666902623059273
 42
4.187079010916024
  0
LINE
  5
8FCC
330
8C52
100
AcDbEntity
  8
Visible (ISO)
100
AcDbLine
 10
1366.064839294519
 20
128.2915201810226
 30
0.0
 11
1366.064839294519
 21
127.7468811460073
 31
0.0
  0
LINE
  5
8FCD
330
8C52
100
AcDbEntity
  8
Visible (ISO)
100
AcDbLine
 10
1366.064839294519
 20
127.7468811460073
 30
0.0
 11
1366.064839294514
 21
120.2308624628001
 31
0.0
  0
LINE
  5
8FCE
330
8C52
100
AcDbEntity
  8
Visible (ISO)
100
AcDbLine
 10
1289.064839294519
 20
127.7468811460073
 30
0.0
 11
1289.064839294518
 21
128.2915201810226
 31
0.0
  0
ELLIPSE
  5
8FCF
330
8C52
100
AcDbEntity
  8
Visible (ISO)
100
AcDbEllipse
 10
1327.564839294515
 20
146.462581082849
 30
0.0
 11
-44.49999999999985
 21
0.0000000000201117
 31
0.0
210
0.0
220
0.0
230
1.0
 40
0.8386705679454264
 41
0.5253099694696424
 42
1.045486357326359
  0
LINE
  5
8FD0
330
8C52
100
AcDbEntity
  8
Visible (ISO)
100
AcDbLine
 10
1349.880752898942
 20
114.1737642169498
 30
0.0
 11
1305.248925690099
 21
114.1737642169498
 31
0.0
  0
ELLIPSE
  5
8FD1
330
8C52
100
AcDbEntity
  8
Visible (ISO)
100
AcDbEllipse
 10
1327.564839294515
 20
146.462581082849
 30
0.0
 11
-44.49999999999972
 21
0.0000000000239975
 31
0.0
210
0.0
220
0.0
230
1.0
 40
0.8386705679454266
 41
2.09610629626465
 42
2.61628268412139
  0
LINE
  5
8FD2
330
8C52
100
AcDbEntity
  8
Visible (ISO)
100
AcDbLine
 10
1289.064839294519
 20
127.7468811460073
 30
0.0
 11
1289.064839294514
 21
120.2308624628001
 31
0.0
  0
LINE
  5
8FD3
330
8C52
100
AcDbEntity
  8
Visible (ISO)
100
AcDbLine
 10
1305.248925690099
 20
114.1737642169498
 30
0.0
 11
1305.248925690096
 21
106.6577455337426
 31
0.0
  0
LINE
  5
8FD4
330
8C52
100
AcDbEntity
  8
Visible (ISO)
100
AcDbLine
 10
1349.880752898942
 20
114.1737642169498
 30
0.0
 11
1349.880752898938
 21
106.6577455337426
 31
0.0
  0
LINE
  5
8FD5
330
8C52
100
AcDbEntity
  8
Visible (ISO)
100
AcDbLine
 10
1366.06483929451
 20
120.2308624628001
 30
0.0
 11
1366.06483929451
 21
119.4055381665127
 31
0.0
  0
LINE
  5
8FD6
330
8C52
100
AcDbEntity
  8
Visible (ISO)
100
AcDbLine
 10
1366.06483929451
 20
119.4055381665127
 30
0.0
 11
1365.477370204487
 21
119.4055381665127
 31
0.0
  0
LINE
  5
8FD7
330
8C52
100
AcDbEntity
  8
Visible (ISO)
100
AcDbLine
 10
1289.652308384533
 20
119.4055381665127
 30
0.0
 11
1289.064839294511
 21
119.4055381665127
 31
0.0
  0
LINE
  5
8FD8
330
8C52
100
AcDbEntity
  8
Visible (ISO)
100
AcDbLine
 10
1289.064839294511
 20
119.4055381665127
 30
0.0
 11
1289.064839294511
 21
120.2308624628001
 31
0.0
  0
ELLIPSE
  5
8FD9
330
8C52
100
AcDbEntity
  8
Visible (ISO)
100
AcDbEllipse
 10
1352.312162267446
 20
110.7806677440382
 30
0.0
 11
4.999999999999985
 21
-0.0000000000000112
 31
0.0
210
0.0
220
0.0
230
1.0
 40
0.8386705679454264
 41
4.317912257292938
 42
6.283185307179108
  0
LINE
  5
8FDA
330
8C52
100
AcDbEntity
  8
Visible (ISO)
100
AcDbLine
 10
1357.312162267445
 20
110.7806677440382
 30
0.0
 11
1357.312162267445
 21
111.1899015180131
 31
0.0
  0
ELLIPSE
  5
8FDB
330
8C52
100
AcDbEntity
  8
Visible (ISO)
100
AcDbEllipse
 10
1302.817516321583
 20
110.7806677440382
 30
0.0
 11
-4.999999999999985
 21
-0.000000000000041
 31
0.0
210
0.0
220
0.0
230
1.0
 40
0.838670567945426
 41
0.0
 42
1.965273049886508
  0
LINE
  5
8FDC
330
8C52
100
AcDbEntity
  8
Visible (ISO)
100
AcDbLine
 10
1297.817516321583
 20
111.1899015180131
 30
0.0
 11
1297.817516321583
 21
110.7806677440382
 31
0.0
  0
LINE
  5
8FDD
330
8C52
100
AcDbEntity
  8
Visible (ISO)
100
AcDbLine
 10
1391.064839294509
 20
108.5224915669984
 30
0.0
 11
1391.064839294509
 21
159.0224915669985
 31
0.0
  0
LINE
  5
8FDE
330
8C52
100
AcDbEntity
  8
Visible (ISO)
100
AcDbLine
 10
1388.214839294509
 20
108.5224915669984
 30
0.0
 11
1388.214839294509
 21
159.0224915669985
 31
0.0
  0
LINE
  5
8FDF
330
8C52
100
AcDbEntity
  8
Visible (ISO)
100
AcDbLine
 10
1383.647012854468
 20
121.0724915669986
 30
0.0
 11
1383.647012854468
 21
146.4724915669992
 31
0.0
  0
LINE
  5
8FE0
330
8C52
100
AcDbEntity
  8
Visible (ISO)
100
AcDbLine
 10
1388.214839294509
 20
159.0224915669985
 30
0.0
 11
1391.064839294509
 21
159.0224915669985
 31
0.0
  0
LINE
  5
8FE1
330
8C52
100
AcDbEntity
  8
Visible (ISO)
100
AcDbLine
 10
1388.214839294509
 20
108.5224915669984
 30
0.0
 11
1391.064839294509
 21
108.5224915669984
 31
0.0
  0
LINE
  5
8FE2
330
8C52
100
AcDbEntity
  8
Visible (ISO)
100
AcDbLine
 10
1383.647012854468
 20
146.4724915669992
 30
0.0
 11
1388.214839294509
 21
159.0224915669985
 31
0.0
  0
LINE
  5
8FE3
330
8C52
100
AcDbEntity
  8
Visible (ISO)
100
AcDbLine
 10
1383.647012854468
 20
121.0724915669986
 30
0.0
 11
1388.214839294509
 21
108.5224915669984
 31
0.0
  0
LINE
  5
8FE4
330
8C52
100
AcDbEntity
  8
Visible (ISO)
100
AcDbLine
 10
1366.064839294509
 20
146.4724915669992
 30
0.0
 11
1383.647012854468
 21
146.4724915669992
 31
0.0
  0
LINE
  5
8FE5
330
8C52
100
AcDbEntity
  8
Visible (ISO)
100
AcDbLine
 10
1366.064839294509
 20
121.0724915669986
 30
0.0
 11
1383.647012854468
 21
121.0724915669986
 31
0.0
  0
LINE
  5
8FE6
330
8C52
100
AcDbEntity
  8
Visible (ISO)
100
AcDbLine
 10
1264.064839294509
 20
108.5224915669984
 30
0.0
 11
1264.064839294509
 21
159.0224915669985
 31
0.0
  0
LINE
  5
8FE7
330
8C52
100
AcDbEntity
  8
Visible (ISO)
100
AcDbLine
 10
1266.914839294508
 20
108.5224915669984
 30
0.0
 11
1266.914839294508
 21
159.0224915669985
 31
0.0
  0
LINE
  5
8FE8
330
8C52
100
AcDbEntity
  8
Visible (ISO)
100
AcDbLine
 10
1271.482665734549
 20
121.0724915669986
 30
0.0
 11
1271.482665734549
 21
146.4724915669992
 31
0.0
  0
LINE
  5
8FE9
330
8C52
100
AcDbEntity
  8
Visible (ISO)
100
AcDbLine
 10
1264.064839294509
 20
159.0224915669985
 30
0.0
 11
1266.914839294508
 21
159.0224915669985
 31
0.0
  0
LINE
  5
8FEA
330
8C52
100
AcDbEntity
  8
Visible (ISO)
100
AcDbLine
 10
1264.064839294509
 20
108.5224915669984
 30
0.0
 11
1266.914839294508
 21
108.5224915669984
 31
0.0
  0
LINE
  5
8FEB
330
8C52
100
AcDbEntity
  8
Visible (ISO)
100
AcDbLine
 10
1271.482665734549
 20
121.0724915669986
 30
0.0
 11
1266.914839294508
 21
108.5224915669984
 31
0.0
  0
LINE
  5
8FEC
330
8C52
100
AcDbEntity
  8
Visible (ISO)
100
AcDbLine
 10
1271.482665734549
 20
146.4724915669992
 30
0.0
 11
1266.914839294508
 21
159.0224915669985
 31
0.0
  0
LINE
  5
8FED
330
8C52
100
AcDbEntity
  8
Visible (ISO)
100
AcDbLine
 10
1271.482665734549
 20
146.4724915669992
 30
0.0
 11
1289.064839294509
 21
146.4724915669992
 31
0.0
  0
LINE
  5
8FEE
330
8C52
100
AcDbEntity
  8
Visible (ISO)
100
AcDbLine
 10
1271.482665734549
 20
121.0724915669986
 30
0.0
 11
1289.064839294509
 21
121.0724915669986
 31
0.0
  0
ELLIPSE
  5
8FEF
330
8C52
100
AcDbEntity
  8
Visible (ISO)
100
AcDbEllipse
 10
1327.564839294517
 20
150.2750543279542
 30
0.0
 11
44.49999999999979
 21
-0.0000000000162925
 31
0.0
210
0.0
220
0.0
230
1.0
 40
0.8386705679454264
 41
3.666902623059275
 42
4.187079010916024
  0
SPLINE
  5
8FF0
330
8C52
100
AcDbEntity
  8
Visible (ISO)
100
AcDbSpline
210
0.0
220
0.0
230
1.0
 70
     8
 71
     3
 72
     8
 73
     4
 74
     0
 42
0.0000000001
 43
0.0000000001
 40
-0.1439790587594044
 40
-0.1439790587594044
 40
-0.1439790587594044
 40
-0.1439790587594044
 40
0.0
 40
0.0
 40
0.0
 40
0.0
 10
1305.248925690101
 20
117.9862374620549
 30
0.0
 10
1305.338563123164
 20
118.4474193300081
 30
0.0
 10
1305.428733327694
 20
118.9085636129473
 30
0.0
 10
1305.519431609473
 20
119.3695470650161
 30
0.0
  0
ELLIPSE
  5
8FF1
330
8C52
100
AcDbEntity
  8
Visible (ISO)
100
AcDbEllipse
 10
1327.564839294517
 20
150.8196933629694
 30
0.0
 11
-43.49999999999987
 21
0.0000000000196759
 31
0.0
210
0.0
220
0.0
230
1.0
 40
0.838670567945426
 41
0.5314582379393756
 42
1.039338088856572
  0
SPLINE
  5
8FF2
330
8C52
100
AcDbEntity
  8
Visible (ISO)
100
AcDbSpline
210
0.0
220
0.0
230
1.0
 70
     8
 71
     3
 72
     8
 73
     4
 74
     0
 42
0.0000000001
 43
0.0000000001
 40
-0.1439790587599179
 40
-0.1439790587599179
 40
-0.1439790587599179
 40
-0.1439790587599179
 40
0.0
 40
0.0
 40
0.0
 40
0.0
 10
1289.064839294521
 20
131.5593543911125
 30
0.0
 10
1289.398229496512
 20
131.8161079859053
 30
0.0
 10
1289.731592528154
 20
132.073293602413
 30
0.0
 10
1290.064839294521
 20
132.3308587791614
 30
0.0
  0
LINE
  5
8FF3
330
8C52
100
AcDbEntity
  8
Visible (ISO)
100
AcDbLine
 10
1305.248925690101
 20
117.9862374620549
 30
0.0
 11
1349.880752898944
 21
117.9862374620549
 31
0.0
  0
SPLINE
  5
8FF4
330
8C52
100
AcDbEntity
  8
Visible (ISO)
100
AcDbSpline
210
0.0
220
0.0
230
1.0
 70
     8
 71
     3
 72
     8
 73
     4
 74
     0
 42
0.0000000001
 43
0.0000000001
 40
-0.1439790587599355
 40
-0.1439790587599355
 40
-0.1439790587599355
 40
-0.1439790587599355
 40
0.0
 40
0.0
 40
0.0
 40
0.0
 10
1349.880752898944
 20
117.9862374620549
 30
0.0
 10
1349.791115465881
 20
118.4474193300045
 30
0.0
 10
1349.700945261352
 20
118.9085636129464
 30
0.0
 10
1349.610246979571
 20
119.3695470650161
 30
0.0
  0
LINE
  5
8FF5
330
8C52
100
AcDbEntity
  8
Visible (ISO)
100
AcDbLine
 10
1349.610246979571
 20
119.3695470650161
 30
0.0
 11
1305.519431609473
 21
119.3695470650161
 31
0.0
  0
LINE
  5
8FF6
330
8C52
100
AcDbEntity
  8
Visible (ISO)
100
AcDbLine
 10
1366.06483929452
 20
131.5593543911125
 30
0.0
 11
1366.064839294512
 21
168.9907542647949
 31
0.0
  0
SPLINE
  5
8FF7
330
8C52
100
AcDbEntity
  8
Visible (ISO)
100
AcDbSpline
210
0.0
220
0.0
230
1.0
 70
     8
 71
     3
 72
     8
 73
     4
 74
     0
 42
0.0000000001
 43
0.0000000001
 40
-0.1439790587595074
 40
-0.1439790587595074
 40
-0.1439790587595074
 40
-0.1439790587595074
 40
0.0
 40
0.0
 40
0.0
 40
0.0
 10
1366.064839294512
 20
168.9907542647949
 30
0.0
 10
1365.731449092518
 20
169.0971553057968
 30
0.0
 10
1365.398086060878
 20
169.2030947290147
 30
0.0
 10
1365.064839294513
 20
169.3085279467775
 30
0.0
  0
LINE
  5
8FF8
330
8C52
100
AcDbEntity
  8
Visible (ISO)
100
AcDbLine
 10
1365.064839294513
 20
169.3085279467775
 30
0.0
 11
1365.06483929452
 21
132.3308587791614
 31
0.0
  0
SPLINE
  5
8FF9
330
8C52
100
AcDbEntity
  8
Visible (ISO)
100
AcDbSpline
210
0.0
220
0.0
230
1.0
 70
     8
 71
     3
 72
     8
 73
     4
 74
     0
 42
0.0000000001
 43
0.0000000001
 40
-0.1439790369046828
 40
-0.1439790369046828
 40
-0.1439790369046828
 40
-0.1439790369046828
 40
0.0
 40
0.0
 40
0.0
 40
0.0
 10
1365.06483929452
 20
132.3308587791614
 30
0.0
 10
1365.398086060885
 20
132.0732936024139
 30
0.0
 10
1365.731449092526
 20
131.8161079859071
 30
0.0
 10
1366.06483929452
 20
131.5593543911125
 30
0.0
  0
ELLIPSE
  5
8FFA
330
8C52
100
AcDbEntity
  8
Visible (ISO)
100
AcDbEllipse
 10
1327.564839294517
 20
150.2750543279542
 30
0.0
 11
44.49999999999991
 21
-0.0000000000201394
 31
0.0
210
0.0
220
0.0
230
1.0
 40
0.8386705679454266
 41
5.237698949854319
 42
5.75787533771103
  0
ELLIPSE
  5
8FFB
330
8C52
100
AcDbEntity
  8
Visible (ISO)
100
AcDbEllipse
 10
1327.564839294517
 20
150.8196933629694
 30
0.0
 11
-43.49999999999993
 21
0.0000000000234424
 31
0.0
210
0.0
220
0.0
230
1.0
 40
0.8386705679454264
 41
2.102254564734383
 42
2.610134415651632
  0
ELLIPSE
  5
8FFC
330
8C52
100
AcDbEntity
  8
Visible (ISO)
100
AcDbEllipse
 10
1327.564839294515
 20
150.2750543279542
 30
0.0
 11
-44.50000000000089
 21
0.0000000000162592
 31
0.0
210
0.0
220
0.0
230
1.0
 40
0.8386705679454264
 41
3.666902623059266
 42
3.819598290242058
  0
ELLIPSE
  5
8FFD
330
8C52
100
AcDbEntity
  8
Visible (ISO)
100
AcDbEllipse
 10
1327.564839294518
 20
150.8196933629694
 30
0.0
 11
43.49999999999814
 21
-0.0000000000196676
 31
0.0
210
0.0
220
0.0
230
1.0
 40
0.8386705679454266
 41
0.5314582379394004
 42
0.6536367095188771
  0
ELLIPSE
  5
8FFE
330
8C52
100
AcDbEntity
  8
Visible (ISO)
100
AcDbEllipse
 10
1327.564839294518
 20
150.2750543279542
 30
0.0
 11
-44.50000000000104
 21
0.0000000000201339
 31
0.0
210
0.0
220
0.0
230
1.0
 40
0.8386705679454264
 41
5.605179670528281
 42
5.75787533771103
  0
SPLINE
  5
8FFF
330
8C52
100
AcDbEntity
  8
Visible (ISO)
100
AcDbSpline
210
0.0
220
0.0
230
1.0
 70
     8
 71
     3
 72
     8
 73
     4
 74
     0
 42
0.0000000001
 43
0.0000000001
 40
-0.1439790587594705
 40
-0.1439790587594705
 40
-0.1439790587594705
 40
-0.1439790587594705
 40
0.0
 40
0.0
 40
0.0
 40
0.0
 10
1289.064839294513
 20
168.9907542647949
 30
0.0
 10
1289.398229496508
 20
169.0971553057968
 30
0.0
 10
1289.731592528148
 20
169.2030947290147
 30
0.0
 10
1290.064839294513
 20
169.3085279467775
 30
0.0
  0
ELLIPSE
  5
9000
330
8C52
100
AcDbEntity
  8
Visible (ISO)
100
AcDbEllipse
 10
1327.564839294517
 20
150.8196933629694
 30
0.0
 11
43.49999999999939
 21
-0.0000000000234313
 31
0.0
210
0.0
220
0.0
230
1.0
 40
0.8386705679454264
 41
2.487955944072169
 42
2.610134415651641
  0
LINE
  5
9001
330
8C52
100
AcDbEntity
  8
Visible (ISO)
100
AcDbLine
 10
1289.064839294513
 20
168.9907542647949
 30
0.0
 11
1289.064839294521
 21
131.5593543911125
 31
0.0
  0
LINE
  5
9002
330
8C52
100
AcDbEntity
  8
Visible (ISO)
100
AcDbLine
 10
1290.064839294521
 20
132.3308587791614
 30
0.0
 11
1290.064839294513
 21
169.3085279467775
 31
0.0
  0
LINE
  5
9003
330
8C52
100
AcDbEntity
  8
Visible (ISO)
100
AcDbLine
 10
1349.880752898942
 20
114.7184032519651
 30
0.0
 11
1305.248925690099
 21
114.7184032519651
 31
0.0
  0
ELLIPSE
  5
9004
330
8C52
100
AcDbEntity
  8
Visible (ISO)
100
AcDbEllipse
 10
1327.564839294515
 20
147.0072201178643
 30
0.0
 11
-44.49999999999984
 21
0.0000000000239947
 31
0.0
210
0.0
220
0.0
230
1.0
 40
0.8386705679454264
 41
2.09610629626465
 42
2.61628268412139
  0
ELLIPSE
  5
9005
330
8C52
100
AcDbEntity
  8
Visible (ISO)
100
AcDbEllipse
 10
1327.564839294515
 20
147.0072201178643
 30
0.0
 11
-44.49999999999986
 21
0.0000000000201283
 31
0.0
210
0.0
220
0.0
230
1.0
 40
0.8386705679454264
 41
0.5253099694696424
 42
1.045486357326359
  0
LINE
  5
9006
330
8C52
100
AcDbEntity
  8
Visible (ISO)
100
AcDbLine
 10
1366.06483929452
 20
131.5593543911125
 30
0.0
 11
1366.064839294519
 21
128.2915201810226
 31
0.0
  0
LINE
  5
9007
330
8C52
100
AcDbEntity
  8
Visible (ISO)
100
AcDbLine
 10
1289.064839294521
 20
131.5593543911125
 30
0.0
 11
1289.064839294519
 21
128.2915201810226
 31
0.0
  0
LINE
  5
9008
330
8C52
100
AcDbEntity
  8
Visible (ISO)
100
AcDbLine
 10
1305.248925690101
 20
117.9862374620549
 30
0.0
 11
1305.248925690099
 21
114.7184032519651
 31
0.0
  0
LINE
  5
9009
330
8C52
100
AcDbEntity
  8
Visible (ISO)
100
AcDbLine
 10
1349.880752898944
 20
117.9862374620549
 30
0.0
 11
1349.880752898942
 21
114.7184032519651
 31
0.0
  0
LINE
  5
900A
330
8C52
100
AcDbEntity
  8
Visible (ISO)
100
AcDbLine
 10
975.483596967979
 20
198.391785769925
 30
0.0
 11
975.4835969679822
 21
205.6403703013482
 31
0.0
  0
ELLIPSE
  5
900B
330
8C52
100
AcDbEntity
  8
Visible (ISO)
100
AcDbEllipse
 10
986.9379062534724
 20
195.3914075230675
 30
0.0
 11
-11.99999999999997
 21
0.0000000000055355
 31
0.0
210
0.0
220
0.0
230
1.0
 40
0.8386705679454264
 41
5.980454011893293
 42
7.633114153663617
  0
LINE
  5
900C
330
8C52
100
AcDbEntity
  8
Visible (ISO)
100
AcDbLine
 10
984.3089929012382
 20
192.8204233563626
 30
0.0
 11
984.3089929012347
 21
185.5718388249385
 31
0.0
  0
SPLINE
  5
900D
330
8C52
100
AcDbEntity
  8
Visible (ISO)
100
AcDbSpline
210
0.0
220
0.0
230
1.0
 70
     8
 71
     3
 72
    14
 73
    10
 74
     0
 42
0.0000000001
 43
0.0000000001
 40
5.575809951728711
 40
5.575809951728711
 40
5.575809951728711
 40
5.575809951728711
 40
5.830651674155731
 40
5.830651674155731
 40
6.195843290337501
 40
6.195843290337501
 40
6.561034906519272
 40
6.561034906519272
 40
6.78239621584478
 40
6.78239621584478
 40
6.78239621584478
 40
6.78239621584478
 10
975.4851233737642
 20
200.0809831920248
 30
0.0
 10
975.7564662852589
 20
199.382407096901
 30
0.0
 10
976.1208652040188
 20
198.7051217492896
 30
0.0
 10
977.1542541017003
 20
197.2040003330946
 30
0.0
 10
977.9804921798747
 20
196.3076142206334
 30
0.0
 10
979.926802935847
 20
194.7457661554287
 30
0.0
 10
981.0467820576239
 20
194.0807390298775
 30
0.0
 10
982.8241881463267
 20
193.2923082575341
 30
0.0
 10
983.5525604886949
 20
193.0285720097069
 30
0.0
 10
984.3089929012382
 20
192.8204233563626
 30
0.0
  0
LINE
  5
900E
330
8C52
100
AcDbEntity
  8
Visible (ISO)
100
AcDbLine
 10
941.739443361271
 20
206.1842989986505
 30
0.0
 11
941.7394433612741
 21
213.4328835300745
 31
0.0
  0
ELLIPSE
  5
900F
330
8C52
100
AcDbEntity
  8
Visible (ISO)
100
AcDbEllipse
 10
950.5648392945229
 20
213.0034894499219
 30
0.0
 11
-11.99999999999996
 21
0.0000000000065781
 31
0.0
210
0.0
220
0.0
230
1.0
 40
0.8386705679454262
 41
0.7444662559103357
 42
2.397126397680718
  0
LINE
  5
9010
330
8C52
100
AcDbEntity
  8
Visible (ISO)
100
AcDbLine
 10
959.3902352277806
 20
213.4328835300745
 30
0.0
 11
959.3902352277776
 21
206.1842989986505
 31
0.0
  0
SPLINE
  5
9011
330
8C52
100
AcDbEntity
  8
Visible (ISO)
100
AcDbSpline
210
0.0
220
0.0
230
1.0
 70
     8
 71
     3
 72
    18
 73
    14
 74
     0
 42
0.0000000001
 43
0.0000000001
 40
4.87890713246668
 40
4.87890713246668
 40
4.87890713246668
 40
4.87890713246668
 40
5.100268441792188
 40
5.100268441792188
 40
5.465460057973958
 40
5.465460057973958
 40
5.830651674155729
 40
5.830651674155729
 40
6.195843290337499
 40
6.195843290337499
 40
6.561034906519269
 40
6.561034906519269
 40
6.78239621584478
 40
6.78239621584478
 40
6.78239621584478
 40
6.78239621584478
 10
941.7394433612741
 20
213.4328835300745
 30
0.0
 10
942.2647471544676
 20
213.020406952957
 30
0.0
 10
942.8385884643047
 20
212.6536026539877
 30
0.0
 10
944.3965076510924
 20
211.8270466540868
 30
0.0
 10
945.5611132806405
 20
211.3858625862137
 30
0.0
 10
948.0365474131611
 20
210.8066722472683
 30
0.0
 10
949.3475339072558
 20
210.6681999490999
 30
0.0
 10
951.7821446818009
 20
210.6681999490999
 30
0.0
 10
953.0931311758957
 20
210.8066722472683
 30
0.0
 10
955.5685653084154
 20
211.3858625862137
 30
0.0
 10
956.7331709379638
 20
211.8270466540868
 30
0.0
 10
958.2910901247508
 20
212.6536026539877
 30
0.0
 10
958.8649314345882
 20
213.020406952957
 30
0.0
 10
959.3902352277806
 20
213.4328835300745
 30
0.0
  0
LINE
  5
9012
330
8C52
100
AcDbEntity
  8
Visible (ISO)
100
AcDbLine
 10
916.8206856878212
 20
185.5718388249385
 30
0.0
 11
916.8206856878247
 21
192.8204233563626
 31
0.0
  0
ELLIPSE
  5
9013
330
8C52
100
AcDbEntity
  8
Visible (ISO)
100
AcDbEllipse
 10
914.1917723355797
 20
195.3914075230675
 30
0.0
 11
11.99999999999997
 21
-0.0000000000055393
 31
0.0
210
0.0
220
0.0
230
1.0
 40
0.8386705679454264
 41
4.933256460696661
 42
6.585916602467047
  0
LINE
  5
9014
330
8C52
100
AcDbEntity
  8
Visible (ISO)
100
AcDbLine
 10
925.6460816210758
 20
205.6403703013482
 30
0.0
 11
925.6460816210726
 21
198.391785769925
 31
0.0
  0
SPLINE
  5
9015
330
8C52
100
AcDbEntity
  8
Visible (ISO)
100
AcDbSpline
210
0.0
220
0.0
230
1.0
 70
     8
 71
     3
 72
    14
 73
    10
 74
     0
 42
0.0000000001
 43
0.0000000001
 40
4.878907132466679
 40
4.878907132466679
 40
4.878907132466679
 40
4.878907132466679
 40
5.100268441792188
 40
5.100268441792188
 40
5.465460057973958
 40
5.465460057973958
 40
5.830651674155729
 40
5.830651674155729
 40
6.08549339658274
 40
6.08549339658274
 40
6.08549339658274
 40
6.08549339658274
 10
916.8206856878247
 20
192.8204233563626
 30
0.0
 10
917.577118100368
 20
193.0285720097069
 30
0.0
 10
918.3054904427365
 20
193.2923082575341
 30
0.0
 10
920.0828965314393
 20
194.0807390298775
 30
0.0
 10
921.2028756532156
 20
194.7457661554287
 30
0.0
 10
923.1491864091875
 20
196.3076142206334
 30
0.0
 10
923.9754244873617
 20
197.2040003330946
 30
0.0
 10
925.0088133850429
 20
198.7051217492896
 30
0.0
 10
925.3732123038023
 20
199.382407096901
 30
0.0
 10
925.644555215296
 20
200.0809831920248
 30
0.0
  0
ELLIPSE
  5
9016
330
8C52
100
AcDbEntity
  8
Visible (ISO)
100
AcDbEllipse
 10
950.5648392945333
 20
185.0279101276371
 30
0.0
 11
34.99999999999959
 21
-0.000000000016151
 31
0.0
210
0.0
220
0.0
230
1.0
 40
0.8386705679454264
 41
0.0
 42
0.2686930625188566
  0
ELLIPSE
  5
9017
330
8C52
100
AcDbEntity
  8
Visible (ISO)
100
AcDbEllipse
 10
950.5648392945333
 20
185.0279101276362
 30
0.0
 11
-35.00000000000027
 21
0.0000000000001761
 31
0.0
210
0.0
220
0.0
230
1.0
 40
0.8386705679454264
 41
6.014492244660862
 42
6.283185307179144
  0
ELLIPSE
  5
9018
330
8C52
100
AcDbEntity
  8
Visible (ISO)
100
AcDbEllipse
 10
950.564839294533
 20
185.0279101276371
 30
0.0
 11
34.9999999999998
 21
-0.000000000019193
 31
0.0
210
0.0
220
0.0
230
1.0
 40
0.8386705679454264
 41
1.825702039875531
 42
2.363088164912179
  0
ELLIPSE
  5
9019
330
8C52
100
AcDbEntity
  8
Visible (ISO)
100
AcDbEllipse
 10
950.564839294533
 20
185.0279101276371
 30
0.0
 11
34.99999999999986
 21
-0.0000000000161593
 31
0.0
210
0.0
220
0.0
230
1.0
 40
0.8386705679454264
 41
0.7785044886788484
 42
1.315890613715453
  0
ELLIPSE
  5
901A
330
8C52
100
AcDbEntity
  8
Visible (ISO)
100
AcDbEllipse
 10
950.5648392945301
 20
177.779325596213
 30
0.0
 11
34.99999999999976
 21
-0.000000000016144
 31
0.0
210
0.0
220
0.0
230
1.0
 40
0.8386705679454262
 41
6.143218505933081
 42
6.551878369698441
  0
ELLIPSE
  5
901B
330
8C52
100
AcDbEntity
  8
Visible (ISO)
100
AcDbEllipse
 10
950.5648392945298
 20
177.779325596213
 30
0.0
 11
-34.99999999999999
 21
0.0000000000161489
 31
0.0
210
0.0
220
0.0
230
1.0
 40
0.8386705679454264
 41
6.014492244661832
 42
6.423152108427177
  0
ELLIPSE
  5
901C
330
8C52
100
AcDbEntity
  8
Visible (ISO)
100
AcDbEllipse
 10
950.5648392945298
 20
177.779325596213
 30
0.0
 11
34.99999999999984
 21
-0.0000000000191736
 31
0.0
210
0.0
220
0.0
230
1.0
 40
0.8386705679454262
 41
1.825702039875515
 42
2.36308816491217
  0
ELLIPSE
  5
901D
330
8C52
100
AcDbEntity
  8
Visible (ISO)
100
AcDbEllipse
 10
950.5648392945298
 20
177.779325596213
 30
0.0
 11
-16.49999999999996
 21
0.0000000000076134
 31
0.0
210
0.0
220
0.0
230
1.0
 40
0.8386705679454264
 41
3.494633299577479
 42
5.930144661193
  0
ELLIPSE
  5
901E
330
8C52
100
AcDbEntity
  8
Visible (ISO)
100
AcDbEllipse
 10
950.5648392945298
 20
177.779325596213
 30
0.0
 11
34.99999999999983
 21
-0.0000000000161426
 31
0.0
210
0.0
220
0.0
230
1.0
 40
0.8386705679454264
 41
0.7785044886788493
 42
1.315890613715454
  0
LINE
  5
901F
330
8C52
100
AcDbEntity
  8
Visible (ISO)
100
AcDbLine
 10
985.5648392945298
 20
177.779325596213
 30
0.0
 11
985.564839294533
 21
185.0279101276362
 31
0.0
  0
LINE
  5
9020
330
8C52
100
AcDbEntity
  8
Visible (ISO)
100
AcDbLine
 10
915.5648392945296
 20
177.779325596213
 30
0.0
 11
915.5648392945328
 21
185.0279101276371
 31
0.0
  0
ELLIPSE
  5
9021
330
8C52
100
AcDbEntity
  8
Visible (ISO)
100
AcDbEllipse
 10
979.2532951609361
 20
159.2004566155244
 30
0.0
 11
9.999999999999964
 21
-0.000000000003747
 31
0.0
210
0.0
220
0.0
230
1.0
 40
0.838670567945426
 41
3.841308070499183
 42
4.712388980385168
  0
ELLIPSE
  5
9022
330
8C52
100
AcDbEntity
  8
Visible (ISO)
100
AcDbEllipse
 10
979.2532951609361
 20
159.9133265982779
 30
0.0
 11
-0.0000000000022401
 21
-16.77341135890847
 31
0.0
210
0.0
220
0.0
230
1.0
 40
0.5961816464179723
 41
5.412104397293362
 42
6.283185307179137
  0
ELLIPSE
  5
9023
330
8C52
100
AcDbEntity
  8
Visible (ISO)
100
AcDbEllipse
 10
921.8763834280796
 20
159.2004566155244
 30
0.0
 11
9.99999999999996
 21
0.0
 31
0.0
210
0.0
220
0.0
230
1.0
 40
0.8386705679454264
 41
4.712388980385016
 42
5.583469890270725
  0
ELLIPSE
  5
9024
330
8C52
100
AcDbEntity
  8
Visible (ISO)
100
AcDbEllipse
 10
921.8763834280801
 20
159.9133265982779
 30
0.0
 11
-0.0000000000022401
 21
-16.77341135890847
 31
0.0
210
0.0
220
0.0
230
1.0
 40
0.5961816464179723
 41
0.0
 42
0.8710809098856868
  0
ELLIPSE
  5
9025
330
8C52
100
AcDbEntity
  8
Visible (ISO)
100
AcDbEllipse
 10
950.564839294512
 20
138.9465623996418
 30
0.0
 11
-27.49999999999988
 21
0.0000000000103001
 31
0.0
210
0.0
220
0.0
230
1.0
 40
0.8386705679454262
 41
3.841308070499163
 42
4.152422145262793
  0
ELLIPSE
  5
9026
330
8C52
100
AcDbEntity
  8
Visible (ISO)
100
AcDbEllipse
 10
950.564839294503
 20
119.4055381665136
 30
0.0
 11
-0.0000000000061625
 21
-46.12688123699829
 31
0.0
210
0.0
220
0.0
230
1.0
 40
0.5961816464179725
 41
2.270511743703568
 42
2.581625818467085
  0
LINE
  5
9027
330
8C52
100
AcDbEntity
  8
Visible (ISO)
100
AcDbLine
 10
989.0648392945093
 20
150.8137509360692
 30
0.0
 11
979.2532951609375
 21
150.8137509360692
 31
0.0
  0
LINE
  5
9028
330
8C52
100
AcDbEntity
  8
Visible (ISO)
100
AcDbLine
 10
912.0648392945092
 20
150.8137509360692
 30
0.0
 11
921.8763834280814
 21
150.8137509360692
 31
0.0
  0
ELLIPSE
  5
9029
330
8C52
100
AcDbEntity
  8
Visible (ISO)
100
AcDbEllipse
 10
950.564839294512
 20
138.9465623996418
 30
0.0
 11
27.49999999999987
 21
-0.0000000000150699
 31
0.0
210
0.0
220
0.0
230
1.0
 40
0.8386705679454264
 41
2.130763161917892
 42
2.441877236681534
  0
ELLIPSE
  5
902A
330
8C52
100
AcDbEntity
  8
Visible (ISO)
100
AcDbEllipse
 10
950.564839294503
 20
119.4055381665136
 30
0.0
 11
-0.0000000000061581
 21
-46.12688123699829
 31
0.0
210
0.0
220
0.0
230
1.0
 40
0.5961816464179725
 41
3.701559488711774
 42
4.012673563475479
  0
LINE
  5
902B
330
8C52
100
AcDbEntity
  8
Visible (ISO)
100
AcDbLine
 10
912.064839294506
 20
143.1399152393694
 30
0.0
 11
912.0648392945097
 21
150.8137509360692
 31
0.0
  0
LINE
  5
902C
330
8C52
100
AcDbEntity
  8
Visible (ISO)
100
AcDbLine
 10
921.8763834280778
 20
143.1399152393694
 30
0.0
 11
912.064839294506
 21
143.1399152393694
 31
0.0
  0
LINE
  5
902D
330
8C52
100
AcDbEntity
  8
Visible (ISO)
100
AcDbLine
 10
989.0648392945056
 20
143.1399152393694
 30
0.0
 11
979.2532951609343
 21
143.1399152393694
 31
0.0
  0
LINE
  5
902E
330
8C52
100
AcDbEntity
  8
Visible (ISO)
100
AcDbLine
 10
989.0648392945093
 20
150.8137509360692
 30
0.0
 11
989.0648392945056
 21
143.1399152393694
 31
0.0
  0
LINE
  5
902F
330
8C52
100
AcDbEntity
  8
Visible (ISO)
100
AcDbLine
 10
989.0648392945079
 20
157.6622623364835
 30
0.0
 11
989.0648392945093
 21
150.8137509360692
 31
0.0
  0
ELLIPSE
  5
9030
330
8C52
100
AcDbEntity
  8
Visible (ISO)
100
AcDbEllipse
 10
950.564839294512
 20
138.9465623996418
 30
0.0
 11
44.49999999999977
 21
-0.0000000000205086
 31
0.0
210
0.0
220
0.0
230
1.0
 40
0.8386705679454266
 41
0.5253099694696451
 42
1.045486357326355
  0
LINE
  5
9031
330
8C52
100
AcDbEntity
  8
Visible (ISO)
100
AcDbLine
 10
928.2489256900841
 20
171.235379265541
 30
0.0
 11
972.8807528989271
 21
171.235379265541
 31
0.0
  0
ELLIPSE
  5
9032
330
8C52
100
AcDbEntity
  8
Visible (ISO)
100
AcDbEllipse
 10
950.564839294512
 20
138.9465623996418
 30
0.0
 11
44.49999999999983
 21
-0.0000000000243888
 31
0.0
210
0.0
220
0.0
230
1.0
 40
0.8386705679454264
 41
2.096106296264657
 42
2.616282684121406
  0
LINE
  5
9033
330
8C52
100
AcDbEntity
  8
Visible (ISO)
100
AcDbLine
 10
912.0648392945092
 20
150.8137509360692
 30
0.0
 11
912.0648392945083
 21
157.6622623364835
 31
0.0
  0
ELLIPSE
  5
9034
330
8C52
100
AcDbEntity
  8
Visible (ISO)
100
AcDbEllipse
 10
950.5648392944896
 20
138.9465623996109
 30
0.0
 11
-44.49999999995638
 21
0.0000000000205252
 31
0.0
210
0.0
220
0.0
230
1.0
 40
0.8386705679454264
 41
1.032193624375484
 42
1.045486357326366
  0
ELLIPSE
  5
9035
330
8C52
100
AcDbEntity
  8
Visible (ISO)
100
AcDbEllipse
 10
950.564839294512
 20
138.9465623996418
 30
0.0
 11
-44.49999999999996
 21
0.0000000000205058
 31
0.0
210
0.0
220
0.0
230
1.0
 40
0.8386705679454262
 41
0.5510657449416767
 42
0.8386342922672813
  0
LINE
  5
9036
330
8C52
100
AcDbEntity
  8
Visible (ISO)
100
AcDbLine
 10
972.8807528989394
 20
106.6577455337426
 30
0.0
 11
928.2489256900969
 21
106.6577455337426
 31
0.0
  0
ELLIPSE
  5
9037
330
8C52
100
AcDbEntity
  8
Visible (ISO)
100
AcDbEllipse
 10
950.564839294512
 20
138.9465623996418
 30
0.0
 11
-44.49999999999991
 21
0.000000000024386
 31
0.0
210
0.0
220
0.0
230
1.0
 40
0.8386705679454262
 41
2.302958361323732
 42
2.590526908649371
  0
ELLIPSE
  5
9038
330
8C52
100
AcDbEntity
  8
Visible (ISO)
100
AcDbEllipse
 10
950.5648392945152
 20
138.9465623996363
 30
0.0
 11
-44.49999999999312
 21
0.0000000000243833
 31
0.0
210
0.0
220
0.0
230
1.0
 40
0.838670567945426
 41
2.096106296264609
 42
2.109399029215497
  0
LINE
  5
9039
330
8C52
100
AcDbEntity
  8
Visible (ISO)
100
AcDbLine
 10
912.064839294512
 20
165.1782810196907
 30
0.0
 11
912.0648392945083
 21
157.6622623364835
 31
0.0
  0
LINE
  5
903A
330
8C52
100
AcDbEntity
  8
Visible (ISO)
100
AcDbLine
 10
972.8807528989303
 20
178.7513979487482
 30
0.0
 11
928.2489256900879
 21
178.7513979487482
 31
0.0
  0
ELLIPSE
  5
903B
330
8C52
100
AcDbEntity
  8
Visible (ISO)
100
AcDbEllipse
 10
950.5648392945152
 20
146.462581082849
 30
0.0
 11
-44.49999999999987
 21
0.0000000000166783
 31
0.0
210
0.0
220
0.0
230
1.0
 40
0.8386705679454264
 41
3.666902623059279
 42
4.187079010916027
  0
ELLIPSE
  5
903C
330
8C52
100
AcDbEntity
  8
Visible (ISO)
100
AcDbEllipse
 10
950.5648392945156
 20
146.462581082849
 30
0.0
 11
-44.49999999999993
 21
0.0000000000205336
 31
0.0
210
0.0
220
0.0
230
1.0
 40
0.838670567945426
 41
5.237698949854333
 42
5.757875337711043
  0
LINE
  5
903D
330
8C52
100
AcDbEntity
  8
Visible (ISO)
100
AcDbLine
 10
989.0648392945115
 20
165.1782810196907
 30
0.0
 11
989.0648392945083
 21
157.6622623364835
 31
0.0
  0
LINE
  5
903E
330
8C52
100
AcDbEntity
  8
Visible (ISO)
100
AcDbLine
 10
972.8807528989303
 20
178.7513979487482
 30
0.0
 11
972.8807528989271
 21
171.235379265541
 31
0.0
  0
LINE
  5
903F
330
8C52
100
AcDbEntity
  8
Visible (ISO)
100
AcDbLine
 10
928.2489256900879
 20
178.7513979487482
 30
0.0
 11
928.2489256900841
 21
171.235379265541
 31
0.0
  0
LINE
  5
9040
330
8C52
100
AcDbEntity
  8
Visible (ISO)
100
AcDbLine
 10
935.9579915852998
 20
158.4875866327708
 30
0.0
 11
965.171687003716
 21
158.4875866327708
 31
0.0
  0
LINE
  5
9041
330
8C52
100
AcDbEntity
  8
Visible (ISO)
100
AcDbLine
 10
912.064839294506
 20
143.1399152393694
 30
0.0
 11
912.0648392945048
 21
132.3449129520493
 31
0.0
  0
LINE
  5
9042
330
8C52
100
AcDbEntity
  8
Visible (ISO)
100
AcDbLine
 10
937.6148392945044
 20
132.3449129520493
 30
0.0
 11
912.0648392945048
 21
132.3449129520493
 31
0.0
  0
LINE
  5
9043
330
8C52
100
AcDbEntity
  8
Visible (ISO)
100
AcDbLine
 10
989.0648392945047
 20
132.3449129520493
 30
0.0
 11
963.5148392945046
 21
132.3449129520493
 31
0.0
  0
LINE
  5
9044
330
8C52
100
AcDbEntity
  8
Visible (ISO)
100
AcDbLine
 10
989.0648392945047
 20
132.3449129520493
 30
0.0
 11
989.0648392945056
 21
143.1399152393694
 31
0.0
  0
LINE
  5
9045
330
8C52
100
AcDbEntity
  8
Visible (ISO)
100
AcDbLine
 10
912.0648392945048
 20
132.3449129520493
 30
0.0
 11
912.0648392945074
 21
119.4055381665136
 31
0.0
  0
LINE
  5
9046
330
8C52
100
AcDbEntity
  8
Visible (ISO)
100
AcDbLine
 10
963.5148392945072
 20
119.4055381665136
 30
0.0
 11
989.064839294507
 21
119.4055381665136
 31
0.0
  0
LINE
  5
9047
330
8C52
100
AcDbEntity
  8
Visible (ISO)
100
AcDbLine
 10
912.0648392945074
 20
119.4055381665136
 30
0.0
 11
937.6148392945072
 21
119.4055381665136
 31
0.0
  0
LINE
  5
9048
330
8C52
100
AcDbEntity
  8
Visible (ISO)
100
AcDbLine
 10
989.064839294507
 20
119.4055381665136
 30
0.0
 11
989.0648392945047
 21
132.3449129520493
 31
0.0
  0
ELLIPSE
  5
9049
330
8C52
100
AcDbEntity
  8
Visible (ISO)
100
AcDbEllipse
 10
975.3121622674386
 20
163.68123113465
 30
0.0
 11
-4.999999999999985
 21
0.0
 31
0.0
210
0.0
220
0.0
230
1.0
 40
0.8386705679454264
 41
3.141592653589306
 42
6.2831853071791
  0
ELLIPSE
  5
904A
330
8C52
100
AcDbEntity
  8
Visible (ISO)
100
AcDbEllipse
 10
925.8175163215753
 20
163.68123113465
 30
0.0
 11
-4.999999999999985
 21
0.0000000000000708
 31
0.0
210
0.0
220
0.0
230
1.0
 40
0.8386705679454264
 41
3.141592653589416
 42
6.283185307179208
  0
ELLIPSE
  5
904B
330
8C52
100
AcDbEntity
  8
Visible (ISO)
100
AcDbEllipse
 10
925.8175163215735
 20
160.2500052140546
 30
0.0
 11
4.999999999999985
 21
0.0
 31
0.0
210
0.0
220
0.0
230
1.0
 40
0.8386705679454264
 41
0.0
 42
6.283185307179586
  0
ELLIPSE
  5
904C
330
8C52
100
AcDbEntity
  8
Visible (ISO)
100
AcDbEllipse
 10
975.3121622674369
 20
160.2500052140546
 30
0.0
 11
-4.999999999999985
 21
0.0
 31
0.0
210
0.0
220
0.0
230
1.0
 40
0.8386705679454264
 41
0.0
 42
6.283185307179586
  0
LINE
  5
904D
330
8C52
100
AcDbEntity
  8
Visible (ISO)
100
AcDbLine
 10
930.8175163215754
 20
163.68123113465
 30
0.0
 11
930.8175163215734
 21
160.2500052140546
 31
0.0
  0
LINE
  5
904E
330
8C52
100
AcDbEntity
  8
Visible (ISO)
100
AcDbLine
 10
920.8175163215754
 20
163.68123113465
 30
0.0
 11
920.8175163215734
 21
160.2500052140546
 31
0.0
  0
LINE
  5
904F
330
8C52
100
AcDbEntity
  8
Visible (ISO)
100
AcDbLine
 10
970.3121622674368
 20
160.2500052140546
 30
0.0
 11
970.3121622674386
 21
163.68123113465
 31
0.0
  0
LINE
  5
9050
330
8C52
100
AcDbEntity
  8
Visible (ISO)
100
AcDbLine
 10
980.3121622674368
 20
160.2500052140546
 30
0.0
 11
980.3121622674387
 21
163.68123113465
 31
0.0
  0
ELLIPSE
  5
9051
330
8C52
100
AcDbEntity
  8
Visible (ISO)
100
AcDbEllipse
 10
975.3121622674486
 20
114.2118936646336
 30
0.0
 11
-4.999999999999985
 21
0.0
 31
0.0
210
0.0
220
0.0
230
1.0
 40
0.8386705679454264
 41
3.141592653589306
 42
6.2831853071791
  0
ELLIPSE
  5
9052
330
8C52
100
AcDbEntity
  8
Visible (ISO)
100
AcDbEllipse
 10
975.3121622674468
 20
110.7806677440391
 30
0.0
 11
4.999999999999985
 21
0.0
 31
0.0
210
0.0
220
0.0
230
1.0
 40
0.8386705679454264
 41
0.0
 42
6.283185307179586
  0
LINE
  5
9053
330
8C52
100
AcDbEntity
  8
Visible (ISO)
100
AcDbLine
 10
980.3121622674487
 20
114.2118936646336
 30
0.0
 11
980.3121622674469
 21
110.7806677440391
 31
0.0
  0
LINE
  5
9054
330
8C52
100
AcDbEntity
  8
Visible (ISO)
100
AcDbLine
 10
970.3121622674487
 20
114.2118936646336
 30
0.0
 11
970.3121622674469
 21
110.7806677440391
 31
0.0
  0
ELLIPSE
  5
9055
330
8C52
100
AcDbEntity
  8
Visible (ISO)
100
AcDbEllipse
 10
925.8175163215849
 20
114.2118936646336
 30
0.0
 11
-4.999999999999985
 21
0.000000000000108
 31
0.0
210
0.0
220
0.0
230
1.0
 40
0.8386705679454264
 41
3.141592653589428
 42
6.283185307179221
  0
ELLIPSE
  5
9056
330
8C52
100
AcDbEntity
  8
Visible (ISO)
100
AcDbEllipse
 10
925.8175163215835
 20
110.7806677440391
 30
0.0
 11
-4.999999999999985
 21
0.0
 31
0.0
210
0.0
220
0.0
230
1.0
 40
0.8386705679454264
 41
0.0
 42
6.283185307179586
  0
LINE
  5
9057
330
8C52
100
AcDbEntity
  8
Visible (ISO)
100
AcDbLine
 10
920.8175163215836
 20
110.7806677440391
 30
0.0
 11
920.8175163215848
 21
114.2118936646336
 31
0.0
  0
LINE
  5
9058
330
8C52
100
AcDbEntity
  8
Visible (ISO)
100
AcDbLine
 10
930.8175163215835
 20
110.7806677440391
 30
0.0
 11
930.8175163215848
 21
114.2118936646336
 31
0.0
  0
LINE
  5
9059
330
8C52
100
AcDbEntity
  8
Visible (ISO)
100
AcDbLine
 10
937.6148392945044
 20
132.3449129520493
 30
0.0
 11
944.5026614680152
 21
145.3400634599035
 31
0.0
  0
ELLIPSE
  5
905A
330
8C52
100
AcDbEntity
  8
Visible (ISO)
100
AcDbEllipse
 10
950.5648392945056
 20
141.5275902147993
 30
0.0
 11
0.0000000000010204
 21
7.624946490210378
 31
0.0
210
0.0
220
0.0
230
1.0
 40
0.9180392293883288
 41
5.235987755982893
 42
7.330382858376075
  0
LINE
  5
905B
330
8C52
100
AcDbEntity
  8
Visible (ISO)
100
AcDbLine
 10
956.6270171209973
 20
145.3400634599035
 30
0.0
 11
963.5148392945046
 21
132.3449129520493
 31
0.0
  0
LINE
  5
905C
330
8C52
100
AcDbEntity
  8
Visible (ISO)
100
AcDbLine
 10
963.5148392945072
 20
119.4055381665136
 30
0.0
 11
956.6270171210023
 21
119.4055381665136
 31
0.0
  0
LINE
  5
905D
330
8C52
100
AcDbEntity
  8
Visible (ISO)
100
AcDbLine
 10
956.6270171210023
 20
119.4055381665136
 30
0.0
 11
944.5026614680202
 21
119.4055381665136
 31
0.0
  0
LINE
  5
905E
330
8C52
100
AcDbEntity
  8
Visible (ISO)
100
AcDbLine
 10
944.5026614680202
 20
119.4055381665136
 30
0.0
 11
937.6148392945072
 21
119.4055381665136
 31
0.0
  0
LINE
  5
905F
330
8C52
100
AcDbEntity
  8
Visible (ISO)
100
AcDbLine
 10
963.5148392945046
 20
132.3449129520493
 30
0.0
 11
963.5148392945072
 21
119.4055381665136
 31
0.0
  0
LINE
  5
9060
330
8C52
100
AcDbEntity
  8
Visible (ISO)
100
AcDbLine
 10
937.6148392945072
 20
119.4055381665136
 30
0.0
 11
937.6148392945044
 21
132.3449129520493
 31
0.0
  0
LINE
  5
9061
330
8C52
100
AcDbEntity
  8
Visible (ISO)
100
AcDbLine
 10
887.0648392945096
 20
159.0224915669994
 30
0.0
 11
887.0648392945096
 21
108.5224915669984
 31
0.0
  0
LINE
  5
9062
330
8C52
100
AcDbEntity
  8
Visible (ISO)
100
AcDbLine
 10
889.9148392945097
 20
159.0224915669994
 30
0.0
 11
889.9148392945097
 21
108.5224915669984
 31
0.0
  0
LINE
  5
9063
330
8C52
100
AcDbEntity
  8
Visible (ISO)
100
AcDbLine
 10
894.4826657345505
 20
146.4724915669992
 30
0.0
 11
894.4826657345505
 21
121.0724915669995
 31
0.0
  0
LINE
  5
9064
330
8C52
100
AcDbEntity
  8
Visible (ISO)
100
AcDbLine
 10
889.9148392945097
 20
108.5224915669984
 30
0.0
 11
887.0648392945096
 21
108.5224915669984
 31
0.0
  0
LINE
  5
9065
330
8C52
100
AcDbEntity
  8
Visible (ISO)
100
AcDbLine
 10
889.9148392945097
 20
159.0224915669985
 30
0.0
 11
887.0648392945096
 21
159.0224915669985
 31
0.0
  0
LINE
  5
9066
330
8C52
100
AcDbEntity
  8
Visible (ISO)
100
AcDbLine
 10
894.4826657345505
 20
121.0724915669995
 30
0.0
 11
889.9148392945097
 21
108.5224915669984
 31
0.0
  0
LINE
  5
9067
330
8C52
100
AcDbEntity
  8
Visible (ISO)
100
AcDbLine
 10
894.4826657345505
 20
146.4724915669992
 30
0.0
 11
889.9148392945097
 21
159.0224915669994
 31
0.0
  0
LINE
  5
9068
330
8C52
100
AcDbEntity
  8
Visible (ISO)
100
AcDbLine
 10
912.0648392945092
 20
121.0724915669995
 30
0.0
 11
894.4826657345505
 21
121.0724915669995
 31
0.0
  0
LINE
  5
9069
330
8C52
100
AcDbEntity
  8
Visible (ISO)
100
AcDbLine
 10
912.0648392945092
 20
146.4724915669992
 30
0.0
 11
894.4826657345505
 21
146.4724915669992
 31
0.0
  0
LINE
  5
906A
330
8C52
100
AcDbEntity
  8
Visible (ISO)
100
AcDbLine
 10
1014.064839294509
 20
159.0224915669994
 30
0.0
 11
1014.064839294509
 21
108.5224915669984
 31
0.0
  0
LINE
  5
906B
330
8C52
100
AcDbEntity
  8
Visible (ISO)
100
AcDbLine
 10
1011.214839294509
 20
159.0224915669994
 30
0.0
 11
1011.214839294509
 21
108.5224915669984
 31
0.0
  0
LINE
  5
906C
330
8C52
100
AcDbEntity
  8
Visible (ISO)
100
AcDbLine
 10
1006.647012854468
 20
146.4724915669992
 30
0.0
 11
1006.647012854468
 21
121.0724915669995
 31
0.0
  0
LINE
  5
906D
330
8C52
100
AcDbEntity
  8
Visible (ISO)
100
AcDbLine
 10
1014.064839294509
 20
108.5224915669984
 30
0.0
 11
1011.214839294509
 21
108.5224915669984
 31
0.0
  0
LINE
  5
906E
330
8C52
100
AcDbEntity
  8
Visible (ISO)
100
AcDbLine
 10
1014.064839294509
 20
159.0224915669994
 30
0.0
 11
1011.214839294509
 21
159.0224915669994
 31
0.0
  0
LINE
  5
906F
330
8C52
100
AcDbEntity
  8
Visible (ISO)
100
AcDbLine
 10
1006.647012854468
 20
146.4724915669992
 30
0.0
 11
1011.214839294509
 21
159.0224915669994
 31
0.0
  0
LINE
  5
9070
330
8C52
100
AcDbEntity
  8
Visible (ISO)
100
AcDbLine
 10
1006.647012854468
 20
121.0724915669995
 30
0.0
 11
1011.214839294509
 21
108.5224915669984
 31
0.0
  0
LINE
  5
9071
330
8C52
100
AcDbEntity
  8
Visible (ISO)
100
AcDbLine
 10
1006.647012854468
 20
121.0724915669995
 30
0.0
 11
989.0648392945093
 21
121.0724915669995
 31
0.0
  0
LINE
  5
9072
330
8C52
100
AcDbEntity
  8
Visible (ISO)
100
AcDbLine
 10
1006.647012854468
 20
146.4724915669992
 30
0.0
 11
989.0648392945093
 21
146.4724915669992
 31
0.0
  0
LINE
  5
9073
330
8C52
100
AcDbEntity
  8
0
  6
CENTER
100
AcDbLine
 10
1022.697982870275
 20
133.7724915669994
 30
0.0
 11
878.43169571879
 21
133.7724915669994
 31
0.0
  0
ELLIPSE
  5
9074
330
8C52
100
AcDbEntity
  8
Visible (ISO)
100
AcDbEllipse
 10
950.564839294517
 20
150.2750543279542
 30
0.0
 11
44.49999999999988
 21
-0.0000000000244055
 31
0.0
210
0.0
220
0.0
230
1.0
 40
0.8386705679454264
 41
2.096106296264657
 42
2.616282684121408
  0
LINE
  5
9075
330
8C52
100
AcDbEntity
  8
Visible (ISO)
100
AcDbLine
 10
928.2489256900896
 20
182.5638711938534
 30
0.0
 11
972.8807528989321
 21
182.5638711938534
 31
0.0
  0
ELLIPSE
  5
9076
330
8C52
100
AcDbEntity
  8
Visible (ISO)
100
AcDbEllipse
 10
950.564839294517
 20
150.2750543279542
 30
0.0
 11
44.49999999999983
 21
-0.0000000000205336
 31
0.0
210
0.0
220
0.0
230
1.0
 40
0.8386705679454264
 41
0.5253099694696451
 42
1.045486357326354
  0
ELLIPSE
  5
9077
330
8C52
100
AcDbEntity
  8
Visible (ISO)
100
AcDbEllipse
 10
950.5648392945156
 20
147.0072201178643
 30
0.0
 11
-44.49999999999982
 21
0.0000000000166867
 31
0.0
210
0.0
220
0.0
230
1.0
 40
0.8386705679454262
 41
3.666902623059279
 42
4.187079010916029
  0
LINE
  5
9078
330
8C52
100
AcDbEntity
  8
Visible (ISO)
100
AcDbLine
 10
972.8807528989307
 20
179.2960369837635
 30
0.0
 11
928.2489256900879
 21
179.2960369837635
 31
0.0
  0
ELLIPSE
  5
9079
330
8C52
100
AcDbEntity
  8
Visible (ISO)
100
AcDbEllipse
 10
950.5648392945156
 20
147.0072201178643
 30
0.0
 11
-44.49999999999985
 21
0.0000000000205419
 31
0.0
210
0.0
220
0.0
230
1.0
 40
0.8386705679454264
 41
5.237698949854332
 42
5.757875337711042
  0
LINE
  5
907A
330
8C52
100
AcDbEntity
  8
Visible (ISO)
100
AcDbLine
 10
912.064839294512
 20
165.722920054706
 30
0.0
 11
912.064839294512
 21
165.1782810196907
 31
0.0
  0
SPLINE
  5
907B
330
8C52
100
AcDbEntity
  8
Visible (ISO)
100
AcDbSpline
210
0.0
220
0.0
230
1.0
 70
     8
 71
     3
 72
     8
 73
     4
 74
     0
 42
0.0000000001
 43
0.0000000001
 40
-0.035651641734169
 40
-0.035651641734169
 40
-0.035651641734169
 40
-0.035651641734169
 40
0.0
 40
0.0
 40
0.0
 40
0.0
 10
912.3124920816938
 20
165.532111802089
 30
0.0
 10
912.2299437203436
 20
165.595740511
 30
0.0
 10
912.1473923403907
 20
165.6593435273696
 30
0.0
 10
912.064839294512
 20
165.722920054706
 30
0.0
  0
SPLINE
  5
907C
330
8C52
100
AcDbEntity
  8
Visible (ISO)
100
AcDbSpline
210
0.0
220
0.0
230
1.0
 70
     8
 71
     3
 72
     8
 73
     4
 74
     0
 42
0.0000000001
 43
0.0000000001
 40
-0.0566806053211162
 40
-0.0566806053211162
 40
-0.0566806053211162
 40
-0.0566806053211162
 40
0.0
 40
0.0
 40
0.0
 40
0.0
 10
928.3550365180397
 20
178.7513979487482
 30
0.0
 10
928.3195838650588
 20
178.9329334560259
 30
0.0
 10
928.2842134936087
 20
179.1144823074671
 30
0.0
 10
928.2489256900879
 20
179.2960369837635
 30
0.0
  0
SPLINE
  5
907D
330
8C52
100
AcDbEntity
  8
Visible (ISO)
100
AcDbSpline
210
0.0
220
0.0
230
1.0
 70
     8
 71
     3
 72
     8
 73
     4
 74
     0
 42
0.0000000001
 43
0.0000000001
 40
-0.0566806053210961
 40
-0.0566806053210961
 40
-0.0566806053210961
 40
-0.0566806053210961
 40
0.0
 40
0.0
 40
0.0
 40
0.0
 10
972.7746420709788
 20
178.7513979487482
 30
0.0
 10
972.8100947239598
 20
178.9329334560259
 30
0.0
 10
972.8454650954097
 20
179.114482307468
 30
0.0
 10
972.8807528989307
 20
179.2960369837635
 30
0.0
  0
SPLINE
  5
907E
330
8C52
100
AcDbEntity
  8
Visible (ISO)
100
AcDbSpline
210
0.0
220
0.0
230
1.0
 70
     8
 71
     3
 72
     8
 73
     4
 74
     0
 42
0.0000000001
 43
0.0000000001
 40
-0.0356516417342512
 40
-0.0356516417342512
 40
-0.0356516417342512
 40
-0.0356516417342512
 40
0.0
 40
0.0
 40
0.0
 40
0.0
 10
988.8171865073298
 20
165.532111802089
 30
0.0
 10
988.89973486868
 20
165.595740511
 30
0.0
 10
988.9822862486328
 20
165.6593435273696
 30
0.0
 10
989.064839294512
 20
165.722920054706
 30
0.0
  0
LINE
  5
907F
330
8C52
100
AcDbEntity
  8
Visible (ISO)
100
AcDbLine
 10
989.064839294512
 20
165.1782810196907
 30
0.0
 11
989.064839294512
 21
165.722920054706
 31
0.0
  0
LINE
  5
9080
330
8C52
100
AcDbEntity
  8
Visible (ISO)
100
AcDbLine
 10
972.8807528989321
 20
182.5638711938534
 30
0.0
 11
972.8807528989307
 21
179.2960369837635
 31
0.0
  0
LINE
  5
9081
330
8C52
100
AcDbEntity
  8
Visible (ISO)
100
AcDbLine
 10
989.0648392945134
 20
168.9907542647959
 30
0.0
 11
989.064839294512
 21
165.722920054706
 31
0.0
  0
LINE
  5
9082
330
8C52
100
AcDbEntity
  8
Visible (ISO)
100
AcDbLine
 10
928.2489256900896
 20
182.5638711938534
 30
0.0
 11
928.2489256900879
 21
179.2960369837635
 31
0.0
  0
LINE
  5
9083
330
8C52
100
AcDbEntity
  8
Visible (ISO)
100
AcDbLine
 10
912.0648392945138
 20
168.9907542647959
 30
0.0
 11
912.064839294512
 21
165.722920054706
 31
0.0
  0
LINE
  5
9084
330
8C52
100
AcDbEntity
  8
0
  6
CENTER
 62
     0
370
    25
100
AcDbLine
 10
1139.064839294509
 20
93.12693708431812
 30
0.0
 11
1139.064839294509
 21
174.4180460495806
 31
0.0
  0
LINE
  5
9085
330
8C52
100
AcDbEntity
  8
0
  6
CENTER
 62
     0
370
    25
100
AcDbLine
 10
1098.419284811878
 20
133.7724915669493
 30
0.0
 11
1179.71039377714
 21
133.7724915669493
 31
0.0
  0
LINE
  5
9086
330
8C52
100
AcDbEntity
  8
0
  6
CENTER
100
AcDbLine
 10
950.564839294533
 20
95.54339980784039
 30
0.0
 11
950.564839294533
 21
222.3796535063572
 31
0.0
  0
LINE
  5
9087
330
8C52
100
AcDbEntity
  8
0
  6
CENTER
100
AcDbLine
 10
1399.697982870276
 20
133.7724915669994
 30
0.0
 11
1255.43169571879
 21
133.7724915669994
 31
0.0
  0
LINE
  5
9088
330
8C52
100
AcDbEntity
  8
0
  6
CENTER
100
AcDbLine
 10
1327.564839294533
 20
95.54339980784039
 30
0.0
 11
1327.564839294533
 21
222.3796535063572
 31
0.0
  0
ENDSEC
  0
SECTION
  2
OBJECTS
  0
DICTIONARY
  5
8C40
330
0
100
AcDbDictionary
281
     1
  3
ACAD_GROUP
350
8C41
  3
ACAD_LAYOUT
350
8C4D
  3
ACAD_MLINESTYLE
350
8C4A
  3
ACAD_PLOTSETTINGS
350
8C4C
  3
ACAD_PLOTSTYLENAME
350
8C42
  3
AcDbVariableDictionary
350
8C98
  0
DICTIONARY
  5
8D0F
330
8C36
100
AcDbDictionary
280
     1
281
     1
  3
ACAD_LAYERSTATES
360
8D10
  0
DICTIONARY
  5
8C64
330
8C52
100
AcDbDictionary
280
     1
281
     1
  3
ACAD_LAYOUTSELFREF
360
8D07
  0
DICTIONARY
  5
8C66
330
8C4E
100
AcDbDictionary
280
     1
281
     1
  3
ACAD_LAYOUTSELFREF
360
8D06
  0
DICTIONARY
  5
8C41
102
{ACAD_REACTORS
330
8C40
102
}
330
8C40
100
AcDbDictionary
281
     1
  0
DICTIONARY
  5
8C4D
102
{ACAD_REACTORS
330
8C40
102
}
330
8C40
100
AcDbDictionary
281
     1
  3
Model
350
8C55
  3
ﾚｲｱｳﾄ1
350
8C51
  0
DICTIONARY
  5
8C4A
102
{ACAD_REACTORS
330
8C40
102
}
330
8C40
100
AcDbDictionary
281
     1
  3
Standard
350
8C4B
  0
DICTIONARY
  5
8C4C
102
{ACAD_REACTORS
330
8C40
102
}
330
8C40
100
AcDbDictionary
281
     1
  0
ACDBDICTIONARYWDFLT
  5
8C42
102
{ACAD_REACTORS
330
8C40
102
}
330
8C40
100
AcDbDictionary
281
     1
  3
Normal
350
8C43
100
AcDbDictionaryWithDefault
340
8C43
  0
DICTIONARY
  5
8C98
102
{ACAD_REACTORS
330
8C40
102
}
330
8C40
100
AcDbDictionary
281
     1
  3
DIMASSOC
350
8C99
  0
DICTIONARY
  5
8D10
102
{ACAD_REACTORS
330
8D0F
102
}
330
8D0F
100
AcDbDictionary
281
     1
  0
XRECORD
  5
8D07
102
{ACAD_REACTORS
330
8C64
102
}
330
8C64
100
AcDbXrecord
280
     1
340
8C52
  0
XRECORD
  5
8D06
102
{ACAD_REACTORS
330
8C66
102
}
330
8C66
100
AcDbXrecord
280
     1
340
8C4E
  0
LAYOUT
  5
8C55
102
{ACAD_REACTORS
330
8C4D
102
}
330
8C4D
100
AcDbPlotSettings
  1

  2
SII LP-2150 (D-SCAN C2)
  4

  6

 40
0.0
 41
0.0
 42
0.0
 43
0.0
 44
0.0
 45
0.0
 46
0.0
 47
0.0
 48
0.0
 49
0.0
140
0.0
141
0.0
142
1.0
143
1.0
 70
  1712
 72
     0
 73
     0
 74
     0
  7

 75
     0
147
1.0
148
0.0
149
0.0
100
AcDbLayout
  1
Model
 70
     1
 71
     0
 10
0.0
 20
0.0
 11
12.0
 21
9.0
 12
0.0
 22
0.0
 32
0.0
 14
0.0
 24
0.0
 34
0.0
 15
0.0
 25
0.0
 35
0.0
146
0.0
 13
0.0
 23
0.0
 33
0.0
 16
1.0
 26
0.0
 36
0.0
 17
0.0
 27
1.0
 37
0.0
 76
     0
330
8C52
  0
LAYOUT
  5
8C51
102
{ACAD_REACTORS
330
8C4D
102
}
330
8C4D
100
AcDbPlotSettings
  1

  2
SII LP-2150 (D-SCAN C2)
  4

  6

 40
0.0
 41
0.0
 42
0.0
 43
0.0
 44
0.0
 45
0.0
 46
0.0
 47
0.0
 48
0.0
 49
0.0
140
0.0
141
0.0
142
1.0
143
1.0
 70
   688
 72
     0
 73
     0
 74
     5
  7

 75
    16
147
1.0
148
0.0
149
0.0
100
AcDbLayout
  1
ﾚｲｱｳﾄ1
 70
     1
 71
     1
 10
-580.5701293945312
 20
0.0
 11
0.0
 21
407.8999938964844
 12
0.0
 22
0.0
 32
0.0
 14
-580.5701293945312
 24
0.0
 34
0.0
 15
0.0
 25
407.8999938964844
 35
0.0
146
0.0
 13
0.0
 23
0.0
 33
0.0
 16
1.0
 26
0.0
 36
0.0
 17
0.0
 27
1.0
 37
0.0
 76
     0
330
8C4E
  0
MLINESTYLE
  5
8C4B
102
{ACAD_REACTORS
330
8C4A
102
}
330
8C4A
100
AcDbMlineStyle
  2
STANDARD
 70
     0
  3

 62
   256
 51
90.0
 52
90.0
 71
     2
 49
0.5
 62
   256
  6
BYLAYER
 49
-0.5
 62
   256
  6
BYLAYER
  0
ACDBPLACEHOLDER
  5
8C43
102
{ACAD_REACTORS
330
8C42
102
}
330
8C42
  0
DICTIONARYVAR
  5
8C99
102
{ACAD_REACTORS
330
8C98
102
}
330
8C98
100
DictionaryVariables
280
     0
  1
1
  0
ENDSEC
  0
EOF
