  0
SECTION
  2
HEADER
  9
$ACADVER
  1
AC1015
  9
$ACADMAINTVER
 70
    14
  9
$DWGCODEPAGE
  3
ANSI_932
  9
$INSBASE
 10
0.0
 20
0.0
 30
0.0
  9
$EXTMIN
 10
109.1691772459134
 20
127.9746422094196
 30
-0.0000000000000058
  9
$EXTMAX
 10
971.0769544781159
 20
615.2132338451222
 30
0.0000000000000104
  9
$LIMMIN
 10
-580.5701293945312
 20
0.0
  9
$LIMMAX
 10
0.0
 20
407.8999938964844
  9
$ORTHOMODE
 70
     0
  9
$REGENMODE
 70
     1
  9
$FILLMODE
 70
     1
  9
$QTEXTMODE
 70
     0
  9
$MIRRTEXT
 70
     1
  9
$LTSCALE
 40
1.0
  9
$ATTMODE
 70
     1
  9
$TEXTSIZE
 40
0.2
  9
$TRACEWID
 40
0.05
  9
$TEXTSTYLE
  7
STANDARD
  9
$CLAYER
  8
0
  9
$CELTYPE
  6
CONTINUOUS
  9
$CECOLOR
 62
   256
  9
$CELTSCALE
 40
1.0
  9
$DISPSILH
 70
     0
  9
$DIMSCALE
 40
1.0
  9
$DIMASZ
 40
1.0
  9
$DIMEXO
 40
2.54
  9
$DIMDLI
 40
0.38
  9
$DIMRND
 40
0.0
  9
$DIMDLE
 40
0.0
  9
$DIMEXE
 40
2.54
  9
$DIMTP
 40
0.0
  9
$DIMTM
 40
0.0
  9
$DIMTXT
 40
3.200000047683714
  9
$DIMCEN
 40
0.09
  9
$DIMTSZ
 40
0.0
  9
$DIMTOL
 70
     0
  9
$DIMLIM
 70
     0
  9
$DIMTIH
 70
     0
  9
$DIMTOH
 70
     0
  9
$DIMSE1
 70
     0
  9
$DIMSE2
 70
     0
  9
$DIMTAD
 70
     1
  9
$DIMZIN
 70
     0
  9
$DIMBLK
  1

  9
$DIMASO
 70
     1
  9
$DIMSHO
 70
     0
  9
$DIMPOST
  1

  9
$DIMAPOST
  1

  9
$DIMALT
 70
     0
  9
$DIMALTD
 70
     2
  9
$DIMALTF
 40
25.4
  9
$DIMLFAC
 40
1.0
  9
$DIMTOFL
 70
     0
  9
$DIMTVP
 40
1.0
  9
$DIMTIX
 70
     0
  9
$DIMSOXD
 70
     0
  9
$DIMSAH
 70
     0
  9
$DIMBLK1
  1

  9
$DIMBLK2
  1

  9
$DIMSTYLE
  2
STANDARD
  9
$DIMCLRD
 70
     0
  9
$DIMCLRE
 70
     0
  9
$DIMCLRT
 70
     0
  9
$DIMTFAC
 40
1.0
  9
$DIMGAP
 40
1.600000023841857
  9
$DIMJUST
 70
     0
  9
$DIMSD1
 70
     0
  9
$DIMSD2
 70
     0
  9
$DIMTOLJ
 70
     1
  9
$DIMTZIN
 70
     0
  9
$DIMALTZ
 70
     0
  9
$DIMALTTZ
 70
     0
  9
$DIMUPT
 70
     0
  9
$DIMDEC
 70
     4
  9
$DIMTDEC
 70
     4
  9
$DIMALTU
 70
     2
  9
$DIMALTTD
 70
     2
  9
$DIMTXSTY
  7
STANDARD
  9
$DIMAUNIT
 70
     0
  9
$DIMADEC
 70
     0
  9
$DIMALTRND
 40
0.0
  9
$DIMAZIN
 70
     0
  9
$DIMDSEP
 70
    46
  9
$DIMATFIT
 70
     3
  9
$DIMFRAC
 70
     0
  9
$DIMLDRBLK
  1

  9
$DIMLUNIT
 70
     2
  9
$DIMLWD
 70
    -2
  9
$DIMLWE
 70
    -2
  9
$DIMTMOVE
 70
     0
  9
$LUNITS
 70
     2
  9
$LUPREC
 70
     4
  9
$SKETCHINC
 40
0.1
  9
$FILLETRAD
 40
0.0
  9
$AUNITS
 70
     0
  9
$AUPREC
 70
     0
  9
$MENU
  1
.
  9
$ELEVATION
 40
0.0
  9
$PELEVATION
 40
0.0
  9
$THICKNESS
 40
0.0
  9
$LIMCHECK
 70
     0
  9
$CHAMFERA
 40
0.0
  9
$CHAMFERB
 40
0.0
  9
$CHAMFERC
 40
0.0
  9
$CHAMFERD
 40
0.0
  9
$SKPOLY
 70
     0
  9
$TDCREATE
 40
2452717.604314595
  9
$TDUCREATE
 40
2452717.229314595
  9
$TDUPDATE
 40
2456899.672985741
  9
$TDUUPDATE
 40
2456899.297985740
  9
$TDINDWG
 40
0.2829355440
  9
$TDUSRTIMER
 40
0.2829355440
  9
$USRTIMER
 70
     1
  9
$ANGBASE
 50
0.0
  9
$ANGDIR
 70
     0
  9
$PDMODE
 70
     0
  9
$PDSIZE
 40
0.0
  9
$PLINEWID
 40
0.0
  9
$SPLFRAME
 70
     0
  9
$SPLINETYPE
 70
     6
  9
$SPLINESEGS
 70
     8
  9
$HANDSEED
  5
90C1
  9
$SURFTAB1
 70
     6
  9
$SURFTAB2
 70
     6
  9
$SURFTYPE
 70
     6
  9
$SURFU
 70
     6
  9
$SURFV
 70
     6
  9
$UCSBASE
  2

  9
$UCSNAME
  2

  9
$UCSORG
 10
0.0
 20
0.0
 30
0.0
  9
$UCSXDIR
 10
1.0
 20
0.0
 30
0.0
  9
$UCSYDIR
 10
0.0
 20
1.0
 30
0.0
  9
$UCSORTHOREF
  2

  9
$UCSORTHOVIEW
 70
     0
  9
$UCSORGTOP
 10
0.0
 20
0.0
 30
0.0
  9
$UCSORGBOTTOM
 10
0.0
 20
0.0
 30
0.0
  9
$UCSORGLEFT
 10
0.0
 20
0.0
 30
0.0
  9
$UCSORGRIGHT
 10
0.0
 20
0.0
 30
0.0
  9
$UCSORGFRONT
 10
0.0
 20
0.0
 30
0.0
  9
$UCSORGBACK
 10
0.0
 20
0.0
 30
0.0
  9
$PUCSBASE
  2

  9
$PUCSNAME
  2

  9
$PUCSORG
 10
0.0
 20
0.0
 30
0.0
  9
$PUCSXDIR
 10
1.0
 20
0.0
 30
0.0
  9
$PUCSYDIR
 10
0.0
 20
1.0
 30
0.0
  9
$PUCSORTHOREF
  2

  9
$PUCSORTHOVIEW
 70
     0
  9
$PUCSORGTOP
 10
0.0
 20
0.0
 30
0.0
  9
$PUCSORGBOTTOM
 10
0.0
 20
0.0
 30
0.0
  9
$PUCSORGLEFT
 10
0.0
 20
0.0
 30
0.0
  9
$PUCSORGRIGHT
 10
0.0
 20
0.0
 30
0.0
  9
$PUCSORGFRONT
 10
0.0
 20
0.0
 30
0.0
  9
$PUCSORGBACK
 10
0.0
 20
0.0
 30
0.0
  9
$USERI1
 70
     0
  9
$USERI2
 70
     0
  9
$USERI3
 70
     0
  9
$USERI4
 70
     0
  9
$USERI5
 70
     0
  9
$USERR1
 40
0.0
  9
$USERR2
 40
0.0
  9
$USERR3
 40
0.0
  9
$USERR4
 40
0.0
  9
$USERR5
 40
0.0
  9
$WORLDVIEW
 70
     1
  9
$SHADEDGE
 70
     3
  9
$SHADEDIF
 70
    70
  9
$TILEMODE
 70
     1
  9
$MAXACTVP
 70
    48
  9
$PINSBASE
 10
0.0
 20
0.0
 30
0.0
  9
$PLIMCHECK
 70
     0
  9
$PEXTMIN
 10
-580.5701293945312
 20
0.0
 30
0.0
  9
$PEXTMAX
 10
0.0
 20
407.8999938964844
 30
0.0
  9
$PLIMMIN
 10
-580.5701293945312
 20
0.0
  9
$PLIMMAX
 10
0.0
 20
407.8999938964844
  9
$UNITMODE
 70
     0
  9
$VISRETAIN
 70
     1
  9
$PLINEGEN
 70
     0
  9
$PSLTSCALE
 70
     1
  9
$TREEDEPTH
 70
  3020
  9
$CMLSTYLE
  2
Standard
  9
$CMLJUST
 70
     0
  9
$CMLSCALE
 40
1.0
  9
$PROXYGRAPHICS
 70
     1
  9
$MEASUREMENT
 70
     0
  9
$CELWEIGHT
370
    -1
  9
$ENDCAPS
280
     0
  9
$JOINSTYLE
280
     0
  9
$LWDISPLAY
290
     0
  9
$INSUNITS
 70
     0
  9
$HYPERLINKBASE
  1

  9
$STYLESHEET
  1

  9
$XEDIT
290
     1
  9
$CEPSNTYPE
380
     0
  9
$PSTYLEMODE
290
     1
  9
$FINGERPRINTGUID
  2
{30D54D5B-46C8-4874-A573-4F2159E7AB1B}
  9
$VERSIONGUID
  2
{BF77D8F5-F5CE-47AB-9632-7AA93DDC4CF2}
  9
$EXTNAMES
290
     1
  9
$PSVPSCALE
 40
0.0
  9
$OLESTARTUP
290
     0
  0
ENDSEC
  0
SECTION
  2
CLASSES
  0
CLASS
  1
ACDBDICTIONARYWDFLT
  2
AcDbDictionaryWithDefault
  3
AutoCAD 2000
 90
        0
280
     0
281
     0
  0
CLASS
  1
ACDBPLACEHOLDER
  2
AcDbPlaceHolder
  3
AutoCAD 2000
 90
        0
280
     0
281
     0
  0
CLASS
  1
LAYOUT
  2
AcDbLayout
  3
AutoCAD 2000
 90
        0
280
     0
281
     0
  0
CLASS
  1
DICTIONARYVAR
  2
AcDbDictionaryVar
  3
AutoCAD 2000
 90
        0
280
     0
281
     0
  0
CLASS
  1
LONG_TRANSACTION
  2
AcDbLongTransaction
  3
AutoCAD 2000
 90
    32768
280
     0
281
     0
  0
CLASS
  1
LWPOLYLINE
  2
AcDbPolyline
  3
AutoCAD 2000
 90
    32768
280
     0
281
     1
  0
CLASS
  1
HATCH
  2
AcDbHatch
  3
AutoCAD 2000
 90
    32768
280
     0
281
     1
  0
CLASS
  1
XRECORD
  2
AcDbXrecord
  3
AutoCAD 2000
 90
    32768
280
     0
281
     0
  0
CLASS
  1
LONG_TRANSACTION
  2
AcDbLongTransaction
  3
AutoCAD 2000
 90
    32768
280
     0
281
     0
  0
CLASS
  1
LWPOLYLINE
  2
AcDbPolyline
  3
AutoCAD 2000
 90
    32768
280
     0
281
     1
  0
CLASS
  1
HATCH
  2
AcDbHatch
  3
AutoCAD 2000
 90
    32768
280
     0
281
     1
  0
CLASS
  1
XRECORD
  2
AcDbXrecord
  3
AutoCAD 2000
 90
    32768
280
     0
281
     0
  0
CLASS
  1
LONG_TRANSACTION
  2
AcDbLongTransaction
  3
AutoCAD 2000
 90
    32768
280
     0
281
     0
  0
CLASS
  1
LWPOLYLINE
  2
AcDbPolyline
  3
AutoCAD 2000
 90
    32768
280
     0
281
     1
  0
CLASS
  1
HATCH
  2
AcDbHatch
  3
AutoCAD 2000
 90
    32768
280
     0
281
     1
  0
CLASS
  1
XRECORD
  2
AcDbXrecord
  3
AutoCAD 2000
 90
    32768
280
     0
281
     0
  0
ENDSEC
  0
SECTION
  2
TABLES
  0
TABLE
  2
VPORT
  5
8C3A
330
0
100
AcDbSymbolTable
 70
     2
  0
VPORT
  5
90C0
330
8C3A
100
AcDbSymbolTableRecord
100
AcDbViewportTableRecord
  2
*Active
 70
     0
 10
0.0
 20
0.0
 11
1.0
 21
1.0
 12
540.1230658620147
 22
371.5939380272708
 13
0.0
 23
0.0
 14
1.0
 24
1.0
 15
0.0
 25
0.0
 16
0.0
 26
0.0
 36
1.0
 17
0.0
 27
0.0
 37
0.0
 40
543.5033747372987
 41
1.592161016949152
 42
50.0
 43
0.0
 44
0.0
 50
0.0
 51
0.0
 71
     0
 72
   100
 73
     1
 74
     3
 75
     0
 76
     0
 77
     0
 78
     0
281
     0
 65
     1
110
0.0
120
0.0
130
0.0
111
1.0
121
0.0
131
0.0
112
0.0
122
1.0
132
0.0
 79
     0
146
0.0
  0
ENDTAB
  0
TABLE
  2
LTYPE
  5
8C37
330
0
100
AcDbSymbolTable
 70
     2
  0
LTYPE
  5
8C45
330
8C37
100
AcDbSymbolTableRecord
100
AcDbLinetypeTableRecord
  2
ByBlock
 70
     0
  3

 72
    65
 73
     0
 40
0.0
  0
LTYPE
  5
8C46
330
8C37
100
AcDbSymbolTableRecord
100
AcDbLinetypeTableRecord
  2
ByLayer
 70
     0
  3

 72
    65
 73
     0
 40
0.0
  0
LTYPE
  5
8C47
330
8C37
100
AcDbSymbolTableRecord
100
AcDbLinetypeTableRecord
  2
CONTINUOUS
 70
     0
  3
Solid line
 72
    65
 73
     0
 40
0.0
  0
LTYPE
  5
8D0C
330
8C37
100
AcDbSymbolTableRecord
100
AcDbLinetypeTableRecord
  2
CENTER
 70
     0
  3
Center ____ _ ____ _ ____ _ ____ _ ____ _ ____
 72
    65
 73
     4
 40
50.8
 49
31.75
 74
     0
 49
-6.349999999999999
 74
     0
 49
6.349999999999999
 74
     0
 49
-6.349999999999999
 74
     0
  0
ENDTAB
  0
TABLE
  2
LAYER
  5
8C34
102
{ACAD_XDICTIONARY
360
8D0D
102
}
330
0
100
AcDbSymbolTable
 70
     2
  0
LAYER
  5
8C42
330
8C34
100
AcDbSymbolTableRecord
100
AcDbLayerTableRecord
  2
0
 70
     0
 62
     7
  6
CONTINUOUS
370
    -3
390
8C41
  0
LAYER
  5
8D1F
330
8C34
100
AcDbSymbolTableRecord
100
AcDbLayerTableRecord
  2
Visible (ISO)
 70
     0
 62
     7
  6
CONTINUOUS
370
    35
390
8C41
  0
ENDTAB
  0
TABLE
  2
STYLE
  5
8C35
330
0
100
AcDbSymbolTable
 70
     1
  0
STYLE
  5
8C43
330
8C35
100
AcDbSymbolTableRecord
100
AcDbTextStyleTableRecord
  2
STANDARD
 70
     0
 40
0.0
 41
1.0
 50
0.0
 71
     0
 42
0.2
  3
txt
  4
BIGFONT
  0
ENDTAB
  0
TABLE
  2
VIEW
  5
8C38
330
0
100
AcDbSymbolTable
 70
     0
  0
ENDTAB
  0
TABLE
  2
UCS
  5
8C39
330
0
100
AcDbSymbolTable
 70
     0
  0
ENDTAB
  0
TABLE
  2
APPID
  5
8C3B
330
0
100
AcDbSymbolTable
 70
     4
  0
APPID
  5
8C44
330
8C3B
100
AcDbSymbolTableRecord
100
AcDbRegAppTableRecord
  2
ACAD
 70
     0
  0
APPID
  5
8C56
330
8C3B
100
AcDbSymbolTableRecord
100
AcDbRegAppTableRecord
  2
MCAD_NO_VIS
 70
     0
  0
APPID
  5
8C57
330
8C3B
100
AcDbSymbolTableRecord
100
AcDbRegAppTableRecord
  2
ACAD_TEMP_GRAPHIC
 70
     0
  0
APPID
  5
8C58
330
8C3B
100
AcDbSymbolTableRecord
100
AcDbRegAppTableRecord
  2
ACATTRIBSERVICES
 70
     0
  0
ENDTAB
  0
TABLE
  2
DIMSTYLE
  5
8C3C
330
0
100
AcDbSymbolTable
 70
     1
100
AcDbDimStyleTable
 71
     0
  0
DIMSTYLE
105
8C59
330
8C3C
100
AcDbSymbolTableRecord
100
AcDbDimStyleTableRecord
  2
STANDARD
 70
     0
279
     2
340
8C43
  0
ENDTAB
  0
TABLE
  2
BLOCK_RECORD
  5
8C33
330
0
100
AcDbSymbolTable
 70
     0
  0
BLOCK_RECORD
  5
8C50
102
{ACAD_XDICTIONARY
360
8C62
102
}
330
8C33
100
AcDbSymbolTableRecord
100
AcDbBlockTableRecord
  2
*Model_Space
340
8C53
  0
BLOCK_RECORD
  5
8C4C
102
{ACAD_XDICTIONARY
360
8C64
102
}
330
8C33
100
AcDbSymbolTableRecord
100
AcDbBlockTableRecord
  2
*Paper_Space
340
8C4F
  0
ENDTAB
  0
ENDSEC
  0
SECTION
  2
BLOCKS
  0
BLOCK
  5
8C51
330
8C50
100
AcDbEntity
  8
0
100
AcDbBlockBegin
  2
*Model_Space
 70
     0
 10
0.0
 20
0.0
 30
0.0
  3
*Model_Space
  1

  0
ENDBLK
  5
8C52
330
8C50
100
AcDbEntity
  8
0
100
AcDbBlockEnd
  0
BLOCK
  5
8C4D
330
8C4C
100
AcDbEntity
 67
     1
  8
0
100
AcDbBlockBegin
  2
*Paper_Space
 70
     0
 10
0.0
 20
0.0
 30
0.0
  3
*Paper_Space
  1

  0
ENDBLK
  5
8C4E
330
8C4C
100
AcDbEntity
 67
     1
  8
0
100
AcDbBlockEnd
  0
ENDSEC
  0
SECTION
  2
ENTITIES
  0
TEXT
  5
4515
330
8C50
100
AcDbEntity
  8
0
100
AcDbText
 10
109.1887061735669
 20
567.1850660374375
 30
0.0
 40
48.000002
  1
DHS2S 10A
 41
1.32095
100
AcDbText
  0
LINE
  5
4BF3
330
8C50
100
AcDbEntity
  8
0
100
AcDbLine
 10
397.5871361611174
 20
232.4597736199764
 30
0.0
 11
397.5871361611174
 21
204.4597736199764
 31
0.0
  0
LINE
  5
4BF4
330
8C50
100
AcDbEntity
  8
0
100
AcDbLine
 10
383.1715325234215
 20
232.4597736199764
 30
0.0
 11
383.1715325234215
 21
204.4597736199764
 31
0.0
  0
LINE
  5
4BF5
330
8C50
100
AcDbEntity
  8
0
100
AcDbLine
 10
391.4265679238124
 20
232.4597736199764
 30
0.0
 11
391.4265679238124
 21
204.4597736199764
 31
0.0
  0
LINE
  5
4BF6
330
8C50
100
AcDbEntity
  8
0
100
AcDbLine
 10
357.5871361611175
 20
232.4597736199764
 30
0.0
 11
357.5871361611175
 21
204.4597736199764
 31
0.0
  0
LINE
  5
4BF7
330
8C50
100
AcDbEntity
  8
0
100
AcDbLine
 10
363.7477043984215
 20
232.4597736199764
 30
0.0
 11
363.7477043984215
 21
204.4597736199764
 31
0.0
  0
LINE
  5
4BF8
330
8C50
100
AcDbEntity
  8
0
100
AcDbLine
 10
372.0027397988124
 20
232.4597736199764
 30
0.0
 11
372.0027397988124
 21
204.4597736199764
 31
0.0
  0
LINE
  5
4BF9
330
8C50
100
AcDbEntity
  8
0
100
AcDbLine
 10
332.5871361611175
 20
173.8597827752504
 30
0.0
 11
332.5871361611175
 21
139.8597522576725
 31
0.0
  0
LINE
  5
4BFA
330
8C50
100
AcDbEntity
  8
0
100
AcDbLine
 10
422.5871361611174
 20
173.8597827752504
 30
0.0
 11
422.5871361611174
 21
139.8597522576725
 31
0.0
  0
LINE
  5
4BFB
330
8C50
100
AcDbEntity
  8
0
100
AcDbLine
 10
352.5871361611165
 20
180.1597553094293
 30
0.0
 11
352.5871361611165
 21
147.3597675164604
 31
0.0
  0
LINE
  5
4BFC
330
8C50
100
AcDbEntity
  8
0
100
AcDbLine
 10
402.5871361611165
 20
180.1597553094293
 30
0.0
 11
402.5871361611165
 21
147.3597675164604
 31
0.0
  0
ARC
  5
4BFE
330
8C50
100
AcDbEntity
  8
0
100
AcDbCircle
 10
377.5689476845546
 20
149.3597675164616
 30
0.0
 40
5.0
100
AcDbArc
 50
30.000003339306
 51
90.00000500896343
  0
LINE
  5
4BFF
330
8C50
100
AcDbEntity
  8
0
100
AcDbLine
 10
332.5871361611175
 20
139.8597522576725
 30
0.0
 11
335.4370797903666
 21
139.8597522576725
 31
0.0
  0
LINE
  5
4C00
330
8C50
100
AcDbEntity
  8
0
100
AcDbLine
 10
335.4370797903666
 20
139.8597522576725
 30
0.0
 11
338.4762369090604
 21
148.2097675164613
 31
0.0
  0
LINE
  5
4C01
330
8C50
100
AcDbEntity
  8
0
100
AcDbLine
 10
352.5871361611165
 20
147.3597675164604
 30
0.0
 11
367.2130211708823
 21
147.3597675164604
 31
0.0
  0
ARC
  5
4C02
330
8C50
100
AcDbEntity
  8
0
100
AcDbCircle
 10
367.2130211708823
 20
153.3597675164604
 30
0.0
 40
6.0
100
AcDbArc
 50
269.9999974955312
 51
330.0000016696571
  0
LINE
  5
4C03
330
8C50
100
AcDbEntity
  8
0
100
AcDbLine
 10
373.2751983428944
 20
151.8597967485044
 30
0.0
 11
372.4091704992056
 21
150.3597925493886
 31
0.0
  0
ARC
  5
4C04
330
8C50
100
AcDbEntity
  8
0
100
AcDbCircle
 10
377.6053246376794
 20
149.3597675164616
 30
0.0
 40
5.0
100
AcDbArc
 50
90.00000865141487
 51
149.9999966606939
  0
LINE
  5
4C05
330
8C50
100
AcDbEntity
  8
0
100
AcDbLine
 10
419.7371819123431
 20
139.8597522576725
 30
0.0
 11
416.6980247936485
 21
148.2097675164613
 31
0.0
  0
LINE
  5
4C06
330
8C50
100
AcDbEntity
  8
0
100
AcDbLine
 10
422.5871361611174
 20
139.8597522576725
 30
0.0
 11
419.7371819123431
 21
139.8597522576725
 31
0.0
  0
LINE
  5
4C07
330
8C50
100
AcDbEntity
  8
0
100
AcDbLine
 10
402.5871361611165
 20
147.3597675164604
 30
0.0
 11
387.9612511513511
 21
147.3597675164604
 31
0.0
  0
ARC
  5
4C08
330
8C50
100
AcDbEntity
  8
0
100
AcDbCircle
 10
387.9612511513511
 20
153.3597675164604
 30
0.0
 40
6.0
100
AcDbArc
 50
210.0000051605323
 51
269.9999974955312
  0
LINE
  5
4C09
330
8C50
100
AcDbEntity
  8
0
100
AcDbLine
 10
381.8990767790803
 20
151.8597935324553
 30
0.0
 11
382.7650969933753
 21
150.3598025478388
 31
0.0
  0
LINE
  5
4C0A
330
8C50
100
AcDbEntity
  8
0
100
AcDbLine
 10
357.5871361611175
 20
204.4597736199764
 30
0.0
 11
397.5871361611174
 21
204.4597736199764
 31
0.0
  0
LINE
  5
4C0B
330
8C50
100
AcDbEntity
  8
0
100
AcDbLine
 10
394.0871361611174
 20
192.4597736199764
 30
0.0
 11
361.0871361611174
 21
192.4597736199764
 31
0.0
  0
LINE
  5
4C0C
330
8C50
100
AcDbEntity
  8
0
100
AcDbLine
 10
402.5871361611165
 20
180.1597553094293
 30
0.0
 11
352.5871361611165
 21
180.1597553094293
 31
0.0
  0
LINE
  5
4C0D
330
8C50
100
AcDbEntity
  8
0
100
AcDbLine
 10
361.0871361611174
 20
189.1597553094293
 30
0.0
 11
394.0871361611174
 21
189.1597553094293
 31
0.0
  0
LINE
  5
4C0E
330
8C50
100
AcDbEntity
  8
0
100
AcDbLine
 10
352.5871361611165
 20
172.4597431023986
 30
0.0
 11
402.5871361611165
 21
172.4597431023986
 31
0.0
  0
LINE
  5
4C0F
330
8C50
100
AcDbEntity
  8
0
100
AcDbLine
 10
332.5871361611175
 20
173.8597827752504
 30
0.0
 11
335.4372357740476
 21
173.8597827752504
 31
0.0
  0
LINE
  5
4C10
330
8C50
100
AcDbEntity
  8
0
100
AcDbLine
 10
335.4372357740476
 20
173.8597827752504
 30
0.0
 11
338.4763928927422
 21
165.5097675164614
 31
0.0
  0
LINE
  5
4C11
330
8C50
100
AcDbEntity
  8
0
100
AcDbLine
 10
366.5871361611174
 20
192.4597736199764
 30
0.0
 11
366.5871361611174
 21
189.1597553094293
 31
0.0
  0
LINE
  5
4C12
330
8C50
100
AcDbEntity
  8
0
100
AcDbLine
 10
361.0871361611174
 20
192.4597736199764
 30
0.0
 11
361.0871361611174
 21
204.4597736199764
 31
0.0
  0
LINE
  5
4C13
330
8C50
100
AcDbEntity
  8
0
100
AcDbLine
 10
361.0871361611174
 20
180.1597553094293
 30
0.0
 11
361.0871361611174
 21
189.1597553094293
 31
0.0
  0
LINE
  5
4C14
330
8C50
100
AcDbEntity
  8
0
100
AcDbLine
 10
377.5871361611165
 20
192.4597736199764
 30
0.0
 11
362.0871361611165
 21
192.4597736199764
 31
0.0
  0
LINE
  5
4C15
330
8C50
100
AcDbEntity
  8
0
100
AcDbLine
 10
419.7370584047883
 20
173.8597827752504
 30
0.0
 11
416.6979012860934
 21
165.5097675164614
 31
0.0
  0
LINE
  5
4C16
330
8C50
100
AcDbEntity
  8
0
100
AcDbLine
 10
422.5871361611174
 20
173.8597827752504
 30
0.0
 11
419.7370584047883
 21
173.8597827752504
 31
0.0
  0
LINE
  5
4C17
330
8C50
100
AcDbEntity
  8
0
100
AcDbLine
 10
388.5871361611174
 20
189.1597553094293
 30
0.0
 11
388.5871361611174
 21
192.4597736199764
 31
0.0
  0
LINE
  5
4C18
330
8C50
100
AcDbEntity
  8
0
100
AcDbLine
 10
394.0871361611174
 20
192.4597736199764
 30
0.0
 11
394.0871361611174
 21
204.4597736199764
 31
0.0
  0
LINE
  5
4C19
330
8C50
100
AcDbEntity
  8
0
100
AcDbLine
 10
394.0871361611174
 20
180.1597553094293
 30
0.0
 11
394.0871361611174
 21
189.1597553094293
 31
0.0
  0
LINE
  5
4C1A
330
8C50
100
AcDbEntity
  8
0
100
AcDbLine
 10
397.5871361611174
 20
232.4597736199764
 30
0.0
 11
357.5871361611175
 21
232.4597736199764
 31
0.0
  0
LINE
  5
4C1B
330
8C50
100
AcDbEntity
  8
0
100
AcDbLine
 10
394.5871361611165
 20
232.4597736199764
 30
0.0
 11
360.5871361611165
 21
232.4597736199764
 31
0.0
  0
LINE
  5
4C32
330
8C50
100
AcDbEntity
  8
0
100
AcDbLine
 10
262.9908836129794
 20
232.4597736199764
 30
0.0
 11
262.9908836129794
 21
204.4597736199764
 31
0.0
  0
LINE
  5
4C33
330
8C50
100
AcDbEntity
  8
0
100
AcDbLine
 10
269.1514518502842
 20
232.4597736199764
 30
0.0
 11
269.1514518502842
 21
204.4597736199764
 31
0.0
  0
LINE
  5
4C34
330
8C50
100
AcDbEntity
  8
0
100
AcDbLine
 10
254.7358482125889
 20
232.4597736199764
 30
0.0
 11
254.7358482125889
 21
204.4597736199764
 31
0.0
  0
LINE
  5
4C35
330
8C50
100
AcDbEntity
  8
0
100
AcDbLine
 10
243.5670554879793
 20
232.4597736199764
 30
0.0
 11
243.5670554879793
 21
204.4597736199764
 31
0.0
  0
LINE
  5
4C36
330
8C50
100
AcDbEntity
  8
0
100
AcDbLine
 10
235.3120200875888
 20
232.4597736199764
 30
0.0
 11
235.3120200875888
 21
204.4597736199764
 31
0.0
  0
LINE
  5
4C37
330
8C50
100
AcDbEntity
  8
0
100
AcDbLine
 10
229.1514518502841
 20
232.4597736199764
 30
0.0
 11
229.1514518502841
 21
204.4597736199764
 31
0.0
  0
LINE
  5
4C38
330
8C50
100
AcDbEntity
  8
0
100
AcDbLine
 10
224.1514518502839
 20
172.4597431023986
 30
0.0
 11
241.7437132013705
 21
172.4597431023986
 31
0.0
  0
LINE
  5
4C39
330
8C50
100
AcDbEntity
  8
0
100
AcDbLine
 10
229.1514518502841
 20
204.4597736199764
 30
0.0
 11
269.1514518502842
 21
204.4597736199764
 31
0.0
  0
LINE
  5
4C3B
330
8C50
100
AcDbEntity
  8
0
100
AcDbLine
 10
224.1514518502839
 20
180.1597553094293
 30
0.0
 11
274.1514518502839
 21
180.1597553094293
 31
0.0
  0
LINE
  5
4C3C
330
8C50
100
AcDbEntity
  8
0
100
AcDbLine
 10
232.6514518502841
 20
189.1597553094293
 30
0.0
 11
265.6514518502842
 21
189.1597553094293
 31
0.0
  0
LINE
  5
4C3D
330
8C50
100
AcDbEntity
  8
0
100
AcDbLine
 10
265.6514518502842
 20
192.4597736199764
 30
0.0
 11
232.6514518502841
 21
192.4597736199764
 31
0.0
  0
LINE
  5
4C3E
330
8C50
100
AcDbEntity
  8
0
100
AcDbLine
 10
224.1514518502839
 20
180.1597553094293
 30
0.0
 11
224.1514518502846
 21
150.8597675164616
 31
0.0
  0
LINE
  5
4C3F
330
8C50
100
AcDbEntity
  8
0
100
AcDbLine
 10
224.1514518502846
 20
150.8597675164616
 30
0.0
 11
232.5935341578124
 21
150.8597675164616
 31
0.0
  0
LINE
  5
4C40
330
8C50
100
AcDbEntity
  8
0
100
AcDbLine
 10
234.0459373239168
 20
165.8093093051005
 30
0.0
 11
234.0459373239168
 21
180.1597553094293
 31
0.0
  0
LINE
  5
4C41
330
8C50
100
AcDbEntity
  8
0
100
AcDbLine
 10
232.6514518502841
 20
192.4597736199764
 30
0.0
 11
232.6514518502841
 21
204.4597736199764
 31
0.0
  0
LINE
  5
4C42
330
8C50
100
AcDbEntity
  8
0
100
AcDbLine
 10
232.6514518502841
 20
180.1597553094293
 30
0.0
 11
232.6514518502841
 21
189.1597553094293
 31
0.0
  0
LINE
  5
4C43
330
8C50
100
AcDbEntity
  8
0
100
AcDbLine
 10
274.1514518502839
 20
180.1597553094293
 30
0.0
 11
274.1514518502842
 21
150.8597675164616
 31
0.0
  0
LINE
  5
4C45
330
8C50
100
AcDbEntity
  8
0
100
AcDbLine
 10
264.4054815989861
 20
150.8597675164616
 30
0.0
 11
274.1514518502842
 21
150.8597675164616
 31
0.0
  0
LINE
  5
4C46
330
8C50
100
AcDbEntity
  8
0
100
AcDbLine
 10
255.2553025554276
 20
172.4597431023986
 30
0.0
 11
274.1514518502839
 21
172.4597431023986
 31
0.0
  0
LINE
  5
4C47
330
8C50
100
AcDbEntity
  8
0
100
AcDbLine
 10
264.2569663766516
 20
163.2396187432424
 30
0.0
 11
264.2569663766516
 21
180.1597553094293
 31
0.0
  0
LINE
  5
4C48
330
8C50
100
AcDbEntity
  8
0
100
AcDbLine
 10
260.1514518502842
 20
189.1597553094293
 30
0.0
 11
260.1514518502842
 21
192.4597736199764
 31
0.0
  0
LINE
  5
4C49
330
8C50
100
AcDbEntity
  8
0
100
AcDbLine
 10
265.6514518502842
 20
192.4597736199764
 30
0.0
 11
265.6514518502842
 21
204.4597736199764
 31
0.0
  0
LINE
  5
4C4A
330
8C50
100
AcDbEntity
  8
0
100
AcDbLine
 10
265.6514518502842
 20
180.1597553094293
 30
0.0
 11
265.6514518502842
 21
189.1597553094293
 31
0.0
  0
LINE
  5
4C4B
330
8C50
100
AcDbEntity
  8
0
100
AcDbLine
 10
238.1514518502843
 20
192.4597736199764
 30
0.0
 11
238.1514518502843
 21
189.1597553094293
 31
0.0
  0
LINE
  5
4C4C
330
8C50
100
AcDbEntity
  8
0
100
AcDbLine
 10
231.4995078783995
 20
386.3610981958047
 30
0.0
 11
239.8495078783994
 21
383.3219466308543
 31
0.0
  0
ARC
  5
4C4D
330
8C50
100
AcDbEntity
  8
0
100
AcDbCircle
 10
234.9215659838681
 20
356.0281258690636
 30
0.0
 40
2.0
100
AcDbArc
 50
90.82161278992964
 51
138.9667966266555
  0
ARC
  5
4C4E
330
8C50
100
AcDbEntity
  8
0
100
AcDbCircle
 10
234.9215659838681
 20
332.3942757714078
 30
0.0
 40
2.0
100
AcDbArc
 50
221.0332033733465
 51
269.1783872100736
  0
LINE
  5
4C4F
330
8C50
100
AcDbEntity
  8
0
100
AcDbLine
 10
231.4995078783995
 20
389.2112008202358
 30
0.0
 11
265.4995078783995
 21
389.2112008202358
 31
0.0
  0
LINE
  5
4C50
330
8C50
100
AcDbEntity
  8
0
100
AcDbLine
 10
232.8390464526179
 20
319.2112008202359
 30
0.0
 11
264.1599693041804
 21
319.2112008202359
 31
0.0
  0
LINE
  5
4C51
330
8C50
100
AcDbEntity
  8
0
100
AcDbLine
 10
232.8390464526179
 20
369.2112008202359
 30
0.0
 11
264.1599693041804
 21
369.2112008202359
 31
0.0
  0
CIRCLE
  5
4C52
330
8C50
100
AcDbEntity
  8
0
100
AcDbCircle
 10
248.4995078783994
 20
344.2112008202359
 30
0.0
 40
23.5
  0
LINE
  5
4C53
330
8C50
100
AcDbEntity
  8
0
100
AcDbLine
 10
231.4995078783995
 20
302.0613171822376
 30
0.0
 11
239.8495078783994
 21
305.1004687471877
 31
0.0
  0
LINE
  5
4C54
330
8C50
100
AcDbEntity
  8
0
100
AcDbLine
 10
231.4995078783995
 20
299.2112008202358
 30
0.0
 11
265.4995078783995
 21
299.2112008202358
 31
0.0
  0
LINE
  5
4C55
330
8C50
100
AcDbEntity
  8
0
100
AcDbLine
 10
269.1514518502842
 20
232.4597736199764
 30
0.0
 11
229.1514518502841
 21
232.4597736199764
 31
0.0
  0
LINE
  5
4C56
330
8C50
100
AcDbEntity
  8
0
100
AcDbLine
 10
223.4995078783994
 20
359.8716622460164
 30
0.0
 11
223.4995078783994
 21
328.5507393944532
 31
0.0
  0
ARC
  5
4C57
330
8C50
100
AcDbEntity
  8
0
100
AcDbCircle
 10
231.4768028002743
 20
338.3608437645714
 30
0.0
 40
2.0
100
AcDbArc
 50
150.8216144595706
 51
198.9667982962963
  0
ARC
  5
4C58
330
8C50
100
AcDbEntity
  8
0
100
AcDbCircle
 10
248.4995078783994
 20
344.2112008202359
 30
0.0
 40
29.5
100
AcDbArc
 50
212.0637852949077
 51
237.9362140218463
  0
ARC
  5
4C59
330
8C50
100
AcDbEntity
  8
0
100
AcDbCircle
 10
248.4995078783994
 20
344.2112008202359
 30
0.0
 40
20.0
100
AcDbArc
 50
198.9668019387748
 51
221.0482024687744
  0
LINE
  5
4C5A
330
8C50
100
AcDbEntity
  8
0
100
AcDbLine
 10
231.4995078783995
 20
299.2112008202358
 30
0.0
 11
231.4995078783995
 21
302.0613171822376
 31
0.0
  0
LINE
  5
4C5B
330
8C50
100
AcDbEntity
  8
0
100
AcDbLine
 10
231.4995078783995
 20
389.2112008202358
 30
0.0
 11
231.4995078783995
 21
386.3610981958047
 31
0.0
  0
ARC
  5
4C5C
330
8C50
100
AcDbEntity
  8
0
100
AcDbCircle
 10
231.4768028002743
 20
350.0615731346886
 30
0.0
 40
2.0
100
AcDbArc
 50
161.0331980612249
 51
209.1783818979631
  0
ARC
  5
4C5D
330
8C50
100
AcDbEntity
  8
0
100
AcDbCircle
 10
248.4995078783994
 20
344.2112008202359
 30
0.0
 40
20.0
100
AcDbArc
 50
138.9517975312255
 51
161.0331980612249
  0
ARC
  5
4C5E
330
8C50
100
AcDbEntity
  8
0
100
AcDbCircle
 10
220.9995078783993
 20
344.2112008202359
 30
0.0
 40
10.0
100
AcDbArc
 50
330.821616280815
 51
29.1783837191849
  0
ARC
  5
4C5F
330
8C50
100
AcDbEntity
  8
0
100
AcDbCircle
 10
248.4995078783994
 20
344.2112008202359
 30
0.0
 40
29.5
100
AcDbArc
 50
122.0637859781563
 51
147.9362147050919
  0
LINE
  5
4C60
330
8C50
100
AcDbEntity
  8
0
100
AcDbLine
 10
273.4995078783995
 20
359.8716622460164
 30
0.0
 11
273.4995078783995
 21
328.5507393944532
 31
0.0
  0
ARC
  5
4C61
330
8C50
100
AcDbEntity
  8
0
100
AcDbCircle
 10
265.5222434741022
 20
338.3608437645714
 30
0.0
 40
2.0
100
AcDbArc
 50
341.033199882476
 51
29.1783837191849
  0
ARC
  5
4C62
330
8C50
100
AcDbEntity
  8
0
100
AcDbCircle
 10
248.4995078783994
 20
344.2112008202359
 30
0.0
 40
29.5
100
AcDbArc
 50
302.0637877993888
 51
327.9362131112379
  0
ARC
  5
4C63
330
8C50
100
AcDbEntity
  8
0
100
AcDbCircle
 10
248.4995078783994
 20
344.2112008202359
 30
0.0
 40
20.0
100
AcDbArc
 50
318.9517925222653
 51
341.0476354872776
  0
ARC
  5
4C64
330
8C50
100
AcDbEntity
  8
0
100
AcDbCircle
 10
262.0774497729307
 20
332.3942757714078
 30
0.0
 40
2.0
100
AcDbArc
 50
270.8216146111605
 51
318.9667984478873
  0
ARC
  5
4C65
330
8C50
100
AcDbEntity
  8
0
100
AcDbCircle
 10
234.7495078783989
 20
320.3954964745328
 30
0.0
 40
10.0
100
AcDbArc
 50
30.8216145353636
 51
89.17838538883946
  0
ARC
  5
4C66
330
8C50
100
AcDbEntity
  8
0
100
AcDbCircle
 10
245.0547141772274
 20
326.5439034569546
 30
0.0
 40
2.0
100
AcDbArc
 50
210.8216197717033
 51
258.9667967782261
  0
ARC
  5
4C67
330
8C50
100
AcDbEntity
  8
0
100
AcDbCircle
 10
248.4995078783994
 20
344.2112008202359
 30
0.0
 40
20.0
100
AcDbArc
 50
258.966817268797
 51
281.0331777222513
  0
ARC
  5
4C68
330
8C50
100
AcDbEntity
  8
0
100
AcDbCircle
 10
251.9443015795709
 20
326.5439034569546
 30
0.0
 40
2.0
100
AcDbArc
 50
281.0331982128139
 51
329.178385464638
  0
ARC
  5
4C69
330
8C50
100
AcDbEntity
  8
0
100
AcDbCircle
 10
262.2495078783995
 20
320.3954964745328
 30
0.0
 40
10.0
100
AcDbArc
 50
90.82161278992964
 51
149.1783802282965
  0
LINE
  5
4C6A
330
8C50
100
AcDbEntity
  8
0
100
AcDbLine
 10
265.4995078783995
 20
299.2112008202358
 30
0.0
 11
265.4995078783995
 21
302.0611631649999
 31
0.0
  0
LINE
  5
4C6B
330
8C50
100
AcDbEntity
  8
0
100
AcDbLine
 10
265.4995078783995
 20
302.0611631649999
 30
0.0
 11
257.1495078783995
 21
305.1003147299486
 31
0.0
  0
LINE
  5
4C6E
330
8C50
100
AcDbEntity
  8
0
100
AcDbLine
 10
265.4995078783995
 20
389.2112008202358
 30
0.0
 11
265.4995078783995
 21
386.3612522130425
 31
0.0
  0
ARC
  5
4C6F
330
8C50
100
AcDbEntity
  8
0
100
AcDbCircle
 10
248.4995078783994
 20
344.2112008202359
 30
0.0
 40
20.0
100
AcDbArc
 50
18.95236451272228
 51
41.04820747773461
  0
ARC
  5
4C70
330
8C50
100
AcDbEntity
  8
0
100
AcDbCircle
 10
275.999507878399
 20
344.2112008202359
 30
0.0
 40
10.0
100
AcDbArc
 50
150.8216144595706
 51
209.1783818979631
  0
ARC
  5
4C71
330
8C50
100
AcDbEntity
  8
0
100
AcDbCircle
 10
265.5222434741022
 20
350.0615731346886
 30
0.0
 40
2.0
100
AcDbArc
 50
330.821616280815
 51
18.96680011752389
  0
ARC
  5
4C72
330
8C50
100
AcDbEntity
  8
0
100
AcDbCircle
 10
262.0774497729307
 20
356.0281258690636
 30
0.0
 40
2.0
100
AcDbArc
 50
41.03320155211267
 51
89.17838538883946
  0
ARC
  5
4C73
330
8C50
100
AcDbEntity
  8
0
100
AcDbCircle
 10
248.4995078783994
 20
344.2112008202359
 30
0.0
 40
29.5
100
AcDbArc
 50
32.06378688878579
 51
57.93621220061101
  0
ARC
  5
4C76
330
8C50
100
AcDbEntity
  8
0
100
AcDbCircle
 10
245.0547141772274
 20
361.8784981835164
 30
0.0
 40
2.0
100
AcDbArc
 50
101.0332032217737
 51
149.1783802282965
  0
ARC
  5
4C77
330
8C50
100
AcDbEntity
  8
0
100
AcDbCircle
 10
234.7495078783989
 20
368.0269051659385
 30
0.0
 40
10.0
100
AcDbArc
 50
270.8216146111605
 51
329.178385464638
  0
ARC
  5
4C78
330
8C50
100
AcDbEntity
  8
0
100
AcDbCircle
 10
248.4995078783994
 20
344.2112008202359
 30
0.0
 40
20.0
100
AcDbArc
 50
78.9668222777518
 51
101.0331827312029
  0
ARC
  5
4C79
330
8C50
100
AcDbEntity
  8
0
100
AcDbCircle
 10
251.9443015795709
 20
361.8784981835164
 30
0.0
 40
2.0
100
AcDbArc
 50
30.8216145353636
 51
78.966801787186
  0
LINE
  5
4C7A
330
8C50
100
AcDbEntity
  8
0
100
AcDbLine
 10
265.4995078783995
 20
386.3612522130425
 30
0.0
 11
257.1495078783995
 21
383.3221006480926
 31
0.0
  0
ARC
  5
4C7B
330
8C50
100
AcDbEntity
  8
0
100
AcDbCircle
 10
262.2495078783995
 20
368.0269051659385
 30
0.0
 40
10.0
100
AcDbArc
 50
210.8216197717033
 51
269.1783872100736
  0
LINE
  5
4C91
330
8C50
100
AcDbEntity
  8
0
100
AcDbLine
 10
416.6979012860934
 20
165.5097675164614
 30
0.0
 11
402.5871361611165
 21
165.5097675164614
 31
0.0
  0
LINE
  5
4C92
330
8C50
100
AcDbEntity
  8
0
100
AcDbLine
 10
416.6980247936485
 20
148.2097675164613
 30
0.0
 11
402.5871361611165
 21
148.2097675164613
 31
0.0
  0
LINE
  5
4C93
330
8C50
100
AcDbEntity
  8
0
100
AcDbLine
 10
352.5871361611165
 20
165.5097675164614
 30
0.0
 11
338.4763928927422
 21
165.5097675164614
 31
0.0
  0
LINE
  5
4C94
330
8C50
100
AcDbEntity
  8
0
100
AcDbLine
 10
352.5871361611165
 20
148.2097675164613
 30
0.0
 11
338.4762369090604
 21
148.2097675164613
 31
0.0
  0
LINE
  5
4C96
330
8C50
100
AcDbEntity
  8
0
100
AcDbLine
 10
239.8495078783994
 20
383.3219466308543
 30
0.0
 11
239.8495078783994
 21
369.2112008202359
 31
0.0
  0
LINE
  5
4C97
330
8C50
100
AcDbEntity
  8
0
100
AcDbLine
 10
257.1495078783995
 20
383.3221006480926
 30
0.0
 11
257.1495078783995
 21
369.2112008202359
 31
0.0
  0
LINE
  5
4C98
330
8C50
100
AcDbEntity
  8
0
100
AcDbLine
 10
239.8495078783994
 20
319.2112008202359
 30
0.0
 11
239.8495078783994
 21
305.1004687471877
 31
0.0
  0
LINE
  5
4C99
330
8C50
100
AcDbEntity
  8
0
100
AcDbLine
 10
257.1495078783995
 20
319.2112008202359
 30
0.0
 11
257.1495078783995
 21
305.1003147299486
 31
0.0
  0
CIRCLE
  5
4CA4
330
8C50
100
AcDbEntity
  8
0
100
AcDbCircle
 10
248.4995078783994
 20
156.8597675164616
 30
0.0
 40
17.0
  0
CIRCLE
  5
4CA5
330
8C50
100
AcDbEntity
  8
0
100
AcDbCircle
 10
248.4995078783994
 20
156.8597675164616
 30
0.0
 40
8.650000001371264
  0
LINE
  5
8D19
330
8C50
100
AcDbEntity
  8
0
  6
CENTER
100
AcDbLine
 10
377.5871361611165
 20
144.460187586049
 30
0.0
 11
377.5871361611165
 21
240.4593596539037
 31
0.0
  0
LINE
  5
8D1A
330
8C50
100
AcDbEntity
  8
0
  6
CENTER
100
AcDbLine
 10
434.7148830574255
 20
156.8597675164617
 30
0.0
 11
320.4593892648076
 21
156.8597675164617
 31
0.0
  0
LINE
  5
8D1B
330
8C50
100
AcDbEntity
  8
0
  6
CENTER
100
AcDbLine
 10
248.4995078783994
 20
127.9929872992083
 30
0.0
 11
248.4995078783994
 21
242.5639805795359
 31
0.0
  0
LINE
  5
8D1C
330
8C50
100
AcDbEntity
  8
0
  6
CENTER
100
AcDbLine
 10
279.3306393399852
 20
156.8597675164618
 30
0.0
 11
217.6683764168137
 21
156.8597675164615
 31
0.0
  0
LINE
  5
8D1D
330
8C50
100
AcDbEntity
  8
0
  6
CENTER
100
AcDbLine
 10
248.4995078783994
 20
277.9060962063028
 30
0.0
 11
248.4995078783994
 21
410.5163054341689
 31
0.0
  0
LINE
  5
8D1E
330
8C50
100
AcDbEntity
  8
0
  6
CENTER
100
AcDbLine
 10
282.5851924925826
 20
344.2112008202359
 30
0.0
 11
214.4138232642163
 21
344.2112008202357
 31
0.0
  0
SPLINE
  5
8EEC
330
8C50
100
AcDbEntity
  8
Visible (ISO)
100
AcDbSpline
210
0.0
220
0.0
230
1.0
 70
     8
 71
     3
 72
    10
 73
     6
 74
     0
 42
0.0000000001
 43
0.0000000001
 40
1.373926011701395
 40
1.373926011701395
 40
1.373926011701395
 40
1.373926011701395
 40
1.452016626737363
 40
1.452016626737363
 40
1.457164195614159
 40
1.457164195614159
 40
1.457164195614159
 40
1.457164195614159
 10
845.305448537699
 20
197.273337926879
 30
0.0
 10
845.5276833361065
 20
197.1267163089084
 30
0.0
 10
845.7451248218392
 20
196.9775314456362
 30
0.0
 10
845.9707164803814
 20
196.8160033290021
 30
0.0
 10
845.9846774817318
 20
196.8059787018244
 30
0.0
 10
845.998647468529
 20
196.7959187949507
 30
0.0
  0
LINE
  5
8EED
330
8C50
100
AcDbEntity
  8
Visible (ISO)
100
AcDbLine
 10
821.2143216232295
 20
188.9780976949621
 30
0.0
 11
845.305448537699
 21
197.273337926879
 31
0.0
  0
SPLINE
  5
8EEE
330
8C50
100
AcDbEntity
  8
Visible (ISO)
100
AcDbSpline
210
0.0
220
0.0
230
1.0
 70
     8
 71
     3
 72
    18
 73
    14
 74
     0
 42
0.0000000001
 43
0.0000000001
 40
2.449789672836294
 40
2.449789672836294
 40
2.449789672836294
 40
2.449789672836294
 40
2.476982571578492
 40
2.476982571578492
 40
2.757060018455156
 40
2.757060018455156
 40
3.03713746533182
 40
3.03713746533182
 40
3.317214912208483
 40
3.317214912208483
 40
3.597292359085146
 40
3.597292359085146
 40
3.624485257827343
 40
3.624485257827343
 40
3.624485257827343
 40
3.624485257827343
 10
824.3633635317102
 20
179.8326159300947
 30
0.0
 10
824.3162279966311
 20
179.8553328423456
 30
0.0
 10
824.2694290041438
 20
179.8790374573743
 30
0.0
 10
823.7449421881045
 20
180.1576431864666
 30
0.0
 10
823.2361308997594
 20
180.5574603862421
 30
0.0
 10
822.344084684167
 20
181.6593833849763
 30
0.0
 10
821.9648033195101
 20
182.3651350081015
 30
0.0
 10
821.4383505325239
 20
183.8940649186513
 30
0.0
 10
821.25723608289
 20
184.8158209151931
 30
0.0
 10
821.1014456936343
 20
186.7570363822849
 30
0.0
 10
821.1218609848545
 20
187.7756241499716
 30
0.0
 10
821.1990330154019
 20
188.7961148866504
 30
0.0
 10
821.2064086778426
 20
188.8869039355784
 30
0.0
 10
821.2143216232295
 20
188.9780976949621
 30
0.0
  0
LINE
  5
8EEF
330
8C50
100
AcDbEntity
  8
Visible (ISO)
100
AcDbLine
 10
848.4544904461802
 20
188.1278561620126
 30
0.0
 11
824.3633635317102
 21
179.8326159300947
 31
0.0
  0
SPLINE
  5
8EF0
330
8C50
100
AcDbEntity
  8
Visible (ISO)
100
AcDbSpline
210
0.0
220
0.0
230
1.0
 70
     8
 71
     3
 72
    10
 73
     6
 74
     0
 42
0.0000000001
 43
0.0000000001
 40
2.554399938987141
 40
2.554399938987141
 40
2.554399938987141
 40
2.554399938987141
 40
2.559547507863936
 40
2.559547507863936
 40
2.637638122899906
 40
2.637638122899906
 40
2.637638122899906
 40
2.637638122899906
 10
848.8237186555059
 20
188.5913163235252
 30
0.0
 10
848.8166103852119
 20
188.5814483586907
 30
0.0
 10
848.8094850324531
 20
188.5716208208711
 30
0.0
 10
848.6940045844624
 20
188.4133627620683
 30
0.0
 10
848.5777951928096
 20
188.2685482765434
 30
0.0
 10
848.4544904461802
 20
188.1278561620126
 30
0.0
  0
LINE
  5
8EF1
330
8C50
100
AcDbEntity
  8
Visible (ISO)
100
AcDbLine
 10
845.9986474685281
 20
196.7959187949507
 30
0.0
 11
848.823718655505
 21
188.5913163235243
 31
0.0
  0
SPLINE
  5
8EF2
330
8C50
100
AcDbEntity
  8
Visible (ISO)
100
AcDbSpline
210
0.0
220
0.0
230
1.0
 70
     8
 71
     3
 72
    12
 73
     8
 74
     0
 42
0.0000000001
 43
0.0000000001
 40
2.449789672836302
 40
2.449789672836302
 40
2.449789672836302
 40
2.449789672836302
 40
2.4769825715785
 40
2.4769825715785
 40
2.757060018455164
 40
2.757060018455164
 40
3.037137465331827
 40
3.037137465331827
 40
3.037137465373468
 40
3.037137465373468
 10
819.6626483670572
 20
193.4844840441353
 30
0.0
 10
819.6427463445349
 20
193.4281090929823
 30
0.0
 10
819.6231132313894
 20
193.372918265725
 30
0.0
 10
819.404585011301
 20
192.762955712338
 30
0.0
 10
819.207162435757
 20
192.2584344252116
 30
0.0
 10
818.9291949529691
 20
191.576943288386
 30
0.0
 10
818.8528555745167
 20
191.4028874998709
 30
0.0
 10
818.8528555745167
 20
191.4028874998709
 30
0.0
  0
LINE
  5
8EF3
330
8C50
100
AcDbEntity
  8
Visible (ISO)
100
AcDbLine
 10
843.7537752815275
 20
201.7797242760532
 30
0.0
 11
819.6626483670572
 21
193.4844840441353
 31
0.0
  0
SPLINE
  5
8EF4
330
8C50
100
AcDbEntity
  8
Visible (ISO)
100
AcDbSpline
210
0.0
220
0.0
230
1.0
 70
     8
 71
     3
 72
    10
 73
     6
 74
     0
 42
0.0000000001
 43
0.0000000001
 40
2.554399938987145
 40
2.554399938987145
 40
2.554399938987145
 40
2.554399938987145
 40
2.559547507863938
 40
2.559547507863938
 40
2.637638122899908
 40
2.637638122899908
 40
2.637638122899908
 40
2.637638122899908
 10
844.3434431338816
 20
201.6029812284075
 30
0.0
 10
844.3317573715479
 20
201.6064072657497
 30
0.0
 10
844.3200663393328
 20
201.6098394238722
 30
0.0
 10
844.1309510692018
 20
201.6654324165044
 30
0.0
 10
843.9457703626924
 20
201.7209251738347
 30
0.0
 10
843.7537752815275
 20
201.7797242760532
 30
0.0
  0
SPLINE
  5
8EF5
330
8C50
100
AcDbEntity
  8
Visible (ISO)
100
AcDbSpline
210
0.0
220
0.0
230
1.0
 70
     8
 71
     3
 72
    10
 73
     6
 74
     0
 42
0.0000000001
 43
0.0000000001
 40
1.373926011701396
 40
1.373926011701396
 40
1.373926011701396
 40
1.373926011701396
 40
1.452016626737364
 40
1.452016626737364
 40
1.45716419561416
 40
1.45716419561416
 40
1.45716419561416
 40
1.45716419561416
 10
856.2585521231769
 20
165.4632153496247
 30
0.0
 10
856.3736459697555
 20
165.6277536494014
 30
0.0
 10
856.4854056049979
 20
165.7854911658958
 30
0.0
 10
856.6002040076698
 20
165.9457300281299
 30
0.0
 10
856.607303619244
 20
165.95563232378
 30
0.0
 10
856.6144028464217
 20
165.9655265517283
 30
0.0
  0
LINE
  5
8EF6
330
8C50
100
AcDbEntity
  8
Visible (ISO)
100
AcDbLine
 10
832.1674252087074
 20
157.1679751177068
 30
0.0
 11
856.2585521231769
 21
165.4632153496247
 31
0.0
  0
SPLINE
  5
8EF7
330
8C50
100
AcDbEntity
  8
Visible (ISO)
100
AcDbSpline
210
0.0
220
0.0
230
1.0
 70
     8
 71
     3
 72
    12
 73
     8
 74
     0
 42
0.0000000001
 43
0.0000000001
 40
3.037137465331825
 40
3.037137465331825
 40
3.037137465373467
 40
3.037137465373467
 40
3.317214912208489
 40
3.317214912208489
 40
3.597292359085153
 40
3.597292359085153
 40
3.624485257827351
 40
3.624485257827351
 40
3.624485257827351
 40
3.624485257827351
 10
830.2477409805172
 20
158.3097373538946
 30
0.0
 10
830.2477409805671
 20
158.3097373538673
 30
0.0
 10
830.4150566752548
 20
158.2195787351536
 30
0.0
 10
831.0536658795165
 20
157.8536902614203
 30
0.0
 10
831.519851312016
 20
157.5776675358627
 30
0.0
 10
832.0675843449233
 20
157.2315498908762
 30
0.0
 10
832.1170343153427
 20
157.2001462769019
 30
0.0
 10
832.1674252087074
 20
157.1679751177068
 30
0.0
  0
LINE
  5
8EF8
330
8C50
100
AcDbEntity
  8
Visible (ISO)
100
AcDbLine
 10
852.1341273247992
 20
178.9771914566106
 30
0.0
 11
848.8237186555059
 21
188.5913163235243
 31
0.0
  0
LINE
  5
8EF9
330
8C50
100
AcDbEntity
  8
Visible (ISO)
100
AcDbLine
 10
856.6144028464217
 20
165.9655265517283
 30
0.0
 11
854.9591985117752
 21
170.7725889851842
 31
0.0
  0
LINE
  5
8EFA
330
8C50
100
AcDbEntity
  8
Visible (ISO)
100
AcDbLine
 10
845.9986474685281
 20
196.7959187949507
 30
0.0
 11
844.3434431338825
 21
201.6029812284066
 31
0.0
  0
LINE
  5
8EFB
330
8C50
100
AcDbEntity
  8
Visible (ISO)
100
AcDbLine
 10
851.5578369585243
 20
179.1150834636662
 30
0.0
 11
848.4544904461802
 21
188.1278561620126
 31
0.0
  0
LINE
  5
8EFC
330
8C50
100
AcDbEntity
  8
Visible (ISO)
100
AcDbLine
 10
856.2585521231769
 20
165.4632153496247
 30
0.0
 11
854.7068788670056
 21
169.969601698798
 31
0.0
  0
LINE
  5
8EFD
330
8C50
100
AcDbEntity
  8
Visible (ISO)
100
AcDbLine
 10
827.466710044054
 20
170.8198432317474
 30
0.0
 11
824.3633635317102
 21
179.8326159300947
 31
0.0
  0
LINE
  5
8EFE
330
8C50
100
AcDbEntity
  8
Visible (ISO)
100
AcDbLine
 10
832.1674252087074
 20
157.1679751177068
 30
0.0
 11
830.6157519525353
 21
161.674361466881
 31
0.0
  0
LINE
  5
8EFF
330
8C50
100
AcDbEntity
  8
Visible (ISO)
100
AcDbLine
 10
808.1021094709296
 20
151.742005592592
 30
0.0
 11
797.3583603738436
 21
182.9441185873699
 31
0.0
  0
LINE
  5
8F00
330
8C50
100
AcDbEntity
  8
Visible (ISO)
100
AcDbLine
 10
817.0845359391231
 20
154.8349030599354
 30
0.0
 11
806.340786842037
 21
186.0370160547133
 31
0.0
  0
LINE
  5
8F01
330
8C50
100
AcDbEntity
  8
Visible (ISO)
100
AcDbLine
 10
829.3762774219143
 20
159.0672890678786
 30
0.0
 11
818.6325283248281
 21
190.2694020626565
 31
0.0
  0
LINE
  5
8F02
330
8C50
100
AcDbEntity
  8
Visible (ISO)
100
AcDbLine
 10
821.2143216232295
 20
188.9780976949621
 30
0.0
 11
819.6626483670572
 21
193.4844840441353
 31
0.0
  0
LINE
  5
8F03
330
8C50
100
AcDbEntity
  8
Visible (ISO)
100
AcDbLine
 10
845.305448537699
 20
197.273337926879
 30
0.0
 11
843.7537752815275
 21
201.7797242760532
 31
0.0
  0
LINE
  5
8F04
330
8C50
100
AcDbEntity
  8
Visible (ISO)
100
AcDbLine
 10
788.9432450510096
 20
180.0465620127013
 30
0.0
 11
797.3583603738432
 21
182.9441185873699
 31
0.0
  0
LINE
  5
8F05
330
8C50
100
AcDbEntity
  8
Visible (ISO)
100
AcDbLine
 10
799.6869941480956
 20
148.8444490179242
 30
0.0
 11
808.1021094709296
 21
151.742005592592
 31
0.0
  0
LINE
  5
8F06
330
8C50
100
AcDbEntity
  8
Visible (ISO)
100
AcDbLine
 10
799.1489852233578
 20
177.7437664215738
 30
0.0
 11
808.1314116915512
 21
180.8366638889163
 31
0.0
  0
LINE
  5
8F07
330
8C50
100
AcDbEntity
  8
Visible (ISO)
100
AcDbLine
 10
806.3114846214149
 20
156.9423577583891
 30
0.0
 11
815.2939110896088
 21
160.0352552257315
 31
0.0
  0
LINE
  5
8F08
330
8C50
100
AcDbEntity
  8
Visible (ISO)
100
AcDbLine
 10
806.340786842037
 20
186.0370160547133
 30
0.0
 11
818.6325283248281
 21
190.2694020626565
 31
0.0
  0
LINE
  5
8F09
330
8C50
100
AcDbEntity
  8
Visible (ISO)
100
AcDbLine
 10
746.7916992535263
 20
148.0818796122036
 30
0.0
 11
858.6195519343688
 21
186.5872972251079
 31
0.0
  0
LINE
  5
8F0A
330
8C50
100
AcDbEntity
  8
Visible (ISO)
100
AcDbLine
 10
817.0845359391231
 20
154.8349030599354
 30
0.0
 11
829.3762774219143
 21
159.0672890678777
 31
0.0
  0
LINE
  5
8F0B
330
8C50
100
AcDbEntity
  8
Visible (ISO)
100
AcDbLine
 10
818.6325283248281
 20
190.2694020626565
 30
0.0
 11
818.8528555745167
 21
191.4028874998709
 31
0.0
  0
LINE
  5
8F0C
330
8C50
100
AcDbEntity
  8
Visible (ISO)
100
AcDbLine
 10
829.3762774219143
 20
159.0672890678777
 30
0.0
 11
830.2477409805172
 21
158.3097373538946
 31
0.0
  0
LINE
  5
8F0D
330
8C50
100
AcDbEntity
  8
Visible (ISO)
100
AcDbLine
 10
852.1341273247987
 20
178.9771914566106
 30
0.0
 11
854.9591985117752
 21
170.7725889851842
 31
0.0
  0
SPLINE
  5
8F0E
330
8C50
100
AcDbEntity
  8
Visible (ISO)
100
AcDbSpline
210
0.0
220
0.0
230
1.0
 70
     8
 71
     3
 72
    10
 73
     6
 74
     0
 42
0.0000000001
 43
0.0000000001
 40
1.37363621508085
 40
1.37363621508085
 40
1.37363621508085
 40
1.37363621508085
 40
1.451726830116821
 40
1.451726830116821
 40
1.456874398993615
 40
1.456874398993615
 40
1.456874398993615
 40
1.456874398993615
 10
851.5578369585243
 20
179.1150834636662
 30
0.0
 10
851.7416211396378
 20
179.0801305466918
 30
0.0
 10
851.9223520897373
 20
179.0375608203319
 30
0.0
 10
852.1107853145498
 20
178.9839486311318
 30
0.0
 10
852.1224506055798
 20
178.9805912308399
 30
0.0
 10
852.1341273247987
 20
178.9771914566106
 30
0.0
  0
SPLINE
  5
8F0F
330
8C50
100
AcDbEntity
  8
Visible (ISO)
100
AcDbSpline
210
0.0
220
0.0
230
1.0
 70
     8
 71
     3
 72
    10
 73
     6
 74
     0
 42
0.0000000001
 43
0.0000000001
 40
2.5541101423666
 40
2.5541101423666
 40
2.5541101423666
 40
2.5541101423666
 40
2.559257711243394
 40
2.559257711243394
 40
2.637348326279365
 40
2.637348326279365
 40
2.637348326279365
 40
2.637348326279365
 10
854.9591985117752
 20
170.7725889851842
 30
0.0
 10
854.9543835090601
 20
170.7560608877063
 30
0.0
 10
854.9495538666217
 20
170.739566123
 30
0.0
 10
854.87123185236
 20
170.473392136764
 30
0.0
 10
854.7917329963413
 20
170.2219625143259
 30
0.0
 10
854.7068788670056
 20
169.969601698798
 30
0.0
  0
LINE
  5
8F10
330
8C50
100
AcDbEntity
  8
Visible (ISO)
100
AcDbLine
 10
827.466710044054
 20
170.8198432317474
 30
0.0
 11
851.5578369585243
 21
179.1150834636662
 31
0.0
  0
LINE
  5
8F11
330
8C50
100
AcDbEntity
  8
Visible (ISO)
100
AcDbLine
 10
854.7068788670056
 20
169.969601698798
 30
0.0
 11
830.6157519525353
 21
161.674361466881
 31
0.0
  0
SPLINE
  5
8F12
330
8C50
100
AcDbEntity
  8
Visible (ISO)
100
AcDbSpline
210
0.0
220
0.0
230
1.0
 70
     8
 71
     3
 72
    18
 73
    14
 74
     0
 42
0.0000000001
 43
0.0000000001
 40
2.445796843518635
 40
2.445796843518635
 40
2.445796843518635
 40
2.445796843518635
 40
2.472989742260832
 40
2.472989742260832
 40
2.753067189137496
 40
2.753067189137496
 40
3.033144636014159
 40
3.033144636014159
 40
3.313222082890823
 40
3.313222082890823
 40
3.593299529767486
 40
3.593299529767486
 40
3.620492428509685
 40
3.620492428509685
 40
3.620492428509685
 40
3.620492428509685
 10
830.6157519525353
 20
161.674361466881
 30
0.0
 10
830.5533719820353
 20
161.7413514343058
 30
0.0
 10
830.4916645609107
 20
161.8083532699508
 30
0.0
 10
829.8025753384619
 20
162.564999098229
 30
0.0
 10
829.1593826216397
 20
163.355088304346
 30
0.0
 10
828.0870155452864
 20
164.9807011083737
 30
0.0
 10
827.6622460225105
 20
165.8185599351143
 30
0.0
 10
827.1357932355238
 20
167.3474898456631
 30
0.0
 10
827.0001669440091
 20
168.1371386385897
 30
0.0
 10
827.0246974155137
 20
169.5546643003897
 30
0.0
 10
827.1794941352121
 20
170.182980061734
 30
0.0
 10
827.4212685721689
 20
170.725430699226
 30
0.0
 10
827.4435526632467
 20
170.7729225275377
 30
0.0
 10
827.466710044054
 20
170.8198432317474
 30
0.0
  0
LINE
  5
8F13
330
8C50
100
AcDbEntity
  8
Visible (ISO)
100
AcDbLine
 10
785.6240928153136
 20
135.0124279759927
 30
0.0
 11
782.7218832017458
 21
143.4410567050106
 31
0.0
  0
LINE
  5
8F14
330
8C50
100
AcDbEntity
  8
Visible (ISO)
100
AcDbLine
 10
772.2478947060233
 20
173.8597280269393
 30
0.0
 11
769.345685092456
 21
182.2883567559581
 31
0.0
  0
LINE
  5
8F15
330
8C50
100
AcDbEntity
  8
Visible (ISO)
100
AcDbLine
 10
792.1331735505475
 20
147.1313751173045
 30
0.0
 11
783.6371012987677
 21
144.2059428365125
 31
0.0
  0
LINE
  5
8F16
330
8C50
100
AcDbEntity
  8
Visible (ISO)
100
AcDbLine
 10
792.1331735505475
 20
147.1313751173045
 30
0.0
 11
789.2340798182924
 21
155.5509546699211
 31
0.0
  0
LINE
  5
8F17
330
8C50
100
AcDbEntity
  8
Visible (ISO)
100
AcDbLine
 10
784.8351733165834
 20
168.3263067820641
 30
0.0
 11
781.9360795843283
 21
176.7458863346798
 31
0.0
  0
LINE
  5
8F18
330
8C50
100
AcDbEntity
  8
Visible (ISO)
100
AcDbLine
 10
781.9360795843283
 20
176.7458863346798
 30
0.0
 11
773.4400073325485
 21
173.8204540538879
 31
0.0
  0
LINE
  5
8F19
330
8C50
100
AcDbEntity
  8
Visible (ISO)
100
AcDbLine
 10
778.8954227060087
 20
185.5765951159753
 30
0.0
 11
781.9360795843283
 21
176.7458863346798
 31
0.0
  0
LINE
  5
8F1A
330
8C50
100
AcDbEntity
  8
Visible (ISO)
100
AcDbLine
 10
792.1331735505475
 20
147.1313751173045
 30
0.0
 11
795.1738304288667
 21
138.3006663360099
 31
0.0
  0
LINE
  5
8F1B
330
8C50
100
AcDbEntity
  8
Visible (ISO)
100
AcDbLine
 10
778.8954227060087
 20
185.5765951159753
 30
0.0
 11
769.345685092456
 21
182.2883567559581
 31
0.0
  0
LINE
  5
8F1C
330
8C50
100
AcDbEntity
  8
Visible (ISO)
100
AcDbLine
 10
795.1738304288667
 20
138.3006663360099
 30
0.0
 11
785.6240928153136
 21
135.0124279759927
 31
0.0
  0
LINE
  5
8F1D
330
8C50
100
AcDbEntity
  8
Visible (ISO)
100
AcDbLine
 10
764.2835648950738
 20
177.6390343307273
 30
0.0
 11
765.9995950401837
 21
172.6553209168785
 31
0.0
  0
LINE
  5
8F1E
330
8C50
100
AcDbEntity
  8
Visible (ISO)
100
AcDbLine
 10
764.2835648950738
 20
177.6390343307273
 30
0.0
 11
770.2403319213492
 21
179.6901137038073
 31
0.0
  0
LINE
  5
8F1F
330
8C50
100
AcDbEntity
  8
Visible (ISO)
100
AcDbLine
 10
778.772678960144
 20
135.5595916550626
 30
0.0
 11
777.0566488150341
 21
140.5433050689114
 31
0.0
  0
LINE
  5
8F20
330
8C50
100
AcDbEntity
  8
Visible (ISO)
100
AcDbLine
 10
784.7294459864199
 20
137.6106710281426
 30
0.0
 11
778.7726789601444
 21
135.5595916550626
 31
0.0
  0
CIRCLE
  5
8F21
330
8C50
100
AcDbEntity
  8
Visible (ISO)
100
AcDbCircle
 10
772.2845367880884
 20
156.8597675164608
 30
0.0
 40
17.0
  0
CIRCLE
  5
8F22
330
8C50
100
AcDbEntity
  8
Visible (ISO)
100
AcDbCircle
 10
772.2845367880884
 20
156.8597675164608
 30
0.0
 40
6.999999999999994
  0
LINE
  5
8F23
330
8C50
100
AcDbEntity
  8
Visible (ISO)
100
AcDbLine
 10
801.5088048853824
 20
140.4819729708722
 30
0.0
 11
798.4681480070628
 21
149.3126817521677
 31
0.0
  0
SPLINE
  5
8F24
330
8C50
100
AcDbEntity
  8
Visible (ISO)
100
AcDbSpline
210
0.0
220
0.0
230
1.0
 70
    24
 71
     3
 72
     8
 73
     4
 74
     0
 42
0.0000000001
 43
0.0000000001
 40
-0.1443505504637195
 40
-0.1443505504637195
 40
-0.1443505504637195
 40
-0.1443505504637195
 40
0.0
 40
0.0
 40
0.0
 40
0.0
 10
801.5088048853824
 20
140.4819729708722
 30
0.0
 10
801.7155114343506
 20
140.9057842023028
 30
0.0
 10
801.9222045732474
 20
141.32956793901
 30
0.0
 10
802.1287553065242
 20
141.7530597009297
 30
0.0
  0
LINE
  5
8F25
330
8C50
100
AcDbEntity
  8
Visible (ISO)
100
AcDbLine
 10
799.3192408740826
 20
149.9124820766135
 30
0.0
 11
802.1287553065242
 21
141.7530597009297
 31
0.0
  0
SPLINE
  5
8F26
330
8C50
100
AcDbEntity
  8
Visible (ISO)
100
AcDbSpline
210
0.0
220
0.0
230
1.0
 70
     8
 71
     3
 72
     8
 73
     4
 74
     0
 42
0.0000000001
 43
0.0000000001
 40
-0.1443505504637693
 40
-0.1443505504637693
 40
-0.1443505504637693
 40
-0.1443505504637693
 40
0.0
 40
0.0
 40
0.0
 40
0.0
 10
798.4681480070628
 20
149.3126817521677
 30
0.0
 10
798.7522146115359
 20
149.511823068902
 30
0.0
 10
799.0359765413366
 20
149.7117827847394
 30
0.0
 10
799.3192408740826
 20
149.9124820766135
 30
0.0
  0
SPLINE
  5
8F27
330
8C50
100
AcDbEntity
  8
Visible (ISO)
100
AcDbSpline
210
0.0
220
0.0
230
1.0
 70
    24
 71
     3
 72
     8
 73
     4
 74
     0
 42
0.0000000001
 43
0.0000000001
 40
-0.1443505504637693
 40
-0.1443505504637693
 40
-0.1443505504637693
 40
-0.1443505504637693
 40
0.0
 40
0.0
 40
0.0
 40
0.0
 10
785.2303971625245
 20
187.7579017508376
 30
0.0
 10
785.6542083939537
 20
187.5511952018694
 30
0.0
 10
786.0779921306623
 20
187.3445020629731
 30
0.0
 10
786.501483892581
 20
187.1379513296958
 30
0.0
  0
LINE
  5
8F28
330
8C50
100
AcDbEntity
  8
Visible (ISO)
100
AcDbLine
 10
788.2710540408436
 20
178.927192969543
 30
0.0
 11
785.2303971625245
 21
187.7579017508376
 31
0.0
  0
SPLINE
  5
8F29
330
8C50
100
AcDbEntity
  8
Visible (ISO)
100
AcDbSpline
210
0.0
220
0.0
230
1.0
 70
     8
 71
     3
 72
     8
 73
     4
 74
     0
 42
0.0000000001
 43
0.0000000001
 40
-0.1443505504637195
 40
-0.1443505504637195
 40
-0.1443505504637195
 40
-0.1443505504637195
 40
0.0
 40
0.0
 40
0.0
 40
0.0
 10
788.2710540408436
 20
178.927192969543
 30
0.0
 10
788.6175052167684
 20
178.9451563352693
 30
0.0
 10
788.9642201625731
 20
178.9622872172446
 30
0.0
 10
789.3109983250221
 20
178.978528954012
 30
0.0
  0
LINE
  5
8F2A
330
8C50
100
AcDbEntity
  8
Visible (ISO)
100
AcDbLine
 10
786.501483892581
 20
187.1379513296958
 30
0.0
 11
789.3109983250221
 21
178.978528954012
 31
0.0
  0
LINE
  5
8F2B
330
8C50
100
AcDbEntity
  8
Visible (ISO)
100
AcDbLine
 10
788.2710540408436
 20
178.927192969543
 30
0.0
 11
798.4681480070628
 21
149.3126817521677
 31
0.0
  0
LINE
  5
8F2C
330
8C50
100
AcDbEntity
  8
Visible (ISO)
100
AcDbLine
 10
799.3192408740826
 20
149.9124820766135
 30
0.0
 11
789.3109983250221
 21
178.978528954012
 31
0.0
  0
LINE
  5
8F2D
330
8C50
100
AcDbEntity
  8
Visible (ISO)
100
AcDbLine
 10
779.8409412816079
 20
185.9021632704314
 30
0.0
 11
782.8815981599275
 21
177.0714544891377
 31
0.0
  0
SPLINE
  5
8F2E
330
8C50
100
AcDbEntity
  8
Visible (ISO)
100
AcDbSpline
210
0.0
220
0.0
230
1.0
 70
    24
 71
     3
 72
     8
 73
     4
 74
     0
 42
0.0000000001
 43
0.0000000001
 40
-0.1443504730161398
 40
-0.1443504730161398
 40
-0.1443504730161398
 40
-0.1443504730161398
 40
0.0
 40
0.0
 40
0.0
 40
0.0
 10
794.8482622744093
 20
139.2461849116086
 30
0.0
 10
795.2717540363281
 20
139.0396341783323
 30
0.0
 10
795.6955377730362
 20
138.8329410394351
 30
0.0
 10
796.1193490044658
 20
138.626234490466
 30
0.0
  0
SPLINE
  5
8F2F
330
8C50
100
AcDbEntity
  8
Visible (ISO)
100
AcDbSpline
210
0.0
220
0.0
230
1.0
 70
    24
 71
     3
 72
     8
 73
     4
 74
     0
 42
0.0000000001
 43
0.0000000001
 40
-0.1443504730160225
 40
-0.1443504730160225
 40
-0.1443504730160225
 40
-0.1443504730160225
 40
0.0
 40
0.0
 40
0.0
 40
0.0
 10
779.2209908604661
 20
184.6310765403757
 30
0.0
 10
779.4275415937429
 20
185.0545683022944
 30
0.0
 10
779.6342347326397
 20
185.4783520390026
 30
0.0
 10
779.8409412816079
 20
185.9021632704323
 30
0.0
  0
SPLINE
  5
8F30
330
8C50
100
AcDbEntity
  8
Visible (ISO)
100
AcDbSpline
210
0.0
220
0.0
230
1.0
 70
     8
 71
     3
 72
     8
 73
     4
 74
     0
 42
0.0000000001
 43
0.0000000001
 40
-0.1443504730161398
 40
-0.1443504730161398
 40
-0.1443504730161398
 40
-0.1443504730161398
 40
0.0
 40
0.0
 40
0.0
 40
0.0
 10
782.0305052929077
 20
176.4716541646919
 30
0.0
 10
782.3137696256537
 20
176.672353456566
 30
0.0
 10
782.5975315554544
 20
176.8723131724025
 30
0.0
 10
782.8815981599275
 20
177.0714544891377
 30
0.0
  0
SPLINE
  5
8F31
330
8C50
100
AcDbEntity
  8
Visible (ISO)
100
AcDbSpline
210
0.0
220
0.0
230
1.0
 70
     8
 71
     3
 72
     8
 73
     4
 74
     0
 42
0.0000000001
 43
0.0000000001
 40
-0.1443504730160225
 40
-0.1443504730160225
 40
-0.1443504730160225
 40
-0.1443504730160225
 40
0.0
 40
0.0
 40
0.0
 40
0.0
 10
792.0387478419682
 20
147.4056072872933
 30
0.0
 10
792.3855260044172
 20
147.4218490240598
 30
0.0
 10
792.7322409502219
 20
147.4389799060352
 30
0.0
 10
793.0786921261467
 20
147.4569432717614
 30
0.0
  0
LINE
  5
8F32
330
8C50
100
AcDbEntity
  8
Visible (ISO)
100
AcDbLine
 10
793.0786921261467
 20
147.4569432717614
 30
0.0
 11
789.1736977123708
 21
158.7978705255134
 31
0.0
  0
LINE
  5
8F33
330
8C50
100
AcDbEntity
  8
Visible (ISO)
100
AcDbLine
 10
786.7865925737035
 20
165.7305272353858
 30
0.0
 11
782.8815981599275
 21
177.0714544891377
 31
0.0
  0
LINE
  5
8F34
330
8C50
100
AcDbEntity
  8
Visible (ISO)
100
AcDbLine
 10
793.0786921261467
 20
147.4569432717614
 30
0.0
 11
796.1193490044658
 21
138.626234490466
 31
0.0
  0
LINE
  5
8F35
330
8C50
100
AcDbEntity
  8
Visible (ISO)
100
AcDbLine
 10
785.2303971625245
 20
187.7579017508376
 30
0.0
 11
779.8409412816079
 21
185.9021632704323
 31
0.0
  0
LINE
  5
8F36
330
8C50
100
AcDbEntity
  8
Visible (ISO)
100
AcDbLine
 10
788.2710540408436
 20
178.927192969543
 30
0.0
 11
782.8815981599275
 21
177.0714544891377
 31
0.0
  0
LINE
  5
8F37
330
8C50
100
AcDbEntity
  8
Visible (ISO)
100
AcDbLine
 10
798.4681480070628
 20
149.3126817521677
 30
0.0
 11
793.0786921261467
 21
147.4569432717614
 31
0.0
  0
LINE
  5
8F38
330
8C50
100
AcDbEntity
  8
Visible (ISO)
100
AcDbLine
 10
801.5088048853824
 20
140.4819729708722
 30
0.0
 11
796.1193490044658
 21
138.626234490466
 31
0.0
  0
SPLINE
  5
8F39
330
8C50
100
AcDbEntity
  8
Visible (ISO)
100
AcDbSpline
210
0.0
220
0.0
230
1.0
 70
     8
 71
     3
 72
    10
 73
     6
 74
     0
 42
0.0000000001
 43
0.0000000001
 40
1.373926011701395
 40
1.373926011701395
 40
1.373926011701395
 40
1.373926011701395
 40
1.452016626737363
 40
1.452016626737363
 40
1.457164195614159
 40
1.457164195614159
 40
1.457164195614159
 40
1.457164195614159
 10
845.3054485387674
 20
330.3717725828658
 30
0.0
 10
845.5276833371749
 20
330.3863334829114
 30
0.0
 10
845.7451248229077
 20
330.3942245128731
 30
0.0
 10
845.9707164814499
 20
330.3954340262801
 30
0.0
 10
845.9846774828001
 20
330.395479674726
 30
0.0
 10
845.9986474695975
 20
330.3954957114449
 30
0.0
  0
LINE
  5
8F3A
330
8C50
100
AcDbEntity
  8
Visible (ISO)
100
AcDbLine
 10
821.214321624298
 20
330.371772582864
 30
0.0
 11
845.3054485387674
 21
330.3717725828658
 31
0.0
  0
SPLINE
  5
8F3B
330
8C50
100
AcDbEntity
  8
Visible (ISO)
100
AcDbSpline
210
0.0
220
0.0
230
1.0
 70
     8
 71
     3
 72
    18
 73
    14
 74
     0
 42
0.0000000001
 43
0.0000000001
 40
2.449789672836294
 40
2.449789672836294
 40
2.449789672836294
 40
2.449789672836294
 40
2.476982571578492
 40
2.476982571578492
 40
2.757060018455156
 40
2.757060018455156
 40
3.03713746533182
 40
3.03713746533182
 40
3.317214912208483
 40
3.317214912208483
 40
3.597292359085146
 40
3.597292359085146
 40
3.624485257827343
 40
3.624485257827343
 40
3.624485257827343
 40
3.624485257827343
 10
824.3633635327787
 20
324.7873805940847
 30
0.0
 10
824.3162279976996
 20
324.8627093827392
 30
0.0
 10
824.2694290052122
 20
324.937322371464
 30
0.0
 10
823.7449421891728
 20
325.7717974810942
 30
0.0
 10
823.2361309008279
 20
326.5623094139749
 30
0.0
 10
822.3440846852353
 20
327.9710676506431
 30
0.0
 10
821.9648033205785
 20
328.5889605092218
 30
0.0
 10
821.4383505335922
 20
329.5225519988101
 30
0.0
 10
821.2572360839585
 20
329.8984439124972
 30
0.0
 10
821.1014456947028
 20
330.347879536603
 30
0.0
 10
821.1218609859228
 20
330.4234706194832
 30
0.0
 10
821.1990330164704
 20
330.3822466564436
 30
0.0
 10
821.2064086789109
 20
330.3775455122998
 30
0.0
 10
821.214321624298
 20
330.371772582864
 30
0.0
  0
LINE
  5
8F3C
330
8C50
100
AcDbEntity
  8
Visible (ISO)
100
AcDbLine
 10
848.4544904472485
 20
324.7873805940883
 30
0.0
 11
824.3633635327787
 21
324.7873805940847
 31
0.0
  0
SPLINE
  5
8F3D
330
8C50
100
AcDbEntity
  8
Visible (ISO)
100
AcDbSpline
210
0.0
220
0.0
230
1.0
 70
     8
 71
     3
 72
    10
 73
     6
 74
     0
 42
0.0000000001
 43
0.0000000001
 40
2.554399938987141
 40
2.554399938987141
 40
2.554399938987141
 40
2.554399938987141
 40
2.559547507863936
 40
2.559547507863936
 40
2.637638122899906
 40
2.637638122899906
 40
2.637638122899906
 40
2.637638122899906
 10
848.8237186565743
 20
325.38562116459
 30
0.0
 10
848.8166103862804
 20
325.3734368189746
 30
0.0
 10
848.8094850335214
 20
325.3612690894818
 30
0.0
 10
848.6940045855307
 20
325.164792513918
 30
0.0
 10
848.577795193878
 20
324.9773803116061
 30
0.0
 10
848.4544904472485
 20
324.7873805940883
 30
0.0
  0
ELLIPSE
  5
8F3E
330
8C50
100
AcDbEntity
  8
Visible (ISO)
100
AcDbEllipse
 10
846.0023608674342
 20
320.3955022161756
 30
0.0
 11
-0.0000000000010215
 21
10.00000000000001
 31
0.0
210
0.0
220
0.0
230
1.0
 40
0.3255681544571564
 41
5.23484716572787
 42
6.284325897434099
  0
SPLINE
  5
8F3F
330
8C50
100
AcDbEntity
  8
Visible (ISO)
100
AcDbSpline
210
0.0
220
0.0
230
1.0
 70
     8
 71
     3
 72
    10
 73
     6
 74
     0
 42
0.0000000001
 43
0.0000000001
 40
1.373926011701396
 40
1.373926011701396
 40
1.373926011701396
 40
1.373926011701396
 40
1.452016626737366
 40
1.452016626737366
 40
1.45716419561416
 40
1.45716419561416
 40
1.45716419561416
 40
1.45716419561416
 10
843.753775282596
 20
349.7955928090244
 30
0.0
 10
843.9457703637609
 20
349.6201539915512
 30
0.0
 10
844.1309510702703
 20
349.4406328192019
 30
0.0
 10
844.3200663404013
 20
349.2453657570461
 30
0.0
 10
844.3317573726162
 20
349.2332436759991
 30
0.0
 10
844.3434431349501
 20
349.2210753671027
 30
0.0
  0
LINE
  5
8F40
330
8C50
100
AcDbEntity
  8
Visible (ISO)
100
AcDbLine
 10
819.6626483681257
 20
349.7955928090216
 30
0.0
 11
843.753775282596
 21
349.7955928090244
 31
0.0
  0
SPLINE
  5
8F41
330
8C50
100
AcDbEntity
  8
Visible (ISO)
100
AcDbSpline
210
0.0
220
0.0
230
1.0
 70
     8
 71
     3
 72
    18
 73
    14
 74
     0
 42
0.0000000001
 43
0.0000000001
 40
2.449789672836302
 40
2.449789672836302
 40
2.449789672836302
 40
2.449789672836302
 40
2.4769825715785
 40
2.4769825715785
 40
2.757060018455164
 40
2.757060018455164
 40
3.037137465331827
 40
3.037137465331827
 40
3.31721491220849
 40
3.31721491220849
 40
3.597292359085154
 40
3.597292359085154
 40
3.624485257827352
 40
3.624485257827352
 40
3.624485257827352
 40
3.624485257827352
 10
819.6626483681257
 20
338.6268088314712
 30
0.0
 10
819.6427463456034
 20
338.6963646906891
 30
0.0
 10
819.6231132324578
 20
338.76627653527
 30
0.0
 10
819.4045850123693
 20
339.5595276818606
 30
0.0
 10
819.2071624368255
 20
340.4256306976206
 30
0.0
 10
818.9291949540374
 20
342.2838245583937
 30
0.0
 10
818.8528555755851
 20
343.2776093306568
 30
0.0
 10
818.8528555755851
 20
345.1447923098351
 30
0.0
 10
818.9291949540374
 20
346.1385770820991
 30
0.0
 10
819.2071624368255
 20
347.9967709428732
 30
0.0
 10
819.4045850123693
 20
348.8628739586323
 30
0.0
 10
819.6231132324578
 20
349.6561251052237
 30
0.0
 10
819.6427463456034
 20
349.7260369498047
 30
0.0
 10
819.6626483681257
 20
349.7955928090216
 30
0.0
  0
LINE
  5
8F42
330
8C50
100
AcDbEntity
  8
Visible (ISO)
100
AcDbLine
 10
843.753775282596
 20
338.6268088314748
 30
0.0
 11
819.6626483681257
 21
338.6268088314712
 31
0.0
  0
SPLINE
  5
8F43
330
8C50
100
AcDbEntity
  8
Visible (ISO)
100
AcDbSpline
210
0.0
220
0.0
230
1.0
 70
     8
 71
     3
 72
    10
 73
     6
 74
     0
 42
0.0000000001
 43
0.0000000001
 40
2.554399938987145
 40
2.554399938987145
 40
2.554399938987145
 40
2.554399938987145
 40
2.559547507863938
 40
2.559547507863938
 40
2.637638122899908
 40
2.637638122899908
 40
2.637638122899908
 40
2.637638122899908
 10
844.3434431349501
 20
339.2013262733965
 30
0.0
 10
844.3317573726162
 20
339.1891579645001
 30
0.0
 10
844.3200663404013
 20
339.1770358834531
 30
0.0
 10
844.1309510702703
 20
338.9817688212954
 30
0.0
 10
843.9457703637609
 20
338.8022476489461
 30
0.0
 10
843.753775282596
 20
338.6268088314748
 30
0.0
  0
ELLIPSE
  5
8F44
330
8C50
100
AcDbEntity
  8
Visible (ISO)
100
AcDbEllipse
 10
841.5257987436485
 20
344.2112008202505
 30
0.0
 11
0.0000000000006854
 21
-9.999999999999998
 31
0.0
210
0.0
220
0.0
230
1.0
 40
0.3255681544571564
 41
1.046056960941911
 42
2.095535692648057
  0
SPLINE
  5
8F45
330
8C50
100
AcDbEntity
  8
Visible (ISO)
100
AcDbSpline
210
0.0
220
0.0
230
1.0
 70
     8
 71
     3
 72
    10
 73
     6
 74
     0
 42
0.0000000001
 43
0.0000000001
 40
1.373926011701395
 40
1.373926011701395
 40
1.373926011701395
 40
1.373926011701395
 40
1.452016626737366
 40
1.452016626737366
 40
1.457164195614159
 40
1.457164195614159
 40
1.457164195614159
 40
1.457164195614159
 10
848.4544904472485
 20
363.6350210464027
 30
0.0
 10
848.577795193878
 20
363.445021328884
 30
0.0
 10
848.6940045855307
 20
363.257609126573
 30
0.0
 10
848.8094850335214
 20
363.0611325510083
 30
0.0
 10
848.8166103862804
 20
363.0489648215155
 30
0.0
 10
848.8237186565743
 20
363.0367804759001
 30
0.0
  0
LINE
  5
8F46
330
8C50
100
AcDbEntity
  8
Visible (ISO)
100
AcDbLine
 10
824.3633635327787
 20
363.6350210464
 30
0.0
 11
848.4544904472485
 21
363.6350210464027
 31
0.0
  0
SPLINE
  5
8F47
330
8C50
100
AcDbEntity
  8
Visible (ISO)
100
AcDbSpline
210
0.0
220
0.0
230
1.0
 70
     8
 71
     3
 72
    18
 73
    14
 74
     0
 42
0.0000000001
 43
0.0000000001
 40
2.449789672836298
 40
2.449789672836298
 40
2.449789672836298
 40
2.449789672836298
 40
2.476982571578495
 40
2.476982571578495
 40
2.757060018455158
 40
2.757060018455158
 40
3.037137465331822
 40
3.037137465331822
 40
3.317214912208485
 40
3.317214912208485
 40
3.597292359085149
 40
3.597292359085149
 40
3.624485257827347
 40
3.624485257827347
 40
3.624485257827347
 40
3.624485257827347
 10
821.214321624298
 20
358.050629057628
 30
0.0
 10
821.2064086789109
 20
358.0448561281903
 30
0.0
 10
821.1990330164704
 20
358.0401549840483
 30
0.0
 10
821.1218609859228
 20
357.998931021006
 30
0.0
 10
821.1014456947028
 20
358.0745221038863
 30
0.0
 10
821.2572360839585
 20
358.5239577279902
 30
0.0
 10
821.4383505335922
 20
358.8998496416773
 30
0.0
 10
821.9648033205785
 20
359.8334411312656
 30
0.0
 10
822.3440846852353
 20
360.4513339898424
 30
0.0
 10
823.2361309008279
 20
361.8600922265107
 30
0.0
 10
823.7449421891728
 20
362.6506041593905
 30
0.0
 10
824.2694290052122
 20
363.4850792690206
 30
0.0
 10
824.3162279976996
 20
363.5596922577454
 30
0.0
 10
824.3633635327787
 20
363.6350210464
 30
0.0
  0
LINE
  5
8F48
330
8C50
100
AcDbEntity
  8
Visible (ISO)
100
AcDbLine
 10
845.3054485387674
 20
358.0506290576288
 30
0.0
 11
821.214321624298
 21
358.050629057628
 31
0.0
  0
SPLINE
  5
8F49
330
8C50
100
AcDbEntity
  8
Visible (ISO)
100
AcDbSpline
210
0.0
220
0.0
230
1.0
 70
     8
 71
     3
 72
    10
 73
     6
 74
     0
 42
0.0000000001
 43
0.0000000001
 40
2.554399938987145
 40
2.554399938987145
 40
2.554399938987145
 40
2.554399938987145
 40
2.559547507863937
 40
2.559547507863937
 40
2.637638122899907
 40
2.637638122899907
 40
2.637638122899907
 40
2.637638122899907
 10
845.9986474695975
 20
358.0269059290497
 30
0.0
 10
845.9846774828001
 20
358.0269219657687
 30
0.0
 10
845.9707164814499
 20
358.0269676142145
 30
0.0
 10
845.7451248229077
 20
358.0281771276225
 30
0.0
 10
845.5276833371749
 20
358.0360681575833
 30
0.0
 10
845.3054485387674
 20
358.0506290576288
 30
0.0
  0
ELLIPSE
  5
8F4A
330
8C50
100
AcDbEntity
  8
Visible (ISO)
100
AcDbEllipse
 10
846.0023608674342
 20
368.02689942432
 30
0.0
 11
0.0000000000010221
 21
-10.00000000000001
 31
0.0
210
0.0
220
0.0
230
1.0
 40
0.3255681544571565
 41
6.282044716924445
 42
7.331523448630726
  0
SPLINE
  5
8F4B
330
8C50
100
AcDbEntity
  8
Visible (ISO)
100
AcDbSpline
210
0.0
220
0.0
230
1.0
 70
     8
 71
     3
 72
    10
 73
     6
 74
     0
 42
0.0000000001
 43
0.0000000001
 40
1.425332100031854
 40
1.425332100031854
 40
1.425332100031854
 40
1.425332100031854
 40
1.452016626737367
 40
1.452016626737367
 40
1.45716419561416
 40
1.45716419561416
 40
1.45716419561416
 40
1.45716419561416
 10
854.8673024089362
 20
358.0305689520622
 30
0.0
 10
854.8937903386937
 20
358.0286068214994
 30
0.0
 10
854.9196018225234
 20
358.0274301584934
 30
0.0
 10
854.9495538676902
 20
358.0269676142073
 30
0.0
 10
854.9543835101285
 20
358.0269219657614
 30
0.0
 10
854.9591985128436
 20
358.0269059290424
 30
0.0
  0
SPLINE
  5
8F4C
330
8C50
100
AcDbEntity
  8
Visible (ISO)
100
AcDbSpline
210
0.0
220
0.0
230
1.0
 70
     8
 71
     3
 72
    10
 73
     6
 74
     0
 42
0.0000000001
 43
0.0000000001
 40
2.554399938987144
 40
2.554399938987144
 40
2.554399938987144
 40
2.554399938987144
 40
2.559547507863938
 40
2.559547507863938
 40
2.637638122899909
 40
2.637638122899909
 40
2.637638122899909
 40
2.637638122899909
 10
852.1341273258672
 20
363.0367804758973
 30
0.0
 10
852.1224506066483
 20
363.0489648215128
 30
0.0
 10
852.1107853156181
 20
363.0611325510056
 30
0.0
 10
851.9223520908058
 20
363.2576091265703
 30
0.0
 10
851.7416211407063
 20
363.4450213288813
 30
0.0
 10
851.5578369595928
 20
363.6350210464
 30
0.0
  0
ELLIPSE
  5
8F4D
330
8C50
100
AcDbEntity
  8
Visible (ISO)
100
AcDbEllipse
 10
854.9554851150064
 20
368.0268994243117
 30
0.0
 11
0.0000000000010215
 21
-10.0
 31
0.0
210
0.0
220
0.0
230
1.0
 40
0.3255681544571565
 41
5.23484716572787
 42
6.284325897434099
  0
ELLIPSE
  5
8F4E
330
8C50
100
AcDbEntity
  8
Visible (ISO)
100
AcDbEllipse
 10
859.4320472387922
 20
344.2112008202369
 30
0.0
 11
-0.0000000000006854
 21
9.999999999999996
 31
0.0
210
0.0
220
0.0
230
1.0
 40
0.3255681544571565
 41
1.046056960941911
 42
2.095535692648057
  0
ELLIPSE
  5
8F4F
330
8C50
100
AcDbEntity
  8
Visible (ISO)
100
AcDbEllipse
 10
850.4789229912207
 20
344.2112008202442
 30
0.0
 11
-0.0000000000000004
 21
-6.75
 31
0.0
210
0.0
220
0.0
230
1.0
 40
0.3255681544571565
 41
0.0
 42
6.283185307179585
  0
ELLIPSE
  5
8F50
330
8C50
100
AcDbEntity
  8
Visible (ISO)
100
AcDbEllipse
 10
850.4789229912207
 20
344.2112008202442
 30
0.0
 11
0.0000000000019915
 21
-19.50000000000001
 31
0.0
210
0.0
220
0.0
230
1.0
 40
0.3255681544571565
 41
6.019416926379453
 42
6.5469536879792
  0
ELLIPSE
  5
8F51
330
8C50
100
AcDbEntity
  8
Visible (ISO)
100
AcDbEllipse
 10
850.4789229912207
 20
344.2112008202442
 30
0.0
 11
-0.0000000000026493
 21
19.49999999999997
 31
0.0
210
0.0
220
0.0
230
1.0
 40
0.3255681544571565
 41
3.925021823985378
 42
4.452558585585418
  0
ELLIPSE
  5
8F52
330
8C50
100
AcDbEntity
  8
Visible (ISO)
100
AcDbEllipse
 10
850.4789229912207
 20
344.2112008202442
 30
0.0
 11
-0.0000000000019925
 21
19.49999999999997
 31
0.0
210
0.0
220
0.0
230
1.0
 40
0.3255681544571565
 41
4.972219375182838
 42
5.499756136782483
  0
ELLIPSE
  5
8F53
330
8C50
100
AcDbEntity
  8
Visible (ISO)
100
AcDbEllipse
 10
850.4789229912207
 20
344.2112008202442
 30
0.0
 11
-0.0000000000019915
 21
19.50000000000002
 31
0.0
210
0.0
220
0.0
230
1.0
 40
0.3255681544571566
 41
6.019416926379452
 42
6.546953687979092
  0
ELLIPSE
  5
8F54
330
8C50
100
AcDbEntity
  8
Visible (ISO)
100
AcDbEllipse
 10
850.4789229912207
 20
344.2112008202442
 30
0.0
 11
0.0000000000026486
 21
-19.50000000000001
 31
0.0
210
0.0
220
0.0
230
1.0
 40
0.3255681544571566
 41
3.925021823985378
 42
4.452558585585418
  0
ELLIPSE
  5
8F55
330
8C50
100
AcDbEntity
  8
Visible (ISO)
100
AcDbEllipse
 10
850.4789229912207
 20
344.2112008202442
 30
0.0
 11
0.0000000000019911
 21
-19.49999999999998
 31
0.0
210
0.0
220
0.0
230
1.0
 40
0.3255681544571565
 41
4.972219375182838
 42
5.499756136782484
  0
ELLIPSE
  5
8F56
330
8C50
100
AcDbEntity
  8
Visible (ISO)
100
AcDbEllipse
 10
850.0061637034209
 20
344.2112008202442
 30
0.0
 11
0.000000000002043
 21
-20.00000000000004
 31
0.0
210
0.0
220
0.0
230
1.0
 40
0.3255681544571566
 41
6.042567819797357
 42
6.523802794561185
  0
ELLIPSE
  5
8F57
330
8C50
100
AcDbEntity
  8
Visible (ISO)
100
AcDbEllipse
 10
850.0061637034209
 20
344.2112008202442
 30
0.0
 11
-0.0000000000020426
 21
19.99999999999991
 31
0.0
210
0.0
220
0.0
230
1.0
 40
0.3255681544571565
 41
6.042567819797357
 42
6.523802794561186
  0
ELLIPSE
  5
8F58
330
8C50
100
AcDbEntity
  8
Visible (ISO)
100
AcDbEllipse
 10
850.0061637034209
 20
344.2112008202442
 30
0.0
 11
0.0000000000027173
 21
-19.99999999999991
 31
0.0
210
0.0
220
0.0
230
1.0
 40
0.3255681544571565
 41
3.948172717403402
 42
4.429407692167574
  0
ELLIPSE
  5
8F59
330
8C50
100
AcDbEntity
  8
Visible (ISO)
100
AcDbEllipse
 10
825.9150367889505
 20
344.2112008202405
 30
0.0
 11
0.0000000000020426
 21
-20.00000000000001
 31
0.0
210
0.0
220
0.0
230
1.0
 40
0.3255681544571565
 41
6.042567819797356
 42
6.283185307179271
  0
ELLIPSE
  5
8F5A
330
8C50
100
AcDbEntity
  8
Visible (ISO)
100
AcDbEllipse
 10
825.9150367889505
 20
344.2112008202405
 30
0.0
 11
0.000000000000003
 21
19.99999999999991
 31
0.0
210
0.0
220
0.0
230
1.0
 40
0.3255681544571565
 41
0.0000000000053242
 42
0.2406174873870405
  0
ELLIPSE
  5
8F5B
330
8C50
100
AcDbEntity
  8
Visible (ISO)
100
AcDbEllipse
 10
825.9150367889505
 20
344.2112008202405
 30
0.0
 11
0.0000000000027166
 21
-19.99999999999996
 31
0.0
210
0.0
220
0.0
230
1.0
 40
0.3255681544571566
 41
3.948172717403327
 42
4.42940769216752
  0
ELLIPSE
  5
8F5C
330
8C50
100
AcDbEntity
  8
Visible (ISO)
100
AcDbEllipse
 10
802.7302349234551
 20
344.2112008202396
 30
0.0
 11
-0.0000000000016855
 21
16.50000000000001
 31
0.0
210
0.0
220
0.0
230
1.0
 40
0.3255681544571565
 41
5.442116636611365
 42
10.26584663133696
  0
ELLIPSE
  5
8F5D
330
8C50
100
AcDbEntity
  8
Visible (ISO)
100
AcDbEllipse
 10
794.315119600621
 20
344.2112008202378
 30
0.0
 11
0.0000000000000007
 21
-16.50000000000001
 31
0.0
210
0.0
220
0.0
230
1.0
 40
0.3255681544571565
 41
3.141592653595083
 42
6.283185307184877
  0
ELLIPSE
  5
8F5E
330
8C50
100
AcDbEntity
  8
Visible (ISO)
100
AcDbEllipse
 10
802.7302349234551
 20
344.2112008202396
 30
0.0
 11
0.0000000000000001
 21
11.0
 31
0.0
210
0.0
220
0.0
230
1.0
 40
0.3255681544571566
 41
0.0000000000053251
 42
3.141592653595118
  0
ELLIPSE
  5
8F5F
330
8C50
100
AcDbEntity
  8
Visible (ISO)
100
AcDbEllipse
 10
811.7126613916484
 20
344.2112008202396
 30
0.0
 11
0.0000000000000058
 21
16.5
 31
0.0
210
0.0
220
0.0
230
1.0
 40
0.3255681544571565
 41
0.000000000005302
 42
3.141592653595095
  0
ELLIPSE
  5
8F60
330
8C50
100
AcDbEntity
  8
Visible (ISO)
100
AcDbEllipse
 10
824.0044028744396
 20
344.2112008202405
 30
0.0
 11
0.0000000000022406
 21
-16.5
 31
0.0
210
0.0
220
0.0
230
1.0
 40
0.3255681544571565
 41
3.780592496026326
 42
5.644185464740159
  0
ELLIPSE
  5
8F61
330
8C50
100
AcDbEntity
  8
Visible (ISO)
100
AcDbEllipse
 10
825.9150367889505
 20
344.2112008202405
 30
0.0
 11
0.0000000000020418
 21
-19.99999999999992
 31
0.0
210
0.0
220
0.0
230
1.0
 40
0.3255681544571565
 41
4.995370268600759
 42
5.476605243364543
  0
ELLIPSE
  5
8F62
330
8C50
100
AcDbEntity
  8
Visible (ISO)
100
AcDbEllipse
 10
850.0061637034209
 20
344.2112008202442
 30
0.0
 11
0.0000000000020425
 21
-19.99999999999998
 31
0.0
210
0.0
220
0.0
230
1.0
 40
0.3255681544571565
 41
4.995370268600759
 42
5.476605243364505
  0
ELLIPSE
  5
8F63
330
8C50
100
AcDbEntity
  8
Visible (ISO)
100
AcDbEllipse
 10
849.1551969853817
 20
344.2112008202442
 30
0.0
 11
0.0000000000006894
 21
-6.750000000000001
 31
0.0
210
0.0
220
0.0
230
1.0
 40
0.3255681544571565
 41
0.3059271700653595
 42
2.835665483523796
  0
LINE
  5
8F64
330
8C50
100
AcDbEntity
  8
Visible (ISO)
100
AcDbLine
 10
825.9150367889505
 20
324.2112008202405
 30
0.0
 11
850.0061637034209
 21
324.2112008202433
 31
0.0
  0
LINE
  5
8F65
330
8C50
100
AcDbEntity
  8
Visible (ISO)
100
AcDbLine
 10
825.9150367889505
 20
364.2112008202414
 30
0.0
 11
850.0061637034209
 21
364.2112008202441
 31
0.0
  0
LINE
  5
8F66
330
8C50
100
AcDbEntity
  8
Visible (ISO)
100
AcDbLine
 10
794.315119600621
 20
360.7112008202387
 30
0.0
 11
802.7302349234551
 21
360.7112008202387
 31
0.0
  0
LINE
  5
8F67
330
8C50
100
AcDbEntity
  8
Visible (ISO)
100
AcDbLine
 10
794.315119600621
 20
327.7112008202378
 30
0.0
 11
802.7302349234551
 21
327.7112008202387
 31
0.0
  0
LINE
  5
8F68
330
8C50
100
AcDbEntity
  8
Visible (ISO)
100
AcDbLine
 10
802.7302349234551
 20
355.2112008202396
 30
0.0
 11
807.708702505934
 21
355.2112008202396
 31
0.0
  0
LINE
  5
8F69
330
8C50
100
AcDbEntity
  8
Visible (ISO)
100
AcDbLine
 10
802.7302349234551
 20
333.2112008202396
 30
0.0
 11
807.708702505934
 21
333.2112008202396
 31
0.0
  0
LINE
  5
8F6A
330
8C50
100
AcDbEntity
  8
Visible (ISO)
100
AcDbLine
 10
811.7126613916484
 20
360.7112008202405
 30
0.0
 11
822.5101422869947
 21
360.7112008202414
 31
0.0
  0
LINE
  5
8F6B
330
8C50
100
AcDbEntity
  8
Visible (ISO)
100
AcDbLine
 10
811.7126613916484
 20
327.7112008202405
 30
0.0
 11
822.5101422869947
 21
327.7112008202405
 31
0.0
  0
LINE
  5
8F6C
330
8C50
100
AcDbEntity
  8
Visible (ISO)
100
AcDbLine
 10
820.8006549229789
 20
357.4556294816723
 30
0.0
 11
821.2690385369805
 21
358.5245439881158
 31
0.0
  0
LINE
  5
8F6D
330
8C50
100
AcDbEntity
  8
Visible (ISO)
100
AcDbLine
 10
820.8006549229789
 20
330.9667721588169
 30
0.0
 11
821.2690385369805
 21
329.8978576523734
 31
0.0
  0
ELLIPSE
  5
8F6E
330
8C50
100
AcDbEntity
  8
Visible (ISO)
100
AcDbEllipse
 10
854.9554851150064
 20
320.3955022161674
 30
0.0
 11
-0.0000000000010218
 21
9.999999999999992
 31
0.0
210
0.0
220
0.0
230
1.0
 40
0.3255681544571566
 41
6.282044716924445
 42
7.331523448630726
  0
SPLINE
  5
8F6F
330
8C50
100
AcDbEntity
  8
Visible (ISO)
100
AcDbSpline
210
0.0
220
0.0
230
1.0
 70
     8
 71
     3
 72
    10
 73
     6
 74
     0
 42
0.0000000001
 43
0.0000000001
 40
1.37363621508085
 40
1.37363621508085
 40
1.37363621508085
 40
1.37363621508085
 40
1.451726830116821
 40
1.451726830116821
 40
1.456874398993615
 40
1.456874398993615
 40
1.456874398993615
 40
1.456874398993615
 10
851.5578369595928
 20
324.7873805940847
 30
0.0
 10
851.7416211407063
 20
324.9773803116034
 30
0.0
 10
851.9223520908058
 20
325.1647925139144
 30
0.0
 10
852.1107853156181
 20
325.3612690894791
 30
0.0
 10
852.1224506066483
 20
325.3734368189719
 30
0.0
 10
852.1341273258672
 20
325.3856211645873
 30
0.0
  0
SPLINE
  5
8F70
330
8C50
100
AcDbEntity
  8
Visible (ISO)
100
AcDbSpline
210
0.0
220
0.0
230
1.0
 70
     8
 71
     3
 72
    10
 73
     6
 74
     0
 42
0.0000000001
 43
0.0000000001
 40
2.5541101423666
 40
2.5541101423666
 40
2.5541101423666
 40
2.5541101423666
 40
2.559257711243394
 40
2.559257711243394
 40
2.585942237948907
 40
2.585942237948907
 40
2.585942237948907
 40
2.585942237948907
 10
854.9591985128436
 20
330.3954957114377
 30
0.0
 10
854.9543835101285
 20
330.3954796747187
 30
0.0
 10
854.9495538676902
 20
330.3954340262728
 30
0.0
 10
854.9196018225234
 20
330.3949714819858
 30
0.0
 10
854.8937903386937
 20
330.3937948189807
 30
0.0
 10
854.8673024089362
 20
330.391832688417
 30
0.0
  0
ELLIPSE
  5
8F71
330
8C50
100
AcDbEntity
  8
Visible (ISO)
100
AcDbEllipse
 10
791.0192187916009
 20
329.2112008202451
 30
0.0
 11
-24.20417177842931
 21
-0.00000000000561
 31
0.0
210
0.0
220
0.0
230
1.0
 40
0.4131519182536942
 41
5.821821494356767
 42
5.855847905156611
  0
ELLIPSE
  5
8F72
330
8C50
100
AcDbEntity
  8
Visible (ISO)
100
AcDbEllipse
 10
791.0192187916009
 20
359.2112008202442
 30
0.0
 11
-24.20417177842931
 21
-0.00000000000561
 31
0.0
210
0.0
220
0.0
230
1.0
 40
0.4131519182536942
 41
0.4273374020250763
 42
0.4613638128249115
  0
ELLIPSE
  5
8F73
330
8C50
100
AcDbEntity
  8
Visible (ISO)
100
AcDbEllipse
 10
777.484888954953
 20
344.2112008202369
 30
0.0
 11
0.0000000000030115
 21
-29.50000000000007
 31
0.0
210
0.0
220
0.0
230
1.0
 40
0.3255681544571565
 41
5.272007611809352
 42
5.723566675754282
  0
LINE
  5
8F74
330
8C50
100
AcDbEntity
  8
Visible (ISO)
100
AcDbLine
 10
769.3456850935245
 20
359.87166058361
 30
0.0
 11
769.3456850935245
 21
328.5507410568782
 31
0.0
  0
ELLIPSE
  5
8F75
330
8C50
100
AcDbEntity
  8
Visible (ISO)
100
AcDbEllipse
 10
777.484888954953
 20
344.2112008202369
 30
0.0
 11
0.00000000000401
 21
-29.50000000000007
 31
0.0
210
0.0
220
0.0
230
1.0
 40
0.3255681544571564
 41
3.701211285013208
 42
4.152770348958505
  0
LINE
  5
8F76
330
8C50
100
AcDbEntity
  8
Visible (ISO)
100
AcDbLine
 10
782.881598160996
 20
319.2112008202405
 30
0.0
 11
781.9360795853968
 21
319.2112008202423
 31
0.0
  0
LINE
  5
8F77
330
8C50
100
AcDbEntity
  8
Visible (ISO)
100
AcDbLine
 10
781.9360795853968
 20
319.2112008202423
 30
0.0
 11
772.3863419718436
 21
319.2112008202405
 31
0.0
  0
LINE
  5
8F78
330
8C50
100
AcDbEntity
  8
Visible (ISO)
100
AcDbLine
 10
781.9360795853968
 20
369.2112008202423
 30
0.0
 11
772.3863419718436
 21
369.2112008202405
 31
0.0
  0
LINE
  5
8F79
330
8C50
100
AcDbEntity
  8
Visible (ISO)
100
AcDbLine
 10
781.9360795853968
 20
369.2112008202423
 30
0.0
 11
782.881598160996
 21
369.2112008202405
 31
0.0
  0
LINE
  5
8F7A
330
8C50
100
AcDbEntity
  8
Visible (ISO)
100
AcDbLine
 10
778.8954227070771
 20
328.5507410568791
 30
0.0
 11
778.8954227070771
 21
359.87166058361
 31
0.0
  0
ELLIPSE
  5
8F7B
330
8C50
100
AcDbEntity
  8
Visible (ISO)
100
AcDbEllipse
 10
787.0346265685062
 20
344.2112008202369
 30
0.0
 11
-0.0000000000020192
 21
29.49999999999996
 31
0.0
210
0.0
220
0.0
230
1.0
 40
0.3255681544571564
 41
2.130414958220466
 42
2.581974022165816
  0
ELLIPSE
  5
8F7C
330
8C50
100
AcDbEntity
  8
Visible (ISO)
100
AcDbEllipse
 10
787.0346265685062
 20
344.2112008202369
 30
0.0
 11
-0.0000000000030136
 21
29.49999999999995
 31
0.0
210
0.0
220
0.0
230
1.0
 40
0.3255681544571565
 41
0.5596186314246517
 42
1.011177695369642
  0
ELLIPSE
  5
8F7D
330
8C50
100
AcDbEntity
  8
Visible (ISO)
100
AcDbEllipse
 10
787.0346265685062
 20
344.2112008202378
 30
0.0
 11
0.0000000000029074
 21
-28.50000000000007
 31
0.0
210
0.0
220
0.0
230
1.0
 40
0.3255681544571565
 41
5.282010299457324
 42
5.71356398810633
  0
LINE
  5
8F7E
330
8C50
100
AcDbEntity
  8
Visible (ISO)
100
AcDbLine
 10
779.2209908615346
 20
359.5816269691834
 30
0.0
 11
779.2209908615346
 21
328.840774671304
 31
0.0
  0
ELLIPSE
  5
8F7F
330
8C50
100
AcDbEntity
  8
Visible (ISO)
100
AcDbEllipse
 10
787.0346265685062
 20
344.2112008202369
 30
0.0
 11
0.0000000000038726
 21
-28.50000000000001
 31
0.0
210
0.0
220
0.0
230
1.0
 40
0.3255681544571565
 41
3.711213972661118
 42
4.142767661310548
  0
LINE
  5
8F80
330
8C50
100
AcDbEntity
  8
Visible (ISO)
100
AcDbLine
 10
778.8954227070771
 20
328.5507410568791
 30
0.0
 11
769.3456850935245
 21
328.5507410568782
 31
0.0
  0
LINE
  5
8F81
330
8C50
100
AcDbEntity
  8
Visible (ISO)
100
AcDbLine
 10
778.8954227070771
 20
359.87166058361
 30
0.0
 11
769.3456850935245
 21
359.87166058361
 31
0.0
  0
LINE
  5
8F82
330
8C50
100
AcDbEntity
  8
Visible (ISO)
100
AcDbLine
 10
766.8150470131713
 20
319.2112008202378
 30
0.0
 11
766.8150470131713
 21
324.8556919926052
 31
0.0
  0
LINE
  5
8F83
330
8C50
100
AcDbEntity
  8
Visible (ISO)
100
AcDbLine
 10
772.3863419718436
 20
319.2112008202396
 30
0.0
 11
766.8150470131713
 21
319.2112008202378
 31
0.0
  0
LINE
  5
8F84
330
8C50
100
AcDbEntity
  8
Visible (ISO)
100
AcDbLine
 10
766.8150470131713
 20
369.2112008202378
 30
0.0
 11
772.3863419718436
 21
369.2112008202396
 31
0.0
  0
LINE
  5
8F85
330
8C50
100
AcDbEntity
  8
Visible (ISO)
100
AcDbLine
 10
766.8150470131713
 20
363.5667096478722
 30
0.0
 11
766.8150470131713
 21
369.2112008202378
 31
0.0
  0
ELLIPSE
  5
8F86
330
8C50
100
AcDbEntity
  8
Visible (ISO)
100
AcDbEllipse
 10
765.667229552585
 20
359.3167096478749
 30
0.0
 11
0.0
 21
4.25
 31
0.0
210
0.0
220
0.0
230
1.0
 40
0.3255681544571565
 41
0.000000000005214
 42
3.141592653595007
  0
ELLIPSE
  5
8F87
330
8C50
100
AcDbEntity
  8
Visible (ISO)
100
AcDbEllipse
 10
765.667229552585
 20
329.1056919926071
 30
0.0
 11
0.0
 21
-4.25
 31
0.0
210
0.0
220
0.0
230
1.0
 40
0.3255681544571565
 41
3.141592653595007
 42
6.283185307184799
  0
LINE
  5
8F88
330
8C50
100
AcDbEntity
  8
Visible (ISO)
100
AcDbLine
 10
769.3456850935245
 20
355.066709647874
 30
0.0
 11
765.667229552585
 21
355.066709647874
 31
0.0
  0
LINE
  5
8F89
330
8C50
100
AcDbEntity
  8
Visible (ISO)
100
AcDbLine
 10
770.2369617581634
 20
363.5667096478749
 30
0.0
 11
765.667229552585
 21
363.5667096478749
 31
0.0
  0
LINE
  5
8F8A
330
8C50
100
AcDbEntity
  8
Visible (ISO)
100
AcDbLine
 10
765.667229552585
 20
333.3556919926079
 30
0.0
 11
769.3456850935245
 21
333.3556919926079
 31
0.0
  0
LINE
  5
8F8B
330
8C50
100
AcDbEntity
  8
Visible (ISO)
100
AcDbLine
 10
765.667229552585
 20
324.8556919926071
 30
0.0
 11
770.2369617581634
 21
324.8556919926079
 31
0.0
  0
LINE
  5
8F8C
330
8C50
100
AcDbEntity
  8
Visible (ISO)
100
AcDbLine
 10
766.8150470131713
 20
369.2112008202378
 30
0.0
 11
760.4322181081616
 21
369.2112008202369
 31
0.0
  0
LINE
  5
8F8D
330
8C50
100
AcDbEntity
  8
Visible (ISO)
100
AcDbLine
 10
760.4322181081616
 20
351.1112008202365
 30
0.0
 11
760.4322181081616
 21
369.2112008202369
 31
0.0
  0
LINE
  5
8F8E
330
8C50
100
AcDbEntity
  8
Visible (ISO)
100
AcDbLine
 10
760.4322181081616
 20
319.2112008202369
 30
0.0
 11
760.4322181081616
 21
337.3112008202363
 31
0.0
  0
LINE
  5
8F8F
330
8C50
100
AcDbEntity
  8
Visible (ISO)
100
AcDbLine
 10
760.4322181081616
 20
319.2112008202369
 30
0.0
 11
766.8150470131713
 21
319.2112008202378
 31
0.0
  0
LINE
  5
8F90
330
8C50
100
AcDbEntity
  8
Visible (ISO)
100
AcDbLine
 10
760.4322181081616
 20
351.1112008202365
 30
0.0
 11
764.1418803055576
 21
348.54132783916
 31
0.0
  0
ELLIPSE
  5
8F91
330
8C50
100
AcDbEntity
  8
Visible (ISO)
100
AcDbEllipse
 10
762.0583391305276
 20
344.2112008202369
 30
0.0
 11
-0.0000000000000008
 21
-5.0
 31
0.0
210
0.0
220
0.0
230
1.0
 40
0.8334164700119629
 41
0.5235987755983232
 42
2.617993877991638
  0
LINE
  5
8F92
330
8C50
100
AcDbEntity
  8
Visible (ISO)
100
AcDbLine
 10
764.1418803055576
 20
339.8810738013165
 30
0.0
 11
760.4322181081616
 21
337.3112008202363
 31
0.0
  0
LINE
  5
8F93
330
8C50
100
AcDbEntity
  8
Visible (ISO)
100
AcDbLine
 10
789.2845367891573
 20
389.211200820236
 30
0.0
 11
755.2845367891568
 21
389.211200820236
 31
0.0
  0
LINE
  5
8F94
330
8C50
100
AcDbEntity
  8
Visible (ISO)
100
AcDbLine
 10
789.2845367891573
 20
386.3612008202365
 30
0.0
 11
755.2845367891568
 21
386.3612008202365
 31
0.0
  0
LINE
  5
8F95
330
8C50
100
AcDbEntity
  8
Visible (ISO)
100
AcDbLine
 10
780.9345367891569
 20
383.3220493641131
 30
0.0
 11
763.6345367891567
 21
383.3220493641131
 31
0.0
  0
LINE
  5
8F96
330
8C50
100
AcDbEntity
  8
Visible (ISO)
100
AcDbLine
 10
755.2845367891568
 20
386.3612008202365
 30
0.0
 11
755.2845367891568
 21
389.211200820236
 31
0.0
  0
LINE
  5
8F97
330
8C50
100
AcDbEntity
  8
Visible (ISO)
100
AcDbLine
 10
789.2845367891568
 20
386.3612008202365
 30
0.0
 11
789.2845367891568
 21
389.211200820236
 31
0.0
  0
LINE
  5
8F98
330
8C50
100
AcDbEntity
  8
Visible (ISO)
100
AcDbLine
 10
763.6345367891567
 20
383.3220493641131
 30
0.0
 11
755.2845367891568
 21
386.3612008202365
 31
0.0
  0
LINE
  5
8F99
330
8C50
100
AcDbEntity
  8
Visible (ISO)
100
AcDbLine
 10
780.9345367891569
 20
383.3220493641131
 30
0.0
 11
789.2845367891568
 21
386.3612008202365
 31
0.0
  0
LINE
  5
8F9A
330
8C50
100
AcDbEntity
  8
Visible (ISO)
100
AcDbLine
 10
763.6345367891567
 20
369.2112008202351
 30
0.0
 11
763.6345367891567
 21
383.3220493641131
 31
0.0
  0
LINE
  5
8F9B
330
8C50
100
AcDbEntity
  8
Visible (ISO)
100
AcDbLine
 10
772.2845367891566
 20
288.6702876434767
 30
0.0
 11
772.2845367891566
 21
399.7521139969951
 31
0.0
  0
LINE
  5
8F9C
330
8C50
100
AcDbEntity
  8
Visible (ISO)
100
AcDbLine
 10
780.9345367891569
 20
369.2112008202351
 30
0.0
 11
780.9345367891569
 21
383.3220493641131
 31
0.0
  0
LINE
  5
8F9D
330
8C50
100
AcDbEntity
  8
Visible (ISO)
100
AcDbLine
 10
789.2845367891573
 20
299.211200820236
 30
0.0
 11
755.2845367891568
 21
299.211200820236
 31
0.0
  0
LINE
  5
8F9E
330
8C50
100
AcDbEntity
  8
Visible (ISO)
100
AcDbLine
 10
789.2845367891573
 20
302.0612008202354
 30
0.0
 11
755.2845367891568
 21
302.0612008202354
 31
0.0
  0
LINE
  5
8F9F
330
8C50
100
AcDbEntity
  8
Visible (ISO)
100
AcDbLine
 10
780.9345367891569
 20
305.1003522763588
 30
0.0
 11
763.6345367891567
 21
305.1003522763588
 31
0.0
  0
LINE
  5
8FA0
330
8C50
100
AcDbEntity
  8
Visible (ISO)
100
AcDbLine
 10
755.2845367891568
 20
299.211200820236
 30
0.0
 11
755.2845367891568
 21
302.0612008202354
 31
0.0
  0
LINE
  5
8FA1
330
8C50
100
AcDbEntity
  8
Visible (ISO)
100
AcDbLine
 10
789.2845367891568
 20
299.211200820236
 30
0.0
 11
789.2845367891568
 21
302.0612008202354
 31
0.0
  0
LINE
  5
8FA2
330
8C50
100
AcDbEntity
  8
Visible (ISO)
100
AcDbLine
 10
780.9345367891569
 20
305.1003522763588
 30
0.0
 11
789.2845367891568
 21
302.0612008202354
 31
0.0
  0
LINE
  5
8FA3
330
8C50
100
AcDbEntity
  8
Visible (ISO)
100
AcDbLine
 10
763.6345367891567
 20
305.1003522763588
 30
0.0
 11
755.2845367891568
 21
302.0612008202354
 31
0.0
  0
LINE
  5
8FA4
330
8C50
100
AcDbEntity
  8
Visible (ISO)
100
AcDbLine
 10
763.6345367891567
 20
305.1003522763588
 30
0.0
 11
763.6345367891567
 21
319.2112008202351
 31
0.0
  0
LINE
  5
8FA5
330
8C50
100
AcDbEntity
  8
Visible (ISO)
100
AcDbLine
 10
780.9345367891569
 20
305.1003522763588
 30
0.0
 11
780.9345367891569
 21
319.2112008202351
 31
0.0
  0
ELLIPSE
  5
8FA6
330
8C50
100
AcDbEntity
  8
Visible (ISO)
100
AcDbEllipse
 10
794.315119600621
 20
344.2112008202378
 30
0.0
 11
0.0000000000029095
 21
-28.50000000000006
 31
0.0
210
0.0
220
0.0
230
1.0
 40
0.3255681544571565
 41
0.5696213190726028
 42
0.953359223179234
  0
SPLINE
  5
8FA7
330
8C50
100
AcDbEntity
  8
Visible (ISO)
100
AcDbSpline
210
0.0
220
0.0
230
1.0
 70
     8
 71
     3
 72
     8
 73
     4
 74
     0
 42
0.0000000001
 43
0.0000000001
 40
-0.1443505504637693
 40
-0.1443505504637693
 40
-0.1443505504637693
 40
-0.1443505504637693
 40
0.0
 40
0.0
 40
0.0
 40
0.0
 10
798.4681480081312
 20
319.2112008202341
 30
0.0
 10
798.7522146126043
 20
319.5446251424367
 30
0.0
 10
799.035976542405
 20
319.878027833762
 30
0.0
 10
799.3192408751511
 20
320.2112008202341
 30
0.0
  0
LINE
  5
8FA8
330
8C50
100
AcDbEntity
  8
Visible (ISO)
100
AcDbLine
 10
798.4681480081312
 20
369.2112008202341
 30
0.0
 11
788.271054041912
 21
369.2112008202423
 31
0.0
  0
SPLINE
  5
8FA9
330
8C50
100
AcDbEntity
  8
Visible (ISO)
100
AcDbSpline
210
0.0
220
0.0
230
1.0
 70
     8
 71
     3
 72
     8
 73
     4
 74
     0
 42
0.0000000001
 43
0.0000000001
 40
-0.1443505504637693
 40
-0.1443505504637693
 40
-0.1443505504637693
 40
-0.1443505504637693
 40
0.0
 40
0.0
 40
0.0
 40
0.0
 10
788.271054041912
 20
369.2112008202423
 30
0.0
 10
788.6175052178368
 20
368.8777764980398
 30
0.0
 10
788.9642201636416
 20
368.5443738067145
 30
0.0
 10
789.3109983260906
 20
368.2112008202414
 30
0.0
  0
LINE
  5
8FAA
330
8C50
100
AcDbEntity
  8
Visible (ISO)
100
AcDbLine
 10
789.3109983260906
 20
368.2112008202414
 30
0.0
 11
799.3192408751511
 21
368.2112008202332
 31
0.0
  0
SPLINE
  5
8FAB
330
8C50
100
AcDbEntity
  8
Visible (ISO)
100
AcDbSpline
210
0.0
220
0.0
230
1.0
 70
     8
 71
     3
 72
     8
 73
     4
 74
     0
 42
0.0000000001
 43
0.0000000001
 40
-0.1443504730156712
 40
-0.1443504730156712
 40
-0.1443504730156712
 40
-0.1443504730156712
 40
0.0
 40
0.0
 40
0.0
 40
0.0
 10
799.3192408751511
 20
368.2112008202332
 30
0.0
 10
799.0359765424045
 20
368.5443738067072
 30
0.0
 10
798.7522146126039
 20
368.8777764980325
 30
0.0
 10
798.4681480081312
 20
369.2112008202341
 30
0.0
  0
ELLIPSE
  5
8FAC
330
8C50
100
AcDbEntity
  8
Visible (ISO)
100
AcDbEllipse
 10
794.315119600621
 20
344.2112008202378
 30
0.0
 11
0.0000000000019519
 21
-28.49999999999982
 31
0.0
210
0.0
220
0.0
230
1.0
 40
0.3255681544571566
 41
2.188233430410837
 42
2.571971334517812
  0
ELLIPSE
  5
8FAD
330
8C50
100
AcDbEntity
  8
Visible (ISO)
100
AcDbEllipse
 10
793.3696010250218
 20
344.2112008202378
 30
0.0
 11
0.0000000000040072
 21
-29.49999999999996
 31
0.0
210
0.0
220
0.0
230
1.0
 40
0.3255681544571565
 41
3.701211285013179
 42
4.152770348958485
  0
SPLINE
  5
8FAE
330
8C50
100
AcDbEntity
  8
Visible (ISO)
100
AcDbSpline
210
0.0
220
0.0
230
1.0
 70
     8
 71
     3
 72
     8
 73
     4
 74
     0
 42
0.0000000001
 43
0.0000000001
 40
-0.1443505504637195
 40
-0.1443505504637195
 40
-0.1443505504637195
 40
-0.1443505504637195
 40
0.0
 40
0.0
 40
0.0
 40
0.0
 10
785.2303971635929
 20
359.871660583611
 30
0.0
 10
785.6542083950225
 20
359.7758518096291
 30
0.0
 10
786.0779921317307
 20
359.6791700317247
 30
0.0
 10
786.5014838936494
 20
359.5816269691843
 30
0.0
  0
ELLIPSE
  5
8FAF
330
8C50
100
AcDbEntity
  8
Visible (ISO)
100
AcDbEllipse
 10
794.315119600621
 20
344.2112008202378
 30
0.0
 11
-0.0000000000029102
 21
28.49999999999997
 31
0.0
210
0.0
220
0.0
230
1.0
 40
0.3255681544571565
 41
0.5696213190726028
 42
1.001175007721633
  0
LINE
  5
8FB0
330
8C50
100
AcDbEntity
  8
Visible (ISO)
100
AcDbLine
 10
785.2303971635929
 20
359.871660583611
 30
0.0
 11
785.2303971635929
 21
328.5507410568791
 31
0.0
  0
SPLINE
  5
8FB1
330
8C50
100
AcDbEntity
  8
Visible (ISO)
100
AcDbSpline
210
0.0
220
0.0
230
1.0
 70
     8
 71
     3
 72
     8
 73
     4
 74
     0
 42
0.0000000001
 43
0.0000000001
 40
-0.1443505504637693
 40
-0.1443505504637693
 40
-0.1443505504637693
 40
-0.1443505504637693
 40
0.0
 40
0.0
 40
0.0
 40
0.0
 10
785.2303971635929
 20
328.5507410568791
 30
0.0
 10
785.6542083950221
 20
328.646549830861
 30
0.0
 10
786.0779921317307
 20
328.7432316087636
 30
0.0
 10
786.5014838936494
 20
328.8407746713058
 30
0.0
  0
LINE
  5
8FB2
330
8C50
100
AcDbEntity
  8
Visible (ISO)
100
AcDbLine
 10
786.5014838936494
 20
328.8407746713058
 30
0.0
 11
786.5014838936494
 21
359.5816269691843
 31
0.0
  0
ELLIPSE
  5
8FB3
330
8C50
100
AcDbEntity
  8
Visible (ISO)
100
AcDbEllipse
 10
793.3696010250218
 20
344.2112008202378
 30
0.0
 11
0.0000000000030129
 21
-29.49999999999995
 31
0.0
210
0.0
220
0.0
230
1.0
 40
0.3255681544571565
 41
5.272007611809371
 42
5.723566675754281
  0
SPLINE
  5
8FB4
330
8C50
100
AcDbEntity
  8
Visible (ISO)
100
AcDbSpline
210
0.0
220
0.0
230
1.0
 70
     8
 71
     3
 72
     8
 73
     4
 74
     0
 42
0.0000000001
 43
0.0000000001
 40
-0.1443505504637195
 40
-0.1443505504637195
 40
-0.1443505504637195
 40
-0.1443505504637195
 40
0.0
 40
0.0
 40
0.0
 40
0.0
 10
788.271054041912
 20
319.2112008202423
 30
0.0
 10
788.6175052178368
 20
319.5446251424448
 30
0.0
 10
788.9642201636416
 20
319.8780278337701
 30
0.0
 10
789.3109983260906
 20
320.2112008202433
 30
0.0
  0
ELLIPSE
  5
8FB5
330
8C50
100
AcDbEntity
  8
Visible (ISO)
100
AcDbEllipse
 10
794.315119600621
 20
344.2112008202378
 30
0.0
 11
-0.0000000000019505
 21
28.49999999999996
 31
0.0
210
0.0
220
0.0
230
1.0
 40
0.3255681544571565
 41
2.140417645868385
 42
2.571971334517812
  0
LINE
  5
8FB6
330
8C50
100
AcDbEntity
  8
Visible (ISO)
100
AcDbLine
 10
788.271054041912
 20
319.2112008202423
 30
0.0
 11
798.4681480081312
 21
319.2112008202341
 31
0.0
  0
LINE
  5
8FB7
330
8C50
100
AcDbEntity
  8
Visible (ISO)
100
AcDbLine
 10
799.3192408751511
 20
320.2112008202341
 30
0.0
 11
789.3109983260906
 21
320.2112008202433
 31
0.0
  0
ELLIPSE
  5
8FB8
330
8C50
100
AcDbEntity
  8
Visible (ISO)
100
AcDbEllipse
 10
787.9801451441053
 20
344.2112008202378
 30
0.0
 11
-0.0000000000020213
 21
29.50000000000007
 31
0.0
210
0.0
220
0.0
230
1.0
 40
0.3255681544571565
 41
2.130414958220466
 42
2.581974022165784
  0
LINE
  5
8FB9
330
8C50
100
AcDbEntity
  8
Visible (ISO)
100
AcDbLine
 10
779.8409412826763
 20
328.5507410568791
 30
0.0
 11
779.8409412826763
 21
359.87166058361
 31
0.0
  0
ELLIPSE
  5
8FBA
330
8C50
100
AcDbEntity
  8
Visible (ISO)
100
AcDbEllipse
 10
787.9801451441053
 20
344.2112008202378
 30
0.0
 11
-0.0000000000030136
 21
29.50000000000007
 31
0.0
210
0.0
220
0.0
230
1.0
 40
0.3255681544571565
 41
0.559618631424625
 42
1.011177695369601
  0
SPLINE
  5
8FBB
330
8C50
100
AcDbEntity
  8
Visible (ISO)
100
AcDbSpline
210
0.0
220
0.0
230
1.0
 70
     8
 71
     3
 72
     8
 73
     4
 74
     0
 42
0.0000000001
 43
0.0000000001
 40
-0.1443504730160225
 40
-0.1443504730160225
 40
-0.1443504730160225
 40
-0.1443504730160225
 40
0.0
 40
0.0
 40
0.0
 40
0.0
 10
782.0305052939761
 20
368.2112008202414
 30
0.0
 10
782.3137696267222
 20
368.5443738067145
 30
0.0
 10
782.5975315565233
 20
368.8777764980398
 30
0.0
 10
782.881598160996
 20
369.2112008202423
 30
0.0
  0
SPLINE
  5
8FBC
330
8C50
100
AcDbEntity
  8
Visible (ISO)
100
AcDbSpline
210
0.0
220
0.0
230
1.0
 70
     8
 71
     3
 72
     8
 73
     4
 74
     0
 42
0.0000000001
 43
0.0000000001
 40
-0.1443504730161398
 40
-0.1443504730161398
 40
-0.1443504730161398
 40
-0.1443504730161398
 40
0.0
 40
0.0
 40
0.0
 40
0.0
 10
779.2209908615346
 20
359.5816269691834
 30
0.0
 10
779.4275415948109
 20
359.6791700317247
 30
0.0
 10
779.6342347337081
 20
359.7758518096291
 30
0.0
 10
779.8409412826763
 20
359.87166058361
 30
0.0
  0
SPLINE
  5
8FBD
330
8C50
100
AcDbEntity
  8
Visible (ISO)
100
AcDbSpline
210
0.0
220
0.0
230
1.0
 70
     8
 71
     3
 72
     8
 73
     4
 74
     0
 42
0.0000000001
 43
0.0000000001
 40
-0.1443504730160225
 40
-0.1443504730160225
 40
-0.1443504730160225
 40
-0.1443504730160225
 40
0.0
 40
0.0
 40
0.0
 40
0.0
 10
779.2209908615346
 20
328.840774671304
 30
0.0
 10
779.4275415948114
 20
328.7432316087636
 30
0.0
 10
779.6342347337081
 20
328.6465498308592
 30
0.0
 10
779.8409412826763
 20
328.5507410568791
 30
0.0
  0
SPLINE
  5
8FBE
330
8C50
100
AcDbEntity
  8
Visible (ISO)
100
AcDbSpline
210
0.0
220
0.0
230
1.0
 70
     8
 71
     3
 72
     8
 73
     4
 74
     0
 42
0.0000000001
 43
0.0000000001
 40
-0.1443504730161398
 40
-0.1443504730161398
 40
-0.1443504730161398
 40
-0.1443504730161398
 40
0.0
 40
0.0
 40
0.0
 40
0.0
 10
782.0305052939761
 20
320.2112008202414
 30
0.0
 10
782.3137696267222
 20
319.8780278337683
 30
0.0
 10
782.5975315565228
 20
319.5446251424439
 30
0.0
 10
782.881598160996
 20
319.2112008202423
 30
0.0
  0
LINE
  5
8FBF
330
8C50
100
AcDbEntity
  8
Visible (ISO)
100
AcDbLine
 10
785.2303971635929
 20
328.5507410568791
 30
0.0
 11
779.8409412826763
 21
328.5507410568791
 31
0.0
  0
LINE
  5
8FC0
330
8C50
100
AcDbEntity
  8
Visible (ISO)
100
AcDbLine
 10
788.271054041912
 20
319.2112008202423
 30
0.0
 11
782.881598160996
 21
319.2112008202423
 31
0.0
  0
LINE
  5
8FC1
330
8C50
100
AcDbEntity
  8
Visible (ISO)
100
AcDbLine
 10
785.2303971635929
 20
359.871660583611
 30
0.0
 11
779.8409412826763
 21
359.87166058361
 31
0.0
  0
LINE
  5
8FC2
330
8C50
100
AcDbEntity
  8
Visible (ISO)
100
AcDbLine
 10
788.271054041912
 20
369.2112008202423
 30
0.0
 11
782.881598160996
 21
369.2112008202423
 31
0.0
  0
SPLINE
  5
8FC3
330
8C50
100
AcDbEntity
  8
Visible (ISO)
100
AcDbSpline
210
0.0
220
0.0
230
1.0
 70
     8
 71
     3
 72
    10
 73
     6
 74
     0
 42
0.0000000001
 43
0.0000000001
 40
1.373926011701395
 40
1.373926011701395
 40
1.373926011701395
 40
1.373926011701395
 40
1.452016626737363
 40
1.452016626737363
 40
1.457164195614159
 40
1.457164195614159
 40
1.457164195614159
 40
1.457164195614159
 10
903.4451085507273
 20
197.27333792688
 30
0.0
 10
903.4596694507721
 20
197.1267163089094
 30
0.0
 10
903.4675604807356
 20
196.9775314456371
 30
0.0
 10
903.4687699941434
 20
196.816003329003
 30
0.0
 10
903.4688156425884
 20
196.8059787018253
 30
0.0
 10
903.4688316793065
 20
196.7959187949507
 30
0.0
  0
LINE
  5
8FC4
330
8C50
100
AcDbEntity
  8
Visible (ISO)
100
AcDbLine
 10
903.4451085507255
 20
196.1341466050087
 30
0.0
 11
903.4451085507273
 21
197.27333792688
 31
0.0
  0
SPLINE
  5
8FC5
330
8C50
100
AcDbEntity
  8
Visible (ISO)
100
AcDbSpline
210
0.0
220
0.0
230
1.0
 70
     8
 71
     3
 72
    10
 73
     6
 74
     0
 42
0.0000000001
 43
0.0000000001
 40
2.554399938987141
 40
2.554399938987141
 40
2.554399938987141
 40
2.554399938987141
 40
2.559547507863936
 40
2.559547507863936
 40
2.637638122899906
 40
2.637638122899906
 40
2.637638122899906
 40
2.637638122899906
 10
898.4589571324551
 20
188.5913163235252
 30
0.0
 10
898.4467727868389
 20
188.5814483586907
 30
0.0
 10
898.4346050573469
 20
188.5716208208721
 30
0.0
 10
898.2381284817813
 20
188.4133627620683
 30
0.0
 10
898.0507162794705
 20
188.2685482765443
 30
0.0
 10
897.8607165619534
 20
188.1278561620126
 30
0.0
  0
ELLIPSE
  5
8FC6
330
8C50
100
AcDbEntity
  8
Visible (ISO)
100
AcDbEllipse
 10
893.4688381840381
 20
196.7851343045583
 30
0.0
 11
10.00000000000001
 21
-0.0000000000086152
 31
0.0
210
0.0
220
0.0
230
1.0
 40
0.9455185755993166
 41
5.234847165729039
 42
6.284325897435297
  0
SPLINE
  5
8FC7
330
8C50
100
AcDbEntity
  8
Visible (ISO)
100
AcDbSpline
210
0.0
220
0.0
230
1.0
 70
     8
 71
     3
 72
    10
 73
     6
 74
     0
 42
0.0000000001
 43
0.0000000001
 40
1.373926011701396
 40
1.373926011701396
 40
1.373926011701396
 40
1.373926011701396
 40
1.452016626737366
 40
1.452016626737366
 40
1.45716419561416
 40
1.45716419561416
 40
1.45716419561416
 40
1.45716419561416
 10
922.868928776884
 20
201.7797242760532
 30
0.0
 10
922.6934899594118
 20
201.7209251738347
 30
0.0
 10
922.5139687870626
 20
201.6654324165053
 30
0.0
 10
922.3187017249049
 20
201.6098394238722
 30
0.0
 10
922.3065796438579
 20
201.6064072657507
 30
0.0
 10
922.2944113349615
 20
201.6029812284084
 30
0.0
  0
SPLINE
  5
8FC8
330
8C50
100
AcDbEntity
  8
Visible (ISO)
100
AcDbSpline
210
0.0
220
0.0
230
1.0
 70
     8
 71
     3
 72
    10
 73
     6
 74
     0
 42
0.0000000001
 43
0.0000000001
 40
2.554399938987145
 40
2.554399938987145
 40
2.554399938987145
 40
2.554399938987145
 40
2.559547507863938
 40
2.559547507863938
 40
2.637638122899908
 40
2.637638122899908
 40
2.637638122899908
 40
2.637638122899908
 10
912.2746622412552
 20
201.6029812284084
 30
0.0
 10
912.2624939323607
 20
201.6064072657507
 30
0.0
 10
912.2503718513137
 20
201.6098394238722
 30
0.0
 10
912.0551047891561
 20
201.6654324165053
 30
0.0
 10
911.8755836168068
 20
201.7209251738347
 30
0.0
 10
911.7001447993327
 20
201.7797242760532
 30
0.0
  0
ELLIPSE
  5
8FC9
330
8C50
100
AcDbEntity
  8
Visible (ISO)
100
AcDbEllipse
 10
917.2845367881084
 20
209.7860147190492
 30
0.0
 11
-9.999999999999992
 21
0.0000000000095944
 31
0.0
210
0.0
220
0.0
230
1.0
 40
0.9455185755993168
 41
1.046056960942834
 42
2.095535692648955
  0
SPLINE
  5
8FCA
330
8C50
100
AcDbEntity
  8
Visible (ISO)
100
AcDbSpline
210
0.0
220
0.0
230
1.0
 70
     8
 71
     3
 72
    10
 73
     6
 74
     0
 42
0.0000000001
 43
0.0000000001
 40
1.373926011701395
 40
1.373926011701395
 40
1.373926011701395
 40
1.373926011701395
 40
1.452016626737366
 40
1.452016626737366
 40
1.457164195614159
 40
1.457164195614159
 40
1.457164195614159
 40
1.457164195614159
 10
936.708357014267
 20
188.1278561620126
 30
0.0
 10
936.5183572967483
 20
188.2685482765443
 30
0.0
 10
936.3309450944392
 20
188.4133627620683
 30
0.0
 10
936.1344685188734
 20
188.5716208208721
 30
0.0
 10
936.1223007893816
 20
188.5814483586907
 30
0.0
 10
936.1101164437652
 20
188.5913163235252
 30
0.0
  0
LINE
  5
8FCB
330
8C50
100
AcDbEntity
  8
Visible (ISO)
100
AcDbLine
 10
931.1239650254913
 20
197.27333792688
 30
0.0
 11
931.1239650254895
 21
196.1341466050087
 31
0.0
  0
SPLINE
  5
8FCC
330
8C50
100
AcDbEntity
  8
Visible (ISO)
100
AcDbSpline
210
0.0
220
0.0
230
1.0
 70
     8
 71
     3
 72
    10
 73
     6
 74
     0
 42
0.0000000001
 43
0.0000000001
 40
2.554399938987145
 40
2.554399938987145
 40
2.554399938987145
 40
2.554399938987145
 40
2.559547507863937
 40
2.559547507863937
 40
2.637638122899907
 40
2.637638122899907
 40
2.637638122899907
 40
2.637638122899907
 10
931.1002418969122
 20
196.7959187949507
 30
0.0
 10
931.1002579336301
 20
196.8059787018253
 30
0.0
 10
931.1003035820769
 20
196.816003329003
 30
0.0
 10
931.1015130954849
 20
196.9775314456371
 30
0.0
 10
931.1094041254447
 20
197.1267163089094
 30
0.0
 10
931.1239650254913
 20
197.27333792688
 30
0.0
  0
ELLIPSE
  5
8FCD
330
8C50
100
AcDbEntity
  8
Visible (ISO)
100
AcDbEllipse
 10
941.1002353921825
 20
196.7851343045583
 30
0.0
 11
-10.00000000000001
 21
0.000000000008623
 31
0.0
210
0.0
220
0.0
230
1.0
 40
0.945518575599317
 41
6.282044716925698
 42
7.331523448631934
  0
SPLINE
  5
8FCE
330
8C50
100
AcDbEntity
  8
Visible (ISO)
100
AcDbSpline
210
0.0
220
0.0
230
1.0
 70
     8
 71
     3
 72
    10
 73
     6
 74
     0
 42
0.0000000001
 43
0.0000000001
 40
1.373926011701396
 40
1.373926011701396
 40
1.373926011701396
 40
1.373926011701396
 40
1.452016626737367
 40
1.452016626737367
 40
1.45716419561416
 40
1.45716419561416
 40
1.45716419561416
 40
1.45716419561416
 10
931.1239650254931
 20
169.9696016987989
 30
0.0
 10
931.1094041254484
 20
170.2219625143268
 30
0.0
 10
931.1015130954867
 20
170.473392136764
 30
0.0
 10
931.1003035820787
 20
170.7395661230009
 30
0.0
 10
931.1002579336339
 20
170.7560608877063
 30
0.0
 10
931.100241896914
 20
170.7725889851851
 30
0.0
  0
LINE
  5
8FCF
330
8C50
100
AcDbEntity
  8
Visible (ISO)
100
AcDbLine
 10
931.1239650254858
 20
161.674361466881
 30
0.0
 11
931.1239650254931
 21
169.9696016987989
 31
0.0
  0
SPLINE
  5
8FD0
330
8C50
100
AcDbEntity
  8
Visible (ISO)
100
AcDbSpline
210
0.0
220
0.0
230
1.0
 70
     8
 71
     3
 72
    16
 73
    12
 74
     0
 42
0.0000000001
 43
0.0000000001
 40
2.449789672836297
 40
2.449789672836297
 40
2.449789672836297
 40
2.449789672836297
 40
2.476982571578495
 40
2.476982571578495
 40
2.757060018455158
 40
2.757060018455158
 40
3.037137465331822
 40
3.037137465331822
 40
3.317214912208485
 40
3.317214912208485
 40
3.479348579905477
 40
3.479348579905477
 40
3.479348579905477
 40
3.479348579905477
 10
936.7083570142614
 20
170.8198432317483
 30
0.0
 10
936.633028225607
 20
170.7729225275386
 30
0.0
 10
936.5584152368821
 20
170.7254306992269
 30
0.0
 10
935.723940127252
 20
170.182980061734
 30
0.0
 10
934.9334281943731
 20
169.5546643003906
 30
0.0
 10
933.524669957703
 20
168.1371386385906
 30
0.0
 10
932.9067770991253
 20
167.3474898456641
 30
0.0
 10
931.973185609538
 20
165.8185599351143
 30
0.0
 10
931.5972936958507
 20
164.9807011083737
 30
0.0
 10
931.2424892828559
 20
163.6973702690818
 30
0.0
 10
931.1623768564398
 20
163.2344586395054
 30
0.0
 10
931.1252626429279
 20
162.7942307240098
 30
0.0
  0
LINE
  5
8FD1
330
8C50
100
AcDbEntity
  8
Visible (ISO)
100
AcDbLine
 10
936.7083570142687
 20
179.1150834636662
 30
0.0
 11
936.7083570142614
 21
170.8198432317483
 31
0.0
  0
SPLINE
  5
8FD2
330
8C50
100
AcDbEntity
  8
Visible (ISO)
100
AcDbSpline
210
0.0
220
0.0
230
1.0
 70
     8
 71
     3
 72
    10
 73
     6
 74
     0
 42
0.0000000001
 43
0.0000000001
 40
2.554399938987144
 40
2.554399938987144
 40
2.554399938987144
 40
2.554399938987144
 40
2.559547507863938
 40
2.559547507863938
 40
2.637638122899909
 40
2.637638122899909
 40
2.637638122899909
 40
2.637638122899909
 10
936.1101164437652
 20
178.9771914566115
 30
0.0
 10
936.1223007893816
 20
178.9805912308399
 30
0.0
 10
936.1344685188734
 20
178.9839486311318
 30
0.0
 10
936.3309450944392
 20
179.0375608203319
 30
0.0
 10
936.5183572967501
 20
179.0801305466927
 30
0.0
 10
936.7083570142687
 20
179.1150834636662
 30
0.0
  0
ELLIPSE
  5
8FD3
330
8C50
100
AcDbEntity
  8
Visible (ISO)
100
AcDbEllipse
 10
941.1002353921842
 20
170.7833734755775
 30
0.0
 11
-10.0
 21
0.0000000000086152
 31
0.0
210
0.0
220
0.0
230
1.0
 40
0.9455185755993166
 41
5.234847165729039
 42
6.284325897435297
  0
SPLINE
  5
8FD4
330
8C50
100
AcDbEntity
  8
Visible (ISO)
100
AcDbSpline
210
0.0
220
0.0
230
1.0
 70
     8
 71
     3
 72
    10
 73
     6
 74
     0
 42
0.0000000001
 43
0.0000000001
 40
1.373926011701396
 40
1.373926011701396
 40
1.373926011701396
 40
1.373926011701396
 40
1.452016626737364
 40
1.452016626737364
 40
1.45716419561416
 40
1.45716419561416
 40
1.45716419561416
 40
1.45716419561416
 10
911.7001447993382
 20
165.4632153496256
 30
0.0
 10
911.8755836168103
 20
165.6277536494014
 30
0.0
 10
912.0551047891597
 20
165.7854911658958
 30
0.0
 10
912.2503718513156
 20
165.9457300281308
 30
0.0
 10
912.2624939323625
 20
165.9556323237809
 30
0.0
 10
912.274662241259
 20
165.9655265517283
 30
0.0
  0
LINE
  5
8FD5
330
8C50
100
AcDbEntity
  8
Visible (ISO)
100
AcDbLine
 10
911.700144799331
 20
157.1679751177068
 30
0.0
 11
911.7001447993382
 21
165.4632153496256
 31
0.0
  0
SPLINE
  5
8FD6
330
8C50
100
AcDbEntity
  8
Visible (ISO)
100
AcDbSpline
210
0.0
220
0.0
230
1.0
 70
     8
 71
     3
 72
    18
 73
    14
 74
     0
 42
0.0000000001
 43
0.0000000001
 40
2.449789672836301
 40
2.449789672836301
 40
2.449789672836301
 40
2.449789672836301
 40
2.476982571578498
 40
2.476982571578498
 40
2.757060018455162
 40
2.757060018455162
 40
3.037137465331825
 40
3.037137465331825
 40
3.317214912208489
 40
3.317214912208489
 40
3.597292359085153
 40
3.597292359085153
 40
3.624485257827351
 40
3.624485257827351
 40
3.624485257827351
 40
3.624485257827351
 10
922.8689287768805
 20
157.1679751177068
 30
0.0
 10
922.7993729176626
 20
157.2001462769019
 30
0.0
 10
922.7294610730817
 20
157.2315498908771
 30
0.0
 10
921.936209926492
 20
157.5776675358627
 30
0.0
 10
921.0701069107319
 20
157.8536902614212
 30
0.0
 10
919.211913049957
 20
158.2195787351809
 30
0.0
 10
918.2181282776939
 20
158.3097373538946
 30
0.0
 10
916.3509452985156
 20
158.3097373538946
 30
0.0
 10
915.3571605262525
 20
158.2195787351809
 30
0.0
 10
913.4989666654794
 20
157.8536902614212
 30
0.0
 10
912.6328636497175
 20
157.5776675358627
 30
0.0
 10
911.839612503128
 20
157.2315498908771
 30
0.0
 10
911.7697006585469
 20
157.2001462769019
 30
0.0
 10
911.700144799331
 20
157.1679751177068
 30
0.0
  0
LINE
  5
8FD7
330
8C50
100
AcDbEntity
  8
Visible (ISO)
100
AcDbLine
 10
922.8689287768878
 20
165.4632153496256
 30
0.0
 11
922.8689287768805
 21
157.1679751177068
 31
0.0
  0
SPLINE
  5
8FD8
330
8C50
100
AcDbEntity
  8
Visible (ISO)
100
AcDbSpline
210
0.0
220
0.0
230
1.0
 70
     8
 71
     3
 72
    10
 73
     6
 74
     0
 42
0.0000000001
 43
0.0000000001
 40
2.554399938987145
 40
2.554399938987145
 40
2.554399938987145
 40
2.554399938987145
 40
2.559547507863938
 40
2.559547507863938
 40
2.637638122899909
 40
2.637638122899909
 40
2.637638122899909
 40
2.637638122899909
 10
922.2944113349651
 20
165.9655265517283
 30
0.0
 10
922.3065796438616
 20
165.9556323237809
 30
0.0
 10
922.3187017249086
 20
165.9457300281308
 30
0.0
 10
922.5139687870662
 20
165.7854911658958
 30
0.0
 10
922.6934899594137
 20
165.6277536494014
 30
0.0
 10
922.8689287768878
 20
165.4632153496256
 30
0.0
  0
ELLIPSE
  5
8FD9
330
8C50
100
AcDbEntity
  8
Visible (ISO)
100
AcDbEllipse
 10
917.2845367881139
 20
157.7824930610875
 30
0.0
 11
9.999999999999996
 21
-0.000000000009609
 31
0.0
210
0.0
220
0.0
230
1.0
 40
0.9455185755993168
 41
1.046056960942836
 42
2.095535692648956
  0
ELLIPSE
  5
8FDA
330
8C50
100
AcDbEntity
  8
Visible (ISO)
100
AcDbEllipse
 10
917.2845367881102
 20
183.7842538900674
 30
0.0
 11
-6.75
 21
-0.0000000000000001
 31
0.0
210
0.0
220
0.0
230
1.0
 40
0.945518575599317
 41
0.0
 42
6.283185307179586
  0
ELLIPSE
  5
8FDB
330
8C50
100
AcDbEntity
  8
Visible (ISO)
100
AcDbEllipse
 10
917.2845367881102
 20
183.7842538900674
 30
0.0
 11
-19.50000000000002
 21
0.0000000000168039
 31
0.0
210
0.0
220
0.0
230
1.0
 40
0.9455185755993166
 41
6.019416926380681
 42
6.54695368798032
  0
ELLIPSE
  5
8FDC
330
8C50
100
AcDbEntity
  8
Visible (ISO)
100
AcDbEllipse
 10
917.2845367881102
 20
183.7842538900674
 30
0.0
 11
19.49999999999997
 21
-0.0000000000149214
 31
0.0
210
0.0
220
0.0
230
1.0
 40
0.945518575599317
 41
3.925021823987403
 42
4.452558585587082
  0
ELLIPSE
  5
8FDD
330
8C50
100
AcDbEntity
  8
Visible (ISO)
100
AcDbEllipse
 10
917.2845367881102
 20
183.7842538900674
 30
0.0
 11
19.49999999999997
 21
-0.0000000000168011
 31
0.0
210
0.0
220
0.0
230
1.0
 40
0.9455185755993166
 41
4.972219375184057
 42
5.499756136783702
  0
ELLIPSE
  5
8FDE
330
8C50
100
AcDbEntity
  8
Visible (ISO)
100
AcDbEllipse
 10
917.2845367881102
 20
183.7842538900674
 30
0.0
 11
19.50000000000002
 21
-0.0000000000168095
 31
0.0
210
0.0
220
0.0
230
1.0
 40
0.9455185755993166
 41
6.019416926380681
 42
6.54695368798032
  0
ELLIPSE
  5
8FDF
330
8C50
100
AcDbEntity
  8
Visible (ISO)
100
AcDbEllipse
 10
917.2845367881102
 20
183.7842538900674
 30
0.0
 11
-19.50000000000001
 21
0.0000000000148562
 31
0.0
210
0.0
220
0.0
230
1.0
 40
0.9455185755993166
 41
3.925021823987386
 42
4.452558585587079
  0
ELLIPSE
  5
8FE0
330
8C50
100
AcDbEntity
  8
Visible (ISO)
100
AcDbEllipse
 10
917.2845367881102
 20
183.7842538900674
 30
0.0
 11
-19.49999999999998
 21
0.0000000000168004
 31
0.0
210
0.0
220
0.0
230
1.0
 40
0.9455185755993168
 41
4.972219375184057
 42
5.499756136783702
  0
ELLIPSE
  5
8FE1
330
8C50
100
AcDbEntity
  8
Visible (ISO)
100
AcDbEllipse
 10
917.2845367881102
 20
183.6214698128394
 30
0.0
 11
-20.00000000000004
 21
0.0000000000172383
 31
0.0
210
0.0
220
0.0
230
1.0
 40
0.9455185755993168
 41
6.042567819798597
 42
6.523802794562386
  0
ELLIPSE
  5
8FE2
330
8C50
100
AcDbEntity
  8
Visible (ISO)
100
AcDbEllipse
 10
917.2845367881102
 20
183.6214698128394
 30
0.0
 11
19.99999999999996
 21
-0.0000000000152822
 31
0.0
210
0.0
220
0.0
230
1.0
 40
0.9455185755993166
 41
3.948172717405267
 42
4.429407692169027
  0
ELLIPSE
  5
8FE3
330
8C50
100
AcDbEntity
  8
Visible (ISO)
100
AcDbEllipse
 10
917.2845367881102
 20
183.6214698128394
 30
0.0
 11
19.99999999999992
 21
-0.0000000000172369
 31
0.0
210
0.0
220
0.0
230
1.0
 40
0.9455185755993166
 41
4.995370268602038
 42
5.476605243365832
  0
ELLIPSE
  5
8FE4
330
8C50
100
AcDbEntity
  8
Visible (ISO)
100
AcDbEllipse
 10
917.2845367881102
 20
183.6214698128394
 30
0.0
 11
19.99999999999991
 21
-0.0000000000172376
 31
0.0
210
0.0
220
0.0
230
1.0
 40
0.945518575599317
 41
6.042567819798597
 42
6.523802794562386
  0
ELLIPSE
  5
8FE5
330
8C50
100
AcDbEntity
  8
Visible (ISO)
100
AcDbEllipse
 10
917.2845367881102
 20
183.6214698128394
 30
0.0
 11
-19.99999999999992
 21
0.0000000000152878
 31
0.0
210
0.0
220
0.0
230
1.0
 40
0.9455185755993166
 41
3.94817271740532
 42
4.429407692169028
  0
ELLIPSE
  5
8FE6
330
8C50
100
AcDbEntity
  8
Visible (ISO)
100
AcDbEllipse
 10
917.2845367881048
 20
175.3262295809215
 30
0.0
 11
-19.99999999999991
 21
0.0000000000000005
 31
0.0
210
0.0
220
0.0
230
1.0
 40
0.9455185755993168
 41
0.0
 42
0.2406174873816829
  0
ELLIPSE
  5
8FE7
330
8C50
100
AcDbEntity
  8
Visible (ISO)
100
AcDbEllipse
 10
917.2845367881048
 20
175.3262295809215
 30
0.0
 11
19.99999999999994
 21
-0.0000000000152545
 31
0.0
210
0.0
220
0.0
230
1.0
 40
0.9455185755993166
 41
3.948172717405267
 42
4.429407692169026
  0
ELLIPSE
  5
8FE8
330
8C50
100
AcDbEntity
  8
Visible (ISO)
100
AcDbEllipse
 10
917.2845367881048
 20
175.3262295809215
 30
0.0
 11
19.99999999999989
 21
-0.0000000000172383
 31
0.0
210
0.0
220
0.0
230
1.0
 40
0.9455185755993166
 41
4.995370268602038
 42
5.476605243365832
  0
ELLIPSE
  5
8FE9
330
8C50
100
AcDbEntity
  8
Visible (ISO)
100
AcDbEllipse
 10
917.2845367881048
 20
175.3262295809215
 30
0.0
 11
20.00000000000004
 21
-0.0000000000172508
 31
0.0
210
0.0
220
0.0
230
1.0
 40
0.9455185755993168
 41
6.042567819798598
 42
6.283185307180479
  0
ELLIPSE
  5
8FEA
330
8C50
100
AcDbEntity
  8
Visible (ISO)
100
AcDbEllipse
 10
917.2845367880976
 20
167.3430620899814
 30
0.0
 11
-16.50000000000001
 21
0.000000000014218
 31
0.0
210
0.0
220
0.0
230
1.0
 40
0.9455185755993166
 41
6.219315156077003
 42
9.4886481118738
  0
ELLIPSE
  5
8FEB
330
8C50
100
AcDbEntity
  8
Visible (ISO)
100
AcDbEllipse
 10
917.2845367880938
 20
164.4455055153127
 30
0.0
 11
16.50000000000001
 21
0.000000000000004
 31
0.0
210
0.0
220
0.0
230
1.0
 40
0.9455185755993168
 41
3.141592653589571
 42
6.283185307179364
  0
ELLIPSE
  5
8FEC
330
8C50
100
AcDbEntity
  8
Visible (ISO)
100
AcDbEllipse
 10
917.2845367880993
 20
170.4359595573248
 30
0.0
 11
-16.50000000000002
 21
0.0000000000142095
 31
0.0
210
0.0
220
0.0
230
1.0
 40
0.9455185755993163
 41
0.1451189673181439
 42
0.5758068678139933
  0
ELLIPSE
  5
8FED
330
8C50
100
AcDbEntity
  8
Visible (ISO)
100
AcDbEllipse
 10
917.2845367880993
 20
170.4359595573248
 30
0.0
 11
16.5
 21
-0.0000000000125913
 31
0.0
210
0.0
220
0.0
230
1.0
 40
0.9455185755993168
 41
3.774830673807421
 42
5.649947286963528
  0
ELLIPSE
  5
8FEE
330
8C50
100
AcDbEntity
  8
Visible (ISO)
100
AcDbEllipse
 10
917.2845367880993
 20
170.4359595573248
 30
0.0
 11
16.49999999999998
 21
-0.0000000000142136
 31
0.0
210
0.0
220
0.0
230
1.0
 40
0.9455185755993166
 41
5.707378439367385
 42
6.138066339863249
  0
ELLIPSE
  5
8FEF
330
8C50
100
AcDbEntity
  8
Visible (ISO)
100
AcDbEllipse
 10
917.2845367881102
 20
183.6214698128394
 30
0.0
 11
-19.99999999999998
 21
0.0000000000172216
 31
0.0
210
0.0
220
0.0
230
1.0
 40
0.9455185755993168
 41
4.995370268602032
 42
5.476605243365831
  0
ELLIPSE
  5
8FF0
330
8C50
100
AcDbEntity
  8
Visible (ISO)
100
AcDbEllipse
 10
917.2845367881102
 20
183.3284584738282
 30
0.0
 11
6.75
 21
-0.0000000000058153
 31
0.0
210
0.0
220
0.0
230
1.0
 40
0.9455185755993166
 41
0.0357156414895561
 42
3.105877012102114
  0
LINE
  5
8FF1
330
8C50
100
AcDbEntity
  8
Visible (ISO)
100
AcDbLine
 10
897.284536788103
 20
175.3262295809215
 30
0.0
 11
897.2845367881102
 21
183.6214698128394
 31
0.0
  0
LINE
  5
8FF2
330
8C50
100
AcDbEntity
  8
Visible (ISO)
100
AcDbLine
 10
937.284536788103
 20
175.3262295809215
 30
0.0
 11
937.2845367881103
 21
183.6214698128394
 31
0.0
  0
LINE
  5
8FF3
330
8C50
100
AcDbEntity
  8
Visible (ISO)
100
AcDbLine
 10
900.7845367880939
 20
164.4455055153127
 30
0.0
 11
900.7845367880957
 21
167.3430620899814
 31
0.0
  0
LINE
  5
8FF4
330
8C50
100
AcDbEntity
  8
Visible (ISO)
100
AcDbLine
 10
933.7845367880939
 20
164.4455055153127
 30
0.0
 11
933.7845367880957
 21
167.3430620899814
 31
0.0
  0
ELLIPSE
  5
8FF5
330
8C50
100
AcDbEntity
  8
Visible (ISO)
100
AcDbEllipse
 10
893.4688381840398
 20
170.7833734755775
 30
0.0
 11
9.999999999999992
 21
-0.0000000000086042
 31
0.0
210
0.0
220
0.0
230
1.0
 40
0.945518575599317
 41
6.282044716925696
 42
7.331523448631932
  0
SPLINE
  5
8FF6
330
8C50
100
AcDbEntity
  8
Visible (ISO)
100
AcDbSpline
210
0.0
220
0.0
230
1.0
 70
     8
 71
     3
 72
    10
 73
     6
 74
     0
 42
0.0000000001
 43
0.0000000001
 40
1.37363621508085
 40
1.37363621508085
 40
1.37363621508085
 40
1.37363621508085
 40
1.451726830116821
 40
1.451726830116821
 40
1.456874398993615
 40
1.456874398993615
 40
1.456874398993615
 40
1.456874398993615
 10
897.8607165619534
 20
179.1150834636662
 30
0.0
 10
898.0507162794722
 20
179.0801305466927
 30
0.0
 10
898.2381284817831
 20
179.0375608203319
 30
0.0
 10
898.4346050573488
 20
178.9839486311318
 30
0.0
 10
898.4467727868407
 20
178.9805912308399
 30
0.0
 10
898.4589571324571
 20
178.9771914566115
 30
0.0
  0
SPLINE
  5
8FF7
330
8C50
100
AcDbEntity
  8
Visible (ISO)
100
AcDbSpline
210
0.0
220
0.0
230
1.0
 70
     8
 71
     3
 72
    10
 73
     6
 74
     0
 42
0.0000000001
 43
0.0000000001
 40
2.5541101423666
 40
2.5541101423666
 40
2.5541101423666
 40
2.5541101423666
 40
2.559257711243394
 40
2.559257711243394
 40
2.637348326279365
 40
2.637348326279365
 40
2.637348326279365
 40
2.637348326279365
 10
903.4688316793101
 20
170.7725889851851
 30
0.0
 10
903.4688156425902
 20
170.7560608877063
 30
0.0
 10
903.4687699941454
 20
170.7395661230009
 30
0.0
 10
903.4675604807373
 20
170.473392136764
 30
0.0
 10
903.4596694507756
 20
170.2219625143268
 30
0.0
 10
903.445108550731
 20
169.9696016987989
 30
0.0
  0
LINE
  5
8FF8
330
8C50
100
AcDbEntity
  8
Visible (ISO)
100
AcDbLine
 10
897.8607165619463
 20
170.8198432317483
 30
0.0
 11
897.8607165619534
 21
179.1150834636662
 31
0.0
  0
LINE
  5
8FF9
330
8C50
100
AcDbEntity
  8
Visible (ISO)
100
AcDbLine
 10
903.445108550731
 20
169.9696016987989
 30
0.0
 11
903.4451085507237
 21
161.674361466881
 31
0.0
  0
SPLINE
  5
8FFA
330
8C50
100
AcDbEntity
  8
Visible (ISO)
100
AcDbSpline
210
0.0
220
0.0
230
1.0
 70
     8
 71
     3
 72
    16
 73
    12
 74
     0
 42
0.0000000001
 43
0.0000000001
 40
2.590933521440508
 40
2.590933521440508
 40
2.590933521440508
 40
2.590933521440508
 40
2.753067189137496
 40
2.753067189137496
 40
3.033144636014159
 40
3.033144636014159
 40
3.313222082890823
 40
3.313222082890823
 40
3.593299529767486
 40
3.593299529767486
 40
3.620492428509685
 40
3.620492428509685
 40
3.620492428509685
 40
3.620492428509685
 10
903.4438109332816
 20
162.7942307240098
 30
0.0
 10
903.4066967197698
 20
163.2344586395054
 30
0.0
 10
903.3265842933536
 20
163.6973702690818
 30
0.0
 10
902.971779880357
 20
164.9807011083737
 30
0.0
 10
902.5958879666697
 20
165.8185599351143
 30
0.0
 10
901.6622964770824
 20
167.3474898456641
 30
0.0
 10
901.0444036185047
 20
168.1371386385906
 30
0.0
 10
899.6356453818346
 20
169.5546643003906
 30
0.0
 10
898.8451334489557
 20
170.182980061734
 30
0.0
 10
898.0106583393256
 20
170.7254306992269
 30
0.0
 10
897.9360453506007
 20
170.7729225275386
 30
0.0
 10
897.8607165619463
 20
170.8198432317483
 30
0.0
  0
ELLIPSE
  5
8FFB
330
8C50
100
AcDbEntity
  8
Visible (ISO)
100
AcDbEllipse
 10
917.2845367880883
 20
158.6503923659754
 30
0.0
 11
29.50000000000001
 21
-0.0000000000254519
 31
0.0
210
0.0
220
0.0
230
1.0
 40
0.9455185755993168
 41
5.2720076118106
 42
5.72356667575553
  0
LINE
  5
8FFC
330
8C50
100
AcDbEntity
  8
Visible (ISO)
100
AcDbLine
 10
901.6240770247252
 20
135.0124279759927
 30
0.0
 11
932.9449965514569
 21
135.0124279759927
 31
0.0
  0
ELLIPSE
  5
8FFD
330
8C50
100
AcDbEntity
  8
Visible (ISO)
100
AcDbEllipse
 10
917.2845367880903
 20
158.6503923659763
 30
0.0
 11
29.50000000000007
 21
-0.0000000000225181
 31
0.0
210
0.0
220
0.0
230
1.0
 40
0.9455185755993166
 41
3.70121128501556
 42
4.152770348960487
  0
LINE
  5
8FFE
330
8C50
100
AcDbEntity
  8
Visible (ISO)
100
AcDbLine
 10
892.2845367880938
 20
147.1313751173054
 30
0.0
 11
892.284536788092
 21
143.8431367572873
 31
0.0
  0
LINE
  5
8FFF
330
8C50
100
AcDbEntity
  8
Visible (ISO)
100
AcDbLine
 10
892.2845367880938
 20
147.1313751173054
 30
0.0
 11
892.2845367880938
 21
147.4569432717614
 31
0.0
  0
LINE
  5
9000
330
8C50
100
AcDbEntity
  8
Visible (ISO)
100
AcDbLine
 10
942.2845367880938
 20
147.4569432717614
 30
0.0
 11
942.2845367880938
 21
147.1313751173054
 31
0.0
  0
LINE
  5
9001
330
8C50
100
AcDbEntity
  8
Visible (ISO)
100
AcDbLine
 10
942.2845367880938
 20
147.1313751173054
 30
0.0
 11
942.284536788092
 21
143.8431367572873
 31
0.0
  0
ELLIPSE
  5
9002
330
8C50
100
AcDbEntity
  8
Visible (ISO)
100
AcDbEllipse
 10
917.284536788092
 20
161.9386307259926
 30
0.0
 11
-29.49999999999995
 21
0.0000000000253852
 31
0.0
210
0.0
220
0.0
230
1.0
 40
0.9455185755993168
 41
0.5596186314258862
 42
1.01117769537084
  0
LINE
  5
9003
330
8C50
100
AcDbEntity
  8
Visible (ISO)
100
AcDbLine
 10
932.9449965514607
 20
138.3006663360099
 30
0.0
 11
901.6240770247289
 21
138.3006663360099
 31
0.0
  0
ELLIPSE
  5
9004
330
8C50
100
AcDbEntity
  8
Visible (ISO)
100
AcDbEllipse
 10
917.284536788092
 20
161.9386307259926
 30
0.0
 11
-29.49999999999993
 21
0.0000000000283523
 31
0.0
210
0.0
220
0.0
230
1.0
 40
0.945518575599317
 41
2.130414958220907
 42
2.581974022165836
  0
LINE
  5
9005
330
8C50
100
AcDbEntity
  8
Visible (ISO)
100
AcDbLine
 10
901.6240770247289
 20
138.3006663360099
 30
0.0
 11
901.6240770247252
 21
135.0124279759927
 31
0.0
  0
LINE
  5
9006
330
8C50
100
AcDbEntity
  8
Visible (ISO)
100
AcDbLine
 10
932.9449965514607
 20
138.3006663360099
 30
0.0
 11
932.9449965514569
 21
135.0124279759927
 31
0.0
  0
LINE
  5
9007
330
8C50
100
AcDbEntity
  8
Visible (ISO)
100
AcDbLine
 10
962.2845367880866
 20
139.8597675164617
 30
0.0
 11
962.2845367880866
 21
173.8597675164617
 31
0.0
  0
LINE
  5
9008
330
8C50
100
AcDbEntity
  8
Visible (ISO)
100
AcDbLine
 10
959.434536788088
 20
139.8597675164617
 30
0.0
 11
959.434536788088
 21
173.8597675164617
 31
0.0
  0
LINE
  5
9009
330
8C50
100
AcDbEntity
  8
Visible (ISO)
100
AcDbLine
 10
956.3953853319647
 20
148.2097675164611
 30
0.0
 11
956.3953853319647
 21
165.5097675164613
 31
0.0
  0
LINE
  5
900A
330
8C50
100
AcDbEntity
  8
Visible (ISO)
100
AcDbLine
 10
959.434536788088
 20
173.8597675164617
 30
0.0
 11
962.2845367880866
 21
173.8597675164617
 31
0.0
  0
LINE
  5
900B
330
8C50
100
AcDbEntity
  8
Visible (ISO)
100
AcDbLine
 10
959.434536788088
 20
139.8597675164617
 30
0.0
 11
962.2845367880866
 21
139.8597675164617
 31
0.0
  0
LINE
  5
900C
330
8C50
100
AcDbEntity
  8
Visible (ISO)
100
AcDbLine
 10
956.3953853319647
 20
165.5097675164613
 30
0.0
 11
959.434536788088
 21
173.8597675164617
 31
0.0
  0
LINE
  5
900D
330
8C50
100
AcDbEntity
  8
Visible (ISO)
100
AcDbLine
 10
956.3953853319647
 20
148.2097675164611
 30
0.0
 11
959.434536788088
 21
139.8597675164617
 31
0.0
  0
LINE
  5
900E
330
8C50
100
AcDbEntity
  8
Visible (ISO)
100
AcDbLine
 10
942.2845367880865
 20
165.5097675164613
 30
0.0
 11
956.3953853319647
 21
165.5097675164613
 31
0.0
  0
LINE
  5
900F
330
8C50
100
AcDbEntity
  8
Visible (ISO)
100
AcDbLine
 10
942.2845367880865
 20
148.2097675164611
 30
0.0
 11
956.3953853319647
 21
148.2097675164611
 31
0.0
  0
LINE
  5
9010
330
8C50
100
AcDbEntity
  8
Visible (ISO)
100
AcDbLine
 10
872.2845367880884
 20
139.8597675164617
 30
0.0
 11
872.2845367880884
 21
173.8597675164617
 31
0.0
  0
LINE
  5
9011
330
8C50
100
AcDbEntity
  8
Visible (ISO)
100
AcDbLine
 10
875.1345367880869
 20
139.8597675164617
 30
0.0
 11
875.1345367880869
 21
173.8597675164617
 31
0.0
  0
LINE
  5
9012
330
8C50
100
AcDbEntity
  8
Visible (ISO)
100
AcDbLine
 10
878.1736882442103
 20
148.2097675164611
 30
0.0
 11
878.1736882442103
 21
165.5097675164613
 31
0.0
  0
LINE
  5
9013
330
8C50
100
AcDbEntity
  8
Visible (ISO)
100
AcDbLine
 10
872.2845367880884
 20
173.8597675164617
 30
0.0
 11
875.1345367880869
 21
173.8597675164617
 31
0.0
  0
LINE
  5
9014
330
8C50
100
AcDbEntity
  8
Visible (ISO)
100
AcDbLine
 10
872.2845367880884
 20
139.8597675164617
 30
0.0
 11
875.1345367880869
 21
139.8597675164617
 31
0.0
  0
LINE
  5
9015
330
8C50
100
AcDbEntity
  8
Visible (ISO)
100
AcDbLine
 10
878.1736882442103
 20
148.2097675164611
 30
0.0
 11
875.1345367880869
 21
139.8597675164617
 31
0.0
  0
LINE
  5
9016
330
8C50
100
AcDbEntity
  8
Visible (ISO)
100
AcDbLine
 10
878.1736882442103
 20
165.5097675164613
 30
0.0
 11
875.1345367880869
 21
173.8597675164617
 31
0.0
  0
LINE
  5
9017
330
8C50
100
AcDbEntity
  8
Visible (ISO)
100
AcDbLine
 10
878.1736882442103
 20
165.5097675164613
 30
0.0
 11
892.2845367880865
 21
165.5097675164613
 31
0.0
  0
LINE
  5
9018
330
8C50
100
AcDbEntity
  8
Visible (ISO)
100
AcDbLine
 10
878.1736882442103
 20
148.2097675164611
 30
0.0
 11
892.2845367880865
 21
148.2097675164611
 31
0.0
  0
ELLIPSE
  5
9019
330
8C50
100
AcDbEntity
  8
Visible (ISO)
100
AcDbEllipse
 10
917.2845367880938
 20
164.1199373608558
 30
0.0
 11
29.49999999999996
 21
-0.0000000000225125
 31
0.0
210
0.0
220
0.0
230
1.0
 40
0.9455185755993166
 41
3.70121128501556
 42
4.152770348960486
  0
SPLINE
  5
901A
330
8C50
100
AcDbEntity
  8
Visible (ISO)
100
AcDbSpline
210
0.0
220
0.0
230
1.0
 70
     8
 71
     3
 72
     8
 73
     4
 74
     0
 42
0.0000000001
 43
0.0000000001
 40
-0.1443505504637195
 40
-0.1443505504637195
 40
-0.1443505504637195
 40
-0.1443505504637195
 40
0.0
 40
0.0
 40
0.0
 40
0.0
 10
901.6240770247307
 20
140.4819729708731
 30
0.0
 10
901.7198857987107
 20
140.9057842023028
 30
0.0
 10
901.8165675766152
 20
141.3295679390109
 30
0.0
 10
901.9141106391574
 20
141.7530597009297
 30
0.0
  0
ELLIPSE
  5
901B
330
8C50
100
AcDbEntity
  8
Visible (ISO)
100
AcDbEllipse
 10
917.2845367880938
 20
164.4455055153127
 30
0.0
 11
-28.49999999999996
 21
0.0000000000245401
 31
0.0
210
0.0
220
0.0
230
1.0
 40
0.945518575599317
 41
0.5696213190738595
 42
1.001175007722893
  0
SPLINE
  5
901C
330
8C50
100
AcDbEntity
  8
Visible (ISO)
100
AcDbSpline
210
0.0
220
0.0
230
1.0
 70
     8
 71
     3
 72
     8
 73
     4
 74
     0
 42
0.0000000001
 43
0.0000000001
 40
-0.1443505504637693
 40
-0.1443505504637693
 40
-0.1443505504637693
 40
-0.1443505504637693
 40
0.0
 40
0.0
 40
0.0
 40
0.0
 10
892.2845367880956
 20
149.3126817521677
 30
0.0
 10
892.6179611102991
 20
149.5118230689029
 30
0.0
 10
892.9513638016226
 20
149.7117827847394
 30
0.0
 10
893.2845367880956
 20
149.9124820766135
 30
0.0
  0
LINE
  5
901D
330
8C50
100
AcDbEntity
  8
Visible (ISO)
100
AcDbLine
 10
901.6240770247307
 20
140.4819729708731
 30
0.0
 11
932.9449965514607
 21
140.4819729708731
 31
0.0
  0
SPLINE
  5
901E
330
8C50
100
AcDbEntity
  8
Visible (ISO)
100
AcDbSpline
210
0.0
220
0.0
230
1.0
 70
     8
 71
     3
 72
     8
 73
     4
 74
     0
 42
0.0000000001
 43
0.0000000001
 40
-0.1443505504637693
 40
-0.1443505504637693
 40
-0.1443505504637693
 40
-0.1443505504637693
 40
0.0
 40
0.0
 40
0.0
 40
0.0
 10
932.9449965514607
 20
140.4819729708731
 30
0.0
 10
932.8491877774807
 20
140.9057842023028
 30
0.0
 10
932.7525059995762
 20
141.3295679390109
 30
0.0
 10
932.6549629370358
 20
141.7530597009297
 30
0.0
  0
LINE
  5
901F
330
8C50
100
AcDbEntity
  8
Visible (ISO)
100
AcDbLine
 10
932.6549629370358
 20
141.7530597009297
 30
0.0
 11
901.9141106391574
 21
141.7530597009297
 31
0.0
  0
LINE
  5
9020
330
8C50
100
AcDbEntity
  8
Visible (ISO)
100
AcDbLine
 10
942.2845367880956
 20
149.3126817521677
 30
0.0
 11
942.284536788092
 21
178.9271929695439
 31
0.0
  0
SPLINE
  5
9021
330
8C50
100
AcDbEntity
  8
Visible (ISO)
100
AcDbSpline
210
0.0
220
0.0
230
1.0
 70
     8
 71
     3
 72
     8
 73
     4
 74
     0
 42
0.0000000001
 43
0.0000000001
 40
-0.1443505504637693
 40
-0.1443505504637693
 40
-0.1443505504637693
 40
-0.1443505504637693
 40
0.0
 40
0.0
 40
0.0
 40
0.0
 10
942.284536788092
 20
178.9271929695439
 30
0.0
 10
941.9511124658905
 20
178.9451563352702
 30
0.0
 10
941.617709774565
 20
178.9622872172456
 30
0.0
 10
941.2845367880921
 20
178.978528954012
 30
0.0
  0
LINE
  5
9022
330
8C50
100
AcDbEntity
  8
Visible (ISO)
100
AcDbLine
 10
941.2845367880921
 20
178.978528954012
 30
0.0
 11
941.2845367880956
 21
149.9124820766135
 31
0.0
  0
SPLINE
  5
9023
330
8C50
100
AcDbEntity
  8
Visible (ISO)
100
AcDbSpline
210
0.0
220
0.0
230
1.0
 70
     8
 71
     3
 72
     8
 73
     4
 74
     0
 42
0.0000000001
 43
0.0000000001
 40
-0.1443504730156712
 40
-0.1443504730156712
 40
-0.1443504730156712
 40
-0.1443504730156712
 40
0.0
 40
0.0
 40
0.0
 40
0.0
 10
941.2845367880956
 20
149.9124820766135
 30
0.0
 10
941.6177097745688
 20
149.7117827847394
 30
0.0
 10
941.951112465894
 20
149.511823068902
 30
0.0
 10
942.2845367880956
 20
149.3126817521677
 30
0.0
  0
ELLIPSE
  5
9024
330
8C50
100
AcDbEntity
  8
Visible (ISO)
100
AcDbEllipse
 10
917.2845367880938
 20
164.1199373608558
 30
0.0
 11
29.50000000000004
 21
-0.0000000000254269
 31
0.0
210
0.0
220
0.0
230
1.0
 40
0.9455185755993166
 41
5.272007611810598
 42
5.723566675755519
  0
ELLIPSE
  5
9025
330
8C50
100
AcDbEntity
  8
Visible (ISO)
100
AcDbEllipse
 10
917.2845367880938
 20
164.4455055153127
 30
0.0
 11
-28.49999999999996
 21
0.0000000000273254
 31
0.0
210
0.0
220
0.0
230
1.0
 40
0.945518575599317
 41
2.140417645868858
 42
2.571971334517861
  0
ELLIPSE
  5
9026
330
8C50
100
AcDbEntity
  8
Visible (ISO)
100
AcDbEllipse
 10
917.2845367880938
 20
164.1199373608558
 30
0.0
 11
-29.49999999999993
 21
0.0000000000225125
 31
0.0
210
0.0
220
0.0
230
1.0
 40
0.9455185755993168
 41
3.70121128501556
 42
3.968759741335934
  0
ELLIPSE
  5
9027
330
8C50
100
AcDbEntity
  8
Visible (ISO)
100
AcDbEllipse
 10
917.2845367880938
 20
164.4455055153127
 30
0.0
 11
28.50000000000001
 21
-0.0000000000245803
 31
0.0
210
0.0
220
0.0
230
1.0
 40
0.9455185755993166
 41
0.5696213190738613
 42
0.7929398856632402
  0
ELLIPSE
  5
9028
330
8C50
100
AcDbEntity
  8
Visible (ISO)
100
AcDbEllipse
 10
917.2845367880938
 20
164.1199373608558
 30
0.0
 11
-29.50000000000001
 21
0.0000000000254047
 31
0.0
210
0.0
220
0.0
230
1.0
 40
0.9455185755993168
 41
5.456018219435155
 42
5.723566675755507
  0
SPLINE
  5
9029
330
8C50
100
AcDbEntity
  8
Visible (ISO)
100
AcDbSpline
210
0.0
220
0.0
230
1.0
 70
     8
 71
     3
 72
     8
 73
     4
 74
     0
 42
0.0000000001
 43
0.0000000001
 40
-0.1443505504637195
 40
-0.1443505504637195
 40
-0.1443505504637195
 40
-0.1443505504637195
 40
0.0
 40
0.0
 40
0.0
 40
0.0
 10
892.284536788092
 20
178.9271929695439
 30
0.0
 10
892.6179611102954
 20
178.9451563352702
 30
0.0
 10
892.9513638016208
 20
178.9622872172456
 30
0.0
 10
893.2845367880938
 20
178.978528954012
 30
0.0
  0
ELLIPSE
  5
902A
330
8C50
100
AcDbEntity
  8
Visible (ISO)
100
AcDbEllipse
 10
917.2845367880938
 20
164.4455055153127
 30
0.0
 11
28.49999999999989
 21
-0.000000000027342
 31
0.0
210
0.0
220
0.0
230
1.0
 40
0.9455185755993166
 41
2.348652767928452
 42
2.571971334517872
  0
LINE
  5
902B
330
8C50
100
AcDbEntity
  8
Visible (ISO)
100
AcDbLine
 10
892.284536788092
 20
178.9271929695439
 30
0.0
 11
892.2845367880956
 21
149.3126817521677
 31
0.0
  0
LINE
  5
902C
330
8C50
100
AcDbEntity
  8
Visible (ISO)
100
AcDbLine
 10
893.2845367880956
 20
149.9124820766135
 30
0.0
 11
893.2845367880938
 21
178.978528954012
 31
0.0
  0
LINE
  5
902D
330
8C50
100
AcDbEntity
  8
Visible (ISO)
100
AcDbLine
 10
932.9449965514607
 20
138.6262344904669
 30
0.0
 11
901.6240770247289
 21
138.6262344904669
 31
0.0
  0
ELLIPSE
  5
902E
330
8C50
100
AcDbEntity
  8
Visible (ISO)
100
AcDbEllipse
 10
917.284536788092
 20
162.2641988804496
 30
0.0
 11
-29.49999999999993
 21
0.0000000000283523
 31
0.0
210
0.0
220
0.0
230
1.0
 40
0.945518575599317
 41
2.130414958220907
 42
2.581974022165836
  0
ELLIPSE
  5
902F
330
8C50
100
AcDbEntity
  8
Visible (ISO)
100
AcDbEllipse
 10
917.284536788092
 20
162.2641988804496
 30
0.0
 11
-29.50000000000007
 21
0.0000000000254019
 31
0.0
210
0.0
220
0.0
230
1.0
 40
0.9455185755993166
 41
0.5596186314258987
 42
1.01117769537084
  0
LINE
  5
9030
330
8C50
100
AcDbEntity
  8
Visible (ISO)
100
AcDbLine
 10
942.2845367880956
 20
149.3126817521677
 30
0.0
 11
942.2845367880938
 21
147.4569432717614
 31
0.0
  0
LINE
  5
9031
330
8C50
100
AcDbEntity
  8
Visible (ISO)
100
AcDbLine
 10
892.2845367880956
 20
149.3126817521677
 30
0.0
 11
892.2845367880938
 21
147.4569432717614
 31
0.0
  0
LINE
  5
9032
330
8C50
100
AcDbEntity
  8
Visible (ISO)
100
AcDbLine
 10
901.6240770247307
 20
140.4819729708731
 30
0.0
 11
901.6240770247289
 21
138.6262344904669
 31
0.0
  0
LINE
  5
9033
330
8C50
100
AcDbEntity
  8
Visible (ISO)
100
AcDbLine
 10
932.9449965514607
 20
140.4819729708731
 30
0.0
 11
932.9449965514607
 21
138.6262344904669
 31
0.0
  0
LINE
  5
9034
330
8C50
100
AcDbEntity
  8
Visible (ISO)
100
AcDbLine
 10
641.1239650254846
 20
188.978097694963
 30
0.0
 11
641.1239650254919
 21
197.27333792688
 31
0.0
  0
SPLINE
  5
9035
330
8C50
100
AcDbEntity
  8
Visible (ISO)
100
AcDbSpline
210
0.0
220
0.0
230
1.0
 70
     8
 71
     3
 72
    10
 73
     6
 74
     0
 42
0.0000000001
 43
0.0000000001
 40
3.504578118685906
 40
3.504578118685906
 40
3.504578118685906
 40
3.504578118685906
 40
3.597292359085146
 40
3.597292359085146
 40
3.624485257827343
 40
3.624485257827343
 40
3.624485257827343
 40
3.624485257827343
 10
641.1110339021245
 20
187.7579333007859
 30
0.0
 10
641.0973662400655
 20
188.0802795656106
 30
0.0
 10
641.09740398633
 20
188.3978853584847
 30
0.0
 10
641.1134909519053
 20
188.7961148866513
 30
0.0
 10
641.1181920960483
 20
188.8869039355793
 30
0.0
 10
641.1239650254846
 20
188.978097694963
 30
0.0
  0
LINE
  5
9036
330
8C50
100
AcDbEntity
  8
Visible (ISO)
100
AcDbLine
 10
646.708357014268
 20
188.1278561620136
 30
0.0
 11
646.7083570142654
 21
185.1131159284238
 31
0.0
  0
SPLINE
  5
9037
330
8C50
100
AcDbEntity
  8
Visible (ISO)
100
AcDbSpline
210
0.0
220
0.0
230
1.0
 70
     8
 71
     3
 72
    10
 73
     6
 74
     0
 42
0.0000000001
 43
0.0000000001
 40
2.554399938987141
 40
2.554399938987141
 40
2.554399938987141
 40
2.554399938987141
 40
2.559547507863936
 40
2.559547507863936
 40
2.637638122899906
 40
2.637638122899906
 40
2.637638122899906
 40
2.637638122899906
 10
646.1101164437662
 20
188.5913163235261
 30
0.0
 10
646.1223007893817
 20
188.5814483586916
 30
0.0
 10
646.1344685188745
 20
188.5716208208721
 30
0.0
 10
646.3309450944392
 20
188.4133627620692
 30
0.0
 10
646.5183572967495
 20
188.2685482765443
 30
0.0
 10
646.708357014268
 20
188.1278561620136
 30
0.0
  0
ELLIPSE
  5
9038
330
8C50
100
AcDbEntity
  8
Visible (ISO)
100
AcDbEllipse
 10
651.1002353921822
 20
196.7851343045592
 30
0.0
 11
-10.0
 21
0.0000000000086126
 31
0.0
210
0.0
220
0.0
230
1.0
 40
0.9455185755993168
 41
0.0689043165243323
 42
1.04833814145232
  0
SPLINE
  5
9039
330
8C50
100
AcDbEntity
  8
Visible (ISO)
100
AcDbSpline
210
0.0
220
0.0
230
1.0
 70
     8
 71
     3
 72
    10
 73
     6
 74
     0
 42
0.0000000001
 43
0.0000000001
 40
1.373926011701396
 40
1.373926011701396
 40
1.373926011701396
 40
1.373926011701396
 40
1.452016626737366
 40
1.452016626737366
 40
1.45716419561416
 40
1.45716419561416
 40
1.45716419561416
 40
1.45716419561416
 10
621.7001447993343
 20
201.7797242760541
 30
0.0
 10
621.8755836168074
 20
201.7209251738356
 30
0.0
 10
622.0551047891563
 20
201.6654324165053
 30
0.0
 10
622.2503718513133
 20
201.6098394238731
 30
0.0
 10
622.2624939323605
 20
201.6064072657507
 30
0.0
 10
622.2746622412568
 20
201.6029812284084
 30
0.0
  0
LINE
  5
903A
330
8C50
100
AcDbEntity
  8
Visible (ISO)
100
AcDbLine
 10
621.7001447993271
 20
193.4844840441362
 30
0.0
 11
621.7001447993343
 21
201.7797242760541
 31
0.0
  0
SPLINE
  5
903B
330
8C50
100
AcDbEntity
  8
Visible (ISO)
100
AcDbSpline
210
0.0
220
0.0
230
1.0
 70
     8
 71
     3
 72
    18
 73
    14
 74
     0
 42
0.0000000001
 43
0.0000000001
 40
2.449789672836302
 40
2.449789672836302
 40
2.449789672836302
 40
2.449789672836302
 40
2.4769825715785
 40
2.4769825715785
 40
2.757060018455164
 40
2.757060018455164
 40
3.037137465331827
 40
3.037137465331827
 40
3.31721491220849
 40
3.31721491220849
 40
3.597292359085154
 40
3.597292359085154
 40
3.624485257827352
 40
3.624485257827352
 40
3.624485257827352
 40
3.624485257827352
 10
632.8689287768776
 20
193.4844840441362
 30
0.0
 10
632.7993729176601
 20
193.4281090929832
 30
0.0
 10
632.729461073079
 20
193.3729182657259
 30
0.0
 10
631.936209926489
 20
192.7629557123388
 30
0.0
 10
631.0701069107286
 20
192.2584344252125
 30
0.0
 10
629.2119130499546
 20
191.5769432883869
 30
0.0
 10
628.218128277691
 20
191.4028874998718
 30
0.0
 10
626.3509452985133
 20
191.4028874998718
 30
0.0
 10
625.3571605262497
 20
191.5769432883869
 30
0.0
 10
623.4989666654759
 20
192.2584344252125
 30
0.0
 10
622.6328636497156
 20
192.7629557123388
 30
0.0
 10
621.839612503126
 20
193.3729182657259
 30
0.0
 10
621.7697006585447
 20
193.4281090929832
 30
0.0
 10
621.7001447993271
 20
193.4844840441362
 30
0.0
  0
LINE
  5
903C
330
8C50
100
AcDbEntity
  8
Visible (ISO)
100
AcDbLine
 10
632.8689287768849
 20
201.7797242760541
 30
0.0
 11
632.8689287768776
 21
193.4844840441362
 31
0.0
  0
SPLINE
  5
903D
330
8C50
100
AcDbEntity
  8
Visible (ISO)
100
AcDbSpline
210
0.0
220
0.0
230
1.0
 70
     8
 71
     3
 72
    10
 73
     6
 74
     0
 42
0.0000000001
 43
0.0000000001
 40
2.554399938987145
 40
2.554399938987145
 40
2.554399938987145
 40
2.554399938987145
 40
2.559547507863938
 40
2.559547507863938
 40
2.637638122899908
 40
2.637638122899908
 40
2.637638122899908
 40
2.637638122899908
 10
632.2944113349628
 20
201.6029812284084
 30
0.0
 10
632.3065796438591
 20
201.6064072657507
 30
0.0
 10
632.3187017249061
 20
201.6098394238731
 30
0.0
 10
632.513968787063
 20
201.6654324165053
 30
0.0
 10
632.6934899594119
 20
201.7209251738356
 30
0.0
 10
632.8689287768849
 20
201.7797242760541
 30
0.0
  0
ELLIPSE
  5
903E
330
8C50
100
AcDbEntity
  8
Visible (ISO)
100
AcDbEllipse
 10
627.284536788109
 20
209.7860147190501
 30
0.0
 11
9.999999999999998
 21
-0.0000000000076467
 31
0.0
210
0.0
220
0.0
230
1.0
 40
0.9455185755993166
 41
4.187649614532394
 42
5.237128346238629
  0
SPLINE
  5
903F
330
8C50
100
AcDbEntity
  8
Visible (ISO)
100
AcDbSpline
210
0.0
220
0.0
230
1.0
 70
     8
 71
     3
 72
    10
 73
     6
 74
     0
 42
0.0000000001
 43
0.0000000001
 40
1.373926011701395
 40
1.373926011701395
 40
1.373926011701395
 40
1.373926011701395
 40
1.452016626737366
 40
1.452016626737366
 40
1.457164195614159
 40
1.457164195614159
 40
1.457164195614159
 40
1.457164195614159
 10
607.8607165619541
 20
188.1278561620136
 30
0.0
 10
608.0507162794726
 20
188.2685482765443
 30
0.0
 10
608.2381284817828
 20
188.4133627620692
 30
0.0
 10
608.4346050573477
 20
188.5716208208721
 30
0.0
 10
608.4467727868406
 20
188.5814483586916
 30
0.0
 10
608.458957132456
 20
188.5913163235261
 30
0.0
  0
LINE
  5
9040
330
8C50
100
AcDbEntity
  8
Visible (ISO)
100
AcDbLine
 10
607.8607165619516
 20
185.1131159284238
 30
0.0
 11
607.8607165619541
 21
188.1278561620136
 31
0.0
  0
SPLINE
  5
9041
330
8C50
100
AcDbEntity
  8
Visible (ISO)
100
AcDbSpline
210
0.0
220
0.0
230
1.0
 70
     8
 71
     3
 72
    10
 73
     6
 74
     0
 42
0.0000000001
 43
0.0000000001
 40
2.449789672836298
 40
2.449789672836298
 40
2.449789672836298
 40
2.449789672836298
 40
2.476982571578495
 40
2.476982571578495
 40
2.569696811977736
 40
2.569696811977736
 40
2.569696811977736
 40
2.569696811977736
 10
613.4451085507213
 20
188.978097694963
 30
0.0
 10
613.4508814801574
 20
188.8869039355793
 30
0.0
 10
613.4555826243005
 20
188.7961148866513
 30
0.0
 10
613.4716695898759
 20
188.3978853584847
 30
0.0
 10
613.4717073361403
 20
188.0802795656106
 30
0.0
 10
613.4580396740813
 20
187.7579333007859
 30
0.0
  0
LINE
  5
9042
330
8C50
100
AcDbEntity
  8
Visible (ISO)
100
AcDbLine
 10
613.4451085507284
 20
197.27333792688
 30
0.0
 11
613.4451085507213
 21
188.978097694963
 31
0.0
  0
ELLIPSE
  5
9043
330
8C50
100
AcDbEntity
  8
Visible (ISO)
100
AcDbEllipse
 10
603.4688381840382
 20
196.7851343045592
 30
0.0
 11
10.00000000000002
 21
-0.0000000000086063
 31
0.0
210
0.0
220
0.0
230
1.0
 40
0.9455185755993168
 41
5.234847165729095
 42
6.214280990657075
  0
ELLIPSE
  5
9044
330
8C50
100
AcDbEntity
  8
Visible (ISO)
100
AcDbEllipse
 10
627.2845367881115
 20
183.6214698128394
 30
0.0
 11
19.99999999999992
 21
-0.0000000000172272
 31
0.0
210
0.0
220
0.0
230
1.0
 40
0.945518575599317
 41
0.0543900204256334
 42
0.2406174873828109
  0
ELLIPSE
  5
9045
330
8C50
100
AcDbEntity
  8
Visible (ISO)
100
AcDbEllipse
 10
627.2845367881115
 20
183.6214698128394
 30
0.0
 11
-19.99999999999996
 21
0.000000000017226
 31
0.0
210
0.0
220
0.0
230
1.0
 40
0.945518575599317
 41
6.042567819798597
 42
6.228795286755774
  0
ELLIPSE
  5
9046
330
8C50
100
AcDbEntity
  8
Visible (ISO)
100
AcDbEllipse
 10
627.2845367881115
 20
183.6214698128394
 30
0.0
 11
19.99999999999991
 21
-0.000000000019168
 31
0.0
210
0.0
220
0.0
230
1.0
 40
0.9455185755993168
 41
1.853777615012294
 42
2.335012589776097
  0
ELLIPSE
  5
9047
330
8C50
100
AcDbEntity
  8
Visible (ISO)
100
AcDbEllipse
 10
627.2845367881042
 20
175.3262295809224
 30
0.0
 11
19.99999999999996
 21
-0.000000000019168
 31
0.0
210
0.0
220
0.0
230
1.0
 40
0.9455185755993172
 41
1.853777615012299
 42
2.3350125897761
  0
ELLIPSE
  5
9048
330
8C50
100
AcDbEntity
  8
Visible (ISO)
100
AcDbEllipse
 10
627.2845367881037
 20
174.668345565268
 30
0.0
 11
16.50000000000001
 21
-0.0000000000158248
 31
0.0
210
0.0
220
0.0
230
1.0
 40
0.9455185755993166
 41
0.9954745998611711
 42
2.146118053730655
  0
ELLIPSE
  5
9049
330
8C50
100
AcDbEntity
  8
Visible (ISO)
100
AcDbEllipse
 10
627.2845367881044
 20
175.3262295809224
 30
0.0
 11
19.99999999999992
 21
-0.0000000000172341
 31
0.0
210
0.0
220
0.0
230
1.0
 40
0.945518575599317
 41
0.8065800638156073
 42
1.28781503857941
  0
ELLIPSE
  5
904A
330
8C50
100
AcDbEntity
  8
Visible (ISO)
100
AcDbEllipse
 10
627.2845367881115
 20
183.6214698128394
 30
0.0
 11
19.99999999999998
 21
-0.0000000000172314
 31
0.0
210
0.0
220
0.0
230
1.0
 40
0.9455185755993168
 41
0.8065800638156037
 42
1.287815038579405
  0
ELLIPSE
  5
904B
330
8C50
100
AcDbEntity
  8
Visible (ISO)
100
AcDbEllipse
 10
642.3900456157253
 20
141.6291249744406
 30
0.0
 11
-4.25
 21
0.0
 31
0.0
210
0.0
220
0.0
230
1.0
 40
0.9455185755993168
 41
3.141592653589597
 42
6.283185307179389
  0
ELLIPSE
  5
904C
330
8C50
100
AcDbEntity
  8
Visible (ISO)
100
AcDbEllipse
 10
642.3900456157236
 20
139.5780456013605
 30
0.0
 11
4.25
 21
0.0
 31
0.0
210
0.0
220
0.0
230
1.0
 40
0.9455185755993168
 41
0.0
 42
6.283185307179586
  0
LINE
  5
904D
330
8C50
100
AcDbEntity
  8
Visible (ISO)
100
AcDbLine
 10
646.6400456157254
 20
141.6291249744406
 30
0.0
 11
646.6400456157235
 21
139.5780456013605
 31
0.0
  0
LINE
  5
904E
330
8C50
100
AcDbEntity
  8
Visible (ISO)
100
AcDbLine
 10
638.1400456157254
 20
141.6291249744406
 30
0.0
 11
638.1400456157235
 21
139.5780456013605
 31
0.0
  0
ELLIPSE
  5
904F
330
8C50
100
AcDbEntity
  8
Visible (ISO)
100
AcDbEllipse
 10
612.179027960458
 20
141.6291249744406
 30
0.0
 11
-4.25
 21
0.0000000000000021
 31
0.0
210
0.0
220
0.0
230
1.0
 40
0.9455185755993168
 41
3.141592653589597
 42
6.283185307179389
  0
ELLIPSE
  5
9050
330
8C50
100
AcDbEntity
  8
Visible (ISO)
100
AcDbEllipse
 10
612.1790279604562
 20
139.5780456013605
 30
0.0
 11
-4.25
 21
0.0
 31
0.0
210
0.0
220
0.0
230
1.0
 40
0.9455185755993168
 41
0.0
 42
6.283185307179586
  0
LINE
  5
9051
330
8C50
100
AcDbEntity
  8
Visible (ISO)
100
AcDbLine
 10
607.9290279604562
 20
139.5780456013605
 30
0.0
 11
607.929027960458
 21
141.6291249744406
 31
0.0
  0
LINE
  5
9052
330
8C50
100
AcDbEntity
  8
Visible (ISO)
100
AcDbLine
 10
616.4290279604561
 20
139.5780456013605
 30
0.0
 11
616.429027960458
 21
141.6291249744406
 31
0.0
  0
LINE
  5
9053
330
8C50
100
AcDbEntity
  8
Visible (ISO)
100
AcDbLine
 10
602.2845367880915
 20
143.8431367572873
 30
0.0
 11
602.2845367880912
 21
146.6423064558646
 31
0.0
  0
ELLIPSE
  5
9054
330
8C50
100
AcDbEntity
  8
Visible (ISO)
100
AcDbEllipse
 10
627.2845367880899
 20
158.6503923659754
 30
0.0
 11
-29.50000000000001
 21
0.0000000000253686
 31
0.0
210
0.0
220
0.0
230
1.0
 40
0.9455185755993168
 41
0.559618631425888
 42
1.011177695370834
  0
LINE
  5
9055
330
8C50
100
AcDbEntity
  8
Visible (ISO)
100
AcDbLine
 10
642.9449965514582
 20
135.0124279759936
 30
0.0
 11
611.6240770247265
 21
135.0124279759936
 31
0.0
  0
ELLIPSE
  5
9056
330
8C50
100
AcDbEntity
  8
Visible (ISO)
100
AcDbEllipse
 10
627.2845367880899
 20
158.6503923659763
 30
0.0
 11
-29.50000000000006
 21
0.0000000000282913
 31
0.0
210
0.0
220
0.0
230
1.0
 40
0.9455185755993168
 41
2.130414958220896
 42
2.58197402216585
  0
LINE
  5
9057
330
8C50
100
AcDbEntity
  8
Visible (ISO)
100
AcDbLine
 10
652.2845367880912
 20
146.6423064558646
 30
0.0
 11
652.2845367880915
 21
143.8431367572873
 31
0.0
  0
LINE
  5
9058
330
8C50
100
AcDbEntity
  8
Visible (ISO)
100
AcDbLine
 10
652.2845367880885
 20
173.4576479746635
 30
0.0
 11
652.284536788089
 21
168.105578121969
 31
0.0
  0
ELLIPSE
  5
9059
330
8C50
100
AcDbEntity
  8
Visible (ISO)
100
AcDbEllipse
 10
627.2845367880899
 20
158.6503923659754
 30
0.0
 11
29.50000000000007
 21
-0.0000000000254019
 31
0.0
210
0.0
220
0.0
230
1.0
 40
0.9455185755993166
 41
0.5596186314258862
 42
1.011177695370832
  0
LINE
  5
905A
330
8C50
100
AcDbEntity
  8
Visible (ISO)
100
AcDbLine
 10
611.6240770247217
 20
182.288356755959
 30
0.0
 11
642.9449965514533
 21
182.288356755959
 31
0.0
  0
ELLIPSE
  5
905B
330
8C50
100
AcDbEntity
  8
Visible (ISO)
100
AcDbEllipse
 10
627.2845367880899
 20
158.6503923659754
 30
0.0
 11
29.50000000000006
 21
-0.0000000000282913
 31
0.0
210
0.0
220
0.0
230
1.0
 40
0.9455185755993168
 41
2.130414958220896
 42
2.58197402216585
  0
LINE
  5
905C
330
8C50
100
AcDbEntity
  8
Visible (ISO)
100
AcDbLine
 10
602.284536788089
 20
168.105578121969
 30
0.0
 11
602.2845367880885
 21
173.4576479746635
 31
0.0
  0
LINE
  5
905D
330
8C50
100
AcDbEntity
  8
Visible (ISO)
100
AcDbLine
 10
652.2845367880912
 20
176.7458863346807
 30
0.0
 11
652.2845367880885
 21
173.4576479746635
 31
0.0
  0
LINE
  5
905E
330
8C50
100
AcDbEntity
  8
Visible (ISO)
100
AcDbLine
 10
602.2845367880912
 20
176.7458863346807
 30
0.0
 11
602.2845367880885
 21
173.4576479746635
 31
0.0
  0
LINE
  5
905F
330
8C50
100
AcDbEntity
  8
Visible (ISO)
100
AcDbLine
 10
642.9449965514562
 20
185.5765951159762
 30
0.0
 11
611.6240770247245
 21
185.5765951159762
 31
0.0
  0
ELLIPSE
  5
9060
330
8C50
100
AcDbEntity
  8
Visible (ISO)
100
AcDbEllipse
 10
627.2845367880928
 20
161.9386307259926
 30
0.0
 11
-29.49999999999996
 21
0.0000000000225125
 31
0.0
210
0.0
220
0.0
230
1.0
 40
0.9455185755993166
 41
3.70121128501556
 42
4.152770348960515
  0
ELLIPSE
  5
9061
330
8C50
100
AcDbEntity
  8
Visible (ISO)
100
AcDbEllipse
 10
627.2845367880927
 20
161.9386307259926
 30
0.0
 11
-29.49999999999996
 21
0.0000000000254602
 31
0.0
210
0.0
220
0.0
230
1.0
 40
0.9455185755993166
 41
5.272007611810572
 42
5.723566675755509
  0
LINE
  5
9062
330
8C50
100
AcDbEntity
  8
Visible (ISO)
100
AcDbLine
 10
642.9449965514562
 20
185.5765951159762
 30
0.0
 11
642.9449965514533
 21
182.288356755959
 31
0.0
  0
LINE
  5
9063
330
8C50
100
AcDbEntity
  8
Visible (ISO)
100
AcDbLine
 10
611.6240770247245
 20
185.5765951159762
 30
0.0
 11
611.6240770247217
 21
182.288356755959
 31
0.0
  0
ELLIPSE
  5
9064
330
8C50
100
AcDbEntity
  8
Visible (ISO)
100
AcDbEllipse
 10
642.2845367880881
 20
177.5607638779627
 30
0.0
 11
9.999999999999975
 21
-0.000000000007646
 31
0.0
210
0.0
220
0.0
230
1.0
 40
0.9455185755993165
 41
4.068887871592226
 42
4.712388980385519
  0
ELLIPSE
  5
9065
330
8C50
100
AcDbEntity
  8
Visible (ISO)
100
AcDbEllipse
 10
642.2845367880939
 20
184.4630494798373
 30
0.0
 11
-0.0000000000071805
 21
-18.91037151198634
 31
0.0
210
0.0
220
0.0
230
1.0
 40
0.5288103405933353
 41
5.639684198385197
 42
6.283185307178147
  0
ELLIPSE
  5
9066
330
8C50
100
AcDbEntity
  8
Visible (ISO)
100
AcDbEllipse
 10
612.2845367880881
 20
177.5607638779627
 30
0.0
 11
9.999999999999989
 21
0.0000000000000021
 31
0.0
210
0.0
220
0.0
230
1.0
 40
0.945518575599317
 41
4.712388980384885
 42
5.3558900891781
  0
ELLIPSE
  5
9067
330
8C50
100
AcDbEntity
  8
Visible (ISO)
100
AcDbEllipse
 10
612.2845367880939
 20
184.4630494798373
 30
0.0
 11
-0.0000000000071805
 21
-18.91037151198634
 31
0.0
210
0.0
220
0.0
230
1.0
 40
0.5288103405933353
 41
0.0
 42
0.6435011087921741
  0
ELLIPSE
  5
9068
330
8C50
100
AcDbEntity
  8
Visible (ISO)
100
AcDbEllipse
 10
642.3900456157219
 20
175.6716597575111
 30
0.0
 11
-4.25
 21
0.0
 31
0.0
210
0.0
220
0.0
230
1.0
 40
0.9455185755993168
 41
3.141592653589597
 42
6.283185307179389
  0
ELLIPSE
  5
9069
330
8C50
100
AcDbEntity
  8
Visible (ISO)
100
AcDbEllipse
 10
612.1790279604545
 20
175.6716597575111
 30
0.0
 11
-4.25
 21
0.0
 31
0.0
210
0.0
220
0.0
230
1.0
 40
0.9455185755993168
 41
3.141592653589597
 42
6.283185307179389
  0
ELLIPSE
  5
906A
330
8C50
100
AcDbEntity
  8
Visible (ISO)
100
AcDbEllipse
 10
612.1790279604527
 20
173.6205803844311
 30
0.0
 11
4.25
 21
0.0
 31
0.0
210
0.0
220
0.0
230
1.0
 40
0.9455185755993168
 41
0.0
 42
6.283185307179586
  0
ELLIPSE
  5
906B
330
8C50
100
AcDbEntity
  8
Visible (ISO)
100
AcDbEllipse
 10
642.3900456157201
 20
173.6205803844311
 30
0.0
 11
-4.25
 21
0.0
 31
0.0
210
0.0
220
0.0
230
1.0
 40
0.9455185755993168
 41
0.0
 42
6.283185307179586
  0
LINE
  5
906C
330
8C50
100
AcDbEntity
  8
Visible (ISO)
100
AcDbLine
 10
616.4290279604546
 20
175.6716597575111
 30
0.0
 11
616.4290279604528
 21
173.6205803844311
 31
0.0
  0
LINE
  5
906D
330
8C50
100
AcDbEntity
  8
Visible (ISO)
100
AcDbLine
 10
607.9290279604546
 20
175.6716597575111
 30
0.0
 11
607.9290279604528
 21
173.6205803844311
 31
0.0
  0
LINE
  5
906E
330
8C50
100
AcDbEntity
  8
Visible (ISO)
100
AcDbLine
 10
638.1400456157201
 20
173.6205803844311
 30
0.0
 11
638.1400456157219
 21
175.6716597575111
 31
0.0
  0
LINE
  5
906F
330
8C50
100
AcDbEntity
  8
Visible (ISO)
100
AcDbLine
 10
646.6400456157201
 20
173.6205803844311
 30
0.0
 11
646.6400456157219
 21
175.6716597575111
 31
0.0
  0
LINE
  5
9070
330
8C50
100
AcDbEntity
  8
Visible (ISO)
100
AcDbLine
 10
652.284536788089
 20
168.105578121969
 30
0.0
 11
642.2845367880889
 21
168.105578121969
 31
0.0
  0
LINE
  5
9071
330
8C50
100
AcDbEntity
  8
Visible (ISO)
100
AcDbLine
 10
602.284536788089
 20
168.105578121969
 30
0.0
 11
612.284536788089
 21
168.105578121969
 31
0.0
  0
ELLIPSE
  5
9072
330
8C50
100
AcDbEntity
  8
Visible (ISO)
100
AcDbEllipse
 10
627.2845367880887
 20
158.6503923659772
 30
0.0
 11
14.99999999999795
 21
-0.0000000000143788
 31
0.0
210
0.0
220
0.0
230
1.0
 40
0.945518575599317
 41
2.13190314302628
 42
2.214297435589188
  0
ELLIPSE
  5
9073
330
8C50
100
AcDbEntity
  8
Visible (ISO)
100
AcDbEllipse
 10
627.2845367880911
 20
158.6503923659772
 30
0.0
 11
-14.99999999999795
 21
0.00000000001147
 31
0.0
210
0.0
220
0.0
230
1.0
 40
0.9455185755993166
 41
4.068887871592219
 42
4.151282164155112
  0
LINE
  5
9074
330
8C50
100
AcDbEntity
  8
Visible (ISO)
100
AcDbLine
 10
652.2845367880867
 20
165.5526779678509
 30
0.0
 11
642.2845367880868
 21
165.5526779678509
 31
0.0
  0
LINE
  5
9075
330
8C50
100
AcDbEntity
  8
Visible (ISO)
100
AcDbLine
 10
652.284536788089
 20
168.105578121969
 30
0.0
 11
652.2845367880867
 21
165.5526779678509
 31
0.0
  0
ELLIPSE
  5
9076
330
8C50
100
AcDbEntity
  8
Visible (ISO)
100
AcDbEllipse
 10
627.2845367880797
 20
146.6423064558646
 30
0.0
 11
-0.0000000000107719
 21
-28.3655572679795
 31
0.0
210
0.0
220
0.0
230
1.0
 40
0.5288103405933354
 41
3.702699469819018
 42
3.78509376238197
  0
LINE
  5
9077
330
8C50
100
AcDbEntity
  8
Visible (ISO)
100
AcDbLine
 10
602.2845367880867
 20
165.5526779678509
 30
0.0
 11
602.284536788089
 21
168.105578121969
 31
0.0
  0
LINE
  5
9078
330
8C50
100
AcDbEntity
  8
Visible (ISO)
100
AcDbLine
 10
612.2845367880868
 20
165.5526779678509
 30
0.0
 11
602.2845367880867
 21
165.5526779678509
 31
0.0
  0
ELLIPSE
  5
9079
330
8C50
100
AcDbEntity
  8
Visible (ISO)
100
AcDbEllipse
 10
627.2845367880797
 20
146.6423064558646
 30
0.0
 11
-0.0000000000107697
 21
-28.3655572679795
 31
0.0
210
0.0
220
0.0
230
1.0
 40
0.5288103405933354
 41
2.498091544795403
 42
2.580485837358214
  0
LINE
  5
907A
330
8C50
100
AcDbEntity
  8
Visible (ISO)
100
AcDbLine
 10
619.3026823669657
 20
170.6584782760871
 30
0.0
 11
635.2663912092118
 21
170.6584782760871
 31
0.0
  0
LINE
  5
907B
330
8C50
100
AcDbEntity
  8
Visible (ISO)
100
AcDbLine
 10
602.2845367880867
 20
165.5526779678509
 30
0.0
 11
602.2845367880848
 21
160.5658654879159
 31
0.0
  0
LINE
  5
907C
330
8C50
100
AcDbEntity
  8
Visible (ISO)
100
AcDbLine
 10
620.3845367880849
 20
160.5658654879159
 30
0.0
 11
602.2845367880848
 21
160.5658654879159
 31
0.0
  0
LINE
  5
907D
330
8C50
100
AcDbEntity
  8
Visible (ISO)
100
AcDbLine
 10
652.2845367880848
 20
160.5658654879159
 30
0.0
 11
634.184536788085
 21
160.5658654879159
 31
0.0
  0
LINE
  5
907E
330
8C50
100
AcDbEntity
  8
Visible (ISO)
100
AcDbLine
 10
652.2845367880848
 20
160.5658654879159
 30
0.0
 11
652.2845367880867
 21
165.5526779678509
 31
0.0
  0
LINE
  5
907F
330
8C50
100
AcDbEntity
  8
Visible (ISO)
100
AcDbLine
 10
652.2845367880862
 20
146.6423064558646
 30
0.0
 11
652.2845367880848
 21
160.5658654879159
 31
0.0
  0
LINE
  5
9080
330
8C50
100
AcDbEntity
  8
Visible (ISO)
100
AcDbLine
 10
602.2845367880848
 20
160.5658654879159
 30
0.0
 11
602.2845367880862
 21
146.6423064558646
 31
0.0
  0
LINE
  5
9081
330
8C50
100
AcDbEntity
  8
Visible (ISO)
100
AcDbLine
 10
634.1845367880863
 20
146.6423064558646
 30
0.0
 11
652.2845367880862
 21
146.6423064558646
 31
0.0
  0
LINE
  5
9082
330
8C50
100
AcDbEntity
  8
Visible (ISO)
100
AcDbLine
 10
602.2845367880862
 20
146.6423064558646
 30
0.0
 11
620.3845367880863
 21
146.6423064558646
 31
0.0
  0
LINE
  5
9083
330
8C50
100
AcDbEntity
  8
Visible (ISO)
100
AcDbLine
 10
620.3845367880849
 20
160.5658654879159
 30
0.0
 11
622.9544097691638
 21
163.4641712419359
 31
0.0
  0
ELLIPSE
  5
9084
330
8C50
100
AcDbEntity
  8
Visible (ISO)
100
AcDbEllipse
 10
627.2845367880854
 20
161.8363304696511
 30
0.0
 11
5.0
 21
-0.0000000000000006
 31
0.0
210
0.0
220
0.0
230
1.0
 40
0.6511363089143129
 41
0.5235987755984289
 42
2.617993877991613
  0
LINE
  5
9085
330
8C50
100
AcDbEntity
  8
Visible (ISO)
100
AcDbLine
 10
631.6146638070081
 20
163.4641712419359
 30
0.0
 11
634.184536788085
 21
160.5658654879159
 31
0.0
  0
LINE
  5
9086
330
8C50
100
AcDbEntity
  8
Visible (ISO)
100
AcDbLine
 10
634.1845367880863
 20
146.6423064558646
 30
0.0
 11
631.6146638070099
 21
146.6423064558646
 31
0.0
  0
LINE
  5
9087
330
8C50
100
AcDbEntity
  8
Visible (ISO)
100
AcDbLine
 10
631.6146638070099
 20
146.6423064558646
 30
0.0
 11
622.9544097691656
 21
146.6423064558646
 31
0.0
  0
LINE
  5
9088
330
8C50
100
AcDbEntity
  8
Visible (ISO)
100
AcDbLine
 10
622.9544097691655
 20
146.6423064558646
 30
0.0
 11
620.3845367880863
 21
146.6423064558646
 31
0.0
  0
LINE
  5
9089
330
8C50
100
AcDbEntity
  8
Visible (ISO)
100
AcDbLine
 10
634.184536788085
 20
160.5658654879159
 30
0.0
 11
634.1845367880863
 21
146.6423064558646
 31
0.0
  0
LINE
  5
908A
330
8C50
100
AcDbEntity
  8
Visible (ISO)
100
AcDbLine
 10
620.3845367880863
 20
146.6423064558646
 30
0.0
 11
620.3845367880849
 21
160.5658654879159
 31
0.0
  0
LINE
  5
908B
330
8C50
100
AcDbEntity
  8
Visible (ISO)
100
AcDbLine
 10
582.2845367880885
 20
173.8597675164617
 30
0.0
 11
582.2845367880885
 21
139.8597675164617
 31
0.0
  0
LINE
  5
908C
330
8C50
100
AcDbEntity
  8
Visible (ISO)
100
AcDbLine
 10
585.1345367880884
 20
173.8597675164617
 30
0.0
 11
585.1345367880884
 21
139.8597675164617
 31
0.0
  0
LINE
  5
908D
330
8C50
100
AcDbEntity
  8
Visible (ISO)
100
AcDbLine
 10
588.1736882442111
 20
165.5097675164622
 30
0.0
 11
588.1736882442111
 21
148.2097675164611
 31
0.0
  0
LINE
  5
908E
330
8C50
100
AcDbEntity
  8
Visible (ISO)
100
AcDbLine
 10
585.1345367880884
 20
139.8597675164617
 30
0.0
 11
582.2845367880885
 21
139.8597675164617
 31
0.0
  0
LINE
  5
908F
330
8C50
100
AcDbEntity
  8
Visible (ISO)
100
AcDbLine
 10
585.1345367880884
 20
173.8597675164617
 30
0.0
 11
582.2845367880885
 21
173.8597675164617
 31
0.0
  0
LINE
  5
9090
330
8C50
100
AcDbEntity
  8
Visible (ISO)
100
AcDbLine
 10
588.1736882442111
 20
148.2097675164611
 30
0.0
 11
585.1345367880884
 21
139.8597675164617
 31
0.0
  0
LINE
  5
9091
330
8C50
100
AcDbEntity
  8
Visible (ISO)
100
AcDbLine
 10
588.1736882442111
 20
165.5097675164613
 30
0.0
 11
585.1345367880884
 21
173.8597675164617
 31
0.0
  0
LINE
  5
9092
330
8C50
100
AcDbEntity
  8
Visible (ISO)
100
AcDbLine
 10
602.2845367880883
 20
148.2097675164611
 30
0.0
 11
588.1736882442111
 21
148.2097675164611
 31
0.0
  0
LINE
  5
9093
330
8C50
100
AcDbEntity
  8
Visible (ISO)
100
AcDbLine
 10
602.2845367880883
 20
165.5097675164613
 30
0.0
 11
588.1736882442111
 21
165.5097675164613
 31
0.0
  0
LINE
  5
9094
330
8C50
100
AcDbEntity
  8
Visible (ISO)
100
AcDbLine
 10
672.2845367880884
 20
173.8597675164617
 30
0.0
 11
672.2845367880884
 21
139.8597675164617
 31
0.0
  0
LINE
  5
9095
330
8C50
100
AcDbEntity
  8
Visible (ISO)
100
AcDbLine
 10
669.4345367880884
 20
173.8597675164617
 30
0.0
 11
669.4345367880884
 21
139.8597675164617
 31
0.0
  0
LINE
  5
9096
330
8C50
100
AcDbEntity
  8
Visible (ISO)
100
AcDbLine
 10
666.3953853319656
 20
165.5097675164622
 30
0.0
 11
666.3953853319656
 21
148.2097675164611
 31
0.0
  0
LINE
  5
9097
330
8C50
100
AcDbEntity
  8
Visible (ISO)
100
AcDbLine
 10
672.2845367880884
 20
139.8597675164617
 30
0.0
 11
669.4345367880884
 21
139.8597675164617
 31
0.0
  0
LINE
  5
9098
330
8C50
100
AcDbEntity
  8
Visible (ISO)
100
AcDbLine
 10
672.2845367880884
 20
173.8597675164617
 30
0.0
 11
669.4345367880884
 21
173.8597675164617
 31
0.0
  0
LINE
  5
9099
330
8C50
100
AcDbEntity
  8
Visible (ISO)
100
AcDbLine
 10
666.3953853319656
 20
165.5097675164613
 30
0.0
 11
669.4345367880884
 21
173.8597675164617
 31
0.0
  0
LINE
  5
909A
330
8C50
100
AcDbEntity
  8
Visible (ISO)
100
AcDbLine
 10
666.3953853319656
 20
148.2097675164611
 30
0.0
 11
669.4345367880884
 21
139.8597675164617
 31
0.0
  0
LINE
  5
909B
330
8C50
100
AcDbEntity
  8
Visible (ISO)
100
AcDbLine
 10
666.3953853319656
 20
148.2097675164611
 30
0.0
 11
652.2845367880883
 21
148.2097675164611
 31
0.0
  0
LINE
  5
909C
330
8C50
100
AcDbEntity
  8
Visible (ISO)
100
AcDbLine
 10
666.3953853319656
 20
165.5097675164613
 30
0.0
 11
652.2845367880883
 21
165.5097675164613
 31
0.0
  0
LINE
  5
909D
330
8C50
100
AcDbEntity
  8
Visible (ISO)
100
AcDbLine
 10
680.9773799470138
 20
156.8597675164617
 30
0.0
 11
573.5916936291568
 21
156.8597675164617
 31
0.0
  0
ELLIPSE
  5
909E
330
8C50
100
AcDbEntity
  8
Visible (ISO)
100
AcDbEllipse
 10
627.2845367880947
 20
164.1199373608567
 30
0.0
 11
29.49999999999996
 21
-0.0000000000283468
 31
0.0
210
0.0
220
0.0
230
1.0
 40
0.945518575599317
 41
2.130414958220892
 42
2.581974022165839
  0
LINE
  5
909F
330
8C50
100
AcDbEntity
  8
Visible (ISO)
100
AcDbLine
 10
611.6240770247265
 20
187.7579017508385
 30
0.0
 11
642.9449965514581
 21
187.7579017508385
 31
0.0
  0
ELLIPSE
  5
90A0
330
8C50
100
AcDbEntity
  8
Visible (ISO)
100
AcDbEllipse
 10
627.2845367880947
 20
164.1199373608567
 30
0.0
 11
29.49999999999995
 21
-0.0000000000253852
 31
0.0
210
0.0
220
0.0
230
1.0
 40
0.9455185755993168
 41
0.559618631425888
 42
1.011177695370834
  0
ELLIPSE
  5
90A1
330
8C50
100
AcDbEntity
  8
Visible (ISO)
100
AcDbEllipse
 10
627.2845367880931
 20
162.2641988804505
 30
0.0
 11
-29.50000000000007
 21
0.0000000000225181
 31
0.0
210
0.0
220
0.0
230
1.0
 40
0.9455185755993166
 41
3.701211285015558
 42
4.152770348960512
  0
LINE
  5
90A2
330
8C50
100
AcDbEntity
  8
Visible (ISO)
100
AcDbLine
 10
642.9449965514565
 20
185.9021632704332
 30
0.0
 11
611.6240770247249
 21
185.9021632704332
 31
0.0
  0
ELLIPSE
  5
90A3
330
8C50
100
AcDbEntity
  8
Visible (ISO)
100
AcDbEllipse
 10
627.2845367880931
 20
162.2641988804505
 30
0.0
 11
-29.50000000000007
 21
0.0000000000254352
 31
0.0
210
0.0
220
0.0
230
1.0
 40
0.9455185755993166
 41
5.272007611810577
 42
5.723566675755509
  0
LINE
  5
90A4
330
8C50
100
AcDbEntity
  8
Visible (ISO)
100
AcDbLine
 10
602.2845367880916
 20
177.0714544891386
 30
0.0
 11
602.2845367880916
 21
176.7458863346807
 31
0.0
  0
SPLINE
  5
90A5
330
8C50
100
AcDbEntity
  8
Visible (ISO)
100
AcDbSpline
210
0.0
220
0.0
230
1.0
 70
     8
 71
     3
 72
     8
 73
     4
 74
     0
 42
0.0000000001
 43
0.0000000001
 40
-0.0224734906841527
 40
-0.0224734906841527
 40
-0.0224734906841527
 40
-0.0224734906841527
 40
0.0
 40
0.0
 40
0.0
 40
0.0
 10
602.4402639175988
 20
176.9783841397281
 30
0.0
 10
602.3883559221884
 20
177.00942722795
 30
0.0
 10
602.3364466172894
 20
177.0404507769024
 30
0.0
 10
602.2845367880916
 20
177.0714544891386
 30
0.0
  0
SPLINE
  5
90A6
330
8C50
100
AcDbEntity
  8
Visible (ISO)
100
AcDbSpline
210
0.0
220
0.0
230
1.0
 70
     8
 71
     3
 72
     8
 73
     4
 74
     0
 42
0.0000000001
 43
0.0000000001
 40
-0.0369640501977187
 40
-0.0369640501977187
 40
-0.0369640501977187
 40
-0.0369640501977187
 40
0.0
 40
0.0
 40
0.0
 40
0.0
 10
611.6978502688851
 20
185.5765951159762
 30
0.0
 10
611.6732020735129
 20
185.6851130705861
 30
0.0
 10
611.6486109265321
 20
185.7936372690589
 30
0.0
 10
611.6240770247249
 20
185.9021632704332
 30
0.0
  0
SPLINE
  5
90A7
330
8C50
100
AcDbEntity
  8
Visible (ISO)
100
AcDbSpline
210
0.0
220
0.0
230
1.0
 70
     8
 71
     3
 72
     8
 73
     4
 74
     0
 42
0.0000000001
 43
0.0000000001
 40
-0.0369640501977073
 40
-0.0369640501977073
 40
-0.0369640501977073
 40
-0.0369640501977073
 40
0.0
 40
0.0
 40
0.0
 40
0.0
 10
642.871223307296
 20
185.5765951159762
 30
0.0
 10
642.8958715026682
 20
185.6851130705861
 30
0.0
 10
642.920462649649
 20
185.7936372690589
 30
0.0
 10
642.9449965514565
 20
185.9021632704332
 30
0.0
  0
SPLINE
  5
90A8
330
8C50
100
AcDbEntity
  8
Visible (ISO)
100
AcDbSpline
210
0.0
220
0.0
230
1.0
 70
     8
 71
     3
 72
     8
 73
     4
 74
     0
 42
0.0000000001
 43
0.0000000001
 40
-0.0224734906841573
 40
-0.0224734906841573
 40
-0.0224734906841573
 40
-0.0224734906841573
 40
0.0
 40
0.0
 40
0.0
 40
0.0
 10
652.1288096585841
 20
176.9783841397281
 30
0.0
 10
652.1807176539947
 20
177.00942722795
 30
0.0
 10
652.2326269588937
 20
177.0404507769024
 30
0.0
 10
652.2845367880916
 20
177.0714544891386
 30
0.0
  0
LINE
  5
90A9
330
8C50
100
AcDbEntity
  8
Visible (ISO)
100
AcDbLine
 10
652.2845367880916
 20
176.7458863346807
 30
0.0
 11
652.2845367880916
 21
177.0714544891386
 31
0.0
  0
LINE
  5
90AA
330
8C50
100
AcDbEntity
  8
Visible (ISO)
100
AcDbLine
 10
642.9449965514581
 20
187.7579017508385
 30
0.0
 11
642.9449965514565
 21
185.9021632704332
 31
0.0
  0
LINE
  5
90AB
330
8C50
100
AcDbEntity
  8
Visible (ISO)
100
AcDbLine
 10
652.2845367880932
 20
178.9271929695439
 30
0.0
 11
652.2845367880916
 21
177.0714544891386
 31
0.0
  0
LINE
  5
90AC
330
8C50
100
AcDbEntity
  8
Visible (ISO)
100
AcDbLine
 10
611.6240770247265
 20
187.7579017508385
 30
0.0
 11
611.6240770247249
 21
185.9021632704332
 31
0.0
  0
LINE
  5
90AD
330
8C50
100
AcDbEntity
  8
Visible (ISO)
100
AcDbLine
 10
602.2845367880932
 20
178.9271929695439
 30
0.0
 11
602.2845367880916
 21
177.0714544891386
 31
0.0
  0
LINE
  5
90AE
330
8C50
100
AcDbEntity
  8
0
100
AcDbLine
 10
627.2845367880854
 20
130.0806281403672
 30
0.0
 11
627.2845367880854
 21
206.7891171370863
 31
0.0
  0
LINE
  5
90AF
330
8C50
100
AcDbEntity
  8
0
100
AcDbLine
 10
857.8158010817732
 20
344.2112008202323
 30
0.0
 11
762.0583391305276
 21
344.2112008202369
 31
0.0
  0
LINE
  5
90B0
330
8C50
100
AcDbEntity
  8
0
  6
CENTER
 62
     0
370
    25
100
AcDbLine
 10
772.2845367880875
 20
134.1131694562889
 30
0.0
 11
772.2845367880875
 21
179.6063655766527
 31
0.0
  0
LINE
  5
90B1
330
8C50
100
AcDbEntity
  8
0
  6
CENTER
 62
     0
370
    25
100
AcDbLine
 10
749.5379387279056
 20
156.8597675164708
 30
0.0
 11
795.0311348482694
 21
156.8597675164708
 31
0.0
  0
LINE
  5
90B2
330
8C50
100
AcDbEntity
  8
Visible (ISO)
100
AcDbLine
 10
970.9773799470122
 20
156.8597675164617
 30
0.0
 11
863.5916936291549
 21
156.8597675164617
 31
0.0
  0
LINE
  5
90B3
330
8C50
100
AcDbEntity
  8
0
100
AcDbLine
 10
917.2845367880835
 20
130.0806281403672
 30
0.0
 11
917.2845367880835
 21
206.7891171370863
 31
0.0
  0
ENDSEC
  0
SECTION
  2
OBJECTS
  0
DICTIONARY
  5
8C3E
330
0
100
AcDbDictionary
281
     1
  3
ACAD_GROUP
350
8C3F
  3
ACAD_LAYOUT
350
8C4B
  3
ACAD_MLINESTYLE
350
8C48
  3
ACAD_PLOTSETTINGS
350
8C4A
  3
ACAD_PLOTSTYLENAME
350
8C40
  3
AcDbVariableDictionary
350
8C96
  0
DICTIONARY
  5
8D0D
330
8C34
100
AcDbDictionary
280
     1
281
     1
  3
ACAD_LAYERSTATES
360
8D0E
  0
DICTIONARY
  5
8C62
330
8C50
100
AcDbDictionary
280
     1
281
     1
  3
ACAD_LAYOUTSELFREF
360
8D05
  0
DICTIONARY
  5
8C64
330
8C4C
100
AcDbDictionary
280
     1
281
     1
  3
ACAD_LAYOUTSELFREF
360
8D04
  0
DICTIONARY
  5
8C3F
102
{ACAD_REACTORS
330
8C3E
102
}
330
8C3E
100
AcDbDictionary
281
     1
  0
DICTIONARY
  5
8C4B
102
{ACAD_REACTORS
330
8C3E
102
}
330
8C3E
100
AcDbDictionary
281
     1
  3
Model
350
8C53
  3
ﾚｲｱｳﾄ1
350
8C4F
  0
DICTIONARY
  5
8C48
102
{ACAD_REACTORS
330
8C3E
102
}
330
8C3E
100
AcDbDictionary
281
     1
  3
Standard
350
8C49
  0
DICTIONARY
  5
8C4A
102
{ACAD_REACTORS
330
8C3E
102
}
330
8C3E
100
AcDbDictionary
281
     1
  0
ACDBDICTIONARYWDFLT
  5
8C40
102
{ACAD_REACTORS
330
8C3E
102
}
330
8C3E
100
AcDbDictionary
281
     1
  3
Normal
350
8C41
100
AcDbDictionaryWithDefault
340
8C41
  0
DICTIONARY
  5
8C96
102
{ACAD_REACTORS
330
8C3E
102
}
330
8C3E
100
AcDbDictionary
281
     1
  3
DIMASSOC
350
8C97
  0
DICTIONARY
  5
8D0E
102
{ACAD_REACTORS
330
8D0D
102
}
330
8D0D
100
AcDbDictionary
281
     1
  0
XRECORD
  5
8D05
102
{ACAD_REACTORS
330
8C62
102
}
330
8C62
100
AcDbXrecord
280
     1
340
8C50
  0
XRECORD
  5
8D04
102
{ACAD_REACTORS
330
8C64
102
}
330
8C64
100
AcDbXrecord
280
     1
340
8C4C
  0
LAYOUT
  5
8C53
102
{ACAD_REACTORS
330
8C4B
102
}
330
8C4B
100
AcDbPlotSettings
  1

  2
SII LP-2150 (D-SCAN C2)
  4

  6

 40
0.0
 41
0.0
 42
0.0
 43
0.0
 44
0.0
 45
0.0
 46
0.0
 47
0.0
 48
0.0
 49
0.0
140
0.0
141
0.0
142
1.0
143
1.0
 70
  1712
 72
     0
 73
     0
 74
     0
  7

 75
     0
147
1.0
148
0.0
149
0.0
100
AcDbLayout
  1
Model
 70
     1
 71
     0
 10
0.0
 20
0.0
 11
12.0
 21
9.0
 12
0.0
 22
0.0
 32
0.0
 14
0.0
 24
0.0
 34
0.0
 15
0.0
 25
0.0
 35
0.0
146
0.0
 13
0.0
 23
0.0
 33
0.0
 16
1.0
 26
0.0
 36
0.0
 17
0.0
 27
1.0
 37
0.0
 76
     0
330
8C50
  0
LAYOUT
  5
8C4F
102
{ACAD_REACTORS
330
8C4B
102
}
330
8C4B
100
AcDbPlotSettings
  1

  2
SII LP-2150 (D-SCAN C2)
  4

  6

 40
0.0
 41
0.0
 42
0.0
 43
0.0
 44
0.0
 45
0.0
 46
0.0
 47
0.0
 48
0.0
 49
0.0
140
0.0
141
0.0
142
1.0
143
1.0
 70
   688
 72
     0
 73
     0
 74
     5
  7

 75
    16
147
1.0
148
0.0
149
0.0
100
AcDbLayout
  1
ﾚｲｱｳﾄ1
 70
     1
 71
     1
 10
-580.5701293945312
 20
0.0
 11
0.0
 21
407.8999938964844
 12
0.0
 22
0.0
 32
0.0
 14
-580.5701293945312
 24
0.0
 34
0.0
 15
0.0
 25
407.8999938964844
 35
0.0
146
0.0
 13
0.0
 23
0.0
 33
0.0
 16
1.0
 26
0.0
 36
0.0
 17
0.0
 27
1.0
 37
0.0
 76
     0
330
8C4C
  0
MLINESTYLE
  5
8C49
102
{ACAD_REACTORS
330
8C48
102
}
330
8C48
100
AcDbMlineStyle
  2
STANDARD
 70
     0
  3

 62
   256
 51
90.0
 52
90.0
 71
     2
 49
0.5
 62
   256
  6
BYLAYER
 49
-0.5
 62
   256
  6
BYLAYER
  0
ACDBPLACEHOLDER
  5
8C41
102
{ACAD_REACTORS
330
8C40
102
}
330
8C40
  0
DICTIONARYVAR
  5
8C97
102
{ACAD_REACTORS
330
8C96
102
}
330
8C96
100
DictionaryVariables
280
     0
  1
1
  0
ENDSEC
  0
EOF
