  0
SECTION
  2
HEADER
  9
$ACADVER
  1
AC1015
  9
$ACADMAINTVER
 70
    14
  9
$DWGCODEPAGE
  3
ANSI_932
  9
$INSBASE
 10
0.0
 20
0.0
 30
0.0
  9
$EXTMIN
 10
136.3861225348109
 20
157.2323640458184
 30
-0.0000000000000058
  9
$EXTMAX
 10
1029.541190482149
 20
605.1617685277406
 30
0.0000000000000104
  9
$LIMMIN
 10
-580.5701293945312
 20
0.0
  9
$LIMMAX
 10
0.0
 20
407.8999938964844
  9
$ORTHOMODE
 70
     0
  9
$REGENMODE
 70
     1
  9
$FILLMODE
 70
     1
  9
$QTEXTMODE
 70
     0
  9
$MIRRTEXT
 70
     1
  9
$LTSCALE
 40
1.0
  9
$ATTMODE
 70
     1
  9
$TEXTSIZE
 40
0.2
  9
$TRACEWID
 40
0.05
  9
$TEXTSTYLE
  7
STANDARD
  9
$CLAYER
  8
0
  9
$CELTYPE
  6
CONTINUOUS
  9
$CECOLOR
 62
   256
  9
$CELTSCALE
 40
1.0
  9
$DISPSILH
 70
     0
  9
$DIMSCALE
 40
1.0
  9
$DIMASZ
 40
1.0
  9
$DIMEXO
 40
2.54
  9
$DIMDLI
 40
0.38
  9
$DIMRND
 40
0.0
  9
$DIMDLE
 40
0.0
  9
$DIMEXE
 40
2.54
  9
$DIMTP
 40
0.0
  9
$DIMTM
 40
0.0
  9
$DIMTXT
 40
3.200000047683714
  9
$DIMCEN
 40
0.09
  9
$DIMTSZ
 40
0.0
  9
$DIMTOL
 70
     0
  9
$DIMLIM
 70
     0
  9
$DIMTIH
 70
     0
  9
$DIMTOH
 70
     0
  9
$DIMSE1
 70
     0
  9
$DIMSE2
 70
     0
  9
$DIMTAD
 70
     1
  9
$DIMZIN
 70
     0
  9
$DIMBLK
  1

  9
$DIMASO
 70
     1
  9
$DIMSHO
 70
     0
  9
$DIMPOST
  1

  9
$DIMAPOST
  1

  9
$DIMALT
 70
     0
  9
$DIMALTD
 70
     2
  9
$DIMALTF
 40
25.4
  9
$DIMLFAC
 40
1.0
  9
$DIMTOFL
 70
     0
  9
$DIMTVP
 40
1.0
  9
$DIMTIX
 70
     0
  9
$DIMSOXD
 70
     0
  9
$DIMSAH
 70
     0
  9
$DIMBLK1
  1

  9
$DIMBLK2
  1

  9
$DIMSTYLE
  2
STANDARD
  9
$DIMCLRD
 70
     0
  9
$DIMCLRE
 70
     0
  9
$DIMCLRT
 70
     0
  9
$DIMTFAC
 40
1.0
  9
$DIMGAP
 40
1.600000023841857
  9
$DIMJUST
 70
     0
  9
$DIMSD1
 70
     0
  9
$DIMSD2
 70
     0
  9
$DIMTOLJ
 70
     1
  9
$DIMTZIN
 70
     0
  9
$DIMALTZ
 70
     0
  9
$DIMALTTZ
 70
     0
  9
$DIMUPT
 70
     0
  9
$DIMDEC
 70
     4
  9
$DIMTDEC
 70
     4
  9
$DIMALTU
 70
     2
  9
$DIMALTTD
 70
     2
  9
$DIMTXSTY
  7
STANDARD
  9
$DIMAUNIT
 70
     0
  9
$DIMADEC
 70
     0
  9
$DIMALTRND
 40
0.0
  9
$DIMAZIN
 70
     0
  9
$DIMDSEP
 70
    46
  9
$DIMATFIT
 70
     3
  9
$DIMFRAC
 70
     0
  9
$DIMLDRBLK
  1

  9
$DIMLUNIT
 70
     2
  9
$DIMLWD
 70
    -2
  9
$DIMLWE
 70
    -2
  9
$DIMTMOVE
 70
     0
  9
$LUNITS
 70
     2
  9
$LUPREC
 70
     4
  9
$SKETCHINC
 40
0.1
  9
$FILLETRAD
 40
0.0
  9
$AUNITS
 70
     0
  9
$AUPREC
 70
     0
  9
$MENU
  1
.
  9
$ELEVATION
 40
0.0
  9
$PELEVATION
 40
0.0
  9
$THICKNESS
 40
0.0
  9
$LIMCHECK
 70
     0
  9
$CHAMFERA
 40
0.0
  9
$CHAMFERB
 40
0.0
  9
$CHAMFERC
 40
0.0
  9
$CHAMFERD
 40
0.0
  9
$SKPOLY
 70
     0
  9
$TDCREATE
 40
2452717.604314595
  9
$TDUCREATE
 40
2452717.229314595
  9
$TDUPDATE
 40
2456899.672994178
  9
$TDUUPDATE
 40
2456899.297994178
  9
$TDINDWG
 40
0.2830886343
  9
$TDUSRTIMER
 40
0.2830886343
  9
$USRTIMER
 70
     1
  9
$ANGBASE
 50
0.0
  9
$ANGDIR
 70
     0
  9
$PDMODE
 70
     0
  9
$PDSIZE
 40
0.0
  9
$PLINEWID
 40
0.0
  9
$SPLFRAME
 70
     0
  9
$SPLINETYPE
 70
     6
  9
$SPLINESEGS
 70
     8
  9
$HANDSEED
  5
90D4
  9
$SURFTAB1
 70
     6
  9
$SURFTAB2
 70
     6
  9
$SURFTYPE
 70
     6
  9
$SURFU
 70
     6
  9
$SURFV
 70
     6
  9
$UCSBASE
  2

  9
$UCSNAME
  2

  9
$UCSORG
 10
0.0
 20
0.0
 30
0.0
  9
$UCSXDIR
 10
1.0
 20
0.0
 30
0.0
  9
$UCSYDIR
 10
0.0
 20
1.0
 30
0.0
  9
$UCSORTHOREF
  2

  9
$UCSORTHOVIEW
 70
     0
  9
$UCSORGTOP
 10
0.0
 20
0.0
 30
0.0
  9
$UCSORGBOTTOM
 10
0.0
 20
0.0
 30
0.0
  9
$UCSORGLEFT
 10
0.0
 20
0.0
 30
0.0
  9
$UCSORGRIGHT
 10
0.0
 20
0.0
 30
0.0
  9
$UCSORGFRONT
 10
0.0
 20
0.0
 30
0.0
  9
$UCSORGBACK
 10
0.0
 20
0.0
 30
0.0
  9
$PUCSBASE
  2

  9
$PUCSNAME
  2

  9
$PUCSORG
 10
0.0
 20
0.0
 30
0.0
  9
$PUCSXDIR
 10
1.0
 20
0.0
 30
0.0
  9
$PUCSYDIR
 10
0.0
 20
1.0
 30
0.0
  9
$PUCSORTHOREF
  2

  9
$PUCSORTHOVIEW
 70
     0
  9
$PUCSORGTOP
 10
0.0
 20
0.0
 30
0.0
  9
$PUCSORGBOTTOM
 10
0.0
 20
0.0
 30
0.0
  9
$PUCSORGLEFT
 10
0.0
 20
0.0
 30
0.0
  9
$PUCSORGRIGHT
 10
0.0
 20
0.0
 30
0.0
  9
$PUCSORGFRONT
 10
0.0
 20
0.0
 30
0.0
  9
$PUCSORGBACK
 10
0.0
 20
0.0
 30
0.0
  9
$USERI1
 70
     0
  9
$USERI2
 70
     0
  9
$USERI3
 70
     0
  9
$USERI4
 70
     0
  9
$USERI5
 70
     0
  9
$USERR1
 40
0.0
  9
$USERR2
 40
0.0
  9
$USERR3
 40
0.0
  9
$USERR4
 40
0.0
  9
$USERR5
 40
0.0
  9
$WORLDVIEW
 70
     1
  9
$SHADEDGE
 70
     3
  9
$SHADEDIF
 70
    70
  9
$TILEMODE
 70
     1
  9
$MAXACTVP
 70
    48
  9
$PINSBASE
 10
0.0
 20
0.0
 30
0.0
  9
$PLIMCHECK
 70
     0
  9
$PEXTMIN
 10
-580.5701293945312
 20
0.0
 30
0.0
  9
$PEXTMAX
 10
0.0
 20
407.8999938964844
 30
0.0
  9
$PLIMMIN
 10
-580.5701293945312
 20
0.0
  9
$PLIMMAX
 10
0.0
 20
407.8999938964844
  9
$UNITMODE
 70
     0
  9
$VISRETAIN
 70
     1
  9
$PLINEGEN
 70
     0
  9
$PSLTSCALE
 70
     1
  9
$TREEDEPTH
 70
  3020
  9
$CMLSTYLE
  2
Standard
  9
$CMLJUST
 70
     0
  9
$CMLSCALE
 40
1.0
  9
$PROXYGRAPHICS
 70
     1
  9
$MEASUREMENT
 70
     0
  9
$CELWEIGHT
370
    -1
  9
$ENDCAPS
280
     0
  9
$JOINSTYLE
280
     0
  9
$LWDISPLAY
290
     0
  9
$INSUNITS
 70
     0
  9
$HYPERLINKBASE
  1

  9
$STYLESHEET
  1

  9
$XEDIT
290
     1
  9
$CEPSNTYPE
380
     0
  9
$PSTYLEMODE
290
     1
  9
$FINGERPRINTGUID
  2
{FC832486-E11A-4802-95FC-A013ABD41AD5}
  9
$VERSIONGUID
  2
{932F4D82-A06D-4B0E-BB2F-F76711EA75ED}
  9
$EXTNAMES
290
     1
  9
$PSVPSCALE
 40
0.0
  9
$OLESTARTUP
290
     0
  0
ENDSEC
  0
SECTION
  2
CLASSES
  0
CLASS
  1
ACDBDICTIONARYWDFLT
  2
AcDbDictionaryWithDefault
  3
AutoCAD 2000
 90
        0
280
     0
281
     0
  0
CLASS
  1
ACDBPLACEHOLDER
  2
AcDbPlaceHolder
  3
AutoCAD 2000
 90
        0
280
     0
281
     0
  0
CLASS
  1
LAYOUT
  2
AcDbLayout
  3
AutoCAD 2000
 90
        0
280
     0
281
     0
  0
CLASS
  1
DICTIONARYVAR
  2
AcDbDictionaryVar
  3
AutoCAD 2000
 90
        0
280
     0
281
     0
  0
CLASS
  1
LONG_TRANSACTION
  2
AcDbLongTransaction
  3
AutoCAD 2000
 90
    32768
280
     0
281
     0
  0
CLASS
  1
LWPOLYLINE
  2
AcDbPolyline
  3
AutoCAD 2000
 90
    32768
280
     0
281
     1
  0
CLASS
  1
HATCH
  2
AcDbHatch
  3
AutoCAD 2000
 90
    32768
280
     0
281
     1
  0
CLASS
  1
XRECORD
  2
AcDbXrecord
  3
AutoCAD 2000
 90
    32768
280
     0
281
     0
  0
CLASS
  1
LONG_TRANSACTION
  2
AcDbLongTransaction
  3
AutoCAD 2000
 90
    32768
280
     0
281
     0
  0
CLASS
  1
LWPOLYLINE
  2
AcDbPolyline
  3
AutoCAD 2000
 90
    32768
280
     0
281
     1
  0
CLASS
  1
HATCH
  2
AcDbHatch
  3
AutoCAD 2000
 90
    32768
280
     0
281
     1
  0
CLASS
  1
XRECORD
  2
AcDbXrecord
  3
AutoCAD 2000
 90
    32768
280
     0
281
     0
  0
CLASS
  1
LONG_TRANSACTION
  2
AcDbLongTransaction
  3
AutoCAD 2000
 90
    32768
280
     0
281
     0
  0
CLASS
  1
LWPOLYLINE
  2
AcDbPolyline
  3
AutoCAD 2000
 90
    32768
280
     0
281
     1
  0
CLASS
  1
HATCH
  2
AcDbHatch
  3
AutoCAD 2000
 90
    32768
280
     0
281
     1
  0
CLASS
  1
XRECORD
  2
AcDbXrecord
  3
AutoCAD 2000
 90
    32768
280
     0
281
     0
  0
ENDSEC
  0
SECTION
  2
TABLES
  0
TABLE
  2
VPORT
  5
8C34
330
0
100
AcDbSymbolTable
 70
     2
  0
VPORT
  5
90D3
330
8C34
100
AcDbSymbolTableRecord
100
AcDbViewportTableRecord
  2
*Active
 70
     0
 10
0.0
 20
0.0
 11
1.0
 21
1.0
 12
582.9636565084801
 22
381.1970662867795
 13
0.0
 23
0.0
 14
1.0
 24
1.0
 15
0.0
 25
0.0
 16
0.0
 26
0.0
 36
1.0
 17
0.0
 27
0.0
 37
0.0
 40
563.2073481828227
 41
1.592161016949152
 42
50.0
 43
0.0
 44
0.0
 50
0.0
 51
0.0
 71
     0
 72
   100
 73
     1
 74
     3
 75
     0
 76
     0
 77
     0
 78
     0
281
     0
 65
     1
110
0.0
120
0.0
130
0.0
111
1.0
121
0.0
131
0.0
112
0.0
122
1.0
132
0.0
 79
     0
146
0.0
  0
ENDTAB
  0
TABLE
  2
LTYPE
  5
8C31
330
0
100
AcDbSymbolTable
 70
     2
  0
LTYPE
  5
8C3F
330
8C31
100
AcDbSymbolTableRecord
100
AcDbLinetypeTableRecord
  2
ByBlock
 70
     0
  3

 72
    65
 73
     0
 40
0.0
  0
LTYPE
  5
8C40
330
8C31
100
AcDbSymbolTableRecord
100
AcDbLinetypeTableRecord
  2
ByLayer
 70
     0
  3

 72
    65
 73
     0
 40
0.0
  0
LTYPE
  5
8C41
330
8C31
100
AcDbSymbolTableRecord
100
AcDbLinetypeTableRecord
  2
CONTINUOUS
 70
     0
  3
Solid line
 72
    65
 73
     0
 40
0.0
  0
LTYPE
  5
8D06
330
8C31
100
AcDbSymbolTableRecord
100
AcDbLinetypeTableRecord
  2
CENTER
 70
     0
  3
Center ____ _ ____ _ ____ _ ____ _ ____ _ ____
 72
    65
 73
     4
 40
50.8
 49
31.75
 74
     0
 49
-6.349999999999999
 74
     0
 49
6.349999999999999
 74
     0
 49
-6.349999999999999
 74
     0
  0
ENDTAB
  0
TABLE
  2
LAYER
  5
8C2E
102
{ACAD_XDICTIONARY
360
8D08
102
}
330
0
100
AcDbSymbolTable
 70
     2
  0
LAYER
  5
8C3C
330
8C2E
100
AcDbSymbolTableRecord
100
AcDbLayerTableRecord
  2
0
 70
     0
 62
     7
  6
CONTINUOUS
370
    -3
390
8C3B
  0
LAYER
  5
8D1A
330
8C2E
100
AcDbSymbolTableRecord
100
AcDbLayerTableRecord
  2
Visible (ISO)
 70
     0
 62
     7
  6
CONTINUOUS
370
    35
390
8C3B
  0
ENDTAB
  0
TABLE
  2
STYLE
  5
8C2F
330
0
100
AcDbSymbolTable
 70
     1
  0
STYLE
  5
8C3D
330
8C2F
100
AcDbSymbolTableRecord
100
AcDbTextStyleTableRecord
  2
STANDARD
 70
     0
 40
0.0
 41
1.0
 50
0.0
 71
     0
 42
0.2
  3
txt
  4
BIGFONT
  0
ENDTAB
  0
TABLE
  2
VIEW
  5
8C32
330
0
100
AcDbSymbolTable
 70
     0
  0
ENDTAB
  0
TABLE
  2
UCS
  5
8C33
330
0
100
AcDbSymbolTable
 70
     0
  0
ENDTAB
  0
TABLE
  2
APPID
  5
8C35
330
0
100
AcDbSymbolTable
 70
     4
  0
APPID
  5
8C3E
330
8C35
100
AcDbSymbolTableRecord
100
AcDbRegAppTableRecord
  2
ACAD
 70
     0
  0
APPID
  5
8C50
330
8C35
100
AcDbSymbolTableRecord
100
AcDbRegAppTableRecord
  2
MCAD_NO_VIS
 70
     0
  0
APPID
  5
8C51
330
8C35
100
AcDbSymbolTableRecord
100
AcDbRegAppTableRecord
  2
ACAD_TEMP_GRAPHIC
 70
     0
  0
APPID
  5
8C52
330
8C35
100
AcDbSymbolTableRecord
100
AcDbRegAppTableRecord
  2
ACATTRIBSERVICES
 70
     0
  0
ENDTAB
  0
TABLE
  2
DIMSTYLE
  5
8C36
330
0
100
AcDbSymbolTable
 70
     1
100
AcDbDimStyleTable
 71
     0
  0
DIMSTYLE
105
8C53
330
8C36
100
AcDbSymbolTableRecord
100
AcDbDimStyleTableRecord
  2
STANDARD
 70
     0
279
     2
340
8C3D
  0
ENDTAB
  0
TABLE
  2
BLOCK_RECORD
  5
8C2D
330
0
100
AcDbSymbolTable
 70
     0
  0
BLOCK_RECORD
  5
8C4A
102
{ACAD_XDICTIONARY
360
8C5C
102
}
330
8C2D
100
AcDbSymbolTableRecord
100
AcDbBlockTableRecord
  2
*Model_Space
340
8C4D
  0
BLOCK_RECORD
  5
8C46
102
{ACAD_XDICTIONARY
360
8C5E
102
}
330
8C2D
100
AcDbSymbolTableRecord
100
AcDbBlockTableRecord
  2
*Paper_Space
340
8C49
  0
ENDTAB
  0
ENDSEC
  0
SECTION
  2
BLOCKS
  0
BLOCK
  5
8C4B
330
8C4A
100
AcDbEntity
  8
0
100
AcDbBlockBegin
  2
*Model_Space
 70
     0
 10
0.0
 20
0.0
 30
0.0
  3
*Model_Space
  1

  0
ENDBLK
  5
8C4C
330
8C4A
100
AcDbEntity
  8
0
100
AcDbBlockEnd
  0
BLOCK
  5
8C47
330
8C46
100
AcDbEntity
 67
     1
  8
0
100
AcDbBlockBegin
  2
*Paper_Space
 70
     0
 10
0.0
 20
0.0
 30
0.0
  3
*Paper_Space
  1

  0
ENDBLK
  5
8C48
330
8C46
100
AcDbEntity
 67
     1
  8
0
100
AcDbBlockEnd
  0
ENDSEC
  0
SECTION
  2
ENTITIES
  0
TEXT
  5
1104
330
8C4A
100
AcDbEntity
  8
0
100
AcDbText
 10
136.437947966753
 20
557.1340608981272
 30
0.0
 40
48.000002
  1
DHS2S 8A
 41
1.32095
100
AcDbText
  0
LINE
  5
425F
330
8C4A
100
AcDbEntity
  8
0
100
AcDbLine
 10
372.1243889397554
 20
219.9611365210043
 30
0.0
 11
372.1243889397554
 21
231.9611365210044
 31
0.0
  0
LINE
  5
4261
330
8C4A
100
AcDbEntity
  8
0
100
AcDbLine
 10
405.1243889397554
 20
219.9611365210043
 30
0.0
 11
405.1243889397554
 21
231.9611365210044
 31
0.0
  0
CIRCLE
  5
42EE
330
8C4A
100
AcDbEntity
  8
0
100
AcDbCircle
 10
225.0258952505063
 20
369.4405459339785
 30
0.0
 40
23.5
  0
ARC
  5
42EF
330
8C4A
100
AcDbEntity
  8
0
100
AcDbCircle
 10
225.0258952505063
 20
369.4405459339785
 30
0.0
 40
20.0
100
AcDbArc
 50
138.9517975312255
 51
161.0331980612249
  0
ARC
  5
42F0
330
8C4A
100
AcDbEntity
  8
0
100
AcDbCircle
 10
225.0258952505063
 20
369.4405459339785
 30
0.0
 40
20.0
100
AcDbArc
 50
198.9668019387748
 51
221.0482024687744
  0
LINE
  5
42F1
330
8C4A
100
AcDbEntity
  8
0
100
AcDbLine
 10
208.0258952505064
 20
327.2906622959806
 30
0.0
 11
218.1259013540219
 21
330.9667640152026
 31
0.0
  0
LINE
  5
42F2
330
8C4A
100
AcDbEntity
  8
0
100
AcDbLine
 10
208.0258952505063
 20
324.4405459339787
 30
0.0
 11
242.0258952505063
 21
324.4405459339787
 31
0.0
  0
LINE
  5
42F4
330
8C4A
100
AcDbEntity
  8
0
100
AcDbLine
 10
208.0258952505063
 20
411.5904433095464
 30
0.0
 11
218.1259013540218
 21
407.9143415903241
 31
0.0
  0
LINE
  5
42F5
330
8C4A
100
AcDbEntity
  8
0
100
AcDbLine
 10
208.0258952505063
 20
414.4405459339785
 30
0.0
 11
242.0258952505063
 21
414.4405459339785
 31
0.0
  0
LINE
  5
42F9
330
8C4A
100
AcDbEntity
  8
0
100
AcDbLine
 10
209.365433824725
 20
344.4405459339786
 30
0.0
 11
240.6863566762877
 21
344.4405459339786
 31
0.0
  0
LINE
  5
42FA
330
8C4A
100
AcDbEntity
  8
0
100
AcDbLine
 10
209.365433824725
 20
394.4405459339785
 30
0.0
 11
240.6863566762877
 21
394.4405459339785
 31
0.0
  0
LINE
  5
42FC
330
8C4A
100
AcDbEntity
  8
0
100
AcDbLine
 10
200.0258952505063
 20
385.1010073597596
 30
0.0
 11
200.0258952505063
 21
353.7800845081962
 31
0.0
  0
ARC
  5
42FD
330
8C4A
100
AcDbEntity
  8
0
100
AcDbCircle
 10
225.0258952505063
 20
369.4405459339785
 30
0.0
 40
29.5
100
AcDbArc
 50
212.0637852949077
 51
237.9362140218463
  0
LINE
  5
42FF
330
8C4A
100
AcDbEntity
  8
0
100
AcDbLine
 10
208.0258952505063
 20
324.4405459339787
 30
0.0
 11
208.0258952505064
 21
327.2906622959806
 31
0.0
  0
ARC
  5
4304
330
8C4A
100
AcDbEntity
  8
0
100
AcDbCircle
 10
197.5258952505063
 20
369.4405459339785
 30
0.0
 40
10.0
100
AcDbArc
 50
330.821616280815
 51
29.1783837191849
  0
ARC
  5
4305
330
8C4A
100
AcDbEntity
  8
0
100
AcDbCircle
 10
208.0031901723813
 20
363.5901888783145
 30
0.0
 40
2.0
100
AcDbArc
 50
150.8216144595706
 51
198.9667982962963
  0
ARC
  5
4306
330
8C4A
100
AcDbEntity
  8
0
100
AcDbCircle
 10
208.0031901723813
 20
375.2909182484314
 30
0.0
 40
2.0
100
AcDbArc
 50
161.0331980612249
 51
209.1783818979631
  0
ARC
  5
4308
330
8C4A
100
AcDbEntity
  8
0
100
AcDbCircle
 10
225.0258952505063
 20
369.4405459339785
 30
0.0
 40
29.5
100
AcDbArc
 50
122.0637859781563
 51
147.9362147050919
  0
LINE
  5
430D
330
8C4A
100
AcDbEntity
  8
0
100
AcDbLine
 10
208.0258952505063
 20
414.4405459339785
 30
0.0
 11
208.0258952505063
 21
411.5904433095464
 31
0.0
  0
ARC
  5
4315
330
8C4A
100
AcDbEntity
  8
0
100
AcDbCircle
 10
225.0258952505063
 20
369.4405459339785
 30
0.0
 40
20.0
100
AcDbArc
 50
18.95236451272228
 51
41.04820747773461
  0
LINE
  5
4318
330
8C4A
100
AcDbEntity
  8
0
100
AcDbLine
 10
250.0258952505063
 20
385.1010073597596
 30
0.0
 11
250.0258952505063
 21
353.7800845081962
 31
0.0
  0
ARC
  5
431B
330
8C4A
100
AcDbEntity
  8
0
100
AcDbCircle
 10
225.0258952505063
 20
369.4405459339785
 30
0.0
 40
29.5
100
AcDbArc
 50
302.0637877993888
 51
327.9362131112379
  0
LINE
  5
4322
330
8C4A
100
AcDbEntity
  8
0
100
AcDbLine
 10
218.1259013540218
 20
344.4405459339786
 30
0.0
 11
218.1259013540219
 21
330.9667640152026
 31
0.0
  0
LINE
  5
4325
330
8C4A
100
AcDbEntity
  8
0
100
AcDbLine
 10
231.9258891469905
 20
344.4405459339786
 30
0.0
 11
231.9258891469905
 21
330.9666099979636
 31
0.0
  0
LINE
  5
4326
330
8C4A
100
AcDbEntity
  8
0
100
AcDbLine
 10
242.0258952505063
 20
327.2905082787429
 30
0.0
 11
231.9258891469905
 21
330.9666099979636
 31
0.0
  0
LINE
  5
4329
330
8C4A
100
AcDbEntity
  8
0
100
AcDbLine
 10
242.0258952505063
 20
324.4405459339787
 30
0.0
 11
242.0258952505063
 21
327.2905082787429
 31
0.0
  0
ARC
  5
432B
330
8C4A
100
AcDbEntity
  8
0
100
AcDbCircle
 10
238.7758952505063
 20
345.6248415882748
 30
0.0
 40
10.0
100
AcDbArc
 50
90.82161278992964
 51
149.1783802282965
  0
ARC
  5
4333
330
8C4A
100
AcDbEntity
  8
0
100
AcDbCircle
 10
221.5811015493344
 20
351.7732485706963
 30
0.0
 40
2.0
100
AcDbArc
 50
210.8216197717033
 51
258.9667967782261
  0
ARC
  5
4334
330
8C4A
100
AcDbEntity
  8
0
100
AcDbCircle
 10
211.2758952505063
 20
345.6248415882748
 30
0.0
 40
10.0
100
AcDbArc
 50
30.8216145353636
 51
89.17838538883946
  0
ARC
  5
4335
330
8C4A
100
AcDbEntity
  8
0
100
AcDbCircle
 10
211.447953355975
 20
357.6236208851495
 30
0.0
 40
2.0
100
AcDbArc
 50
221.0332033733465
 51
269.1783872100736
  0
ARC
  5
4336
330
8C4A
100
AcDbEntity
  8
0
100
AcDbCircle
 10
225.0258952505063
 20
369.4405459339785
 30
0.0
 40
20.0
100
AcDbArc
 50
258.966817268797
 51
281.0331777222513
  0
ARC
  5
4337
330
8C4A
100
AcDbEntity
  8
0
100
AcDbCircle
 10
228.4706889516781
 20
351.7732485706963
 30
0.0
 40
2.0
100
AcDbArc
 50
281.0331982128139
 51
329.178385464638
  0
ARC
  5
4348
330
8C4A
100
AcDbEntity
  8
0
100
AcDbCircle
 10
225.0258952505063
 20
369.4405459339785
 30
0.0
 40
20.0
100
AcDbArc
 50
318.9517925222653
 51
341.0476354872776
  0
ARC
  5
434D
330
8C4A
100
AcDbEntity
  8
0
100
AcDbCircle
 10
238.6038371450375
 20
357.6236208851495
 30
0.0
 40
2.0
100
AcDbArc
 50
270.8216146111605
 51
318.9667984478873
  0
ARC
  5
434E
330
8C4A
100
AcDbEntity
  8
0
100
AcDbCircle
 10
252.5258952505063
 20
369.4405459339785
 30
0.0
 40
10.0
100
AcDbArc
 50
150.8216144595706
 51
209.1783818979631
  0
ARC
  5
4352
330
8C4A
100
AcDbEntity
  8
0
100
AcDbCircle
 10
242.0486308462093
 20
363.5901888783145
 30
0.0
 40
2.0
100
AcDbArc
 50
341.033199882476
 51
29.1783837191849
  0
ARC
  5
4353
330
8C4A
100
AcDbEntity
  8
0
100
AcDbCircle
 10
242.0486308462093
 20
375.2909182484314
 30
0.0
 40
2.0
100
AcDbArc
 50
330.821616280815
 51
18.96680011752389
  0
LINE
  5
435B
330
8C4A
100
AcDbEntity
  8
0
100
AcDbLine
 10
242.0258952505063
 20
411.5905973267856
 30
0.0
 11
231.9258891469905
 21
407.9144956075634
 31
0.0
  0
ARC
  5
435F
330
8C4A
100
AcDbEntity
  8
0
100
AcDbCircle
 10
238.7758952505063
 20
393.2562502796816
 30
0.0
 40
10.0
100
AcDbArc
 50
210.8216197717033
 51
269.1783872100736
  0
ARC
  5
4361
330
8C4A
100
AcDbEntity
  8
0
100
AcDbCircle
 10
221.5811015493344
 20
387.1078432972596
 30
0.0
 40
2.0
100
AcDbArc
 50
101.0332032217737
 51
149.1783802282965
  0
ARC
  5
4362
330
8C4A
100
AcDbEntity
  8
0
100
AcDbCircle
 10
211.2758952505063
 20
393.2562502796816
 30
0.0
 40
10.0
100
AcDbArc
 50
270.8216146111605
 51
329.178385464638
  0
ARC
  5
4363
330
8C4A
100
AcDbEntity
  8
0
100
AcDbCircle
 10
211.447953355975
 20
381.2574709828064
 30
0.0
 40
2.0
100
AcDbArc
 50
90.82161278992964
 51
138.9667966266555
  0
ARC
  5
4365
330
8C4A
100
AcDbEntity
  8
0
100
AcDbCircle
 10
225.0258952505063
 20
369.4405459339785
 30
0.0
 40
20.0
100
AcDbArc
 50
78.9668222777518
 51
101.0331827312029
  0
ARC
  5
4366
330
8C4A
100
AcDbEntity
  8
0
100
AcDbCircle
 10
228.4706889516781
 20
387.1078432972596
 30
0.0
 40
2.0
100
AcDbArc
 50
30.8216145353636
 51
78.966801787186
  0
LINE
  5
4368
330
8C4A
100
AcDbEntity
  8
0
100
AcDbLine
 10
218.1259013540218
 20
394.4405459339785
 30
0.0
 11
218.1259013540218
 21
407.9143415903241
 31
0.0
  0
LINE
  5
436A
330
8C4A
100
AcDbEntity
  8
0
100
AcDbLine
 10
231.9258891469905
 20
394.4405459339785
 30
0.0
 11
231.9258891469905
 21
407.9144956075634
 31
0.0
  0
ARC
  5
436B
330
8C4A
100
AcDbEntity
  8
0
100
AcDbCircle
 10
225.0258952505063
 20
369.4405459339785
 30
0.0
 40
29.5
100
AcDbArc
 50
32.06378688878579
 51
57.93621220061101
  0
ARC
  5
4370
330
8C4A
100
AcDbEntity
  8
0
100
AcDbCircle
 10
238.6038371450375
 20
381.2574709828064
 30
0.0
 40
2.0
100
AcDbArc
 50
41.03320155211267
 51
89.17838538883946
  0
LINE
  5
4375
330
8C4A
100
AcDbEntity
  8
0
100
AcDbLine
 10
242.0258952505063
 20
414.4405459339785
 30
0.0
 11
242.0258952505063
 21
411.5905973267856
 31
0.0
  0
LINE
  5
4384
330
8C4A
100
AcDbEntity
  8
0
100
AcDbLine
 10
408.6243889397556
 20
259.9611365210042
 30
0.0
 11
368.6243889397554
 21
259.9611365210042
 31
0.0
  0
LINE
  5
438A
330
8C4A
100
AcDbEntity
  8
0
100
AcDbLine
 10
368.6243889397554
 20
259.9611365210042
 30
0.0
 11
368.6243889397554
 21
231.9611365210044
 31
0.0
  0
LINE
  5
438C
330
8C4A
100
AcDbEntity
  8
0
100
AcDbLine
 10
383.0399925774507
 20
259.9611365210042
 30
0.0
 11
383.0399925774507
 21
231.9611365210044
 31
0.0
  0
LINE
  5
438D
330
8C4A
100
AcDbEntity
  8
0
100
AcDbLine
 10
374.7849571770601
 20
259.9611365210042
 30
0.0
 11
374.7849571770601
 21
231.9611365210044
 31
0.0
  0
LINE
  5
43AD
330
8C4A
100
AcDbEntity
  8
0
100
AcDbLine
 10
368.6243889397554
 20
231.9611365210044
 30
0.0
 11
408.6243889397556
 21
231.9611365210044
 31
0.0
  0
LINE
  5
43C0
330
8C4A
100
AcDbEntity
  8
0
100
AcDbLine
 10
408.6243889397556
 20
259.9611365210042
 30
0.0
 11
408.6243889397556
 21
231.9611365210044
 31
0.0
  0
LINE
  5
43E9
330
8C4A
100
AcDbEntity
  8
0
100
AcDbLine
 10
346.4743325690046
 20
169.1111304174883
 30
0.0
 11
350.1504342882252
 21
179.2111365210043
 31
0.0
  0
LINE
  5
43EA
330
8C4A
100
AcDbEntity
  8
0
100
AcDbLine
 10
343.6243889397554
 20
203.1111609350668
 30
0.0
 11
343.6243889397554
 21
169.1111304174883
 31
0.0
  0
LINE
  5
43F0
330
8C4A
100
AcDbEntity
  8
0
100
AcDbLine
 10
363.6243889397551
 20
207.6611182104574
 30
0.0
 11
413.624388939755
 21
207.6611182104574
 31
0.0
  0
LINE
  5
43F4
330
8C4A
100
AcDbEntity
  8
0
100
AcDbLine
 10
363.6243889397559
 20
178.3611304174883
 30
0.0
 11
380.8376455571367
 21
178.3611304174883
 31
0.0
  0
LINE
  5
43F5
330
8C4A
100
AcDbEntity
  8
0
100
AcDbLine
 10
363.6243889397551
 20
199.9611060034261
 30
0.0
 11
413.624388939755
 21
199.9611060034261
 31
0.0
  0
LINE
  5
43F7
330
8C4A
100
AcDbEntity
  8
0
100
AcDbLine
 10
346.474488552686
 20
203.1111609350668
 30
0.0
 11
350.1506013793986
 21
193.0111243139735
 31
0.0
  0
LINE
  5
43F8
330
8C4A
100
AcDbEntity
  8
0
100
AcDbLine
 10
363.6243889397551
 20
207.6611182104574
 30
0.0
 11
363.6243889397559
 21
178.3611304174883
 31
0.0
  0
LINE
  5
43FF
330
8C4A
100
AcDbEntity
  8
0
100
AcDbLine
 10
343.6243889397554
 20
203.1111609350668
 30
0.0
 11
346.474488552686
 21
203.1111609350668
 31
0.0
  0
LINE
  5
4409
330
8C4A
100
AcDbEntity
  8
0
100
AcDbLine
 10
363.6243889397554
 20
193.0111243139735
 30
0.0
 11
350.1506013793986
 21
193.0111243139735
 31
0.0
  0
LINE
  5
440C
330
8C4A
100
AcDbEntity
  8
0
100
AcDbLine
 10
363.6243889397559
 20
179.2111365210043
 30
0.0
 11
350.1504342882252
 21
179.2111365210043
 31
0.0
  0
LINE
  5
4410
330
8C4A
100
AcDbEntity
  8
0
100
AcDbLine
 10
373.5188744133882
 20
178.3611304174883
 30
0.0
 11
373.5188744133882
 21
207.6611182104574
 31
0.0
  0
LINE
  5
4413
330
8C4A
100
AcDbEntity
  8
0
100
AcDbLine
 10
372.1243889397554
 20
216.6611182104574
 30
0.0
 11
405.1243889397554
 21
216.6611182104574
 31
0.0
  0
LINE
  5
4415
330
8C4A
100
AcDbEntity
  8
0
100
AcDbLine
 10
405.1243889397554
 20
219.9611365210043
 30
0.0
 11
372.1243889397554
 21
219.9611365210043
 31
0.0
  0
LINE
  5
441B
330
8C4A
100
AcDbEntity
  8
0
100
AcDbLine
 10
372.1243889397554
 20
207.6611182104574
 30
0.0
 11
372.1243889397554
 21
216.6611182104574
 31
0.0
  0
LINE
  5
441D
330
8C4A
100
AcDbEntity
  8
0
100
AcDbLine
 10
377.6243889397556
 20
219.9611365210043
 30
0.0
 11
377.6243889397556
 21
216.6611182104574
 31
0.0
  0
ARC
  5
4442
330
8C4A
100
AcDbEntity
  8
0
100
AcDbCircle
 10
380.8376457756928
 20
183.3611304174883
 30
0.0
 40
5.0
100
AcDbArc
 50
269.9999974955312
 51
330.0000016696571
  0
ARC
  5
447F
330
8C4A
100
AcDbEntity
  8
0
100
AcDbCircle
 10
388.6169121331146
 20
180.8611304174883
 30
0.0
 40
3.0
100
AcDbArc
 50
30.000003339306
 51
90.00000500896343
  0
LINE
  5
4480
330
8C4A
100
AcDbEntity
  8
0
100
AcDbLine
 10
386.0337748788468
 20
182.3611292653643
 30
0.0
 11
385.1677470351578
 21
180.8611250662485
 31
0.0
  0
ARC
  5
4481
330
8C4A
100
AcDbEntity
  8
0
100
AcDbCircle
 10
388.6318657463959
 20
180.8611304174883
 30
0.0
 40
3.0
100
AcDbArc
 50
90.00000865141487
 51
149.9999966606939
  0
LINE
  5
4482
330
8C4A
100
AcDbEntity
  8
0
100
AcDbLine
 10
388.6318657463961
 20
183.8611304174883
 30
0.0
 11
388.6169121331148
 21
183.8611304174883
 31
0.0
  0
LINE
  5
4484
330
8C4A
100
AcDbEntity
  8
0
100
AcDbLine
 10
392.0809964170316
 20
180.8611356786695
 30
0.0
 11
391.2149685733428
 21
182.3611398777865
 31
0.0
  0
ARC
  5
4485
330
8C4A
100
AcDbEntity
  8
0
100
AcDbCircle
 10
396.4111321038177
 20
183.3611304174883
 30
0.0
 40
5.0
100
AcDbArc
 50
210.0000051605323
 51
269.9999974955312
  0
LINE
  5
448D
330
8C4A
100
AcDbEntity
  8
0
100
AcDbLine
 10
343.6243889397554
 20
169.1111304174883
 30
0.0
 11
346.4743325690046
 21
169.1111304174883
 31
0.0
  0
LINE
  5
448F
330
8C4A
100
AcDbEntity
  8
0
100
AcDbLine
 10
433.6243889397557
 20
203.1111609350668
 30
0.0
 11
433.6243889397557
 21
169.1111304174883
 31
0.0
  0
LINE
  5
4490
330
8C4A
100
AcDbEntity
  8
0
100
AcDbLine
 10
430.7744346909821
 20
169.1111304174883
 30
0.0
 11
427.09833297176
 21
179.2111365210043
 31
0.0
  0
LINE
  5
4491
330
8C4A
100
AcDbEntity
  8
0
100
AcDbLine
 10
430.7743111834269
 20
203.1111609350668
 30
0.0
 11
427.0981983567147
 21
193.0111243139735
 31
0.0
  0
LINE
  5
449E
330
8C4A
100
AcDbEntity
  8
0
100
AcDbLine
 10
399.6243889397554
 20
216.6611182104574
 30
0.0
 11
399.6243889397554
 21
219.9611365210043
 31
0.0
  0
LINE
  5
44A2
330
8C4A
100
AcDbEntity
  8
0
100
AcDbLine
 10
405.1243889397554
 20
207.6611182104574
 30
0.0
 11
405.1243889397554
 21
216.6611182104574
 31
0.0
  0
LINE
  5
44A9
330
8C4A
100
AcDbEntity
  8
0
100
AcDbLine
 10
413.624388939755
 20
207.6611182104574
 30
0.0
 11
413.6243889397554
 21
178.3611304174883
 31
0.0
  0
LINE
  5
44D4
330
8C4A
100
AcDbEntity
  8
0
100
AcDbLine
 10
413.624388939755
 20
193.0111243139735
 30
0.0
 11
427.0981983567147
 21
193.0111243139735
 31
0.0
  0
LINE
  5
44D6
330
8C4A
100
AcDbEntity
  8
0
100
AcDbLine
 10
413.6243889397554
 20
179.2111365210043
 30
0.0
 11
427.09833297176
 21
179.2111365210043
 31
0.0
  0
LINE
  5
44DD
330
8C4A
100
AcDbEntity
  8
0
100
AcDbLine
 10
433.6243889397557
 20
203.1111609350668
 30
0.0
 11
430.7743111834269
 21
203.1111609350668
 31
0.0
  0
LINE
  5
44E9
330
8C4A
100
AcDbEntity
  8
0
100
AcDbLine
 10
433.6243889397557
 20
169.1111304174883
 30
0.0
 11
430.7744346909821
 21
169.1111304174883
 31
0.0
  0
LINE
  5
44EA
330
8C4A
100
AcDbEntity
  8
0
100
AcDbLine
 10
403.7299034661227
 20
178.3611304174883
 30
0.0
 11
403.7299034661227
 21
207.6611182104574
 31
0.0
  0
LINE
  5
44EB
330
8C4A
100
AcDbEntity
  8
0
100
AcDbLine
 10
394.2087853020601
 20
259.9611365210042
 30
0.0
 11
394.2087853020601
 21
231.9611365210044
 31
0.0
  0
LINE
  5
44EC
330
8C4A
100
AcDbEntity
  8
0
100
AcDbLine
 10
402.4638207024508
 20
259.9611365210042
 30
0.0
 11
402.4638207024508
 21
231.9611365210044
 31
0.0
  0
LINE
  5
44EE
330
8C4A
100
AcDbEntity
  8
0
100
AcDbLine
 10
200.6778392223917
 20
178.3611304174883
 30
0.0
 11
209.8952051708173
 21
178.3611304174883
 31
0.0
  0
LINE
  5
44EF
330
8C4A
100
AcDbEntity
  8
0
100
AcDbLine
 10
200.6778392223908
 20
207.6611182104574
 30
0.0
 11
250.6778392223908
 21
207.6611182104574
 31
0.0
  0
LINE
  5
44F0
330
8C4A
100
AcDbEntity
  8
0
100
AcDbLine
 10
200.6778392223908
 20
199.9611060034261
 30
0.0
 11
215.1679483174235
 21
199.9611060034261
 31
0.0
  0
LINE
  5
44F1
330
8C4A
100
AcDbEntity
  8
0
100
AcDbLine
 10
200.6778392223908
 20
207.6611182104574
 30
0.0
 11
200.6778392223917
 21
178.3611304174883
 31
0.0
  0
LINE
  5
44FB
330
8C4A
100
AcDbEntity
  8
0
100
AcDbLine
 10
250.6778392223908
 20
207.6611182104574
 30
0.0
 11
250.6778392223913
 21
178.3611304174883
 31
0.0
  0
LINE
  5
44FC
330
8C4A
100
AcDbEntity
  8
0
100
AcDbLine
 10
210.572324696024
 20
195.0607164495421
 30
0.0
 11
210.572324696024
 21
207.6611182104574
 31
0.0
  0
LINE
  5
44FD
330
8C4A
100
AcDbEntity
  8
0
100
AcDbLine
 10
240.7833537487585
 20
192.4910375621115
 30
0.0
 11
240.7833537487585
 21
207.6611182104574
 31
0.0
  0
LINE
  5
44FE
330
8C4A
100
AcDbEntity
  8
0
100
AcDbLine
 10
211.8384074596959
 20
259.9611365210042
 30
0.0
 11
211.8384074596959
 21
231.9611365210044
 31
0.0
  0
LINE
  5
44FF
330
8C4A
100
AcDbEntity
  8
0
100
AcDbLine
 10
220.0934428600866
 20
259.9611365210042
 30
0.0
 11
220.0934428600866
 21
231.9611365210044
 31
0.0
  0
LINE
  5
4500
330
8C4A
100
AcDbEntity
  8
0
100
AcDbLine
 10
205.6778392223913
 20
259.9611365210042
 30
0.0
 11
205.6778392223913
 21
231.9611365210044
 31
0.0
  0
LINE
  5
4501
330
8C4A
100
AcDbEntity
  8
0
100
AcDbLine
 10
245.6778392223913
 20
259.9611365210042
 30
0.0
 11
245.6778392223913
 21
231.9611365210044
 31
0.0
  0
LINE
  5
4502
330
8C4A
100
AcDbEntity
  8
0
100
AcDbLine
 10
231.262235584696
 20
259.9611365210042
 30
0.0
 11
231.262235584696
 21
231.9611365210044
 31
0.0
  0
LINE
  5
4503
330
8C4A
100
AcDbEntity
  8
0
100
AcDbLine
 10
239.5172709850865
 20
259.9611365210042
 30
0.0
 11
239.5172709850865
 21
231.9611365210044
 31
0.0
  0
LINE
  5
4504
330
8C4A
100
AcDbEntity
  8
0
100
AcDbLine
 10
245.6778392223913
 20
259.9611365210042
 30
0.0
 11
205.6778392223913
 21
259.9611365210042
 31
0.0
  0
LINE
  5
4505
330
8C4A
100
AcDbEntity
  8
0
100
AcDbLine
 10
205.6778392223913
 20
231.9611365210044
 30
0.0
 11
245.6778392223913
 21
231.9611365210044
 31
0.0
  0
LINE
  5
4506
330
8C4A
100
AcDbEntity
  8
0
100
AcDbLine
 10
242.1778392223913
 20
219.9611365210043
 30
0.0
 11
209.1778392223913
 21
219.9611365210043
 31
0.0
  0
LINE
  5
4507
330
8C4A
100
AcDbEntity
  8
0
100
AcDbLine
 10
209.1778392223913
 20
216.6611182104574
 30
0.0
 11
242.1778392223913
 21
216.6611182104574
 31
0.0
  0
LINE
  5
4508
330
8C4A
100
AcDbEntity
  8
0
100
AcDbLine
 10
236.6778392223913
 20
216.6611182104574
 30
0.0
 11
236.6778392223913
 21
219.9611365210043
 31
0.0
  0
LINE
  5
4509
330
8C4A
100
AcDbEntity
  8
0
100
AcDbLine
 10
242.1778392223913
 20
219.9611365210043
 30
0.0
 11
242.1778392223913
 21
231.9611365210044
 31
0.0
  0
LINE
  5
450A
330
8C4A
100
AcDbEntity
  8
0
100
AcDbLine
 10
209.1778392223913
 20
219.9611365210043
 30
0.0
 11
209.1778392223913
 21
231.9611365210044
 31
0.0
  0
LINE
  5
450B
330
8C4A
100
AcDbEntity
  8
0
100
AcDbLine
 10
214.6778392223913
 20
219.9611365210043
 30
0.0
 11
214.6778392223913
 21
216.6611182104574
 31
0.0
  0
LINE
  5
450C
330
8C4A
100
AcDbEntity
  8
0
100
AcDbLine
 10
209.1778392223913
 20
207.6611182104574
 30
0.0
 11
209.1778392223913
 21
216.6611182104574
 31
0.0
  0
LINE
  5
450D
330
8C4A
100
AcDbEntity
  8
0
100
AcDbLine
 10
242.1778392223913
 20
207.6611182104574
 30
0.0
 11
242.1778392223913
 21
216.6611182104574
 31
0.0
  0
CIRCLE
  5
4513
330
8C4A
100
AcDbEntity
  8
0
100
AcDbCircle
 10
225.0258952505063
 20
186.1111456762775
 30
0.0
 40
17.00001525878906
  0
CIRCLE
  5
4514
330
8C4A
100
AcDbEntity
  8
0
100
AcDbCircle
 10
225.0258952505063
 20
186.1111456762775
 30
0.0
 40
6.899978637695311
  0
LINE
  5
451C
330
8C4A
100
AcDbEntity
  8
0
100
AcDbLine
 10
240.1565853301951
 20
178.3611304174883
 30
0.0
 11
250.6778392223913
 21
178.3611304174883
 31
0.0
  0
LINE
  5
451E
330
8C4A
100
AcDbEntity
  8
0
100
AcDbLine
 10
234.8838421835891
 20
199.9611060034261
 30
0.0
 11
250.6778392223908
 21
199.9611060034261
 31
0.0
  0
LINE
  5
4BD9
330
8C4A
100
AcDbEntity
  8
0
100
AcDbLine
 10
396.4111318852616
 20
178.3611304174883
 30
0.0
 11
413.6243889397554
 21
178.3611304174883
 31
0.0
  0
LINE
  5
8D14
330
8C4A
100
AcDbEntity
  8
0
  6
CENTER
100
AcDbLine
 10
255.857026712092
 20
186.1111456762776
 30
0.0
 11
194.1947637889205
 21
186.1111456762774
 31
0.0
  0
LINE
  5
8D15
330
8C4A
100
AcDbEntity
  8
0
  6
CENTER
100
AcDbLine
 10
225.0258952505063
 20
157.2443654590242
 30
0.0
 11
225.0258952505063
 21
271.8153587393518
 31
0.0
  0
LINE
  5
8D16
330
8C4A
100
AcDbEntity
  8
0
  6
CENTER
100
AcDbLine
 10
445.759612642705
 20
186.1111456762776
 30
0.0
 11
331.5041188500871
 21
186.1111456762776
 31
0.0
  0
LINE
  5
8D17
330
8C4A
100
AcDbEntity
  8
0
  6
CENTER
100
AcDbLine
 10
388.6318657463961
 20
175.0749963516577
 30
0.0
 11
388.6318657463961
 21
271.0741684195125
 31
0.0
  0
LINE
  5
8D18
330
8C4A
100
AcDbEntity
  8
0
  6
CENTER
100
AcDbLine
 10
225.0258952505063
 20
303.1354413200455
 30
0.0
 11
225.0258952505063
 21
435.7456505479116
 31
0.0
  0
LINE
  5
8D19
330
8C4A
100
AcDbEntity
  8
0
  6
CENTER
100
AcDbLine
 10
259.1115798646894
 20
369.4405459339786
 30
0.0
 11
190.9402106363231
 21
369.4405459339784
 31
0.0
  0
SPLINE
  5
8EF3
330
8C4A
100
AcDbEntity
  8
Visible (ISO)
100
AcDbSpline
210
0.0
220
0.0
230
1.0
 70
     8
 71
     3
 72
    10
 73
     6
 74
     0
 42
0.0000000001
 43
0.0000000001
 40
1.373926011701411
 40
1.373926011701411
 40
1.373926011701411
 40
1.373926011701411
 40
1.452016626737377
 40
1.452016626737377
 40
1.457164195614173
 40
1.457164195614173
 40
1.457164195614173
 40
1.457164195614173
 10
843.7017240971343
 20
239.9479191098783
 30
0.0
 10
843.9495868804986
 20
239.8507067387402
 30
0.0
 10
844.1932940252351
 20
239.7499905496172
 30
0.0
 10
844.4475395486277
 20
239.6388953530425
 30
0.0
 10
844.463279705789
 20
239.6319924434177
 30
0.0
 10
844.4790359871042
 20
239.6250568932194
 30
0.0
  0
LINE
  5
8EF4
330
8C4A
100
AcDbEntity
  8
Visible (ISO)
100
AcDbLine
 10
821.8617235291292
 20
226.8251228490247
 30
0.0
 11
843.7017240971343
 21
239.9479191098783
 31
0.0
  0
SPLINE
  5
8EF5
330
8C4A
100
AcDbEntity
  8
Visible (ISO)
100
AcDbSpline
210
0.0
220
0.0
230
1.0
 70
     8
 71
     3
 72
    18
 73
    14
 74
     0
 42
0.0000000001
 43
0.0000000001
 40
2.449789672836276
 40
2.449789672836276
 40
2.449789672836276
 40
2.449789672836276
 40
2.476982571578473
 40
2.476982571578473
 40
2.757060018455137
 40
2.757060018455137
 40
3.037137465331801
 40
3.037137465331801
 40
3.317214912208464
 40
3.317214912208464
 40
3.597292359085127
 40
3.597292359085127
 40
3.624485257827325
 40
3.624485257827325
 40
3.624485257827325
 40
3.624485257827325
 10
826.8434038935968
 20
218.5342144308136
 30
0.0
 10
826.7925752714138
 20
218.5466348952326
 30
0.0
 10
826.7418704826043
 20
218.5600914498921
 30
0.0
 10
826.1709195736719
 20
218.7235620346203
 30
0.0
 10
825.5901003627284
 20
219.0088544540452
 30
0.0
 10
824.4884448233849
 20
219.9012309544799
 30
0.0
 10
823.9707176532808
 20
220.5127031815321
 30
0.0
 10
823.1378867199461
 20
221.8987666161486
 30
0.0
 10
822.7690862078167
 20
222.7627242211732
 30
0.0
 10
822.213098822344
 20
224.6291288295727
 30
0.0
 10
822.0212916854436
 20
225.629702588389
 30
0.0
 10
821.8846053674399
 20
226.6439381213971
 30
0.0
 10
821.8729437492905
 20
226.7342766982277
 30
0.0
 10
821.8617235291292
 20
226.8251228490247
 30
0.0
  0
LINE
  5
8EF6
330
8C4A
100
AcDbEntity
  8
Visible (ISO)
100
AcDbLine
 10
848.6834044616019
 20
231.6570106916672
 30
0.0
 11
826.8434038935968
 21
218.5342144308136
 31
0.0
  0
SPLINE
  5
8EF7
330
8C4A
100
AcDbEntity
  8
Visible (ISO)
100
AcDbSpline
210
0.0
220
0.0
230
1.0
 70
     8
 71
     3
 72
    10
 73
     6
 74
     0
 42
0.0000000001
 43
0.0000000001
 40
2.554399938987153
 40
2.554399938987153
 40
2.554399938987153
 40
2.554399938987153
 40
2.55954750786395
 40
2.55954750786395
 40
2.637638122899916
 40
2.637638122899916
 40
2.637638122899916
 40
2.637638122899916
 10
848.9482053628696
 20
232.1871099979837
 30
0.0
 10
848.9433040905899
 20
232.1759797793623
 30
0.0
 10
848.9383777038895
 20
232.164885552684
 30
0.0
 10
848.8583244813474
 20
231.98607607697
 30
0.0
 10
848.7747631682598
 20
231.8202648442951
 30
0.0
 10
848.6834044616019
 20
231.6570106916672
 30
0.0
  0
LINE
  5
8EF8
330
8C4A
100
AcDbEntity
  8
Visible (ISO)
100
AcDbLine
 10
844.4790359871046
 20
239.6250568932194
 30
0.0
 11
848.9482053628696
 21
232.1871099979847
 31
0.0
  0
SPLINE
  5
8EF9
330
8C4A
100
AcDbEntity
  8
Visible (ISO)
100
AcDbSpline
210
0.0
220
0.0
230
1.0
 70
     8
 71
     3
 72
    12
 73
     8
 74
     0
 42
0.0000000001
 43
0.0000000001
 40
2.449789672836275
 40
2.449789672836275
 40
2.449789672836275
 40
2.449789672836275
 40
2.476982571578473
 40
2.476982571578473
 40
2.757060018455136
 40
2.757060018455136
 40
3.037137465331798
 40
3.037137465331798
 40
3.0371374653318
 40
3.0371374653318
 10
819.4070276511473
 20
230.9104228341606
 30
0.0
 10
819.3992815469812
 20
230.8511419477966
 30
0.0
 10
819.3915522826758
 20
230.7930752187815
 30
0.0
 10
819.3046177743132
 20
230.1510072389195
 30
0.0
 10
819.2164052295749
 20
229.6164644909098
 30
0.0
 10
819.0862019777384
 20
228.8920728811639
 30
0.0
 10
819.047719031151
 20
228.7059487799836
 30
0.0
 10
819.047719031151
 20
228.7059487799836
 30
0.0
  0
LINE
  5
8EFA
330
8C4A
100
AcDbEntity
  8
Visible (ISO)
100
AcDbLine
 10
841.2470282191522
 20
244.0332190950142
 30
0.0
 11
819.4070276511473
 21
230.9104228341606
 31
0.0
  0
SPLINE
  5
8EFB
330
8C4A
100
AcDbEntity
  8
Visible (ISO)
100
AcDbSpline
210
0.0
220
0.0
230
1.0
 70
     8
 71
     3
 72
    10
 73
     6
 74
     0
 42
0.0000000001
 43
0.0000000001
 40
2.554399938987156
 40
2.554399938987156
 40
2.554399938987156
 40
2.554399938987156
 40
2.559547507863951
 40
2.559547507863951
 40
2.637638122899917
 40
2.637638122899917
 40
2.637638122899917
 40
2.637638122899917
 10
841.8605573600391
 20
243.9829371472181
 30
0.0
 10
841.8484146464322
 20
243.9838587108191
 30
0.0
 10
841.8362655055227
 20
243.9847851657762
 30
0.0
 10
841.6397244246862
 20
243.9998440425655
 30
0.0
 10
841.4470527679075
 20
244.0156229162079
 30
0.0
 10
841.2470282191522
 20
244.0332190950142
 30
0.0
  0
SPLINE
  5
8EFC
330
8C4A
100
AcDbEntity
  8
Visible (ISO)
100
AcDbSpline
210
0.0
220
0.0
230
1.0
 70
     8
 71
     3
 72
    10
 73
     6
 74
     0
 42
0.0000000001
 43
0.0000000001
 40
1.373926011701412
 40
1.373926011701412
 40
1.373926011701412
 40
1.373926011701412
 40
1.452016626737379
 40
1.452016626737379
 40
1.457164195614175
 40
1.457164195614175
 40
1.457164195614175
 40
1.457164195614175
 10
861.0291724600154
 20
211.1102023180477
 30
0.0
 10
861.1075417937943
 20
211.2950744174471
 30
0.0
 10
861.1840637391058
 20
211.4726011254809
 30
0.0
 10
861.2630379884661
 20
211.6532063141224
 30
0.0
 10
861.2679236534612
 20
211.6643683131008
 30
0.0
 10
861.2728106198307
 20
211.6755223407547
 30
0.0
  0
LINE
  5
8EFD
330
8C4A
100
AcDbEntity
  8
Visible (ISO)
100
AcDbLine
 10
839.1891718920108
 20
197.987406057194
 30
0.0
 11
861.0291724600154
 21
211.1102023180477
 31
0.0
  0
SPLINE
  5
8EFE
330
8C4A
100
AcDbEntity
  8
Visible (ISO)
100
AcDbSpline
210
0.0
220
0.0
230
1.0
 70
     8
 71
     3
 72
    12
 73
     8
 74
     0
 42
0.0000000001
 43
0.0000000001
 40
3.037137465331795
 40
3.037137465331795
 40
3.037137465415075
 40
3.037137465415075
 40
3.317214912208459
 40
3.317214912208459
 40
3.597292359085122
 40
3.597292359085122
 40
3.62448525782732
 40
3.62448525782732
 40
3.62448525782732
 40
3.62448525782732
 10
837.0740516530029
 20
198.7050932554105
 30
0.0
 10
837.074051653111
 20
198.7050932553778
 30
0.0
 10
837.2564561292918
 20
198.6516917077791
 30
0.0
 10
837.9571826814192
 20
198.4265730945083
 30
0.0
 10
838.4705691952905
 20
198.2535075292601
 30
0.0
 10
839.0782948520625
 20
198.0288334862346
 30
0.0
 10
839.1331934004639
 20
198.0083973435315
 30
0.0
 10
839.1891718920108
 20
197.987406057194
 30
0.0
  0
LINE
  5
8EFF
330
8C4A
100
AcDbEntity
  8
Visible (ISO)
100
AcDbLine
 10
854.1851626169998
 20
223.4713494899882
 30
0.0
 11
848.9482053628696
 21
232.1871099979847
 31
0.0
  0
LINE
  5
8F00
330
8C4A
100
AcDbEntity
  8
Visible (ISO)
100
AcDbLine
 10
861.2728106198307
 20
211.6755223407547
 30
0.0
 11
858.6543319927656
 21
216.0334025947525
 31
0.0
  0
LINE
  5
8F01
330
8C4A
100
AcDbEntity
  8
Visible (ISO)
100
AcDbLine
 10
844.4790359871046
 20
239.6250568932194
 30
0.0
 11
841.8605573600391
 21
243.9829371472181
 31
0.0
  0
LINE
  5
8F02
330
8C4A
100
AcDbEntity
  8
Visible (ISO)
100
AcDbLine
 10
853.5927962175662
 20
223.4864107213946
 30
0.0
 11
848.6834044616019
 21
231.6570106916672
 31
0.0
  0
LINE
  5
8F03
330
8C4A
100
AcDbEntity
  8
Visible (ISO)
100
AcDbLine
 10
861.0291724600157
 20
211.1102023180468
 30
0.0
 11
858.5744765820338
 21
215.1955023031836
 31
0.0
  0
LINE
  5
8F04
330
8C4A
100
AcDbEntity
  8
Visible (ISO)
100
AcDbLine
 10
831.7527956495611
 20
210.363614460541
 30
0.0
 11
826.8434038935968
 21
218.5342144308136
 31
0.0
  0
LINE
  5
8F05
330
8C4A
100
AcDbEntity
  8
Visible (ISO)
100
AcDbLine
 10
839.1891718920112
 20
197.987406057194
 30
0.0
 11
836.7344760140287
 21
202.0727060423299
 31
0.0
  0
LINE
  5
8F06
330
8C4A
100
AcDbEntity
  8
Visible (ISO)
100
AcDbLine
 10
816.735005175459
 20
187.6507945956985
 30
0.0
 11
799.7387487034273
 21
215.9373155188681
 31
0.0
  0
LINE
  5
8F07
330
8C4A
100
AcDbEntity
  8
Visible (ISO)
100
AcDbLine
 10
824.920952897164
 20
192.5694082110897
 30
0.0
 11
807.9246964251327
 21
220.8559291342583
 31
0.0
  0
LINE
  5
8F08
330
8C4A
100
AcDbEntity
  8
Visible (ISO)
100
AcDbLine
 10
836.0641278062914
 20
199.2649031849199
 30
0.0
 11
819.0678713342597
 21
227.5514241080894
 31
0.0
  0
LINE
  5
8F09
330
8C4A
100
AcDbEntity
  8
Visible (ISO)
100
AcDbLine
 10
821.8617235291292
 20
226.8251228490247
 30
0.0
 11
819.4070276511476
 21
230.9104228341606
 31
0.0
  0
LINE
  5
8F0A
330
8C4A
100
AcDbEntity
  8
Visible (ISO)
100
AcDbLine
 10
843.7017240971343
 20
239.9479191098783
 30
0.0
 11
841.2470282191522
 21
244.0332190950142
 31
0.0
  0
LINE
  5
8F0B
330
8C4A
100
AcDbEntity
  8
Visible (ISO)
100
AcDbLine
 10
792.1099597271789
 20
211.3534766521682
 30
0.0
 11
799.7387487034273
 21
215.9373155188681
 31
0.0
  0
LINE
  5
8F0C
330
8C4A
100
AcDbEntity
  8
Visible (ISO)
100
AcDbLine
 10
809.1062161992102
 20
183.0669557289987
 30
0.0
 11
816.735005175459
 21
187.6507945956985
 31
0.0
  0
LINE
  5
8F0D
330
8C4A
100
AcDbEntity
  8
Visible (ISO)
100
AcDbLine
 10
802.5714581154327
 20
211.2228953650067
 30
0.0
 11
810.7574058371376
 21
216.1415089803971
 31
0.0
  0
LINE
  5
8F0E
330
8C4A
100
AcDbEntity
  8
Visible (ISO)
100
AcDbLine
 10
813.9022957634535
 20
192.3652147495598
 30
0.0
 11
822.0882434851588
 21
197.283828364951
 31
0.0
  0
LINE
  5
8F0F
330
8C4A
100
AcDbEntity
  8
Visible (ISO)
100
AcDbLine
 10
807.9246964251327
 20
220.8559291342592
 30
0.0
 11
819.0678713342597
 21
227.5514241080894
 31
0.0
  0
LINE
  5
8F10
330
8C4A
100
AcDbEntity
  8
0
  6
CENTER
100
AcDbLine
 10
760.3735794663296
 20
173.0348845088895
 30
0.0
 11
855.7429244786556
 21
230.3385681892462
 31
0.0
  0
LINE
  5
8F11
330
8C4A
100
AcDbEntity
  8
Visible (ISO)
100
AcDbLine
 10
824.9209528971643
 20
192.5694082110897
 30
0.0
 11
836.0641278062919
 21
199.2649031849199
 31
0.0
  0
LINE
  5
8F12
330
8C4A
100
AcDbEntity
  8
Visible (ISO)
100
AcDbLine
 10
819.0678713342597
 20
227.5514241080894
 30
0.0
 11
819.047719031151
 21
228.7059487799836
 31
0.0
  0
LINE
  5
8F13
330
8C4A
100
AcDbEntity
  8
Visible (ISO)
100
AcDbLine
 10
836.0641278062919
 20
199.2649031849199
 30
0.0
 11
837.0740516530029
 21
198.7050932554105
 31
0.0
  0
LINE
  5
8F14
330
8C4A
100
AcDbEntity
  8
Visible (ISO)
100
AcDbLine
 10
854.1851626169998
 20
223.4713494899882
 30
0.0
 11
858.6543319927653
 21
216.0334025947525
 31
0.0
  0
SPLINE
  5
8F15
330
8C4A
100
AcDbEntity
  8
Visible (ISO)
100
AcDbSpline
210
0.0
220
0.0
230
1.0
 70
     8
 71
     3
 72
    10
 73
     6
 74
     0
 42
0.0000000001
 43
0.0000000001
 40
1.373636215080867
 40
1.373636215080867
 40
1.373636215080867
 40
1.373636215080867
 40
1.451726830116834
 40
1.451726830116834
 40
1.456874398993631
 40
1.456874398993631
 40
1.456874398993631
 40
1.456874398993631
 10
853.5927962175659
 20
223.4864107213946
 30
0.0
 10
853.779831393442
 20
223.4904324893598
 30
0.0
 10
853.9654636824449
 20
223.4863690910755
 30
0.0
 10
854.1609257900994
 20
223.4731059272156
 30
0.0
 10
854.1730342093035
 20
223.4722472445576
 30
0.0
 10
854.1851626170002
 20
223.4713494899882
 30
0.0
  0
SPLINE
  5
8F16
330
8C4A
100
AcDbEntity
  8
Visible (ISO)
100
AcDbSpline
210
0.0
220
0.0
230
1.0
 70
     8
 71
     3
 72
    10
 73
     6
 74
     0
 42
0.0000000001
 43
0.0000000001
 40
2.55411014236661
 40
2.55411014236661
 40
2.55411014236661
 40
2.55411014236661
 40
2.559257711243407
 40
2.559257711243407
 40
2.637348326279373
 40
2.637348326279373
 40
2.637348326279373
 40
2.637348326279373
 10
858.6543319927656
 20
216.0334025947525
 30
0.0
 10
858.6530585941043
 20
216.0162345805032
 30
0.0
 10
858.6517639453612
 20
215.9990961268561
 30
0.0
 10
858.6304941385572
 20
215.7224546184282
 30
0.0
 10
858.6050076812032
 20
215.4599905949147
 30
0.0
 10
858.5744765820335
 20
215.1955023031836
 30
0.0
  0
LINE
  5
8F17
330
8C4A
100
AcDbEntity
  8
Visible (ISO)
100
AcDbLine
 10
831.7527956495611
 20
210.363614460541
 30
0.0
 11
853.5927962175659
 21
223.4864107213946
 31
0.0
  0
LINE
  5
8F18
330
8C4A
100
AcDbEntity
  8
Visible (ISO)
100
AcDbLine
 10
858.5744765820335
 20
215.1955023031836
 30
0.0
 11
836.7344760140284
 21
202.0727060423299
 31
0.0
  0
SPLINE
  5
8F19
330
8C4A
100
AcDbEntity
  8
Visible (ISO)
100
AcDbSpline
210
0.0
220
0.0
230
1.0
 70
     8
 71
     3
 72
    18
 73
    14
 74
     0
 42
0.0000000001
 43
0.0000000001
 40
2.445796843518607
 40
2.445796843518607
 40
2.445796843518607
 40
2.445796843518607
 40
2.472989742260805
 40
2.472989742260805
 40
2.753067189137468
 40
2.753067189137468
 40
3.033144636014132
 40
3.033144636014132
 40
3.313222082890795
 40
3.313222082890795
 40
3.593299529767458
 40
3.593299529767458
 40
3.620492428509656
 40
3.620492428509656
 40
3.620492428509656
 40
3.620492428509656
 10
836.7344760140284
 20
202.0727060423299
 30
0.0
 10
836.6595311981551
 20
202.1252625931004
 30
0.0
 10
836.5852417672975
 20
202.1779705836191
 30
0.0
 10
835.7538952841602
 20
202.7748121797916
 30
0.0
 10
834.9604890886505
 20
203.4139087558445
 30
0.0
 10
833.5735718991097
 20
204.7810403678034
 30
0.0
 10
832.9838839642073
 20
205.5122754192455
 30
0.0
 10
832.1510530308726
 20
206.8983388538611
 30
0.0
 10
831.8542132835412
 20
207.6425336344967
 30
0.0
 10
831.5834875482662
 20
209.034183131372
 30
0.0
 10
831.6042673959321
 20
209.6809527335593
 30
0.0
 10
831.7279766521339
 20
210.2618172551232
 30
0.0
 10
831.7398996760314
 20
210.3129043960946
 30
0.0
 10
831.7527956495611
 20
210.363614460541
 30
0.0
  0
LINE
  5
8F1A
330
8C4A
100
AcDbEntity
  8
Visible (ISO)
100
AcDbLine
 10
798.6550455337995
 20
166.870874977087
 30
0.0
 11
794.2567126799028
 21
174.1909301023755
 31
0.0
  0
LINE
  5
8F1B
330
8C4A
100
AcDbEntity
  8
Visible (ISO)
100
AcDbLine
 10
777.3014746421933
 20
202.4091848869032
 30
0.0
 11
772.9031417882968
 21
209.7292400121917
 31
0.0
  0
LINE
  5
8F1C
330
8C4A
100
AcDbEntity
  8
Visible (ISO)
100
AcDbLine
 10
802.0736327965185
 20
179.8207889906574
 30
0.0
 11
795.8714944558798
 21
176.0941683080075
 31
0.0
  0
LINE
  5
8F1D
330
8C4A
100
AcDbEntity
  8
Visible (ISO)
100
AcDbLine
 10
802.0736327965185
 20
179.8207889906574
 30
0.0
 11
799.085075498507
 21
184.7945835835674
 31
0.0
  0
LINE
  5
8F1E
330
8C4A
100
AcDbEntity
  8
Visible (ISO)
100
AcDbLine
 10
788.9307239970697
 20
201.6942624439856
 30
0.0
 11
785.9421666990576
 21
206.6680570368938
 31
0.0
  0
LINE
  5
8F1F
330
8C4A
100
AcDbEntity
  8
Visible (ISO)
100
AcDbLine
 10
785.9421666990581
 20
206.6680570368938
 30
0.0
 11
779.7400283584195
 21
202.941436354244
 31
0.0
  0
LINE
  5
8F20
330
8C4A
100
AcDbEntity
  8
Visible (ISO)
100
AcDbLine
 10
781.1319478750371
 20
214.6736055313288
 30
0.0
 11
785.9421666990581
 21
206.6680570368947
 31
0.0
  0
LINE
  5
8F21
330
8C4A
100
AcDbEntity
  8
Visible (ISO)
100
AcDbLine
 10
802.073632796519
 20
179.8207889906574
 30
0.0
 11
806.8838516205394
 21
171.8152404962223
 31
0.0
  0
LINE
  5
8F22
330
8C4A
100
AcDbEntity
  8
Visible (ISO)
100
AcDbLine
 10
781.1319478750371
 20
214.6736055313288
 30
0.0
 11
772.9031417882968
 21
209.7292400121917
 31
0.0
  0
LINE
  5
8F23
330
8C4A
100
AcDbEntity
  8
Visible (ISO)
100
AcDbLine
 10
806.8838516205394
 20
171.8152404962232
 30
0.0
 11
798.6550455337995
 21
166.870874977087
 31
0.0
  0
LINE
  5
8F24
330
8C4A
100
AcDbEntity
  8
Visible (ISO)
100
AcDbLine
 10
768.9182895491878
 20
204.1290424675547
 30
0.0
 11
771.68718574128
 21
199.5208253462973
 31
0.0
  0
LINE
  5
8F25
330
8C4A
100
AcDbEntity
  8
Visible (ISO)
100
AcDbLine
 10
768.9182895491874
 20
204.1290424675547
 30
0.0
 11
774.3184435436107
 21
207.3737823394879
 31
0.0
  0
LINE
  5
8F26
330
8C4A
100
AcDbEntity
  8
Visible (ISO)
100
AcDbLine
 10
791.8395897840617
 20
165.9815927778584
 30
0.0
 11
789.070693591969
 21
170.5898098991159
 31
0.0
  0
LINE
  5
8F27
330
8C4A
100
AcDbEntity
  8
Visible (ISO)
100
AcDbLine
 10
797.239743778485
 20
169.2263326497908
 30
0.0
 11
791.8395897840617
 21
165.9815927778584
 31
0.0
  0
CIRCLE
  5
8F28
330
8C4A
100
AcDbEntity
  8
Visible (ISO)
100
AcDbCircle
 10
782.1361326330636
 20
186.1111456762722
 30
0.0
 40
16.99999999999999
  0
CIRCLE
  5
8F29
330
8C4A
100
AcDbEntity
  8
Visible (ISO)
100
AcDbCircle
 10
782.1361326330636
 20
186.1111456762722
 30
0.0
 40
5.249999999999995
  0
LINE
  5
8F2A
330
8C4A
100
AcDbEntity
  8
Visible (ISO)
100
AcDbLine
 10
812.6268725352435
 20
175.265995598121
 30
0.0
 11
807.8166537112226
 21
183.2715440925552
 31
0.0
  0
SPLINE
  5
8F2B
330
8C4A
100
AcDbEntity
  8
Visible (ISO)
100
AcDbSpline
210
0.0
220
0.0
230
1.0
 70
    24
 71
     3
 72
     8
 73
     4
 74
     0
 42
0.0000000001
 43
0.0000000001
 40
-0.1443505504637195
 40
-0.1443505504637195
 40
-0.1443505504637195
 40
-0.1443505504637195
 40
0.0
 40
0.0
 40
0.0
 40
0.0
 10
812.6268725352435
 20
175.2659955981201
 30
0.0
 10
812.7409467404588
 20
175.7235222454067
 30
0.0
 10
812.8550135451193
 20
176.1810192106862
 30
0.0
 10
812.9690017610357
 20
176.6382009737329
 30
0.0
  0
LINE
  5
8F2C
330
8C4A
100
AcDbEntity
  8
Visible (ISO)
100
AcDbLine
 10
808.5244426574911
 20
184.035189497856
 30
0.0
 11
812.9690017610357
 21
176.6382009737329
 31
0.0
  0
SPLINE
  5
8F2D
330
8C4A
100
AcDbEntity
  8
Visible (ISO)
100
AcDbSpline
210
0.0
220
0.0
230
1.0
 70
     8
 71
     3
 72
     8
 73
     4
 74
     0
 42
0.0000000001
 43
0.0000000001
 40
-0.1443505504637693
 40
-0.1443505504637693
 40
-0.1443505504637693
 40
-0.1443505504637693
 40
0.0
 40
0.0
 40
0.0
 40
0.0
 10
807.8166537112226
 20
183.2715440925552
 30
0.0
 10
808.0531089709623
 20
183.5253944617673
 30
0.0
 10
808.2890960591614
 20
183.7799820006706
 30
0.0
 10
808.5244426574911
 20
184.035189497856
 30
0.0
  0
SPLINE
  5
8F2E
330
8C4A
100
AcDbEntity
  8
Visible (ISO)
100
AcDbSpline
210
0.0
220
0.0
230
1.0
 70
    24
 71
     3
 72
     8
 73
     4
 74
     0
 42
0.0000000001
 43
0.0000000001
 40
-0.1443505504637693
 40
-0.1443505504637693
 40
-0.1443505504637693
 40
-0.1443505504637693
 40
0.0
 40
0.0
 40
0.0
 40
0.0
 10
786.8749687897409
 20
218.1243606332266
 30
0.0
 10
787.3324954370266
 20
218.0102864280109
 30
0.0
 10
787.7899924023069
 20
217.8962196233509
 30
0.0
 10
788.2471741653533
 20
217.782231407434
 30
0.0
  0
LINE
  5
8F2F
330
8C4A
100
AcDbEntity
  8
Visible (ISO)
100
AcDbLine
 10
791.6851876137618
 20
210.1188121387916
 30
0.0
 11
786.8749687897409
 21
218.1243606332266
 31
0.0
  0
SPLINE
  5
8F30
330
8C4A
100
AcDbEntity
  8
Visible (ISO)
100
AcDbSpline
210
0.0
220
0.0
230
1.0
 70
     8
 71
     3
 72
     8
 73
     4
 74
     0
 42
0.0000000001
 43
0.0000000001
 40
-0.1443505504637195
 40
-0.1443505504637195
 40
-0.1443505504637195
 40
-0.1443505504637195
 40
0.0
 40
0.0
 40
0.0
 40
0.0
 10
791.6851876137618
 20
210.1188121387916
 30
0.0
 10
792.0203332065236
 20
210.2084142116494
 30
0.0
 10
792.355909888264
 20
210.2972568333664
 30
0.0
 10
792.6917332688974
 20
210.3852428833109
 30
0.0
  0
LINE
  5
8F31
330
8C4A
100
AcDbEntity
  8
Visible (ISO)
100
AcDbLine
 10
788.2471741653533
 20
217.782231407434
 30
0.0
 11
792.6917332688974
 21
210.3852428833109
 31
0.0
  0
LINE
  5
8F32
330
8C4A
100
AcDbEntity
  8
Visible (ISO)
100
AcDbLine
 10
791.6851876137618
 20
210.1188121387916
 30
0.0
 11
807.8166537112226
 21
183.2715440925552
 31
0.0
  0
LINE
  5
8F33
330
8C4A
100
AcDbEntity
  8
Visible (ISO)
100
AcDbLine
 10
808.5244426574911
 20
184.035189497856
 30
0.0
 11
792.6917332688974
 21
210.3852428833109
 31
0.0
  0
LINE
  5
8F34
330
8C4A
100
AcDbEntity
  8
Visible (ISO)
100
AcDbLine
 10
781.9891151757389
 20
215.1886436062389
 30
0.0
 11
786.7993339997599
 21
207.1830951118048
 31
0.0
  0
SPLINE
  5
8F35
330
8C4A
100
AcDbEntity
  8
Visible (ISO)
100
AcDbSpline
210
0.0
220
0.0
230
1.0
 70
    24
 71
     3
 72
     8
 73
     4
 74
     0
 42
0.0000000001
 43
0.0000000001
 40
-0.1443504730161398
 40
-0.1443504730161398
 40
-0.1443504730161398
 40
-0.1443504730161398
 40
0.0
 40
0.0
 40
0.0
 40
0.0
 10
806.3688135456297
 20
172.672407796925
 30
0.0
 10
806.825995308676
 20
172.5584195810082
 30
0.0
 10
807.2834922739556
 20
172.444352776349
 30
0.0
 10
807.7410189212416
 20
172.3302785711333
 30
0.0
  0
SPLINE
  5
8F36
330
8C4A
100
AcDbEntity
  8
Visible (ISO)
100
AcDbSpline
210
0.0
220
0.0
230
1.0
 70
    24
 71
     3
 72
     8
 73
     4
 74
     0
 42
0.0000000001
 43
0.0000000001
 40
-0.1443504730160225
 40
-0.1443504730160225
 40
-0.1443504730160225
 40
-0.1443504730160225
 40
0.0
 40
0.0
 40
0.0
 40
0.0
 10
781.6469859499468
 20
213.816438230627
 30
0.0
 10
781.7609741658636
 20
214.2736199936738
 30
0.0
 10
781.8750409705237
 20
214.7311169589532
 30
0.0
 10
781.9891151757389
 20
215.1886436062389
 30
0.0
  0
SPLINE
  5
8F37
330
8C4A
100
AcDbEntity
  8
Visible (ISO)
100
AcDbSpline
210
0.0
220
0.0
230
1.0
 70
     8
 71
     3
 72
     8
 73
     4
 74
     0
 42
0.0000000001
 43
0.0000000001
 40
-0.1443504730161398
 40
-0.1443504730161398
 40
-0.1443504730161398
 40
-0.1443504730161398
 40
0.0
 40
0.0
 40
0.0
 40
0.0
 10
786.0915450534914
 20
206.4194497065039
 30
0.0
 10
786.3268916518206
 20
206.6746572036885
 30
0.0
 10
786.5628787400203
 20
206.9292447425926
 30
0.0
 10
786.7993339997599
 20
207.1830951118048
 30
0.0
  0
SPLINE
  5
8F38
330
8C4A
100
AcDbEntity
  8
Visible (ISO)
100
AcDbSpline
210
0.0
220
0.0
230
1.0
 70
     8
 71
     3
 72
     8
 73
     4
 74
     0
 42
0.0000000001
 43
0.0000000001
 40
-0.1443504730160225
 40
-0.1443504730160225
 40
-0.1443504730160225
 40
-0.1443504730160225
 40
0.0
 40
0.0
 40
0.0
 40
0.0
 10
801.9242544420851
 20
180.069396321049
 30
0.0
 10
802.2600778227186
 20
180.1573823709935
 30
0.0
 10
802.5956545044593
 20
180.2462249927096
 30
0.0
 10
802.9308000972207
 20
180.3358270655683
 30
0.0
  0
LINE
  5
8F39
330
8C4A
100
AcDbEntity
  8
Visible (ISO)
100
AcDbLine
 10
802.9308000972207
 20
180.3358270655683
 30
0.0
 11
799.1270654682064
 21
186.6663045649423
 31
0.0
  0
LINE
  5
8F3A
330
8C4A
100
AcDbEntity
  8
Visible (ISO)
100
AcDbLine
 10
790.6030686287738
 20
200.8526176124308
 30
0.0
 11
786.7993339997599
 21
207.1830951118048
 31
0.0
  0
LINE
  5
8F3B
330
8C4A
100
AcDbEntity
  8
Visible (ISO)
100
AcDbLine
 10
802.9308000972207
 20
180.3358270655683
 30
0.0
 11
807.7410189212416
 21
172.3302785711333
 31
0.0
  0
LINE
  5
8F3C
330
8C4A
100
AcDbEntity
  8
Visible (ISO)
100
AcDbLine
 10
786.8749687897409
 20
218.1243606332266
 30
0.0
 11
781.9891151757389
 21
215.1886436062389
 31
0.0
  0
LINE
  5
8F3D
330
8C4A
100
AcDbEntity
  8
Visible (ISO)
100
AcDbLine
 10
791.6851876137618
 20
210.1188121387916
 30
0.0
 11
786.7993339997599
 21
207.1830951118048
 31
0.0
  0
LINE
  5
8F3E
330
8C4A
100
AcDbEntity
  8
Visible (ISO)
100
AcDbLine
 10
807.8166537112226
 20
183.2715440925552
 30
0.0
 11
802.9308000972207
 21
180.3358270655683
 31
0.0
  0
LINE
  5
8F3F
330
8C4A
100
AcDbEntity
  8
Visible (ISO)
100
AcDbLine
 10
812.6268725352435
 20
175.2659955981201
 30
0.0
 11
807.7410189212416
 21
172.3302785711333
 31
0.0
  0
SPLINE
  5
8F40
330
8C4A
100
AcDbEntity
  8
Visible (ISO)
100
AcDbSpline
210
0.0
220
0.0
230
1.0
 70
     8
 71
     3
 72
    10
 73
     6
 74
     0
 42
0.0000000001
 43
0.0000000001
 40
1.373926011701411
 40
1.373926011701411
 40
1.373926011701411
 40
1.373926011701411
 40
1.452016626737377
 40
1.452016626737377
 40
1.457164195614173
 40
1.457164195614173
 40
1.457164195614173
 40
1.457164195614173
 10
843.701724098202
 20
355.6011176966058
 30
0.0
 10
843.9495868815663
 20
355.6156785966513
 30
0.0
 10
844.1932940263029
 20
355.6235696266139
 30
0.0
 10
844.4475395496954
 20
355.6247791400219
 30
0.0
 10
844.4632797068567
 20
355.6248247884677
 30
0.0
 10
844.479035988172
 20
355.6248408251867
 30
0.0
  0
LINE
  5
8F41
330
8C4A
100
AcDbEntity
  8
Visible (ISO)
100
AcDbLine
 10
821.8617235301969
 20
355.601117696603
 30
0.0
 11
843.701724098202
 21
355.6011176966058
 31
0.0
  0
SPLINE
  5
8F42
330
8C4A
100
AcDbEntity
  8
Visible (ISO)
100
AcDbSpline
210
0.0
220
0.0
230
1.0
 70
     8
 71
     3
 72
    16
 73
    12
 74
     0
 42
0.0000000001
 43
0.0000000001
 40
2.449789672836276
 40
2.449789672836276
 40
2.449789672836276
 40
2.449789672836276
 40
2.476982571578473
 40
2.476982571578473
 40
2.757060018455137
 40
2.757060018455137
 40
3.037137465331801
 40
3.037137465331801
 40
3.317214912208464
 40
3.317214912208464
 40
3.479348579905437
 40
3.479348579905437
 40
3.479348579905437
 40
3.479348579905437
 10
826.8434038946645
 20
350.0167257078255
 30
0.0
 10
826.7925752724815
 20
350.0920544964792
 30
0.0
 10
826.7418704836721
 20
350.1666674852021
 30
0.0
 10
826.1709195747396
 20
351.0011425948341
 30
0.0
 10
825.5901003637962
 20
351.7916545277139
 30
0.0
 10
824.4884448244526
 20
353.200412764384
 30
0.0
 10
823.9707176543486
 20
353.8183056229609
 30
0.0
 10
823.1378867210139
 20
354.7518971125491
 30
0.0
 10
822.7690862088845
 20
355.1277890262363
 30
0.0
 10
822.3301651101659
 20
355.482593439232
 30
0.0
 10
822.1981198637202
 20
355.5627058656491
 30
0.0
 10
822.0912768857949
 20
355.5998200791609
 30
0.0
  0
LINE
  5
8F43
330
8C4A
100
AcDbEntity
  8
Visible (ISO)
100
AcDbLine
 10
848.6834044626696
 20
350.0167257078282
 30
0.0
 11
826.8434038946645
 21
350.0167257078255
 31
0.0
  0
SPLINE
  5
8F44
330
8C4A
100
AcDbEntity
  8
Visible (ISO)
100
AcDbSpline
210
0.0
220
0.0
230
1.0
 70
     8
 71
     3
 72
    10
 73
     6
 74
     0
 42
0.0000000001
 43
0.0000000001
 40
2.554399938987153
 40
2.554399938987153
 40
2.554399938987153
 40
2.554399938987153
 40
2.55954750786395
 40
2.55954750786395
 40
2.637638122899916
 40
2.637638122899916
 40
2.637638122899916
 40
2.637638122899916
 10
848.9482053639374
 20
350.6149662783309
 30
0.0
 10
848.9433040916576
 20
350.6027819327155
 30
0.0
 10
848.9383777049573
 20
350.5906142032226
 30
0.0
 10
848.8583244824152
 20
350.3941376276579
 30
0.0
 10
848.7747631693276
 20
350.206725425347
 30
0.0
 10
848.6834044626696
 20
350.0167257078282
 30
0.0
  0
ELLIPSE
  5
8F45
330
8C4A
100
AcDbEntity
  8
Visible (ISO)
100
AcDbEllipse
 10
844.4849104609895
 20
345.6248473299165
 30
0.0
 11
-0.0000000000017829
 21
9.99999999999998
 31
0.0
210
0.0
220
0.0
230
1.0
 40
0.515038074910054
 41
5.234847165727831
 42
6.284325897434032
  0
SPLINE
  5
8F46
330
8C4A
100
AcDbEntity
  8
Visible (ISO)
100
AcDbSpline
210
0.0
220
0.0
230
1.0
 70
     8
 71
     3
 72
    10
 73
     6
 74
     0
 42
0.0000000001
 43
0.0000000001
 40
1.373926011701412
 40
1.373926011701412
 40
1.373926011701412
 40
1.373926011701412
 40
1.452016626737379
 40
1.452016626737379
 40
1.457164195614175
 40
1.457164195614175
 40
1.457164195614175
 40
1.457164195614175
 10
841.24702822022
 20
375.0249379227643
 30
0.0
 10
841.4470527689752
 20
374.8494991052912
 30
0.0
 10
841.6397244257538
 20
374.6699779329428
 30
0.0
 10
841.8362655065905
 20
374.4747108707861
 30
0.0
 10
841.8484146475
 20
374.4625887897391
 30
0.0
 10
841.8605573611069
 20
374.4504204808427
 30
0.0
  0
LINE
  5
8F47
330
8C4A
100
AcDbEntity
  8
Visible (ISO)
100
AcDbLine
 10
819.407027652215
 20
375.0249379227607
 30
0.0
 11
841.24702822022
 21
375.0249379227643
 31
0.0
  0
SPLINE
  5
8F48
330
8C4A
100
AcDbEntity
  8
Visible (ISO)
100
AcDbSpline
210
0.0
220
0.0
230
1.0
 70
     8
 71
     3
 72
    18
 73
    14
 74
     0
 42
0.0000000001
 43
0.0000000001
 40
2.449789672836275
 40
2.449789672836275
 40
2.449789672836275
 40
2.449789672836275
 40
2.476982571578473
 40
2.476982571578473
 40
2.757060018455136
 40
2.757060018455136
 40
3.0371374653318
 40
3.0371374653318
 40
3.317214912208463
 40
3.317214912208463
 40
3.597292359085127
 40
3.597292359085127
 40
3.624485257827324
 40
3.624485257827324
 40
3.624485257827324
 40
3.624485257827324
 10
819.407027652215
 20
363.8561539452102
 30
0.0
 10
819.3992815480489
 20
363.9257098044272
 30
0.0
 10
819.3915522837436
 20
363.9956216490081
 30
0.0
 10
819.304617775381
 20
364.7888727955978
 30
0.0
 10
819.2164052306427
 20
365.6549758113587
 30
0.0
 10
819.0862019788061
 20
367.5131696721328
 30
0.0
 10
819.0477190322187
 20
368.5069544443958
 30
0.0
 10
819.0477190322187
 20
370.3741374235742
 30
0.0
 10
819.0862019788061
 20
371.3679221958382
 30
0.0
 10
819.2164052306427
 20
373.2261160566122
 30
0.0
 10
819.304617775381
 20
374.0922190723713
 30
0.0
 10
819.3915522837436
 20
374.8854702189628
 30
0.0
 10
819.3992815480489
 20
374.9553820635437
 30
0.0
 10
819.407027652215
 20
375.0249379227607
 30
0.0
  0
LINE
  5
8F49
330
8C4A
100
AcDbEntity
  8
Visible (ISO)
100
AcDbLine
 10
841.24702822022
 20
363.8561539452148
 30
0.0
 11
819.407027652215
 21
363.8561539452102
 31
0.0
  0
SPLINE
  5
8F4A
330
8C4A
100
AcDbEntity
  8
Visible (ISO)
100
AcDbSpline
210
0.0
220
0.0
230
1.0
 70
     8
 71
     3
 72
    10
 73
     6
 74
     0
 42
0.0000000001
 43
0.0000000001
 40
2.554399938987156
 40
2.554399938987156
 40
2.554399938987156
 40
2.554399938987156
 40
2.559547507863951
 40
2.559547507863951
 40
2.637638122899917
 40
2.637638122899917
 40
2.637638122899917
 40
2.637638122899917
 10
841.8605573611069
 20
364.4306713871364
 30
0.0
 10
841.8484146475
 20
364.41850307824
 30
0.0
 10
841.8362655065905
 20
364.406380997193
 30
0.0
 10
841.6397244257538
 20
364.2111139350354
 30
0.0
 10
841.4470527689752
 20
364.0315927626861
 30
0.0
 10
841.24702822022
 20
363.8561539452148
 30
0.0
  0
ELLIPSE
  5
8F4B
330
8C4A
100
AcDbEntity
  8
Visible (ISO)
100
AcDbEllipse
 10
837.4031369309761
 20
369.4405459339914
 30
0.0
 11
0.0000000000012497
 21
-10.0
 31
0.0
210
0.0
220
0.0
230
1.0
 40
0.5150380749100542
 41
1.046056960941481
 42
2.095535692647745
  0
SPLINE
  5
8F4C
330
8C4A
100
AcDbEntity
  8
Visible (ISO)
100
AcDbSpline
210
0.0
220
0.0
230
1.0
 70
     8
 71
     3
 72
    10
 73
     6
 74
     0
 42
0.0000000001
 43
0.0000000001
 40
1.373926011701414
 40
1.373926011701414
 40
1.373926011701414
 40
1.373926011701414
 40
1.452016626737378
 40
1.452016626737378
 40
1.457164195614177
 40
1.457164195614177
 40
1.457164195614177
 40
1.457164195614177
 10
848.6834044626696
 20
388.8643661601427
 30
0.0
 10
848.774763169327
 20
388.6743664426239
 30
0.0
 10
848.8583244824146
 20
388.4869542403148
 30
0.0
 10
848.9383777049573
 20
388.2904776647483
 30
0.0
 10
848.9433040916576
 20
388.2783099352554
 30
0.0
 10
848.9482053639374
 20
388.2661255896418
 30
0.0
  0
LINE
  5
8F4D
330
8C4A
100
AcDbEntity
  8
Visible (ISO)
100
AcDbLine
 10
826.8434038946645
 20
388.8643661601381
 30
0.0
 11
848.6834044626696
 21
388.8643661601427
 31
0.0
  0
SPLINE
  5
8F4E
330
8C4A
100
AcDbEntity
  8
Visible (ISO)
100
AcDbSpline
210
0.0
220
0.0
230
1.0
 70
     8
 71
     3
 72
    16
 73
    12
 74
     0
 42
0.0000000001
 43
0.0000000001
 40
2.594926350758155
 40
2.594926350758155
 40
2.594926350758155
 40
2.594926350758155
 40
2.757060018455131
 40
2.757060018455131
 40
3.037137465331794
 40
3.037137465331794
 40
3.317214912208458
 40
3.317214912208458
 40
3.597292359085122
 40
3.597292359085122
 40
3.624485257827319
 40
3.624485257827319
 40
3.624485257827319
 40
3.624485257827319
 10
822.0912768857949
 20
383.2812717888064
 30
0.0
 10
822.1981198637202
 20
383.3183860023173
 30
0.0
 10
822.3301651101659
 20
383.3984984287344
 30
0.0
 10
822.7690862088845
 20
383.7533028417301
 30
0.0
 10
823.1378867210139
 20
384.1291947554164
 30
0.0
 10
823.9707176543486
 20
385.0627862450046
 30
0.0
 10
824.4884448244526
 20
385.6806791035815
 30
0.0
 10
825.5901003637962
 20
387.0894373402498
 30
0.0
 10
826.1709195747396
 20
387.8799492731295
 30
0.0
 10
826.7418704836721
 20
388.7144243827615
 30
0.0
 10
826.7925752724815
 20
388.7890373714844
 30
0.0
 10
826.8434038946645
 20
388.8643661601381
 30
0.0
  0
LINE
  5
8F4F
330
8C4A
100
AcDbEntity
  8
Visible (ISO)
100
AcDbLine
 10
843.701724098202
 20
383.2799741713688
 30
0.0
 11
821.8617235301969
 21
383.2799741713661
 31
0.0
  0
SPLINE
  5
8F50
330
8C4A
100
AcDbEntity
  8
Visible (ISO)
100
AcDbSpline
210
0.0
220
0.0
230
1.0
 70
     8
 71
     3
 72
    10
 73
     6
 74
     0
 42
0.0000000001
 43
0.0000000001
 40
2.554399938987154
 40
2.554399938987154
 40
2.554399938987154
 40
2.554399938987154
 40
2.559547507863952
 40
2.559547507863952
 40
2.637638122899916
 40
2.637638122899916
 40
2.637638122899916
 40
2.637638122899916
 10
844.479035988172
 20
383.2562510427896
 30
0.0
 10
844.4632797068567
 20
383.2562670795096
 30
0.0
 10
844.4475395496954
 20
383.2563127279545
 30
0.0
 10
844.1932940263029
 20
383.2575222413634
 30
0.0
 10
843.9495868815663
 20
383.2654132713241
 30
0.0
 10
843.701724098202
 20
383.2799741713688
 30
0.0
  0
ELLIPSE
  5
8F51
330
8C4A
100
AcDbEntity
  8
Visible (ISO)
100
AcDbEllipse
 10
844.4849104609895
 20
393.2562445380608
 30
0.0
 11
0.0000000000017833
 21
-10.00000000000001
 31
0.0
210
0.0
220
0.0
230
1.0
 40
0.5150380749100543
 41
6.282044716924445
 42
7.331523448630695
  0
SPLINE
  5
8F52
330
8C4A
100
AcDbEntity
  8
Visible (ISO)
100
AcDbSpline
210
0.0
220
0.0
230
1.0
 70
     8
 71
     3
 72
    10
 73
     6
 74
     0
 42
0.0000000001
 43
0.0000000001
 40
1.373926011701413
 40
1.373926011701413
 40
1.373926011701413
 40
1.373926011701413
 40
1.452016626737377
 40
1.452016626737377
 40
1.457164195614175
 40
1.457164195614175
 40
1.457164195614175
 40
1.457164195614175
 10
858.5744765831011
 20
383.2799741713624
 30
0.0
 10
858.6050076822704
 20
383.2654132713169
 30
0.0
 10
858.630494139625
 20
383.2575222413561
 30
0.0
 10
858.6517639464288
 20
383.2563127279481
 30
0.0
 10
858.653058595172
 20
383.2562670795023
 30
0.0
 10
858.6543319938334
 20
383.2562510427824
 30
0.0
  0
LINE
  5
8F53
330
8C4A
100
AcDbEntity
  8
Visible (ISO)
100
AcDbLine
 10
858.2938548085797
 20
383.2799741713624
 30
0.0
 11
858.5744765831011
 21
383.2799741713624
 31
0.0
  0
SPLINE
  5
8F54
330
8C4A
100
AcDbEntity
  8
Visible (ISO)
100
AcDbSpline
210
0.0
220
0.0
230
1.0
 70
     8
 71
     3
 72
    10
 73
     6
 74
     0
 42
0.0000000001
 43
0.0000000001
 40
2.554399938987155
 40
2.554399938987155
 40
2.554399938987155
 40
2.554399938987155
 40
2.559547507863951
 40
2.559547507863951
 40
2.637638122899916
 40
2.637638122899916
 40
2.637638122899916
 40
2.637638122899916
 10
854.185162618068
 20
388.2661255896391
 30
0.0
 10
854.1730342103713
 20
388.2783099352545
 30
0.0
 10
854.1609257911671
 20
388.2904776647474
 30
0.0
 10
853.9654636835127
 20
388.4869542403112
 30
0.0
 10
853.7798313945097
 20
388.6743664426212
 30
0.0
 10
853.5927962186335
 20
388.8643661601399
 30
0.0
  0
ELLIPSE
  5
8F55
330
8C4A
100
AcDbEntity
  8
Visible (ISO)
100
AcDbEllipse
 10
858.6484575210159
 20
393.2562445380535
 30
0.0
 11
0.0000000000017829
 21
-9.999999999999989
 31
0.0
210
0.0
220
0.0
230
1.0
 40
0.5150380749100542
 41
5.234847165727831
 42
6.284325897434032
  0
ELLIPSE
  5
8F56
330
8C4A
100
AcDbEntity
  8
Visible (ISO)
100
AcDbEllipse
 10
865.7302310510292
 20
369.4405459339768
 30
0.0
 11
-0.0000000000012487
 21
9.999999999999978
 31
0.0
210
0.0
220
0.0
230
1.0
 40
0.5150380749100543
 41
1.046056960941481
 42
2.095535692647745
  0
ELLIPSE
  5
8F57
330
8C4A
100
AcDbEntity
  8
Visible (ISO)
100
AcDbEllipse
 10
851.5666839910025
 20
369.4405459339841
 30
0.0
 11
-0.0000000000000004
 21
-6.749999999999992
 31
0.0
210
0.0
220
0.0
230
1.0
 40
0.5150380749100543
 41
0.0
 42
6.283185307179585
  0
ELLIPSE
  5
8F58
330
8C4A
100
AcDbEntity
  8
Visible (ISO)
100
AcDbEllipse
 10
851.5666839910025
 20
369.4405459339841
 30
0.0
 11
0.0000000000034753
 21
-19.49999999999996
 31
0.0
210
0.0
220
0.0
230
1.0
 40
0.5150380749100543
 41
6.019416926379355
 42
6.546953687979
  0
ELLIPSE
  5
8F59
330
8C4A
100
AcDbEntity
  8
Visible (ISO)
100
AcDbEllipse
 10
851.5666839910025
 20
369.4405459339841
 30
0.0
 11
-0.0000000000045131
 21
19.49999999999995
 31
0.0
210
0.0
220
0.0
230
1.0
 40
0.5150380749100542
 41
3.925021823985883
 42
4.452558585585764
  0
ELLIPSE
  5
8F5A
330
8C4A
100
AcDbEntity
  8
Visible (ISO)
100
AcDbEllipse
 10
851.5666839910025
 20
369.4405459339841
 30
0.0
 11
-0.0000000000034747
 21
19.49999999999988
 31
0.0
210
0.0
220
0.0
230
1.0
 40
0.5150380749100543
 41
4.972219375182853
 42
5.49975613678249
  0
ELLIPSE
  5
8F5B
330
8C4A
100
AcDbEntity
  8
Visible (ISO)
100
AcDbEllipse
 10
851.5666839910025
 20
369.4405459339841
 30
0.0
 11
-0.0000000000034753
 21
19.49999999999999
 31
0.0
210
0.0
220
0.0
230
1.0
 40
0.5150380749100543
 41
6.019416926379355
 42
6.546953687979
  0
ELLIPSE
  5
8F5C
330
8C4A
100
AcDbEntity
  8
Visible (ISO)
100
AcDbEllipse
 10
851.5666839910025
 20
369.4405459339841
 30
0.0
 11
0.0000000000045131
 21
-19.49999999999999
 31
0.0
210
0.0
220
0.0
230
1.0
 40
0.5150380749100544
 41
3.925021823985883
 42
4.452558585585764
  0
ELLIPSE
  5
8F5D
330
8C4A
100
AcDbEntity
  8
Visible (ISO)
100
AcDbEllipse
 10
851.5666839910025
 20
369.4405459339841
 30
0.0
 11
0.0000000000034781
 21
-19.49999999999994
 31
0.0
210
0.0
220
0.0
230
1.0
 40
0.5150380749100542
 41
4.972219375182853
 42
5.499756136782489
  0
ELLIPSE
  5
8F5E
330
8C4A
100
AcDbEntity
  8
Visible (ISO)
100
AcDbEllipse
 10
851.1381003406516
 20
369.4405459339841
 30
0.0
 11
0.0000000000035645
 21
-19.99999999999997
 31
0.0
210
0.0
220
0.0
230
1.0
 40
0.5150380749100542
 41
6.042567819797334
 42
6.523802794561141
  0
ELLIPSE
  5
8F5F
330
8C4A
100
AcDbEntity
  8
Visible (ISO)
100
AcDbEllipse
 10
851.1381003406516
 20
369.4405459339841
 30
0.0
 11
-0.0000000000035638
 21
19.99999999999998
 31
0.0
210
0.0
220
0.0
230
1.0
 40
0.5150380749100542
 41
6.042567819797334
 42
6.523802794561141
  0
ELLIPSE
  5
8F60
330
8C4A
100
AcDbEntity
  8
Visible (ISO)
100
AcDbEllipse
 10
851.1381003406516
 20
369.4405459339841
 30
0.0
 11
0.000000000004631
 21
-19.99999999999998
 31
0.0
210
0.0
220
0.0
230
1.0
 40
0.5150380749100543
 41
3.94817271740386
 42
4.429407692167859
  0
ELLIPSE
  5
8F61
330
8C4A
100
AcDbEntity
  8
Visible (ISO)
100
AcDbEllipse
 10
829.298099772647
 20
369.4405459339814
 30
0.0
 11
0.0000000000035649
 21
-19.99999999999989
 31
0.0
210
0.0
220
0.0
230
1.0
 40
0.515038074910054
 41
6.042567819797318
 42
6.28318530717924
  0
ELLIPSE
  5
8F62
330
8C4A
100
AcDbEntity
  8
Visible (ISO)
100
AcDbEllipse
 10
829.298099772647
 20
369.4405459339814
 30
0.0
 11
0.0000000000000238
 21
19.99999999999986
 31
0.0
210
0.0
220
0.0
230
1.0
 40
0.5150380749100543
 41
0.0000000000019331
 42
0.2406174873837708
  0
ELLIPSE
  5
8F63
330
8C4A
100
AcDbEntity
  8
Visible (ISO)
100
AcDbEllipse
 10
829.298099772647
 20
369.4405459339814
 30
0.0
 11
0.0000000000046282
 21
-19.99999999999994
 31
0.0
210
0.0
220
0.0
230
1.0
 40
0.5150380749100543
 41
3.94817271740386
 42
4.429407692167859
  0
ELLIPSE
  5
8F64
330
8C4A
100
AcDbEntity
  8
Visible (ISO)
100
AcDbEllipse
 10
808.2368769405109
 20
369.4405459339768
 30
0.0
 11
-0.0000000000029421
 21
16.49999999999998
 31
0.0
210
0.0
220
0.0
230
1.0
 40
0.5150380749100542
 41
5.780668874610289
 42
9.927294393337945
  0
ELLIPSE
  5
8F65
330
8C4A
100
AcDbEntity
  8
Visible (ISO)
100
AcDbEllipse
 10
800.608087964262
 20
369.4405459339759
 30
0.0
 11
0.0000000000000011
 21
-16.49999999999999
 31
0.0
210
0.0
220
0.0
230
1.0
 40
0.5150380749100542
 41
3.141592653591712
 42
6.283185307181505
  0
ELLIPSE
  5
8F66
330
8C4A
100
AcDbEntity
  8
Visible (ISO)
100
AcDbEllipse
 10
808.2368769405109
 20
369.4405459339768
 30
0.0
 11
0.0000000000000082
 21
10.99999999999999
 31
0.0
210
0.0
220
0.0
230
1.0
 40
0.5150380749100543
 41
0.0000000000019048
 42
3.141592653591697
  0
ELLIPSE
  5
8F67
330
8C4A
100
AcDbEntity
  8
Visible (ISO)
100
AcDbEllipse
 10
816.4228246622158
 20
369.4405459339786
 30
0.0
 11
0.0000000000000092
 21
16.49999999999997
 31
0.0
210
0.0
220
0.0
230
1.0
 40
0.5150380749100543
 41
0.0000000000019242
 42
3.141592653591717
  0
ELLIPSE
  5
8F68
330
8C4A
100
AcDbEntity
  8
Visible (ISO)
100
AcDbEllipse
 10
829.298099772647
 20
369.4405459339814
 30
0.0
 11
0.0000000000035645
 21
-19.99999999999989
 31
0.0
210
0.0
220
0.0
230
1.0
 40
0.515038074910054
 41
4.995370268600763
 42
5.476605243364558
  0
ELLIPSE
  5
8F69
330
8C4A
100
AcDbEntity
  8
Visible (ISO)
100
AcDbEllipse
 10
851.1381003406516
 20
369.4405459339841
 30
0.0
 11
0.0000000000035642
 21
-19.99999999999996
 31
0.0
210
0.0
220
0.0
230
1.0
 40
0.5150380749100543
 41
4.995370268600763
 42
5.476605243364558
  0
ELLIPSE
  5
8F6A
330
8C4A
100
AcDbEntity
  8
Visible (ISO)
100
AcDbEllipse
 10
850.3666497700194
 20
369.4405459339841
 30
0.0
 11
0.0000000000012031
 21
-6.749999999999992
 31
0.0
210
0.0
220
0.0
230
1.0
 40
0.5150380749100542
 41
0.1734605009696073
 42
2.968132152619472
  0
LINE
  5
8F6B
330
8C4A
100
AcDbEntity
  8
Visible (ISO)
100
AcDbLine
 10
829.298099772647
 20
349.4405459339805
 30
0.0
 11
851.1381003406516
 21
349.440545933985
 31
0.0
  0
LINE
  5
8F6C
330
8C4A
100
AcDbEntity
  8
Visible (ISO)
100
AcDbLine
 10
829.298099772647
 20
389.4405459339805
 30
0.0
 11
851.1381003406516
 21
389.4405459339841
 31
0.0
  0
LINE
  5
8F6D
330
8C4A
100
AcDbEntity
  8
Visible (ISO)
100
AcDbLine
 10
800.608087964262
 20
385.9405459339759
 30
0.0
 11
808.2368769405109
 21
385.9405459339759
 31
0.0
  0
LINE
  5
8F6E
330
8C4A
100
AcDbEntity
  8
Visible (ISO)
100
AcDbLine
 10
800.608087964262
 20
352.940545933975
 30
0.0
 11
808.2368769405109
 21
352.9405459339759
 31
0.0
  0
LINE
  5
8F6F
330
8C4A
100
AcDbEntity
  8
Visible (ISO)
100
AcDbLine
 10
808.2368769405109
 20
380.4405459339768
 30
0.0
 11
810.0886938564688
 21
380.4405459339768
 31
0.0
  0
LINE
  5
8F70
330
8C4A
100
AcDbEntity
  8
Visible (ISO)
100
AcDbLine
 10
808.2368769405109
 20
358.4405459339768
 30
0.0
 11
810.0886938564688
 21
358.4405459339768
 31
0.0
  0
LINE
  5
8F71
330
8C4A
100
AcDbEntity
  8
Visible (ISO)
100
AcDbLine
 10
816.4228246622158
 20
385.9405459339786
 30
0.0
 11
824.6870028937603
 21
385.9405459339805
 31
0.0
  0
LINE
  5
8F72
330
8C4A
100
AcDbEntity
  8
Visible (ISO)
100
AcDbLine
 10
816.4228246622158
 20
352.9405459339777
 30
0.0
 11
824.6870028937603
 21
352.9405459339796
 31
0.0
  0
ELLIPSE
  5
8F73
330
8C4A
100
AcDbEntity
  8
Visible (ISO)
100
AcDbEllipse
 10
858.6484575210159
 20
345.6248473299092
 30
0.0
 11
-0.0000000000017826
 21
9.999999999999991
 31
0.0
210
0.0
220
0.0
230
1.0
 40
0.5150380749100543
 41
6.282044716924445
 42
7.331523448630695
  0
SPLINE
  5
8F74
330
8C4A
100
AcDbEntity
  8
Visible (ISO)
100
AcDbSpline
210
0.0
220
0.0
230
1.0
 70
     8
 71
     3
 72
    10
 73
     6
 74
     0
 42
0.0000000001
 43
0.0000000001
 40
1.373636215080867
 40
1.373636215080867
 40
1.373636215080867
 40
1.373636215080867
 40
1.451726830116834
 40
1.451726830116834
 40
1.456874398993631
 40
1.456874398993631
 40
1.456874398993631
 40
1.456874398993631
 10
853.5927962186335
 20
350.0167257078264
 30
0.0
 10
853.7798313945097
 20
350.2067254253452
 30
0.0
 10
853.9654636835127
 20
350.3941376276552
 30
0.0
 10
854.1609257911671
 20
350.5906142032199
 30
0.0
 10
854.1730342103713
 20
350.6027819327127
 30
0.0
 10
854.185162618068
 20
350.6149662783282
 30
0.0
  0
SPLINE
  5
8F75
330
8C4A
100
AcDbEntity
  8
Visible (ISO)
100
AcDbSpline
210
0.0
220
0.0
230
1.0
 70
     8
 71
     3
 72
    10
 73
     6
 74
     0
 42
0.0000000001
 43
0.0000000001
 40
2.55411014236661
 40
2.55411014236661
 40
2.55411014236661
 40
2.55411014236661
 40
2.559257711243407
 40
2.559257711243407
 40
2.637348326279373
 40
2.637348326279373
 40
2.637348326279373
 40
2.637348326279373
 10
858.6543319938334
 20
355.6248408251795
 30
0.0
 10
858.653058595172
 20
355.6248247884604
 30
0.0
 10
858.6517639464288
 20
355.6247791400146
 30
0.0
 10
858.630494139625
 20
355.6235696266067
 30
0.0
 10
858.605007682271
 20
355.615678596644
 30
0.0
 10
858.5744765831011
 20
355.6011176965985
 30
0.0
  0
LINE
  5
8F76
330
8C4A
100
AcDbEntity
  8
Visible (ISO)
100
AcDbLine
 10
858.5744765831011
 20
355.6011176965985
 30
0.0
 11
858.2938548085797
 21
355.6011176965985
 31
0.0
  0
ELLIPSE
  5
8F77
330
8C4A
100
AcDbEntity
  8
Visible (ISO)
100
AcDbEllipse
 10
785.7790936621157
 20
369.4405459339723
 30
0.0
 11
0.0000000000052569
 21
-29.50000000000002
 31
0.0
210
0.0
220
0.0
230
1.0
 40
0.5150380749100543
 41
5.272007611809346
 42
5.723566675754263
  0
LINE
  5
8F78
330
8C4A
100
AcDbEntity
  8
Visible (ISO)
100
AcDbLine
 10
772.9031417893641
 20
385.1010056973446
 30
0.0
 11
772.9031417893641
 21
353.7800861706136
 31
0.0
  0
ELLIPSE
  5
8F79
330
8C4A
100
AcDbEntity
  8
Visible (ISO)
100
AcDbEllipse
 10
785.7790936621157
 20
369.4405459339723
 30
0.0
 11
0.0000000000068293
 21
-29.50000000000003
 31
0.0
210
0.0
220
0.0
230
1.0
 40
0.5150380749100542
 41
3.701211285013936
 42
4.152770348959036
  0
LINE
  5
8F7A
330
8C4A
100
AcDbEntity
  8
Visible (ISO)
100
AcDbLine
 10
786.7993340008276
 20
344.4405459339786
 30
0.0
 11
785.9421667001254
 21
344.4405459339786
 31
0.0
  0
LINE
  5
8F7B
330
8C4A
100
AcDbEntity
  8
Visible (ISO)
100
AcDbLine
 10
785.9421667001258
 20
344.4405459339786
 30
0.0
 11
777.7133606133855
 21
344.4405459339768
 31
0.0
  0
LINE
  5
8F7C
330
8C4A
100
AcDbEntity
  8
Visible (ISO)
100
AcDbLine
 10
785.9421667001258
 20
394.4405459339786
 30
0.0
 11
777.7133606133855
 21
394.4405459339768
 31
0.0
  0
LINE
  5
8F7D
330
8C4A
100
AcDbEntity
  8
Visible (ISO)
100
AcDbLine
 10
785.9421667001258
 20
394.4405459339786
 30
0.0
 11
786.7993340008276
 21
394.4405459339786
 31
0.0
  0
LINE
  5
8F7E
330
8C4A
100
AcDbEntity
  8
Visible (ISO)
100
AcDbLine
 10
781.1319478761049
 20
353.7800861706155
 30
0.0
 11
781.1319478761049
 21
385.1010056973473
 31
0.0
  0
ELLIPSE
  5
8F7F
330
8C4A
100
AcDbEntity
  8
Visible (ISO)
100
AcDbEllipse
 10
794.007899748856
 20
369.4405459339741
 30
0.0
 11
-0.0000000000036887
 21
29.49999999999992
 31
0.0
210
0.0
220
0.0
230
1.0
 40
0.5150380749100544
 41
2.130414958219867
 42
2.581974022164947
  0
ELLIPSE
  5
8F80
330
8C4A
100
AcDbEntity
  8
Visible (ISO)
100
AcDbEllipse
 10
794.007899748856
 20
369.4405459339741
 30
0.0
 11
-0.0000000000052597
 21
29.49999999999993
 31
0.0
210
0.0
220
0.0
230
1.0
 40
0.5150380749100544
 41
0.559618631424641
 42
1.011177695369598
  0
ELLIPSE
  5
8F81
330
8C4A
100
AcDbEntity
  8
Visible (ISO)
100
AcDbEllipse
 10
794.007899748856
 20
369.4405459339741
 30
0.0
 11
0.0000000000050793
 21
-28.49999999999987
 31
0.0
210
0.0
220
0.0
230
1.0
 40
0.5150380749100543
 41
5.282010299457303
 42
5.638607990059675
  0
LINE
  5
8F82
330
8C4A
100
AcDbEntity
  8
Visible (ISO)
100
AcDbLine
 10
781.6469859510146
 20
384.8109720829188
 30
0.0
 11
781.6469859510146
 21
354.0701197850421
 31
0.0
  0
ELLIPSE
  5
8F83
330
8C4A
100
AcDbEntity
  8
Visible (ISO)
100
AcDbEllipse
 10
794.007899748856
 20
369.4405459339741
 30
0.0
 11
0.0000000000065961
 21
-28.50000000000019
 31
0.0
210
0.0
220
0.0
230
1.0
 40
0.5150380749100543
 41
3.786169970708618
 42
4.142767661311124
  0
LINE
  5
8F84
330
8C4A
100
AcDbEntity
  8
Visible (ISO)
100
AcDbLine
 10
781.1319478761049
 20
353.7800861706155
 30
0.0
 11
772.9031417893645
 21
353.7800861706136
 31
0.0
  0
LINE
  5
8F85
330
8C4A
100
AcDbEntity
  8
Visible (ISO)
100
AcDbLine
 10
781.1319478761049
 20
385.1010056973473
 30
0.0
 11
772.9031417893645
 21
385.1010056973446
 31
0.0
  0
LINE
  5
8F86
330
8C4A
100
AcDbEntity
  8
Visible (ISO)
100
AcDbLine
 10
775.8237657381067
 20
344.4405459339741
 30
0.0
 11
775.8237657381067
 21
347.1553944499883
 31
0.0
  0
LINE
  5
8F87
330
8C4A
100
AcDbEntity
  8
Visible (ISO)
100
AcDbLine
 10
777.7133606133855
 20
344.4405459339741
 30
0.0
 11
775.8237657381067
 21
344.4405459339741
 31
0.0
  0
LINE
  5
8F88
330
8C4A
100
AcDbEntity
  8
Visible (ISO)
100
AcDbLine
 10
775.8237657381067
 20
394.4405459339741
 30
0.0
 11
777.7133606133855
 21
394.4405459339741
 31
0.0
  0
LINE
  5
8F89
330
8C4A
100
AcDbEntity
  8
Visible (ISO)
100
AcDbLine
 10
775.8237657381067
 20
391.7256974179599
 30
0.0
 11
775.8237657381067
 21
394.4405459339741
 31
0.0
  0
ELLIPSE
  5
8F8A
330
8C4A
100
AcDbEntity
  8
Visible (ISO)
100
AcDbEllipse
 10
771.1072013686232
 20
384.5460547616103
 30
0.0
 11
0.000000000000008
 21
4.249999999999995
 31
0.0
210
0.0
220
0.0
230
1.0
 40
0.5150380749100543
 41
0.0000000000019463
 42
3.141592653591739
  0
ELLIPSE
  5
8F8B
330
8C4A
100
AcDbEntity
  8
Visible (ISO)
100
AcDbEllipse
 10
771.1072013686232
 20
354.3350371063433
 30
0.0
 11
0.000000000000008
 21
-4.249999999999995
 31
0.0
210
0.0
220
0.0
230
1.0
 40
0.5150380749100543
 41
3.141592653591711
 42
6.283185307181504
  0
LINE
  5
8F8C
330
8C4A
100
AcDbEntity
  8
Visible (ISO)
100
AcDbLine
 10
772.9031417893645
 20
380.2960547616103
 30
0.0
 11
771.1072013686232
 21
380.2960547616103
 31
0.0
  0
LINE
  5
8F8D
330
8C4A
100
AcDbEntity
  8
Visible (ISO)
100
AcDbLine
 10
774.3131120560613
 20
388.7960547616112
 30
0.0
 11
771.1072013686232
 21
388.7960547616094
 31
0.0
  0
LINE
  5
8F8E
330
8C4A
100
AcDbEntity
  8
Visible (ISO)
100
AcDbLine
 10
771.1072013686232
 20
358.5850371063425
 30
0.0
 11
772.9031417893645
 21
358.5850371063433
 31
0.0
  0
LINE
  5
8F8F
330
8C4A
100
AcDbEntity
  8
Visible (ISO)
100
AcDbLine
 10
771.1072013686232
 20
350.0850371063425
 30
0.0
 11
774.3131120560613
 21
350.0850371063425
 31
0.0
  0
LINE
  5
8F90
330
8C4A
100
AcDbEntity
  8
Visible (ISO)
100
AcDbLine
 10
775.8237657381067
 20
394.4405459339741
 30
0.0
 11
772.8974627942005
 21
394.4405459339723
 31
0.0
  0
LINE
  5
8F91
330
8C4A
100
AcDbEntity
  8
Visible (ISO)
100
AcDbLine
 10
772.8974627942005
 20
374.3405459339719
 30
0.0
 11
772.8974627942005
 21
380.2960547616057
 31
0.0
  0
LINE
  5
8F92
330
8C4A
100
AcDbEntity
  8
Visible (ISO)
100
AcDbLine
 10
772.8974627942005
 20
388.7960547616057
 30
0.0
 11
772.8974627942005
 21
394.4405459339723
 31
0.0
  0
LINE
  5
8F93
330
8C4A
100
AcDbEntity
  8
Visible (ISO)
100
AcDbLine
 10
772.8974627942005
 20
344.4405459339723
 30
0.0
 11
772.8974627942005
 21
350.0850371063388
 31
0.0
  0
LINE
  5
8F94
330
8C4A
100
AcDbEntity
  8
Visible (ISO)
100
AcDbLine
 10
772.8974627942005
 20
358.5850371063379
 30
0.0
 11
772.8974627942005
 21
364.5405459339717
 31
0.0
  0
LINE
  5
8F95
330
8C4A
100
AcDbEntity
  8
Visible (ISO)
100
AcDbLine
 10
772.8974627942005
 20
344.4405459339723
 30
0.0
 11
775.8237657381067
 21
344.4405459339741
 31
0.0
  0
LINE
  5
8F96
330
8C4A
100
AcDbEntity
  8
Visible (ISO)
100
AcDbLine
 10
772.8974627942005
 20
374.3405459339719
 30
0.0
 11
772.9031417893641
 21
374.3345595140745
 31
0.0
  0
LINE
  5
8F97
330
8C4A
100
AcDbEntity
  8
Visible (ISO)
100
AcDbLine
 10
772.9031417893645
 20
364.5465323538692
 30
0.0
 11
772.8974627942009
 21
364.5405459339717
 31
0.0
  0
LINE
  5
8F98
330
8C4A
100
AcDbEntity
  8
Visible (ISO)
100
AcDbLine
 10
799.1361326341314
 20
414.4405459339713
 30
0.0
 11
765.1361326341318
 21
414.4405459339713
 31
0.0
  0
LINE
  5
8F99
330
8C4A
100
AcDbEntity
  8
Visible (ISO)
100
AcDbLine
 10
799.1361326341314
 20
411.5905459339719
 30
0.0
 11
765.1361326341318
 21
411.5905459339719
 31
0.0
  0
LINE
  5
8F9A
330
8C4A
100
AcDbEntity
  8
Visible (ISO)
100
AcDbLine
 10
789.0361326341315
 20
407.9144465678828
 30
0.0
 11
775.2361326341318
 21
407.9144465678828
 31
0.0
  0
LINE
  5
8F9B
330
8C4A
100
AcDbEntity
  8
Visible (ISO)
100
AcDbLine
 10
765.1361326341318
 20
411.5905459339719
 30
0.0
 11
765.1361326341318
 21
414.4405459339713
 31
0.0
  0
LINE
  5
8F9C
330
8C4A
100
AcDbEntity
  8
Visible (ISO)
100
AcDbLine
 10
799.1361326341318
 20
411.5905459339719
 30
0.0
 11
799.1361326341318
 21
414.4405459339713
 31
0.0
  0
LINE
  5
8F9D
330
8C4A
100
AcDbEntity
  8
Visible (ISO)
100
AcDbLine
 10
775.2361326341318
 20
407.9144465678828
 30
0.0
 11
765.1361326341318
 21
411.5905459339719
 31
0.0
  0
LINE
  5
8F9E
330
8C4A
100
AcDbEntity
  8
Visible (ISO)
100
AcDbLine
 10
789.0361326341319
 20
407.9144465678828
 30
0.0
 11
799.1361326341318
 21
411.5905459339719
 31
0.0
  0
LINE
  5
8F9F
330
8C4A
100
AcDbEntity
  8
Visible (ISO)
100
AcDbLine
 10
775.2361326341318
 20
394.4405459339723
 30
0.0
 11
775.2361326341318
 21
407.9144465678828
 31
0.0
  0
LINE
  5
8FA0
330
8C4A
100
AcDbEntity
  8
0
  6
CENTER
100
AcDbLine
 10
782.1361326341318
 20
314.3426093448461
 30
0.0
 11
782.1361326341318
 21
424.5384825231112
 31
0.0
  0
LINE
  5
8FA1
330
8C4A
100
AcDbEntity
  8
Visible (ISO)
100
AcDbLine
 10
789.0361326341319
 20
394.4405459339723
 30
0.0
 11
789.0361326341319
 21
407.9144465678828
 31
0.0
  0
LINE
  5
8FA2
330
8C4A
100
AcDbEntity
  8
Visible (ISO)
100
AcDbLine
 10
799.1361326341314
 20
324.4405459339723
 30
0.0
 11
765.1361326341318
 21
324.4405459339723
 31
0.0
  0
LINE
  5
8FA3
330
8C4A
100
AcDbEntity
  8
Visible (ISO)
100
AcDbLine
 10
799.1361326341314
 20
327.2905459339717
 30
0.0
 11
765.1361326341318
 21
327.2905459339717
 31
0.0
  0
LINE
  5
8FA4
330
8C4A
100
AcDbEntity
  8
Visible (ISO)
100
AcDbLine
 10
789.0361326341315
 20
330.9666453000609
 30
0.0
 11
775.2361326341318
 21
330.9666453000609
 31
0.0
  0
LINE
  5
8FA5
330
8C4A
100
AcDbEntity
  8
Visible (ISO)
100
AcDbLine
 10
765.1361326341318
 20
324.4405459339723
 30
0.0
 11
765.1361326341318
 21
327.2905459339717
 31
0.0
  0
LINE
  5
8FA6
330
8C4A
100
AcDbEntity
  8
Visible (ISO)
100
AcDbLine
 10
799.1361326341318
 20
324.4405459339723
 30
0.0
 11
799.1361326341318
 21
327.2905459339717
 31
0.0
  0
LINE
  5
8FA7
330
8C4A
100
AcDbEntity
  8
Visible (ISO)
100
AcDbLine
 10
789.0361326341319
 20
330.9666453000609
 30
0.0
 11
799.1361326341318
 21
327.2905459339717
 31
0.0
  0
LINE
  5
8FA8
330
8C4A
100
AcDbEntity
  8
Visible (ISO)
100
AcDbLine
 10
775.2361326341318
 20
330.9666453000609
 30
0.0
 11
765.1361326341318
 21
327.2905459339717
 31
0.0
  0
LINE
  5
8FA9
330
8C4A
100
AcDbEntity
  8
Visible (ISO)
100
AcDbLine
 10
775.2361326341318
 20
330.9666453000609
 30
0.0
 11
775.2361326341318
 21
344.4405459339723
 31
0.0
  0
LINE
  5
8FAA
330
8C4A
100
AcDbEntity
  8
Visible (ISO)
100
AcDbLine
 10
789.0361326341319
 20
330.9666453000609
 30
0.0
 11
789.0361326341319
 21
344.4405459339723
 31
0.0
  0
ELLIPSE
  5
8FAB
330
8C4A
100
AcDbEntity
  8
Visible (ISO)
100
AcDbEllipse
 10
799.7509206635602
 20
369.4405459339759
 30
0.0
 11
-0.0000000000068279
 21
29.49999999999958
 31
0.0
210
0.0
220
0.0
230
1.0
 40
0.5150380749100542
 41
3.701211285013936
 42
3.786169970708557
  0
ELLIPSE
  5
8FAC
330
8C4A
100
AcDbEntity
  8
Visible (ISO)
100
AcDbEllipse
 10
800.608087964262
 20
369.4405459339759
 30
0.0
 11
0.0000000000050807
 21
-28.49999999999993
 31
0.0
210
0.0
220
0.0
230
1.0
 40
0.5150380749100542
 41
0.569621319072585
 42
1.001175007721629
  0
SPLINE
  5
8FAD
330
8C4A
100
AcDbEntity
  8
Visible (ISO)
100
AcDbSpline
210
0.0
220
0.0
230
1.0
 70
     8
 71
     3
 72
     8
 73
     4
 74
     0
 42
0.0000000001
 43
0.0000000001
 40
-0.1443505504637693
 40
-0.1443505504637693
 40
-0.1443505504637693
 40
-0.1443505504637693
 40
0.0
 40
0.0
 40
0.0
 40
0.0
 10
807.8166537122903
 20
344.4405459339713
 30
0.0
 10
808.0531089720301
 20
344.7739702561739
 30
0.0
 10
808.2890960602291
 20
345.1073729474992
 30
0.0
 10
808.5244426585589
 20
345.4405459339714
 30
0.0
  0
LINE
  5
8FAE
330
8C4A
100
AcDbEntity
  8
Visible (ISO)
100
AcDbLine
 10
812.9690017621035
 20
384.8109720829097
 30
0.0
 11
812.9690017621035
 21
384.5163592818189
 31
0.0
  0
LINE
  5
8FAF
330
8C4A
100
AcDbEntity
  8
Visible (ISO)
100
AcDbLine
 10
812.9690017621035
 20
354.3647325861193
 30
0.0
 11
812.9690017621035
 21
354.0701197850303
 31
0.0
  0
LINE
  5
8FB0
330
8C4A
100
AcDbEntity
  8
Visible (ISO)
100
AcDbLine
 10
807.8166537122903
 20
394.4405459339714
 30
0.0
 11
791.6851876148296
 21
394.4405459339796
 31
0.0
  0
SPLINE
  5
8FB1
330
8C4A
100
AcDbEntity
  8
Visible (ISO)
100
AcDbSpline
210
0.0
220
0.0
230
1.0
 70
     8
 71
     3
 72
     8
 73
     4
 74
     0
 42
0.0000000001
 43
0.0000000001
 40
-0.1443505504637693
 40
-0.1443505504637693
 40
-0.1443505504637693
 40
-0.1443505504637693
 40
0.0
 40
0.0
 40
0.0
 40
0.0
 10
791.6851876148296
 20
394.4405459339796
 30
0.0
 10
792.0203332075914
 20
394.107121611777
 30
0.0
 10
792.3559098893317
 20
393.7737189204517
 30
0.0
 10
792.6917332699652
 20
393.4405459339795
 30
0.0
  0
LINE
  5
8FB2
330
8C4A
100
AcDbEntity
  8
Visible (ISO)
100
AcDbLine
 10
792.6917332699652
 20
393.4405459339795
 30
0.0
 11
808.5244426585589
 21
393.4405459339723
 31
0.0
  0
SPLINE
  5
8FB3
330
8C4A
100
AcDbEntity
  8
Visible (ISO)
100
AcDbSpline
210
0.0
220
0.0
230
1.0
 70
     8
 71
     3
 72
     8
 73
     4
 74
     0
 42
0.0000000001
 43
0.0000000001
 40
-0.1443504730156712
 40
-0.1443504730156712
 40
-0.1443504730156712
 40
-0.1443504730156712
 40
0.0
 40
0.0
 40
0.0
 40
0.0
 10
808.5244426585589
 20
393.4405459339723
 30
0.0
 10
808.2890960602291
 20
393.7737189204444
 30
0.0
 10
808.0531089720295
 20
394.1071216117697
 30
0.0
 10
807.8166537122903
 20
394.4405459339714
 30
0.0
  0
ELLIPSE
  5
8FB4
330
8C4A
100
AcDbEntity
  8
Visible (ISO)
100
AcDbEllipse
 10
799.7509206635616
 20
369.4405459339796
 30
0.0
 11
-0.0000000000052555
 21
29.49999999999469
 31
0.0
210
0.0
220
0.0
230
1.0
 40
0.515038074910054
 41
5.638607990059651
 42
5.723566675754265
  0
ELLIPSE
  5
8FB5
330
8C4A
100
AcDbEntity
  8
Visible (ISO)
100
AcDbEllipse
 10
800.608087964262
 20
369.4405459339759
 30
0.0
 11
0.0000000000035638
 21
-28.49999999999993
 31
0.0
210
0.0
220
0.0
230
1.0
 40
0.5150380749100543
 41
2.140417645867808
 42
2.571971334516991
  0
ELLIPSE
  5
8FB6
330
8C4A
100
AcDbEntity
  8
Visible (ISO)
100
AcDbEllipse
 10
799.7509206635598
 20
369.4405459339759
 30
0.0
 11
0.0000000000068306
 21
-29.49999999999993
 31
0.0
210
0.0
220
0.0
230
1.0
 40
0.5150380749100542
 41
3.701211285013936
 42
4.152770348959023
  0
SPLINE
  5
8FB7
330
8C4A
100
AcDbEntity
  8
Visible (ISO)
100
AcDbSpline
210
0.0
220
0.0
230
1.0
 70
     8
 71
     3
 72
     8
 73
     4
 74
     0
 42
0.0000000001
 43
0.0000000001
 40
-0.1443505504637195
 40
-0.1443505504637195
 40
-0.1443505504637195
 40
-0.1443505504637195
 40
0.0
 40
0.0
 40
0.0
 40
0.0
 10
786.8749687908087
 20
385.1010056973473
 30
0.0
 10
787.3324954380948
 20
385.0051969233673
 30
0.0
 10
787.7899924033747
 20
384.9085151454628
 30
0.0
 10
788.247174166421
 20
384.8109720829206
 30
0.0
  0
ELLIPSE
  5
8FB8
330
8C4A
100
AcDbEntity
  8
Visible (ISO)
100
AcDbEllipse
 10
800.608087964262
 20
369.4405459339759
 30
0.0
 11
-0.0000000000050807
 21
28.49999999999993
 31
0.0
210
0.0
220
0.0
230
1.0
 40
0.5150380749100542
 41
0.569621319072585
 42
1.001175007721629
  0
LINE
  5
8FB9
330
8C4A
100
AcDbEntity
  8
Visible (ISO)
100
AcDbLine
 10
786.8749687908087
 20
385.1010056973473
 30
0.0
 11
786.8749687908087
 21
353.7800861706155
 31
0.0
  0
SPLINE
  5
8FBA
330
8C4A
100
AcDbEntity
  8
Visible (ISO)
100
AcDbSpline
210
0.0
220
0.0
230
1.0
 70
     8
 71
     3
 72
     8
 73
     4
 74
     0
 42
0.0000000001
 43
0.0000000001
 40
-0.1443505504637693
 40
-0.1443505504637693
 40
-0.1443505504637693
 40
-0.1443505504637693
 40
0.0
 40
0.0
 40
0.0
 40
0.0
 10
786.8749687908087
 20
353.7800861706155
 30
0.0
 10
787.3324954380944
 20
353.8758949445973
 30
0.0
 10
787.7899924033747
 20
353.9725767225017
 30
0.0
 10
788.247174166421
 20
354.0701197850421
 30
0.0
  0
LINE
  5
8FBB
330
8C4A
100
AcDbEntity
  8
Visible (ISO)
100
AcDbLine
 10
788.247174166421
 20
354.0701197850421
 30
0.0
 11
788.247174166421
 21
384.8109720829206
 31
0.0
  0
ELLIPSE
  5
8FBC
330
8C4A
100
AcDbEntity
  8
Visible (ISO)
100
AcDbEllipse
 10
799.7509206635598
 20
369.4405459339759
 30
0.0
 11
0.0000000000052625
 21
-29.49999999999993
 31
0.0
210
0.0
220
0.0
230
1.0
 40
0.5150380749100542
 41
5.272007611809346
 42
5.723566675754263
  0
SPLINE
  5
8FBD
330
8C4A
100
AcDbEntity
  8
Visible (ISO)
100
AcDbSpline
210
0.0
220
0.0
230
1.0
 70
     8
 71
     3
 72
     8
 73
     4
 74
     0
 42
0.0000000001
 43
0.0000000001
 40
-0.1443505504637195
 40
-0.1443505504637195
 40
-0.1443505504637195
 40
-0.1443505504637195
 40
0.0
 40
0.0
 40
0.0
 40
0.0
 10
791.6851876148296
 20
344.4405459339796
 30
0.0
 10
792.0203332075914
 20
344.773970256183
 30
0.0
 10
792.3559098893317
 20
345.1073729475074
 30
0.0
 10
792.6917332699652
 20
345.4405459339787
 30
0.0
  0
ELLIPSE
  5
8FBE
330
8C4A
100
AcDbEntity
  8
Visible (ISO)
100
AcDbEllipse
 10
800.608087964262
 20
369.4405459339759
 30
0.0
 11
-0.0000000000035638
 21
28.49999999999993
 31
0.0
210
0.0
220
0.0
230
1.0
 40
0.5150380749100543
 41
2.140417645867808
 42
2.571971334516991
  0
LINE
  5
8FBF
330
8C4A
100
AcDbEntity
  8
Visible (ISO)
100
AcDbLine
 10
791.6851876148296
 20
344.4405459339796
 30
0.0
 11
807.8166537122903
 21
344.4405459339713
 31
0.0
  0
LINE
  5
8FC0
330
8C4A
100
AcDbEntity
  8
Visible (ISO)
100
AcDbLine
 10
808.5244426585589
 20
345.4405459339714
 30
0.0
 11
792.6917332699652
 21
345.4405459339787
 31
0.0
  0
ELLIPSE
  5
8FC1
330
8C4A
100
AcDbEntity
  8
Visible (ISO)
100
AcDbEllipse
 10
794.8650670495578
 20
369.4405459339741
 30
0.0
 11
-0.0000000000036901
 21
29.50000000000003
 31
0.0
210
0.0
220
0.0
230
1.0
 40
0.5150380749100542
 41
2.130414958219867
 42
2.581974022164946
  0
LINE
  5
8FC2
330
8C4A
100
AcDbEntity
  8
Visible (ISO)
100
AcDbLine
 10
781.9891151768067
 20
353.7800861706155
 30
0.0
 11
781.9891151768067
 21
385.1010056973473
 31
0.0
  0
ELLIPSE
  5
8FC3
330
8C4A
100
AcDbEntity
  8
Visible (ISO)
100
AcDbEllipse
 10
794.8650670495578
 20
369.4405459339741
 30
0.0
 11
-0.0000000000052569
 21
29.50000000000002
 31
0.0
210
0.0
220
0.0
230
1.0
 40
0.5150380749100543
 41
0.559618631424641
 42
1.011177695369598
  0
SPLINE
  5
8FC4
330
8C4A
100
AcDbEntity
  8
Visible (ISO)
100
AcDbSpline
210
0.0
220
0.0
230
1.0
 70
     8
 71
     3
 72
     8
 73
     4
 74
     0
 42
0.0000000001
 43
0.0000000001
 40
-0.1443504730161398
 40
-0.1443504730161398
 40
-0.1443504730161398
 40
-0.1443504730161398
 40
0.0
 40
0.0
 40
0.0
 40
0.0
 10
781.6469859510146
 20
384.8109720829188
 30
0.0
 10
781.7609741669314
 20
384.908515145461
 30
0.0
 10
781.875040971591
 20
385.0051969233654
 30
0.0
 10
781.9891151768067
 20
385.1010056973473
 30
0.0
  0
SPLINE
  5
8FC5
330
8C4A
100
AcDbEntity
  8
Visible (ISO)
100
AcDbSpline
210
0.0
220
0.0
230
1.0
 70
     8
 71
     3
 72
     8
 73
     4
 74
     0
 42
0.0000000001
 43
0.0000000001
 40
-0.1443504730160225
 40
-0.1443504730160225
 40
-0.1443504730160225
 40
-0.1443504730160225
 40
0.0
 40
0.0
 40
0.0
 40
0.0
 10
781.6469859510146
 20
354.0701197850421
 30
0.0
 10
781.7609741669314
 20
353.9725767224999
 30
0.0
 10
781.8750409715915
 20
353.8758949445955
 30
0.0
 10
781.9891151768067
 20
353.7800861706155
 30
0.0
  0
LINE
  5
8FC6
330
8C4A
100
AcDbEntity
  8
Visible (ISO)
100
AcDbLine
 10
809.4278717148888
 20
346.6589622965548
 30
0.0
 11
808.8801705107
 21
345.8596084847149
 31
0.0
  0
LINE
  5
8FC7
330
8C4A
100
AcDbEntity
  8
Visible (ISO)
100
AcDbLine
 10
809.4278717148888
 20
392.2221295713871
 30
0.0
 11
808.8801705107
 21
393.021483383226
 31
0.0
  0
LINE
  5
8FC8
330
8C4A
100
AcDbEntity
  8
Visible (ISO)
100
AcDbLine
 10
785.1881159982292
 20
392.2221295713943
 30
0.0
 11
785.7358172024185
 21
393.0214833832342
 31
0.0
  0
LINE
  5
8FC9
330
8C4A
100
AcDbEntity
  8
Visible (ISO)
100
AcDbLine
 10
785.1881159982292
 20
346.6589622965621
 30
0.0
 11
785.7358172024185
 21
345.859608484724
 31
0.0
  0
LINE
  5
8FCA
330
8C4A
100
AcDbEntity
  8
Visible (ISO)
100
AcDbLine
 10
786.8749687908087
 20
353.7800861706155
 30
0.0
 11
781.9891151768067
 21
353.7800861706155
 31
0.0
  0
LINE
  5
8FCB
330
8C4A
100
AcDbEntity
  8
Visible (ISO)
100
AcDbLine
 10
791.6851876148296
 20
344.4405459339796
 30
0.0
 11
786.7993340008276
 21
344.4405459339786
 31
0.0
  0
LINE
  5
8FCC
330
8C4A
100
AcDbEntity
  8
Visible (ISO)
100
AcDbLine
 10
786.8749687908087
 20
385.1010056973473
 30
0.0
 11
781.9891151768067
 21
385.1010056973473
 31
0.0
  0
LINE
  5
8FCD
330
8C4A
100
AcDbEntity
  8
Visible (ISO)
100
AcDbLine
 10
791.6851876148296
 20
394.4405459339796
 30
0.0
 11
786.7993340008276
 21
394.4405459339786
 31
0.0
  0
SPLINE
  5
8FCE
330
8C4A
100
AcDbEntity
  8
Visible (ISO)
100
AcDbSpline
210
0.0
220
0.0
230
1.0
 70
     8
 71
     3
 72
    10
 73
     6
 74
     0
 42
0.0000000001
 43
0.0000000001
 40
1.373926011701411
 40
1.373926011701411
 40
1.373926011701411
 40
1.373926011701411
 40
1.452016626737377
 40
1.452016626737377
 40
1.457164195614173
 40
1.457164195614173
 40
1.457164195614173
 40
1.457164195614173
 10
959.1847520525242
 20
239.9479191098802
 30
0.0
 10
959.1993129525723
 20
239.8507067387412
 30
0.0
 10
959.2072039825323
 20
239.7499905496191
 30
0.0
 10
959.2084134959403
 20
239.6388953530434
 30
0.0
 10
959.2084591443869
 20
239.6319924434177
 30
0.0
 10
959.208475181105
 20
239.6250568932203
 30
0.0
  0
LINE
  5
8FCF
330
8C4A
100
AcDbEntity
  8
Visible (ISO)
100
AcDbLine
 10
959.1847520525242
 20
239.0251221099473
 30
0.0
 11
959.1847520525242
 21
239.9479191098802
 31
0.0
  0
SPLINE
  5
8FD0
330
8C4A
100
AcDbEntity
  8
Visible (ISO)
100
AcDbSpline
210
0.0
220
0.0
230
1.0
 70
     8
 71
     3
 72
    10
 73
     6
 74
     0
 42
0.0000000001
 43
0.0000000001
 40
2.554399938987153
 40
2.554399938987153
 40
2.554399938987153
 40
2.554399938987153
 40
2.55954750786395
 40
2.55954750786395
 40
2.637638122899916
 40
2.637638122899916
 40
2.637638122899916
 40
2.637638122899916
 10
954.1986006342538
 20
232.1871099979856
 30
0.0
 10
954.1864162886374
 20
232.1759797793641
 30
0.0
 10
954.1742485591456
 20
232.1648855526849
 30
0.0
 10
953.9777719835818
 20
231.9860760769719
 30
0.0
 10
953.7903597812707
 20
231.8202648442969
 30
0.0
 10
953.6003600637521
 20
231.6570106916682
 30
0.0
  0
ELLIPSE
  5
8FD1
330
8C4A
100
AcDbEntity
  8
Visible (ISO)
100
AcDbEllipse
 10
949.2084816858348
 20
239.615280128641
 30
0.0
 11
9.99999999999998
 21
-0.000000000004937
 31
0.0
210
0.0
220
0.0
230
1.0
 40
0.857167300702113
 41
5.234847165728666
 42
6.284325897434976
  0
SPLINE
  5
8FD2
330
8C4A
100
AcDbEntity
  8
Visible (ISO)
100
AcDbSpline
210
0.0
220
0.0
230
1.0
 70
     8
 71
     3
 72
    10
 73
     6
 74
     0
 42
0.0000000001
 43
0.0000000001
 40
1.373926011701412
 40
1.373926011701412
 40
1.373926011701412
 40
1.373926011701412
 40
1.452016626737379
 40
1.452016626737379
 40
1.457164195614175
 40
1.457164195614175
 40
1.457164195614175
 40
1.457164195614175
 10
978.6085722786827
 20
244.033219095016
 30
0.0
 10
978.4331334612087
 20
244.0156229162097
 30
0.0
 10
978.2536122888593
 20
243.9998440425664
 30
0.0
 10
978.0583452267036
 20
243.9847851657781
 30
0.0
 10
978.0462231456565
 20
243.9838587108209
 30
0.0
 10
978.03405483676
 20
243.982937147219
 30
0.0
  0
SPLINE
  5
8FD3
330
8C4A
100
AcDbEntity
  8
Visible (ISO)
100
AcDbSpline
210
0.0
220
0.0
230
1.0
 70
     8
 71
     3
 72
    10
 73
     6
 74
     0
 42
0.0000000001
 43
0.0000000001
 40
2.554399938987156
 40
2.554399938987156
 40
2.554399938987156
 40
2.554399938987156
 40
2.559547507863951
 40
2.559547507863951
 40
2.637638122899917
 40
2.637638122899917
 40
2.637638122899917
 40
2.637638122899917
 10
968.0143057430539
 20
243.982937147219
 30
0.0
 10
968.0021374341574
 20
243.9838587108209
 30
0.0
 10
967.9900153531105
 20
243.9847851657781
 30
0.0
 10
967.7947482909528
 20
243.9998440425664
 30
0.0
 10
967.6152271186035
 20
244.0156229162097
 30
0.0
 10
967.4397883011312
 20
244.033219095016
 30
0.0
  0
ELLIPSE
  5
8FD4
330
8C4A
100
AcDbEntity
  8
Visible (ISO)
100
AcDbEllipse
 10
973.0241802899051
 20
251.4013305132951
 30
0.0
 11
-10.0
 21
0.0000000000058308
 31
0.0
210
0.0
220
0.0
230
1.0
 40
0.8571673007021136
 41
1.046056960942459
 42
2.095535692648709
  0
SPLINE
  5
8FD5
330
8C4A
100
AcDbEntity
  8
Visible (ISO)
100
AcDbSpline
210
0.0
220
0.0
230
1.0
 70
     8
 71
     3
 72
    10
 73
     6
 74
     0
 42
0.0000000001
 43
0.0000000001
 40
1.373926011701414
 40
1.373926011701414
 40
1.373926011701414
 40
1.373926011701414
 40
1.452016626737378
 40
1.452016626737378
 40
1.457164195614177
 40
1.457164195614177
 40
1.457164195614177
 40
1.457164195614177
 10
992.4480005160656
 20
231.6570106916682
 30
0.0
 10
992.2580007985468
 20
231.8202648442969
 30
0.0
 10
992.0705885962359
 20
231.9860760769719
 30
0.0
 10
991.8741120206721
 20
232.1648855526849
 30
0.0
 10
991.8619442911783
 20
232.1759797793641
 30
0.0
 10
991.8497599455639
 20
232.1871099979856
 30
0.0
  0
LINE
  5
8FD6
330
8C4A
100
AcDbEntity
  8
Visible (ISO)
100
AcDbLine
 10
986.863608527288
 20
239.9479191098802
 30
0.0
 11
986.863608527288
 21
239.0251221099473
 31
0.0
  0
SPLINE
  5
8FD7
330
8C4A
100
AcDbEntity
  8
Visible (ISO)
100
AcDbSpline
210
0.0
220
0.0
230
1.0
 70
     8
 71
     3
 72
    10
 73
     6
 74
     0
 42
0.0000000001
 43
0.0000000001
 40
2.554399938987154
 40
2.554399938987154
 40
2.554399938987154
 40
2.554399938987154
 40
2.559547507863952
 40
2.559547507863952
 40
2.637638122899916
 40
2.637638122899916
 40
2.637638122899916
 40
2.637638122899916
 10
986.8398853987089
 20
239.6250568932203
 30
0.0
 10
986.8399014354288
 20
239.6319924434177
 30
0.0
 10
986.8399470838737
 20
239.6388953530434
 30
0.0
 10
986.8411565972817
 20
239.7499905496191
 30
0.0
 10
986.8490476272434
 20
239.8507067387412
 30
0.0
 10
986.8636085272898
 20
239.9479191098802
 30
0.0
  0
ELLIPSE
  5
8FD8
330
8C4A
100
AcDbEntity
  8
Visible (ISO)
100
AcDbEllipse
 10
996.8398788939792
 20
239.615280128641
 30
0.0
 11
-10.00000000000001
 21
0.0000000000049391
 31
0.0
210
0.0
220
0.0
230
1.0
 40
0.8571673007021132
 41
6.282044716925305
 42
7.331523448631531
  0
SPLINE
  5
8FD9
330
8C4A
100
AcDbEntity
  8
Visible (ISO)
100
AcDbSpline
210
0.0
220
0.0
230
1.0
 70
     8
 71
     3
 72
    10
 73
     6
 74
     0
 42
0.0000000001
 43
0.0000000001
 40
1.373926011701413
 40
1.373926011701413
 40
1.373926011701413
 40
1.373926011701413
 40
1.452016626737377
 40
1.452016626737377
 40
1.457164195614175
 40
1.457164195614175
 40
1.457164195614175
 40
1.457164195614175
 10
986.8636085272935
 20
215.1955023031844
 30
0.0
 10
986.8490476272489
 20
215.4599905949156
 30
0.0
 10
986.8411565972872
 20
215.7224546184282
 30
0.0
 10
986.8399470838774
 20
215.9990961268579
 30
0.0
 10
986.8399014354324
 20
216.0162345805041
 30
0.0
 10
986.8398853987125
 20
216.0334025947543
 30
0.0
  0
LINE
  5
8FDA
330
8C4A
100
AcDbEntity
  8
Visible (ISO)
100
AcDbLine
 10
986.8636085272862
 20
202.0727060423308
 30
0.0
 11
986.8636085272935
 21
215.1955023031844
 31
0.0
  0
SPLINE
  5
8FDB
330
8C4A
100
AcDbEntity
  8
Visible (ISO)
100
AcDbSpline
210
0.0
220
0.0
230
1.0
 70
     8
 71
     3
 72
    16
 73
    12
 74
     0
 42
0.0000000001
 43
0.0000000001
 40
2.449789672836271
 40
2.449789672836271
 40
2.449789672836271
 40
2.449789672836271
 40
2.476982571578468
 40
2.476982571578468
 40
2.757060018455132
 40
2.757060018455132
 40
3.037137465331795
 40
3.037137465331795
 40
3.317214912208459
 40
3.317214912208459
 40
3.479348579905429
 40
3.479348579905429
 40
3.479348579905429
 40
3.479348579905429
 10
992.4480005160601
 20
210.3636144605428
 30
0.0
 10
992.3726717274055
 20
210.3129043960965
 30
0.0
 10
992.2980587386826
 20
210.261817255124
 30
0.0
 10
991.4635836290505
 20
209.6809527335602
 30
0.0
 10
990.6730716961718
 20
209.0341831313729
 30
0.0
 10
989.2643134595035
 20
207.6425336344976
 30
0.0
 10
988.6464206009257
 20
206.8983388538621
 30
0.0
 10
987.7128291113383
 20
205.5122754192464
 30
0.0
 10
987.3369371976512
 20
204.7810403678052
 30
0.0
 10
986.9821327846564
 20
203.7017660445147
 30
0.0
 10
986.9020203582401
 20
203.3209597051685
 30
0.0
 10
986.8649061447266
 20
202.9648725805676
 30
0.0
  0
LINE
  5
8FDC
330
8C4A
100
AcDbEntity
  8
Visible (ISO)
100
AcDbLine
 10
992.4480005160674
 20
223.4864107213964
 30
0.0
 11
992.4480005160601
 21
210.3636144605428
 31
0.0
  0
SPLINE
  5
8FDD
330
8C4A
100
AcDbEntity
  8
Visible (ISO)
100
AcDbSpline
210
0.0
220
0.0
230
1.0
 70
     8
 71
     3
 72
    10
 73
     6
 74
     0
 42
0.0000000001
 43
0.0000000001
 40
2.554399938987155
 40
2.554399938987155
 40
2.554399938987155
 40
2.554399938987155
 40
2.559547507863951
 40
2.559547507863951
 40
2.637638122899916
 40
2.637638122899916
 40
2.637638122899916
 40
2.637638122899916
 10
991.8497599455639
 20
223.4713494899882
 30
0.0
 10
991.8619442911802
 20
223.4722472445576
 30
0.0
 10
991.8741120206739
 20
223.4731059272165
 30
0.0
 10
992.0705885962394
 20
223.4863690910755
 30
0.0
 10
992.2580007985486
 20
223.4904324893598
 30
0.0
 10
992.4480005160674
 20
223.4864107213964
 30
0.0
  0
ELLIPSE
  5
8FDE
330
8C4A
100
AcDbEntity
  8
Visible (ISO)
100
AcDbEllipse
 10
996.8398788939827
 20
216.0431793593328
 30
0.0
 11
-9.999999999999989
 21
0.000000000004937
 31
0.0
210
0.0
220
0.0
230
1.0
 40
0.8571673007021132
 41
5.234847165728666
 42
6.284325897434976
  0
SPLINE
  5
8FDF
330
8C4A
100
AcDbEntity
  8
Visible (ISO)
100
AcDbSpline
210
0.0
220
0.0
230
1.0
 70
     8
 71
     3
 72
    10
 73
     6
 74
     0
 42
0.0000000001
 43
0.0000000001
 40
1.373926011701412
 40
1.373926011701412
 40
1.373926011701412
 40
1.373926011701412
 40
1.452016626737379
 40
1.452016626737379
 40
1.457164195614175
 40
1.457164195614175
 40
1.457164195614175
 40
1.457164195614175
 10
967.4397883011367
 20
211.1102023180486
 30
0.0
 10
967.615227118609
 20
211.295074417448
 30
0.0
 10
967.7947482909583
 20
211.4726011254809
 30
0.0
 10
967.9900153531159
 20
211.6532063141233
 30
0.0
 10
968.0021374341629
 20
211.6643683131008
 30
0.0
 10
968.0143057430594
 20
211.6755223407556
 30
0.0
  0
LINE
  5
8FE0
330
8C4A
100
AcDbEntity
  8
Visible (ISO)
100
AcDbLine
 10
967.4397883011312
 20
197.9874060571949
 30
0.0
 11
967.4397883011367
 21
211.1102023180486
 31
0.0
  0
SPLINE
  5
8FE1
330
8C4A
100
AcDbEntity
  8
Visible (ISO)
100
AcDbSpline
210
0.0
220
0.0
230
1.0
 70
     8
 71
     3
 72
    18
 73
    14
 74
     0
 42
0.0000000001
 43
0.0000000001
 40
2.449789672836271
 40
2.449789672836271
 40
2.449789672836271
 40
2.449789672836271
 40
2.476982571578468
 40
2.476982571578468
 40
2.757060018455132
 40
2.757060018455132
 40
3.037137465331795
 40
3.037137465331795
 40
3.317214912208459
 40
3.317214912208459
 40
3.597292359085122
 40
3.597292359085122
 40
3.62448525782732
 40
3.62448525782732
 40
3.62448525782732
 40
3.62448525782732
 10
978.6085722786808
 20
197.9874060571949
 30
0.0
 10
978.539016419463
 20
198.0083973435324
 30
0.0
 10
978.469104574882
 20
198.0288334862355
 30
0.0
 10
977.6758534282924
 20
198.253507529262
 30
0.0
 10
976.8097504125323
 20
198.4265730945083
 30
0.0
 10
974.9515565517574
 20
198.6516917078136
 30
0.0
 10
973.9577717794944
 20
198.7050932554105
 30
0.0
 10
972.090588800316
 20
198.7050932554105
 30
0.0
 10
971.096804028053
 20
198.6516917078136
 30
0.0
 10
969.2386101672799
 20
198.4265730945083
 30
0.0
 10
968.3725071515198
 20
198.253507529262
 30
0.0
 10
967.5792560049282
 20
198.0288334862355
 30
0.0
 10
967.5093441603474
 20
198.0083973435324
 30
0.0
 10
967.4397883011312
 20
197.9874060571949
 30
0.0
  0
LINE
  5
8FE2
330
8C4A
100
AcDbEntity
  8
Visible (ISO)
100
AcDbLine
 10
978.608572278688
 20
211.1102023180486
 30
0.0
 11
978.6085722786808
 21
197.9874060571949
 31
0.0
  0
SPLINE
  5
8FE3
330
8C4A
100
AcDbEntity
  8
Visible (ISO)
100
AcDbSpline
210
0.0
220
0.0
230
1.0
 70
     8
 71
     3
 72
    10
 73
     6
 74
     0
 42
0.0000000001
 43
0.0000000001
 40
2.554399938987154
 40
2.554399938987154
 40
2.554399938987154
 40
2.554399938987154
 40
2.559547507863952
 40
2.559547507863952
 40
2.637638122899917
 40
2.637638122899917
 40
2.637638122899917
 40
2.637638122899917
 10
978.0340548367655
 20
211.6755223407556
 30
0.0
 10
978.046223145662
 20
211.6643683131008
 30
0.0
 10
978.0583452267089
 20
211.6532063141233
 30
0.0
 10
978.2536122888648
 20
211.4726011254809
 30
0.0
 10
978.433133461214
 20
211.295074417448
 30
0.0
 10
978.608572278688
 20
211.1102023180486
 30
0.0
  0
ELLIPSE
  5
8FE4
330
8C4A
100
AcDbEntity
  8
Visible (ISO)
100
AcDbEllipse
 10
973.0241802899142
 20
204.2571289746796
 30
0.0
 11
9.999999999999978
 21
-0.0000000000058266
 31
0.0
210
0.0
220
0.0
230
1.0
 40
0.8571673007021132
 41
1.046056960942459
 42
2.095535692648708
  0
ELLIPSE
  5
8FE5
330
8C4A
100
AcDbEntity
  8
Visible (ISO)
100
AcDbEllipse
 10
973.0241802899106
 20
227.8292297439878
 30
0.0
 11
-6.749999999999992
 21
-0.0000000000000003
 31
0.0
210
0.0
220
0.0
230
1.0
 40
0.8571673007021132
 41
0.0
 42
6.283185307179586
  0
ELLIPSE
  5
8FE6
330
8C4A
100
AcDbEntity
  8
Visible (ISO)
100
AcDbEllipse
 10
973.0241802899106
 20
227.8292297439878
 30
0.0
 11
-19.49999999999996
 21
0.0000000000096298
 31
0.0
210
0.0
220
0.0
230
1.0
 40
0.8571673007021132
 41
6.019416926380309
 42
6.546953687979975
  0
ELLIPSE
  5
8FE7
330
8C4A
100
AcDbEntity
  8
Visible (ISO)
100
AcDbEllipse
 10
973.0241802899106
 20
227.8292297439878
 30
0.0
 11
19.49999999999995
 21
-0.0000000000078978
 31
0.0
210
0.0
220
0.0
230
1.0
 40
0.8571673007021132
 41
3.925021823987004
 42
4.452558585586705
  0
ELLIPSE
  5
8FE8
330
8C4A
100
AcDbEntity
  8
Visible (ISO)
100
AcDbEllipse
 10
973.0241802899106
 20
227.8292297439878
 30
0.0
 11
19.49999999999988
 21
-0.0000000000096367
 31
0.0
210
0.0
220
0.0
230
1.0
 40
0.8571673007021134
 41
4.972219375183737
 42
5.499756136783406
  0
ELLIPSE
  5
8FE9
330
8C4A
100
AcDbEntity
  8
Visible (ISO)
100
AcDbEllipse
 10
973.0241802899106
 20
227.8292297439878
 30
0.0
 11
19.49999999999999
 21
-0.0000000000096291
 31
0.0
210
0.0
220
0.0
230
1.0
 40
0.8571673007021132
 41
6.019416926380309
 42
6.546953687979975
  0
ELLIPSE
  5
8FEA
330
8C4A
100
AcDbEntity
  8
Visible (ISO)
100
AcDbEllipse
 10
973.0241802899106
 20
227.8292297439878
 30
0.0
 11
-19.49999999999999
 21
0.0000000000079076
 31
0.0
210
0.0
220
0.0
230
1.0
 40
0.8571673007021132
 41
3.925021823987004
 42
4.452558585586706
  0
ELLIPSE
  5
8FEB
330
8C4A
100
AcDbEntity
  8
Visible (ISO)
100
AcDbEllipse
 10
973.0241802899106
 20
227.8292297439878
 30
0.0
 11
-19.49999999999994
 21
0.0000000000096242
 31
0.0
210
0.0
220
0.0
230
1.0
 40
0.8571673007021132
 41
4.972219375183736
 42
5.499756136783405
  0
ELLIPSE
  5
8FEC
330
8C4A
100
AcDbEntity
  8
Visible (ISO)
100
AcDbEllipse
 10
973.0241802899106
 20
227.5717107065323
 30
0.0
 11
-19.99999999999997
 21
0.000000000009874
 31
0.0
210
0.0
220
0.0
230
1.0
 40
0.8571673007021136
 41
6.042567819798282
 42
6.523802794562058
  0
ELLIPSE
  5
8FED
330
8C4A
100
AcDbEntity
  8
Visible (ISO)
100
AcDbEllipse
 10
973.0241802899106
 20
227.5717107065323
 30
0.0
 11
19.99999999999996
 21
-0.0000000000080991
 31
0.0
210
0.0
220
0.0
230
1.0
 40
0.8571673007021134
 41
3.948172717404959
 42
4.429407692168797
  0
ELLIPSE
  5
8FEE
330
8C4A
100
AcDbEntity
  8
Visible (ISO)
100
AcDbEllipse
 10
973.0241802899106
 20
227.5717107065323
 30
0.0
 11
20.0
 21
-0.0000000000098734
 31
0.0
210
0.0
220
0.0
230
1.0
 40
0.8571673007021132
 41
4.995370268601643
 42
5.476605243365445
  0
ELLIPSE
  5
8FEF
330
8C4A
100
AcDbEntity
  8
Visible (ISO)
100
AcDbEllipse
 10
973.0241802899106
 20
227.5717107065323
 30
0.0
 11
19.99999999999997
 21
-0.0000000000098727
 31
0.0
210
0.0
220
0.0
230
1.0
 40
0.8571673007021134
 41
6.042567819798282
 42
6.523802794562058
  0
ELLIPSE
  5
8FF0
330
8C4A
100
AcDbEntity
  8
Visible (ISO)
100
AcDbEllipse
 10
973.0241802899106
 20
227.5717107065323
 30
0.0
 11
-19.99999999999998
 21
0.000000000008106
 31
0.0
210
0.0
220
0.0
230
1.0
 40
0.8571673007021136
 41
3.948172717404959
 42
4.429407692168797
  0
ELLIPSE
  5
8FF1
330
8C4A
100
AcDbEntity
  8
Visible (ISO)
100
AcDbEllipse
 10
973.0241802899033
 20
214.4489144456787
 30
0.0
 11
-19.99999999999978
 21
0.0000000000000003
 31
0.0
210
0.0
220
0.0
230
1.0
 40
0.8571673007021132
 41
0.0
 42
0.2406174873815079
  0
ELLIPSE
  5
8FF2
330
8C4A
100
AcDbEntity
  8
Visible (ISO)
100
AcDbEllipse
 10
973.0241802899033
 20
214.4489144456787
 30
0.0
 11
19.99999999999988
 21
-0.0000000000081005
 31
0.0
210
0.0
220
0.0
230
1.0
 40
0.8571673007021136
 41
3.948172717404943
 42
4.429407692168791
  0
ELLIPSE
  5
8FF3
330
8C4A
100
AcDbEntity
  8
Visible (ISO)
100
AcDbEllipse
 10
973.0241802899033
 20
214.4489144456787
 30
0.0
 11
19.99999999999997
 21
-0.0000000000098796
 31
0.0
210
0.0
220
0.0
230
1.0
 40
0.8571673007021134
 41
4.995370268601643
 42
5.476605243365459
  0
ELLIPSE
  5
8FF4
330
8C4A
100
AcDbEntity
  8
Visible (ISO)
100
AcDbEllipse
 10
973.0241802899033
 20
214.4489144456787
 30
0.0
 11
19.99999999999991
 21
-0.0000000000098727
 31
0.0
210
0.0
220
0.0
230
1.0
 40
0.8571673007021136
 41
6.042567819798282
 42
6.283185307180161
  0
ELLIPSE
  5
8FF5
330
8C4A
100
AcDbEntity
  8
Visible (ISO)
100
AcDbEllipse
 10
973.0241802898978
 20
201.7940550572842
 30
0.0
 11
-16.49999999999998
 21
0.0000000000081438
 31
0.0
210
0.0
220
0.0
230
1.0
 40
0.8571673007021132
 41
6.108411473091932
 42
9.599551794858165
  0
ELLIPSE
  5
8FF6
330
8C4A
100
AcDbEntity
  8
Visible (ISO)
100
AcDbEllipse
 10
973.0241802898943
 20
197.2102161905844
 30
0.0
 11
16.49999999999999
 21
0.0000000000000038
 31
0.0
210
0.0
220
0.0
230
1.0
 40
0.8571673007021132
 41
3.141592653589384
 42
6.283185307179176
  0
ELLIPSE
  5
8FF7
330
8C4A
100
AcDbEntity
  8
Visible (ISO)
100
AcDbEllipse
 10
973.0241802898978
 20
201.7940550572842
 30
0.0
 11
11.0
 21
-0.0000000000054314
 31
0.0
210
0.0
220
0.0
230
1.0
 40
0.8571673007021132
 41
4.356332734182941
 42
5.068445226587698
  0
ELLIPSE
  5
8FF8
330
8C4A
100
AcDbEntity
  8
Visible (ISO)
100
AcDbEllipse
 10
973.0241802898978
 20
206.7126686726754
 30
0.0
 11
-16.49999999999997
 21
-0.0000000000000011
 31
0.0
210
0.0
220
0.0
230
1.0
 40
0.8571673007021134
 41
0.0
 42
3.141592653589384
  0
ELLIPSE
  5
8FF9
330
8C4A
100
AcDbEntity
  8
Visible (ISO)
100
AcDbEllipse
 10
973.0241802899106
 20
227.5717107065323
 30
0.0
 11
-19.99999999999996
 21
0.0000000000098851
 31
0.0
210
0.0
220
0.0
230
1.0
 40
0.8571673007021134
 41
4.995370268601643
 42
5.47660524336546
  0
ELLIPSE
  5
8FFA
330
8C4A
100
AcDbEntity
  8
Visible (ISO)
100
AcDbEllipse
 10
973.0241802899088
 20
227.1081764391131
 30
0.0
 11
6.74999999999999
 21
-0.0000000000033325
 31
0.0
210
0.0
220
0.0
230
1.0
 40
0.8571673007021132
 41
0.0623518652142384
 42
3.079240788376766
  0
LINE
  5
8FFB
330
8C4A
100
AcDbEntity
  8
Visible (ISO)
100
AcDbLine
 10
953.0241802899034
 20
214.4489144456787
 30
0.0
 11
953.0241802899107
 21
227.5717107065323
 31
0.0
  0
LINE
  5
8FFC
330
8C4A
100
AcDbEntity
  8
0
  6
CENTER
100
AcDbLine
 10
973.0241802898728
 20
159.5621687878341
 30
0.0
 11
973.024180289917
 21
239.1723679553009
 31
0.0
  0
LINE
  5
8FFD
330
8C4A
100
AcDbEntity
  8
Visible (ISO)
100
AcDbLine
 10
993.0241802899033
 20
214.4489144456787
 30
0.0
 11
993.0241802899088
 21
227.5717107065323
 31
0.0
  0
LINE
  5
8FFE
330
8C4A
100
AcDbEntity
  8
Visible (ISO)
100
AcDbLine
 10
956.5241802898942
 20
197.2102161905844
 30
0.0
 11
956.5241802898961
 21
201.7940550572842
 31
0.0
  0
LINE
  5
8FFF
330
8C4A
100
AcDbEntity
  8
Visible (ISO)
100
AcDbLine
 10
989.5241802898942
 20
197.2102161905844
 30
0.0
 11
989.5241802898961
 21
201.7940550572842
 31
0.0
  0
LINE
  5
9000
330
8C4A
100
AcDbEntity
  8
Visible (ISO)
100
AcDbLine
 10
956.5241802898997
 20
206.7126686726754
 30
0.0
 11
956.5241802898997
 21
207.8814396082246
 31
0.0
  0
LINE
  5
9001
330
8C4A
100
AcDbEntity
  8
Visible (ISO)
100
AcDbLine
 10
989.5241802898997
 20
206.7126686726754
 30
0.0
 11
989.5241802898997
 21
207.8814396082246
 31
0.0
  0
ELLIPSE
  5
9002
330
8C4A
100
AcDbEntity
  8
Visible (ISO)
100
AcDbEllipse
 10
949.2084816858385
 20
216.0431793593328
 30
0.0
 11
9.999999999999991
 21
-0.0000000000049377
 31
0.0
210
0.0
220
0.0
230
1.0
 40
0.8571673007021132
 41
6.282044716925305
 42
7.331523448631531
  0
SPLINE
  5
9003
330
8C4A
100
AcDbEntity
  8
Visible (ISO)
100
AcDbSpline
210
0.0
220
0.0
230
1.0
 70
     8
 71
     3
 72
    10
 73
     6
 74
     0
 42
0.0000000001
 43
0.0000000001
 40
1.373636215080867
 40
1.373636215080867
 40
1.373636215080867
 40
1.373636215080867
 40
1.451726830116834
 40
1.451726830116834
 40
1.456874398993631
 40
1.456874398993631
 40
1.456874398993631
 40
1.456874398993631
 10
953.6003600637521
 20
223.4864107213964
 30
0.0
 10
953.7903597812707
 20
223.4904324893598
 30
0.0
 10
953.9777719835818
 20
223.4863690910755
 30
0.0
 10
954.1742485591473
 20
223.4731059272165
 30
0.0
 10
954.1864162886392
 20
223.4722472445576
 30
0.0
 10
954.1986006342556
 20
223.4713494899882
 30
0.0
  0
SPLINE
  5
9004
330
8C4A
100
AcDbEntity
  8
Visible (ISO)
100
AcDbSpline
210
0.0
220
0.0
230
1.0
 70
     8
 71
     3
 72
    10
 73
     6
 74
     0
 42
0.0000000001
 43
0.0000000001
 40
2.55411014236661
 40
2.55411014236661
 40
2.55411014236661
 40
2.55411014236661
 40
2.559257711243407
 40
2.559257711243407
 40
2.637348326279373
 40
2.637348326279373
 40
2.637348326279373
 40
2.637348326279373
 10
959.2084751811105
 20
216.0334025947543
 30
0.0
 10
959.2084591443907
 20
216.0162345805041
 30
0.0
 10
959.2084134959456
 20
215.9990961268579
 30
0.0
 10
959.2072039825358
 20
215.7224546184282
 30
0.0
 10
959.1993129525761
 20
215.4599905949156
 30
0.0
 10
959.1847520525314
 20
215.1955023031844
 30
0.0
  0
LINE
  5
9005
330
8C4A
100
AcDbEntity
  8
Visible (ISO)
100
AcDbLine
 10
953.6003600637465
 20
210.3636144605428
 30
0.0
 11
953.6003600637521
 21
223.4864107213964
 31
0.0
  0
LINE
  5
9006
330
8C4A
100
AcDbEntity
  8
Visible (ISO)
100
AcDbLine
 10
959.1847520525314
 20
215.1955023031844
 30
0.0
 11
959.1847520525242
 21
202.0727060423308
 31
0.0
  0
SPLINE
  5
9007
330
8C4A
100
AcDbEntity
  8
Visible (ISO)
100
AcDbSpline
210
0.0
220
0.0
230
1.0
 70
     8
 71
     3
 72
    16
 73
    12
 74
     0
 42
0.0000000001
 43
0.0000000001
 40
2.590933521440483
 40
2.590933521440483
 40
2.590933521440483
 40
2.590933521440483
 40
2.753067189137468
 40
2.753067189137468
 40
3.033144636014132
 40
3.033144636014132
 40
3.313222082890795
 40
3.313222082890795
 40
3.593299529767458
 40
3.593299529767458
 40
3.620492428509656
 40
3.620492428509656
 40
3.620492428509656
 40
3.620492428509656
 10
959.183454435082
 20
202.9648725805676
 30
0.0
 10
959.1463402215701
 20
203.3209597051685
 30
0.0
 10
959.0662277951521
 20
203.7017660445147
 30
0.0
 10
958.7114233821573
 20
204.7810403678052
 30
0.0
 10
958.3355314684702
 20
205.5122754192464
 30
0.0
 10
957.4019399788829
 20
206.8983388538621
 30
0.0
 10
956.7840471203032
 20
207.6425336344976
 30
0.0
 10
955.3752888836349
 20
209.0341831313729
 30
0.0
 10
954.5847769507561
 20
209.6809527335602
 30
0.0
 10
953.7503018411241
 20
210.261817255124
 30
0.0
 10
953.6756888524012
 20
210.3129043960965
 30
0.0
 10
953.6003600637465
 20
210.3636144605428
 30
0.0
  0
ELLIPSE
  5
9008
330
8C4A
100
AcDbEntity
  8
Visible (ISO)
100
AcDbEllipse
 10
973.0241802898905
 20
188.3000574946402
 30
0.0
 11
29.49999999999999
 21
-0.0000000000145675
 31
0.0
210
0.0
220
0.0
230
1.0
 40
0.8571673007021132
 41
5.272007611810266
 42
5.723566675755204
  0
LINE
  5
9009
330
8C4A
100
AcDbEntity
  8
Visible (ISO)
100
AcDbLine
 10
957.3637205265292
 20
166.870874977087
 30
0.0
 11
988.6846400532592
 21
166.870874977087
 31
0.0
  0
ELLIPSE
  5
900A
330
8C4A
100
AcDbEntity
  8
Visible (ISO)
100
AcDbEllipse
 10
973.0241802898905
 20
188.3000574946402
 30
0.0
 11
29.50000000000003
 21
-0.000000000011946
 31
0.0
210
0.0
220
0.0
230
1.0
 40
0.8571673007021132
 41
3.701211285015206
 42
4.152770348960155
  0
LINE
  5
900B
330
8C4A
100
AcDbEntity
  8
Visible (ISO)
100
AcDbLine
 10
948.0241802898943
 20
179.8207889906583
 30
0.0
 11
948.0241802898925
 21
174.8764234715221
 31
0.0
  0
LINE
  5
900C
330
8C4A
100
AcDbEntity
  8
Visible (ISO)
100
AcDbLine
 10
948.0241802898943
 20
179.8207889906583
 30
0.0
 11
948.0241802898943
 21
180.3358270655683
 31
0.0
  0
LINE
  5
900D
330
8C4A
100
AcDbEntity
  8
Visible (ISO)
100
AcDbLine
 10
998.0241802898943
 20
180.3358270655683
 30
0.0
 11
998.0241802898943
 21
179.8207889906583
 31
0.0
  0
LINE
  5
900E
330
8C4A
100
AcDbEntity
  8
Visible (ISO)
100
AcDbLine
 10
998.0241802898943
 20
179.8207889906583
 30
0.0
 11
998.0241802898925
 21
174.8764234715221
 31
0.0
  0
ELLIPSE
  5
900F
330
8C4A
100
AcDbEntity
  8
Visible (ISO)
100
AcDbEllipse
 10
973.0241802898925
 20
193.2444230137774
 30
0.0
 11
-29.49999999999993
 21
0.0000000000145592
 31
0.0
210
0.0
220
0.0
230
1.0
 40
0.857167300702113
 41
0.5596186314255363
 42
1.011177695370504
  0
LINE
  5
9010
330
8C4A
100
AcDbEntity
  8
Visible (ISO)
100
AcDbLine
 10
988.6846400532611
 20
171.8152404962241
 30
0.0
 11
957.3637205265292
 21
171.8152404962241
 31
0.0
  0
ELLIPSE
  5
9011
330
8C4A
100
AcDbEntity
  8
Visible (ISO)
100
AcDbEllipse
 10
973.0241802898925
 20
193.2444230137774
 30
0.0
 11
-29.4999999999999
 21
0.0000000000171752
 31
0.0
210
0.0
220
0.0
230
1.0
 40
0.8571673007021132
 41
2.130414958220567
 42
2.581974022165546
  0
LINE
  5
9012
330
8C4A
100
AcDbEntity
  8
Visible (ISO)
100
AcDbLine
 10
957.3637205265292
 20
171.8152404962241
 30
0.0
 11
957.3637205265292
 21
166.8708749770879
 31
0.0
  0
LINE
  5
9013
330
8C4A
100
AcDbEntity
  8
Visible (ISO)
100
AcDbLine
 10
988.6846400532611
 20
171.8152404962241
 30
0.0
 11
988.6846400532592
 21
166.8708749770879
 31
0.0
  0
ELLIPSE
  5
9014
330
8C4A
100
AcDbEntity
  8
Visible (ISO)
100
AcDbEllipse
 10
988.1296891175258
 20
169.6245538058431
 30
0.0
 11
4.249999999999993
 21
-0.0000000000020979
 31
0.0
210
0.0
220
0.0
230
1.0
 40
0.8571673007021134
 41
3.998605538996501
 42
6.165118353600237
  0
ELLIPSE
  5
9015
330
8C4A
100
AcDbEntity
  8
Visible (ISO)
100
AcDbEllipse
 10
957.9186714622572
 20
169.6245538058431
 30
0.0
 11
-4.249999999999994
 21
0.0000000000020983
 31
0.0
210
0.0
220
0.0
230
1.0
 40
0.8571673007021132
 41
0.1180669535804965
 42
2.28457976818425
  0
LINE
  5
9016
330
8C4A
100
AcDbEntity
  8
Visible (ISO)
100
AcDbLine
 10
1018.024180289889
 20
169.1111456762722
 30
0.0
 11
1018.024180289889
 21
203.1111456762731
 31
0.0
  0
LINE
  5
9017
330
8C4A
100
AcDbEntity
  8
Visible (ISO)
100
AcDbLine
 10
1015.174180289888
 20
169.1111456762722
 30
0.0
 11
1015.174180289888
 21
203.1111456762731
 31
0.0
  0
LINE
  5
9018
330
8C4A
100
AcDbEntity
  8
Visible (ISO)
100
AcDbLine
 10
1011.4980809238
 20
179.2111456762725
 30
0.0
 11
1011.4980809238
 21
193.0111456762727
 31
0.0
  0
LINE
  5
9019
330
8C4A
100
AcDbEntity
  8
Visible (ISO)
100
AcDbLine
 10
1015.17418028989
 20
203.1111456762722
 30
0.0
 11
1018.024180289889
 21
203.1111456762722
 31
0.0
  0
LINE
  5
901A
330
8C4A
100
AcDbEntity
  8
Visible (ISO)
100
AcDbLine
 10
1015.17418028989
 20
169.1111456762722
 30
0.0
 11
1018.024180289889
 21
169.1111456762722
 31
0.0
  0
LINE
  5
901B
330
8C4A
100
AcDbEntity
  8
Visible (ISO)
100
AcDbLine
 10
1011.4980809238
 20
193.0111456762727
 30
0.0
 11
1015.17418028989
 21
203.1111456762722
 31
0.0
  0
LINE
  5
901C
330
8C4A
100
AcDbEntity
  8
Visible (ISO)
100
AcDbLine
 10
1011.4980809238
 20
179.2111456762725
 30
0.0
 11
1015.17418028989
 21
169.1111456762722
 31
0.0
  0
LINE
  5
901D
330
8C4A
100
AcDbEntity
  8
Visible (ISO)
100
AcDbLine
 10
998.0241802898888
 20
193.0111456762727
 30
0.0
 11
1011.4980809238
 21
193.0111456762727
 31
0.0
  0
LINE
  5
901E
330
8C4A
100
AcDbEntity
  8
0
  6
CENTER
100
AcDbLine
 10
916.5634930919825
 20
186.1111456762731
 30
0.0
 11
1029.484867487792
 21
186.1111456762731
 31
0.0
  0
LINE
  5
901F
330
8C4A
100
AcDbEntity
  8
Visible (ISO)
100
AcDbLine
 10
998.0241802898888
 20
179.2111456762725
 30
0.0
 11
1011.4980809238
 21
179.2111456762725
 31
0.0
  0
LINE
  5
9020
330
8C4A
100
AcDbEntity
  8
Visible (ISO)
100
AcDbLine
 10
928.0241802898888
 20
169.1111456762722
 30
0.0
 11
928.0241802898888
 21
203.1111456762731
 31
0.0
  0
LINE
  5
9021
330
8C4A
100
AcDbEntity
  8
Visible (ISO)
100
AcDbLine
 10
930.8741802898891
 20
169.1111456762722
 30
0.0
 11
930.8741802898891
 21
203.1111456762731
 31
0.0
  0
LINE
  5
9022
330
8C4A
100
AcDbEntity
  8
Visible (ISO)
100
AcDbLine
 10
934.5502796559774
 20
179.2111456762725
 30
0.0
 11
934.5502796559774
 21
193.0111456762727
 31
0.0
  0
LINE
  5
9023
330
8C4A
100
AcDbEntity
  8
Visible (ISO)
100
AcDbLine
 10
928.0241802898888
 20
203.1111456762722
 30
0.0
 11
930.8741802898891
 21
203.1111456762722
 31
0.0
  0
LINE
  5
9024
330
8C4A
100
AcDbEntity
  8
Visible (ISO)
100
AcDbLine
 10
928.0241802898888
 20
169.1111456762722
 30
0.0
 11
930.8741802898891
 21
169.1111456762722
 31
0.0
  0
LINE
  5
9025
330
8C4A
100
AcDbEntity
  8
Visible (ISO)
100
AcDbLine
 10
934.5502796559774
 20
179.2111456762725
 30
0.0
 11
930.8741802898891
 21
169.1111456762722
 31
0.0
  0
LINE
  5
9026
330
8C4A
100
AcDbEntity
  8
Visible (ISO)
100
AcDbLine
 10
934.5502796559774
 20
193.0111456762727
 30
0.0
 11
930.8741802898891
 21
203.1111456762722
 31
0.0
  0
LINE
  5
9027
330
8C4A
100
AcDbEntity
  8
Visible (ISO)
100
AcDbLine
 10
934.5502796559774
 20
193.0111456762727
 30
0.0
 11
948.0241802898888
 21
193.0111456762727
 31
0.0
  0
LINE
  5
9028
330
8C4A
100
AcDbEntity
  8
Visible (ISO)
100
AcDbLine
 10
934.5502796559774
 20
179.2111456762725
 30
0.0
 11
948.0241802898888
 21
179.2111456762725
 31
0.0
  0
ELLIPSE
  5
9029
330
8C4A
100
AcDbEntity
  8
Visible (ISO)
100
AcDbEllipse
 10
973.0241802898943
 20
196.6951781156743
 30
0.0
 11
29.49999999999993
 21
-0.0000000000119446
 31
0.0
210
0.0
220
0.0
230
1.0
 40
0.8571673007021134
 41
3.701211285015206
 42
4.152770348960155
  0
SPLINE
  5
902A
330
8C4A
100
AcDbEntity
  8
Visible (ISO)
100
AcDbSpline
210
0.0
220
0.0
230
1.0
 70
     8
 71
     3
 72
     8
 73
     4
 74
     0
 42
0.0000000001
 43
0.0000000001
 40
-0.1443505504637195
 40
-0.1443505504637195
 40
-0.1443505504637195
 40
-0.1443505504637195
 40
0.0
 40
0.0
 40
0.0
 40
0.0
 10
957.3637205265329
 20
175.2659955981219
 30
0.0
 10
957.4595293005129
 20
175.7235222454076
 30
0.0
 10
957.5562110784174
 20
176.181019210688
 30
0.0
 10
957.6537541409596
 20
176.6382009737338
 30
0.0
  0
ELLIPSE
  5
902B
330
8C4A
100
AcDbEntity
  8
Visible (ISO)
100
AcDbEllipse
 10
973.0241802898943
 20
197.2102161905844
 30
0.0
 11
-28.49999999999993
 21
0.0000000000140749
 31
0.0
210
0.0
220
0.0
230
1.0
 40
0.8571673007021134
 41
0.5696213190735158
 42
1.001175007722563
  0
SPLINE
  5
902C
330
8C4A
100
AcDbEntity
  8
Visible (ISO)
100
AcDbSpline
210
0.0
220
0.0
230
1.0
 70
     8
 71
     3
 72
     8
 73
     4
 74
     0
 42
0.0000000001
 43
0.0000000001
 40
-0.1443505504637693
 40
-0.1443505504637693
 40
-0.1443505504637693
 40
-0.1443505504637693
 40
0.0
 40
0.0
 40
0.0
 40
0.0
 10
948.0241802898978
 20
183.2715440925561
 30
0.0
 10
948.3576046120996
 20
183.5253944617683
 30
0.0
 10
948.6910073034231
 20
183.7799820006715
 30
0.0
 10
949.024180289896
 20
184.035189497856
 30
0.0
  0
LINE
  5
902D
330
8C4A
100
AcDbEntity
  8
Visible (ISO)
100
AcDbLine
 10
957.3637205265329
 20
175.2659955981219
 30
0.0
 11
988.6846400532629
 21
175.2659955981219
 31
0.0
  0
SPLINE
  5
902E
330
8C4A
100
AcDbEntity
  8
Visible (ISO)
100
AcDbSpline
210
0.0
220
0.0
230
1.0
 70
     8
 71
     3
 72
     8
 73
     4
 74
     0
 42
0.0000000001
 43
0.0000000001
 40
-0.1443505504637693
 40
-0.1443505504637693
 40
-0.1443505504637693
 40
-0.1443505504637693
 40
0.0
 40
0.0
 40
0.0
 40
0.0
 10
988.6846400532629
 20
175.2659955981219
 30
0.0
 10
988.5888312792829
 20
175.7235222454076
 30
0.0
 10
988.4921495013784
 20
176.181019210688
 30
0.0
 10
988.394606438838
 20
176.6382009737338
 30
0.0
  0
LINE
  5
902F
330
8C4A
100
AcDbEntity
  8
Visible (ISO)
100
AcDbLine
 10
988.394606438838
 20
176.6382009737338
 30
0.0
 11
957.6537541409596
 21
176.6382009737338
 31
0.0
  0
LINE
  5
9030
330
8C4A
100
AcDbEntity
  8
Visible (ISO)
100
AcDbLine
 10
998.0241802898961
 20
183.2715440925561
 30
0.0
 11
998.0241802898925
 21
210.1188121387925
 31
0.0
  0
SPLINE
  5
9031
330
8C4A
100
AcDbEntity
  8
Visible (ISO)
100
AcDbSpline
210
0.0
220
0.0
230
1.0
 70
     8
 71
     3
 72
     8
 73
     4
 74
     0
 42
0.0000000001
 43
0.0000000001
 40
-0.1443505504637693
 40
-0.1443505504637693
 40
-0.1443505504637693
 40
-0.1443505504637693
 40
0.0
 40
0.0
 40
0.0
 40
0.0
 10
998.0241802898925
 20
210.1188121387925
 30
0.0
 10
997.6907559676908
 20
210.2084142116512
 30
0.0
 10
997.3573532763655
 20
210.2972568333674
 30
0.0
 10
997.0241802898923
 20
210.3852428833127
 30
0.0
  0
LINE
  5
9032
330
8C4A
100
AcDbEntity
  8
Visible (ISO)
100
AcDbLine
 10
997.0241802898923
 20
210.3852428833127
 30
0.0
 11
997.0241802898961
 21
184.035189497856
 31
0.0
  0
SPLINE
  5
9033
330
8C4A
100
AcDbEntity
  8
Visible (ISO)
100
AcDbSpline
210
0.0
220
0.0
230
1.0
 70
     8
 71
     3
 72
     8
 73
     4
 74
     0
 42
0.0000000001
 43
0.0000000001
 40
-0.1443504730156712
 40
-0.1443504730156712
 40
-0.1443504730156712
 40
-0.1443504730156712
 40
0.0
 40
0.0
 40
0.0
 40
0.0
 10
997.0241802898961
 20
184.035189497856
 30
0.0
 10
997.3573532763692
 20
183.7799820006715
 30
0.0
 10
997.6907559676945
 20
183.5253944617673
 30
0.0
 10
998.0241802898961
 20
183.2715440925561
 30
0.0
  0
ELLIPSE
  5
9034
330
8C4A
100
AcDbEntity
  8
Visible (ISO)
100
AcDbEllipse
 10
973.0241802898943
 20
196.6951781156743
 30
0.0
 11
29.5
 21
-0.0000000000145592
 31
0.0
210
0.0
220
0.0
230
1.0
 40
0.8571673007021132
 41
5.272007611810265
 42
5.723566675755204
  0
ELLIPSE
  5
9035
330
8C4A
100
AcDbEntity
  8
Visible (ISO)
100
AcDbEllipse
 10
973.0241802898943
 20
197.2102161905844
 30
0.0
 11
-28.49999999999993
 21
0.0000000000165715
 31
0.0
210
0.0
220
0.0
230
1.0
 40
0.8571673007021132
 41
2.140417645868526
 42
2.571971334517579
  0
ELLIPSE
  5
9036
330
8C4A
100
AcDbEntity
  8
Visible (ISO)
100
AcDbEllipse
 10
973.0241802898943
 20
196.6951781156743
 30
0.0
 11
-29.49999999999974
 21
0.0000000000119391
 31
0.0
210
0.0
220
0.0
230
1.0
 40
0.8571673007021134
 41
3.701211285015194
 42
3.967396746450024
  0
ELLIPSE
  5
9037
330
8C4A
100
AcDbEntity
  8
Visible (ISO)
100
AcDbEllipse
 10
973.0241802898943
 20
197.2102161905844
 30
0.0
 11
28.49999999999985
 21
-0.0000000000140624
 31
0.0
210
0.0
220
0.0
230
1.0
 40
0.8571673007021132
 41
0.5696213190734909
 42
0.7929392310692114
  0
ELLIPSE
  5
9038
330
8C4A
100
AcDbEntity
  8
Visible (ISO)
100
AcDbEllipse
 10
973.0241802898943
 20
196.6951781156743
 30
0.0
 11
-29.49999999999965
 21
0.0000000000145634
 31
0.0
210
0.0
220
0.0
230
1.0
 40
0.8571673007021132
 41
5.457381214320367
 42
5.723566675755167
  0
SPLINE
  5
9039
330
8C4A
100
AcDbEntity
  8
Visible (ISO)
100
AcDbSpline
210
0.0
220
0.0
230
1.0
 70
     8
 71
     3
 72
     8
 73
     4
 74
     0
 42
0.0000000001
 43
0.0000000001
 40
-0.1443505504637195
 40
-0.1443505504637195
 40
-0.1443505504637195
 40
-0.1443505504637195
 40
0.0
 40
0.0
 40
0.0
 40
0.0
 10
948.0241802898925
 20
210.1188121387925
 30
0.0
 10
948.3576046120941
 20
210.2084142116512
 30
0.0
 10
948.6910073034193
 20
210.2972568333674
 30
0.0
 10
949.0241802898925
 20
210.3852428833127
 30
0.0
  0
ELLIPSE
  5
903A
330
8C4A
100
AcDbEntity
  8
Visible (ISO)
100
AcDbEllipse
 10
973.0241802898943
 20
197.2102161905844
 30
0.0
 11
28.49999999999954
 21
-0.0000000000165881
 31
0.0
210
0.0
220
0.0
230
1.0
 40
0.8571673007021132
 41
2.348653422521827
 42
2.571971334517591
  0
LINE
  5
903B
330
8C4A
100
AcDbEntity
  8
Visible (ISO)
100
AcDbLine
 10
948.0241802898925
 20
210.1188121387925
 30
0.0
 11
948.0241802898978
 21
183.2715440925561
 31
0.0
  0
LINE
  5
903C
330
8C4A
100
AcDbEntity
  8
Visible (ISO)
100
AcDbLine
 10
949.024180289896
 20
184.035189497856
 30
0.0
 11
949.0241802898925
 21
210.3852428833127
 31
0.0
  0
LINE
  5
903D
330
8C4A
100
AcDbEntity
  8
Visible (ISO)
100
AcDbLine
 10
988.6846400532611
 20
172.3302785711342
 30
0.0
 11
957.3637205265312
 21
172.3302785711342
 31
0.0
  0
ELLIPSE
  5
903E
330
8C4A
100
AcDbEntity
  8
Visible (ISO)
100
AcDbEllipse
 10
973.0241802898925
 20
193.7594610886866
 30
0.0
 11
-29.4999999999999
 21
0.0000000000171752
 31
0.0
210
0.0
220
0.0
230
1.0
 40
0.8571673007021132
 41
2.130414958220567
 42
2.581974022165546
  0
ELLIPSE
  5
903F
330
8C4A
100
AcDbEntity
  8
Visible (ISO)
100
AcDbEllipse
 10
973.0241802898925
 20
193.7594610886866
 30
0.0
 11
-29.50000000000003
 21
0.0000000000145606
 31
0.0
210
0.0
220
0.0
230
1.0
 40
0.8571673007021132
 41
0.5596186314255363
 42
1.011177695370504
  0
LINE
  5
9040
330
8C4A
100
AcDbEntity
  8
Visible (ISO)
100
AcDbLine
 10
998.0241802898961
 20
183.2715440925561
 30
0.0
 11
998.0241802898943
 21
180.3358270655683
 31
0.0
  0
LINE
  5
9041
330
8C4A
100
AcDbEntity
  8
Visible (ISO)
100
AcDbLine
 10
948.0241802898978
 20
183.2715440925561
 30
0.0
 11
948.0241802898961
 21
180.3358270655683
 31
0.0
  0
LINE
  5
9042
330
8C4A
100
AcDbEntity
  8
Visible (ISO)
100
AcDbLine
 10
957.3637205265329
 20
175.2659955981219
 30
0.0
 11
957.3637205265312
 21
172.3302785711342
 31
0.0
  0
LINE
  5
9043
330
8C4A
100
AcDbEntity
  8
Visible (ISO)
100
AcDbLine
 10
988.6846400532629
 20
175.2659955981219
 30
0.0
 11
988.6846400532611
 21
172.3302785711342
 31
0.0
  0
LINE
  5
9044
330
8C4A
100
AcDbEntity
  8
Visible (ISO)
100
AcDbLine
 10
657.5118570213851
 20
226.8251228490247
 30
0.0
 11
657.5118570213914
 21
239.9479191098783
 31
0.0
  0
SPLINE
  5
9045
330
8C4A
100
AcDbEntity
  8
Visible (ISO)
100
AcDbSpline
210
0.0
220
0.0
230
1.0
 70
     8
 71
     3
 72
    18
 73
    14
 74
     0
 42
0.0000000001
 43
0.0000000001
 40
2.449789672836276
 40
2.449789672836276
 40
2.449789672836276
 40
2.449789672836276
 40
2.476982571578473
 40
2.476982571578473
 40
2.757060018455137
 40
2.757060018455137
 40
3.037137465331801
 40
3.037137465331801
 40
3.317214912208464
 40
3.317214912208464
 40
3.597292359085127
 40
3.597292359085127
 40
3.624485257827325
 40
3.624485257827325
 40
3.624485257827325
 40
3.624485257827325
 10
663.0962490101617
 20
218.5342144308136
 30
0.0
 10
663.020920221508
 20
218.5466348952326
 30
0.0
 10
662.9463072327837
 20
218.5600914498921
 30
0.0
 10
662.1118321231531
 20
218.7235620346203
 30
0.0
 10
661.3213201902729
 20
219.0088544540452
 30
0.0
 10
659.9125619536032
 20
219.9012309544799
 30
0.0
 10
659.2946690950263
 20
220.5127031815321
 30
0.0
 10
658.3610776054372
 20
221.8987666161486
 30
0.0
 10
657.9851856917505
 20
222.7627242211732
 30
0.0
 10
657.5357500676452
 20
224.6291288295727
 30
0.0
 10
657.460158984765
 20
225.629702588389
 30
0.0
 10
657.5013829478059
 20
226.6439381213971
 30
0.0
 10
657.5060840919489
 20
226.7342766982277
 30
0.0
 10
657.5118570213851
 20
226.8251228490247
 30
0.0
  0
LINE
  5
9046
330
8C4A
100
AcDbEntity
  8
Visible (ISO)
100
AcDbLine
 10
663.0962490101681
 20
231.6570106916672
 30
0.0
 11
663.0962490101617
 21
218.5342144308136
 31
0.0
  0
SPLINE
  5
9047
330
8C4A
100
AcDbEntity
  8
Visible (ISO)
100
AcDbSpline
210
0.0
220
0.0
230
1.0
 70
     8
 71
     3
 72
    10
 73
     6
 74
     0
 42
0.0000000001
 43
0.0000000001
 40
2.554399938987153
 40
2.554399938987153
 40
2.554399938987153
 40
2.554399938987153
 40
2.55954750786395
 40
2.55954750786395
 40
2.637638122899916
 40
2.637638122899916
 40
2.637638122899916
 40
2.637638122899916
 10
662.4980084396663
 20
232.1871099979837
 30
0.0
 10
662.5101927852822
 20
232.1759797793623
 30
0.0
 10
662.5223605147746
 20
232.164885552684
 30
0.0
 10
662.7188370903398
 20
231.98607607697
 30
0.0
 10
662.9062492926498
 20
231.8202648442951
 30
0.0
 10
663.0962490101681
 20
231.6570106916672
 30
0.0
  0
ELLIPSE
  5
9048
330
8C4A
100
AcDbEntity
  8
Visible (ISO)
100
AcDbEllipse
 10
667.4881273880821
 20
239.6152801286401
 30
0.0
 11
-9.999999999999991
 21
0.000000000004937
 31
0.0
210
0.0
220
0.0
230
1.0
 40
0.857167300702113
 41
0.0689043165240033
 42
1.048338141452004
  0
SPLINE
  5
9049
330
8C4A
100
AcDbEntity
  8
Visible (ISO)
100
AcDbSpline
210
0.0
220
0.0
230
1.0
 70
     8
 71
     3
 72
    10
 73
     6
 74
     0
 42
0.0000000001
 43
0.0000000001
 40
1.373926011701412
 40
1.373926011701412
 40
1.373926011701412
 40
1.373926011701412
 40
1.452016626737379
 40
1.452016626737379
 40
1.457164195614175
 40
1.457164195614175
 40
1.457164195614175
 40
1.457164195614175
 10
638.0880367952338
 20
244.0332190950142
 30
0.0
 10
638.2634756127069
 20
244.0156229162079
 30
0.0
 10
638.4429967850563
 20
243.9998440425655
 30
0.0
 10
638.638263847213
 20
243.9847851657762
 30
0.0
 10
638.65038592826
 20
243.9838587108191
 30
0.0
 10
638.6625542371564
 20
243.9829371472181
 30
0.0
  0
LINE
  5
904A
330
8C4A
100
AcDbEntity
  8
Visible (ISO)
100
AcDbLine
 10
638.0880367952275
 20
230.9104228341606
 30
0.0
 11
638.0880367952338
 21
244.0332190950142
 31
0.0
  0
SPLINE
  5
904B
330
8C4A
100
AcDbEntity
  8
Visible (ISO)
100
AcDbSpline
210
0.0
220
0.0
230
1.0
 70
     8
 71
     3
 72
    18
 73
    14
 74
     0
 42
0.0000000001
 43
0.0000000001
 40
2.449789672836275
 40
2.449789672836275
 40
2.449789672836275
 40
2.449789672836275
 40
2.476982571578473
 40
2.476982571578473
 40
2.757060018455136
 40
2.757060018455136
 40
3.0371374653318
 40
3.0371374653318
 40
3.317214912208463
 40
3.317214912208463
 40
3.597292359085127
 40
3.597292359085127
 40
3.624485257827324
 40
3.624485257827324
 40
3.624485257827324
 40
3.624485257827324
 10
649.2568207727779
 20
230.9104228341606
 30
0.0
 10
649.1872649135605
 20
230.8511419477966
 30
0.0
 10
649.1173530689791
 20
230.7930752187815
 30
0.0
 10
648.3241019223894
 20
230.1510072389195
 30
0.0
 10
647.4579989066289
 20
229.6164644909098
 30
0.0
 10
645.5998050458553
 20
228.8920728811639
 30
0.0
 10
644.6060202735914
 20
228.7059487799836
 30
0.0
 10
642.738837294414
 20
228.7059487799836
 30
0.0
 10
641.7450525221499
 20
228.8920728811639
 30
0.0
 10
639.8868586613764
 20
229.6164644909098
 30
0.0
 10
639.0207556456159
 20
230.1510072389195
 30
0.0
 10
638.2275044990262
 20
230.7930752187815
 30
0.0
 10
638.1575926544453
 20
230.8511419477966
 30
0.0
 10
638.0880367952275
 20
230.9104228341606
 30
0.0
  0
LINE
  5
904C
330
8C4A
100
AcDbEntity
  8
Visible (ISO)
100
AcDbLine
 10
649.2568207727843
 20
244.0332190950142
 30
0.0
 11
649.2568207727779
 21
230.9104228341606
 31
0.0
  0
SPLINE
  5
904D
330
8C4A
100
AcDbEntity
  8
Visible (ISO)
100
AcDbSpline
210
0.0
220
0.0
230
1.0
 70
     8
 71
     3
 72
    10
 73
     6
 74
     0
 42
0.0000000001
 43
0.0000000001
 40
2.554399938987156
 40
2.554399938987156
 40
2.554399938987156
 40
2.554399938987156
 40
2.559547507863951
 40
2.559547507863951
 40
2.637638122899917
 40
2.637638122899917
 40
2.637638122899917
 40
2.637638122899917
 10
648.6823033308626
 20
243.9829371472181
 30
0.0
 10
648.6944716397585
 20
243.9838587108191
 30
0.0
 10
648.706593720806
 20
243.9847851657762
 30
0.0
 10
648.9018607829628
 20
243.9998440425655
 30
0.0
 10
649.0813819553116
 20
244.0156229162079
 30
0.0
 10
649.2568207727843
 20
244.0332190950142
 30
0.0
  0
ELLIPSE
  5
904E
330
8C4A
100
AcDbEntity
  8
Visible (ISO)
100
AcDbEllipse
 10
643.6724287840081
 20
251.4013305132942
 30
0.0
 11
10.0
 21
-0.0000000000040509
 31
0.0
210
0.0
220
0.0
230
1.0
 40
0.8571673007021136
 41
4.187649614532083
 42
5.237128346238304
  0
SPLINE
  5
904F
330
8C4A
100
AcDbEntity
  8
Visible (ISO)
100
AcDbSpline
210
0.0
220
0.0
230
1.0
 70
     8
 71
     3
 72
    10
 73
     6
 74
     0
 42
0.0000000001
 43
0.0000000001
 40
1.373926011701414
 40
1.373926011701414
 40
1.373926011701414
 40
1.373926011701414
 40
1.452016626737378
 40
1.452016626737378
 40
1.457164195614177
 40
1.457164195614177
 40
1.457164195614177
 40
1.457164195614177
 10
624.2486085578546
 20
231.6570106916672
 30
0.0
 10
624.4386082753733
 20
231.8202648442951
 30
0.0
 10
624.6260204776834
 20
231.98607607697
 30
0.0
 10
624.822497053248
 20
232.164885552684
 30
0.0
 10
624.8346647827409
 20
232.1759797793623
 30
0.0
 10
624.8468491283563
 20
232.1871099979837
 30
0.0
  0
LINE
  5
9050
330
8C4A
100
AcDbEntity
  8
Visible (ISO)
100
AcDbLine
 10
624.2486085578482
 20
218.5342144308136
 30
0.0
 11
624.2486085578546
 21
231.6570106916672
 31
0.0
  0
SPLINE
  5
9051
330
8C4A
100
AcDbEntity
  8
Visible (ISO)
100
AcDbSpline
210
0.0
220
0.0
230
1.0
 70
     8
 71
     3
 72
    18
 73
    14
 74
     0
 42
0.0000000001
 43
0.0000000001
 40
2.44978967283627
 40
2.44978967283627
 40
2.44978967283627
 40
2.44978967283627
 40
2.476982571578467
 40
2.476982571578467
 40
2.757060018455131
 40
2.757060018455131
 40
3.037137465331794
 40
3.037137465331794
 40
3.317214912208458
 40
3.317214912208458
 40
3.597292359085122
 40
3.597292359085122
 40
3.624485257827319
 40
3.624485257827319
 40
3.624485257827319
 40
3.624485257827319
 10
629.8330005466221
 20
226.8251228490247
 30
0.0
 10
629.8387734760579
 20
226.7342766982277
 30
0.0
 10
629.8434746202012
 20
226.6439381213971
 30
0.0
 10
629.8846985832422
 20
225.629702588389
 30
0.0
 10
629.8091075003619
 20
224.6291288295727
 30
0.0
 10
629.3596718762572
 20
222.7627242211732
 30
0.0
 10
628.9837799625709
 20
221.8987666161486
 30
0.0
 10
628.0501884729817
 20
220.5127031815321
 30
0.0
 10
627.4322956144049
 20
219.9012309544799
 30
0.0
 10
626.0235373777361
 20
219.0088544540452
 30
0.0
 10
625.2330254448564
 20
218.7235620346203
 30
0.0
 10
624.3985503352262
 20
218.5600914498921
 30
0.0
 10
624.3239373465018
 20
218.5466348952326
 30
0.0
 10
624.2486085578482
 20
218.5342144308136
 30
0.0
  0
LINE
  5
9052
330
8C4A
100
AcDbEntity
  8
Visible (ISO)
100
AcDbLine
 10
629.8330005466284
 20
239.9479191098783
 30
0.0
 11
629.8330005466221
 21
226.8251228490247
 31
0.0
  0
ELLIPSE
  5
9053
330
8C4A
100
AcDbEntity
  8
Visible (ISO)
100
AcDbEllipse
 10
619.8567301799382
 20
239.6152801286401
 30
0.0
 11
10.00000000000001
 21
-0.0000000000049363
 31
0.0
210
0.0
220
0.0
230
1.0
 40
0.8571673007021134
 41
5.234847165728742
 42
6.214280990656734
  0
ELLIPSE
  5
9054
330
8C4A
100
AcDbEntity
  8
Visible (ISO)
100
AcDbEllipse
 10
643.6724287840122
 20
227.5717107065314
 30
0.0
 11
19.99999999999989
 21
-0.0000000000098713
 31
0.0
210
0.0
220
0.0
230
1.0
 40
0.8571673007021129
 41
0.0
 42
0.2406174873824689
  0
ELLIPSE
  5
9055
330
8C4A
100
AcDbEntity
  8
Visible (ISO)
100
AcDbEllipse
 10
643.6724287840122
 20
227.5717107065314
 30
0.0
 11
-19.99999999999988
 21
-0.00000000000004
 31
0.0
210
0.0
220
0.0
230
1.0
 40
0.8571673007021132
 41
6.042567819797287
 42
6.283185307179167
  0
ELLIPSE
  5
9056
330
8C4A
100
AcDbEntity
  8
Visible (ISO)
100
AcDbEllipse
 10
643.6724287840122
 20
227.5717107065314
 30
0.0
 11
19.99999999999998
 21
-0.0000000000116504
 31
0.0
210
0.0
220
0.0
230
1.0
 40
0.857167300702113
 41
1.853777615011964
 42
2.335012589775775
  0
ELLIPSE
  5
9057
330
8C4A
100
AcDbEntity
  8
Visible (ISO)
100
AcDbEllipse
 10
643.6724287840059
 20
214.4489144456768
 30
0.0
 11
19.99999999999977
 21
-0.0000000000098747
 31
0.0
210
0.0
220
0.0
230
1.0
 40
0.8571673007021132
 41
0.0498210126409031
 42
0.2406174873824707
  0
ELLIPSE
  5
9058
330
8C4A
100
AcDbEntity
  8
Visible (ISO)
100
AcDbEllipse
 10
643.6724287840059
 20
214.4489144456768
 30
0.0
 11
-20.00000000000003
 21
0.000000000009874
 31
0.0
210
0.0
220
0.0
230
1.0
 40
0.8571673007021132
 41
6.042567819798269
 42
6.233364294539835
  0
ELLIPSE
  5
9059
330
8C4A
100
AcDbEntity
  8
Visible (ISO)
100
AcDbEllipse
 10
643.6724287840059
 20
214.4489144456768
 30
0.0
 11
19.99999999999994
 21
-0.0000000000116435
 31
0.0
210
0.0
220
0.0
230
1.0
 40
0.8571673007021132
 41
1.853777615011964
 42
2.335012589775775
  0
ELLIPSE
  5
905A
330
8C4A
100
AcDbEntity
  8
Visible (ISO)
100
AcDbEllipse
 10
643.6724287840018
 20
206.7126686726736
 30
0.0
 11
16.49999999999998
 21
-0.0000000000096104
 31
0.0
210
0.0
220
0.0
230
1.0
 40
0.857167300702113
 41
0.9388245910757699
 42
2.202768062515367
  0
ELLIPSE
  5
905B
330
8C4A
100
AcDbEntity
  8
Visible (ISO)
100
AcDbEllipse
 10
643.672428784005
 20
213.4081636465047
 30
0.0
 11
-16.49999999999998
 21
0.0000000000081379
 31
0.0
210
0.0
220
0.0
230
1.0
 40
0.8571673007021134
 41
3.481562818049789
 42
5.943215142720742
  0
ELLIPSE
  5
905C
330
8C4A
100
AcDbEntity
  8
Visible (ISO)
100
AcDbEllipse
 10
643.6724287840059
 20
214.4489144456768
 30
0.0
 11
19.99999999999989
 21
-0.0000000000098706
 31
0.0
210
0.0
220
0.0
230
1.0
 40
0.8571673007021132
 41
0.806580063815276
 42
1.28781503857907
  0
ELLIPSE
  5
905D
330
8C4A
100
AcDbEntity
  8
Visible (ISO)
100
AcDbEllipse
 10
643.6724287840122
 20
227.5717107065314
 30
0.0
 11
19.99999999999996
 21
-0.0000000000098622
 31
0.0
210
0.0
220
0.0
230
1.0
 40
0.8571673007021136
 41
0.8065800638152715
 42
1.287815038579066
  0
LINE
  5
905E
330
8C4A
100
AcDbEntity
  8
Visible (ISO)
100
AcDbLine
 10
663.6724287840059
 20
215.2830639879296
 30
0.0
 11
663.6724287840122
 21
227.5717107065314
 31
0.0
  0
LINE
  5
905F
330
8C4A
100
AcDbEntity
  8
Visible (ISO)
100
AcDbLine
 10
623.6724287840059
 20
215.2830639879296
 30
0.0
 11
623.6724287840123
 21
227.5717107065314
 31
0.0
  0
ELLIPSE
  5
9060
330
8C4A
100
AcDbEntity
  8
Visible (ISO)
100
AcDbEllipse
 10
658.7779376116293
 20
172.8692936777755
 30
0.0
 11
-4.249999999999995
 21
0.0
 31
0.0
210
0.0
220
0.0
230
1.0
 40
0.8571673007021132
 41
3.141592653589389
 42
6.283185307179182
  0
ELLIPSE
  5
9061
330
8C4A
100
AcDbEntity
  8
Visible (ISO)
100
AcDbEllipse
 10
658.7779376116275
 20
169.6245538058413
 30
0.0
 11
4.249999999999995
 21
0.0
 31
0.0
210
0.0
220
0.0
230
1.0
 40
0.8571673007021132
 41
0.0
 42
6.283185307179586
  0
LINE
  5
9062
330
8C4A
100
AcDbEntity
  8
Visible (ISO)
100
AcDbLine
 10
663.0279376116293
 20
172.8692936777755
 30
0.0
 11
663.0279376116275
 21
169.6245538058413
 31
0.0
  0
LINE
  5
9063
330
8C4A
100
AcDbEntity
  8
Visible (ISO)
100
AcDbLine
 10
654.5279376116293
 20
172.8692936777755
 30
0.0
 11
654.5279376116275
 21
169.6245538058413
 31
0.0
  0
ELLIPSE
  5
9064
330
8C4A
100
AcDbEntity
  8
Visible (ISO)
100
AcDbEllipse
 10
628.566919956362
 20
172.8692936777755
 30
0.0
 11
-4.249999999999995
 21
0.0
 31
0.0
210
0.0
220
0.0
230
1.0
 40
0.8571673007021132
 41
3.141592653589389
 42
6.283185307179182
  0
ELLIPSE
  5
9065
330
8C4A
100
AcDbEntity
  8
Visible (ISO)
100
AcDbEllipse
 10
628.5669199563606
 20
169.6245538058413
 30
0.0
 11
-4.249999999999995
 21
0.0
 31
0.0
210
0.0
220
0.0
230
1.0
 40
0.8571673007021132
 41
0.0
 42
6.283185307179586
  0
LINE
  5
9066
330
8C4A
100
AcDbEntity
  8
Visible (ISO)
100
AcDbLine
 10
624.3169199563602
 20
169.6245538058413
 30
0.0
 11
624.3169199563619
 21
172.8692936777755
 31
0.0
  0
LINE
  5
9067
330
8C4A
100
AcDbEntity
  8
Visible (ISO)
100
AcDbLine
 10
632.8169199563602
 20
169.6245538058413
 30
0.0
 11
632.8169199563619
 21
172.8692936777755
 31
0.0
  0
LINE
  5
9068
330
8C4A
100
AcDbEntity
  8
Visible (ISO)
100
AcDbLine
 10
618.6724287839949
 20
174.8764234715211
 30
0.0
 11
618.6724287839949
 21
177.7997580610393
 31
0.0
  0
ELLIPSE
  5
9069
330
8C4A
100
AcDbEntity
  8
Visible (ISO)
100
AcDbEllipse
 10
643.6724287839926
 20
188.3000574946393
 30
0.0
 11
-29.50000000000006
 21
0.0000000000145717
 31
0.0
210
0.0
220
0.0
230
1.0
 40
0.857167300702113
 41
0.5596186314255523
 42
0.8564602203802875
  0
LINE
  5
906A
330
8C4A
100
AcDbEntity
  8
Visible (ISO)
100
AcDbLine
 10
655.9954697661772
 20
166.870874977087
 30
0.0
 11
631.3493878018159
 21
166.870874977087
 31
0.0
  0
ELLIPSE
  5
906B
330
8C4A
100
AcDbEntity
  8
Visible (ISO)
100
AcDbEllipse
 10
643.6724287839931
 20
188.3000574946393
 30
0.0
 11
-29.49999999999964
 21
0.0000000000171738
 31
0.0
210
0.0
220
0.0
230
1.0
 40
0.8571673007021134
 41
2.285132433210769
 42
2.581974022165525
  0
LINE
  5
906C
330
8C4A
100
AcDbEntity
  8
Visible (ISO)
100
AcDbLine
 10
668.6724287839945
 20
177.7997580610393
 30
0.0
 11
668.6724287839949
 21
174.8764234715211
 31
0.0
  0
LINE
  5
906D
330
8C4A
100
AcDbEntity
  8
Visible (ISO)
100
AcDbLine
 10
668.6724287839904
 20
201.7236915177575
 30
0.0
 11
668.6724287839913
 21
195.3716877254322
 31
0.0
  0
ELLIPSE
  5
906E
330
8C4A
100
AcDbEntity
  8
Visible (ISO)
100
AcDbEllipse
 10
643.6724287839926
 20
188.3000574946393
 30
0.0
 11
29.50000000000003
 21
-0.0000000000145606
 31
0.0
210
0.0
220
0.0
230
1.0
 40
0.8571673007021132
 41
0.5596186314255541
 42
1.011177695370494
  0
LINE
  5
906F
330
8C4A
100
AcDbEntity
  8
Visible (ISO)
100
AcDbLine
 10
628.0119690206231
 20
209.7292400121917
 30
0.0
 11
659.332888547355
 21
209.7292400121917
 31
0.0
  0
ELLIPSE
  5
9070
330
8C4A
100
AcDbEntity
  8
Visible (ISO)
100
AcDbEllipse
 10
643.6724287839926
 20
188.3000574946393
 30
0.0
 11
29.50000000000003
 21
-0.0000000000171821
 31
0.0
210
0.0
220
0.0
230
1.0
 40
0.8571673007021132
 41
2.130414958220567
 42
2.581974022165532
  0
LINE
  5
9071
330
8C4A
100
AcDbEntity
  8
Visible (ISO)
100
AcDbLine
 10
618.6724287839913
 20
195.3716877254322
 30
0.0
 11
618.6724287839904
 21
201.7236915177575
 31
0.0
  0
LINE
  5
9072
330
8C4A
100
AcDbEntity
  8
Visible (ISO)
100
AcDbLine
 10
668.6724287839926
 20
206.6680570368938
 30
0.0
 11
668.6724287839904
 21
201.7236915177575
 31
0.0
  0
LINE
  5
9073
330
8C4A
100
AcDbEntity
  8
Visible (ISO)
100
AcDbLine
 10
618.6724287839926
 20
206.6680570368938
 30
0.0
 11
618.6724287839904
 21
201.7236915177575
 31
0.0
  0
LINE
  5
9074
330
8C4A
100
AcDbEntity
  8
Visible (ISO)
100
AcDbLine
 10
659.3328885473572
 20
214.6736055313288
 30
0.0
 11
628.0119690206254
 21
214.6736055313288
 31
0.0
  0
ELLIPSE
  5
9075
330
8C4A
100
AcDbEntity
  8
Visible (ISO)
100
AcDbEllipse
 10
643.6724287839949
 20
193.2444230137756
 30
0.0
 11
-29.49999999999993
 21
0.0000000000119446
 31
0.0
210
0.0
220
0.0
230
1.0
 40
0.8571673007021134
 41
3.701211285015208
 42
4.152770348960174
  0
ELLIPSE
  5
9076
330
8C4A
100
AcDbEntity
  8
Visible (ISO)
100
AcDbEllipse
 10
643.6724287839949
 20
193.2444230137756
 30
0.0
 11
-29.49999999999993
 21
0.0000000000145634
 31
0.0
210
0.0
220
0.0
230
1.0
 40
0.857167300702113
 41
5.272007611810238
 42
5.723566675755183
  0
LINE
  5
9077
330
8C4A
100
AcDbEntity
  8
Visible (ISO)
100
AcDbLine
 10
659.3328885473572
 20
214.6736055313288
 30
0.0
 11
659.332888547355
 21
209.7292400121917
 31
0.0
  0
LINE
  5
9078
330
8C4A
100
AcDbEntity
  8
Visible (ISO)
100
AcDbLine
 10
628.0119690206254
 20
214.6736055313288
 30
0.0
 11
628.0119690206231
 21
209.7292400121917
 31
0.0
  0
ELLIPSE
  5
9079
330
8C4A
100
AcDbEntity
  8
Visible (ISO)
100
AcDbEllipse
 10
660.7586074088319
 20
203.943360732453
 30
0.0
 11
9.999999999999989
 21
-0.0000000000040502
 31
0.0
210
0.0
220
0.0
230
1.0
 40
0.8571673007021136
 41
3.959914604221813
 42
4.712388980385179
  0
ELLIPSE
  5
907A
330
8C4A
100
AcDbEntity
  8
Visible (ISO)
100
AcDbEllipse
 10
660.7586074088342
 20
209.0863645366656
 30
0.0
 11
-0.0000000000027047
 21
-17.14334601404224
 31
0.0
210
0.0
220
0.0
230
1.0
 40
0.5833166986076649
 41
5.530710931015889
 42
6.283185307179053
  0
ELLIPSE
  5
907B
330
8C4A
100
AcDbEntity
  8
Visible (ISO)
100
AcDbEllipse
 10
626.5862501591479
 20
203.943360732453
 30
0.0
 11
9.999999999999992
 21
0.0000000000000037
 31
0.0
210
0.0
220
0.0
230
1.0
 40
0.8571673007021132
 41
4.712388980384991
 42
5.464863356548153
  0
ELLIPSE
  5
907C
330
8C4A
100
AcDbEntity
  8
Visible (ISO)
100
AcDbEllipse
 10
626.5862501591507
 20
209.0863645366656
 30
0.0
 11
-0.0000000000027036
 21
-17.14334601404224
 31
0.0
210
0.0
220
0.0
230
1.0
 40
0.5833166986076649
 41
0.0
 42
0.7524743761629722
  0
ELLIPSE
  5
907D
330
8C4A
100
AcDbEntity
  8
Visible (ISO)
100
AcDbEllipse
 10
658.7779376116238
 20
203.7308213115041
 30
0.0
 11
-4.249999999999995
 21
0.0
 31
0.0
210
0.0
220
0.0
230
1.0
 40
0.8571673007021132
 41
3.141592653589389
 42
6.283185307179182
  0
ELLIPSE
  5
907E
330
8C4A
100
AcDbEntity
  8
Visible (ISO)
100
AcDbEllipse
 10
628.5669199563565
 20
203.7308213115041
 30
0.0
 11
-4.249999999999995
 21
-0.0000000000000133
 31
0.0
210
0.0
220
0.0
230
1.0
 40
0.8571673007021132
 41
3.141592653589384
 42
6.283185307179178
  0
ELLIPSE
  5
907F
330
8C4A
100
AcDbEntity
  8
Visible (ISO)
100
AcDbEllipse
 10
628.5669199563547
 20
200.4860814395709
 30
0.0
 11
4.249999999999995
 21
0.0
 31
0.0
210
0.0
220
0.0
230
1.0
 40
0.8571673007021132
 41
0.0
 42
6.283185307179586
  0
ELLIPSE
  5
9080
330
8C4A
100
AcDbEntity
  8
Visible (ISO)
100
AcDbEllipse
 10
658.7779376116221
 20
200.4860814395709
 30
0.0
 11
-4.249999999999995
 21
0.0
 31
0.0
210
0.0
220
0.0
230
1.0
 40
0.8571673007021132
 41
0.0
 42
6.283185307179586
  0
LINE
  5
9081
330
8C4A
100
AcDbEntity
  8
Visible (ISO)
100
AcDbLine
 10
632.8169199563565
 20
203.7308213115041
 30
0.0
 11
632.8169199563546
 21
200.4860814395709
 31
0.0
  0
LINE
  5
9082
330
8C4A
100
AcDbEntity
  8
Visible (ISO)
100
AcDbLine
 10
624.3169199563565
 20
203.7308213115041
 30
0.0
 11
624.3169199563546
 21
200.4860814395709
 31
0.0
  0
LINE
  5
9083
330
8C4A
100
AcDbEntity
  8
Visible (ISO)
100
AcDbLine
 10
654.527937611622
 20
200.4860814395709
 30
0.0
 11
654.5279376116239
 21
203.7308213115041
 31
0.0
  0
LINE
  5
9084
330
8C4A
100
AcDbEntity
  8
Visible (ISO)
100
AcDbLine
 10
663.027937611622
 20
200.4860814395709
 30
0.0
 11
663.0279376116239
 21
203.7308213115041
 31
0.0
  0
LINE
  5
9085
330
8C4A
100
AcDbEntity
  8
Visible (ISO)
100
AcDbLine
 10
668.6724287839913
 20
195.3716877254322
 30
0.0
 11
660.7586074088333
 21
195.3716877254322
 31
0.0
  0
LINE
  5
9086
330
8C4A
100
AcDbEntity
  8
Visible (ISO)
100
AcDbLine
 10
618.6724287839913
 20
195.3716877254322
 30
0.0
 11
626.5862501591498
 21
195.3716877254322
 31
0.0
  0
ELLIPSE
  5
9087
330
8C4A
100
AcDbEntity
  8
Visible (ISO)
100
AcDbEllipse
 10
643.6724287839926
 20
188.3000574946393
 30
0.0
 11
15.00000000000007
 21
-0.0000000000087291
 31
0.0
210
0.0
220
0.0
230
1.0
 40
0.8571673007021132
 41
2.185981376926614
 42
2.323270702958913
  0
ELLIPSE
  5
9088
330
8C4A
100
AcDbEntity
  8
Visible (ISO)
100
AcDbEllipse
 10
643.6724287839926
 20
188.3000574946393
 30
0.0
 11
-15.00000000000007
 21
0.0000000000060757
 31
0.0
210
0.0
220
0.0
230
1.0
 40
0.8571673007021134
 41
3.959914604221825
 42
4.097203930254122
  0
LINE
  5
9089
330
8C4A
100
AcDbEntity
  8
Visible (ISO)
100
AcDbLine
 10
668.67242878399
 20
191.9430185226231
 30
0.0
 11
660.7586074088315
 21
191.9430185226231
 31
0.0
  0
LINE
  5
908A
330
8C4A
100
AcDbEntity
  8
Visible (ISO)
100
AcDbLine
 10
668.6724287839913
 20
195.3716877254322
 30
0.0
 11
668.67242878399
 21
191.9430185226231
 31
0.0
  0
ELLIPSE
  5
908B
330
8C4A
100
AcDbEntity
  8
Visible (ISO)
100
AcDbEllipse
 10
643.6724287839877
 20
177.7997580610393
 30
0.0
 11
-0.0000000000040563
 21
-25.71501902106335
 31
0.0
210
0.0
220
0.0
230
1.0
 40
0.5833166986076649
 41
3.756777703720409
 42
3.894067029752758
  0
LINE
  5
908C
330
8C4A
100
AcDbEntity
  8
Visible (ISO)
100
AcDbLine
 10
618.67242878399
 20
191.9430185226231
 30
0.0
 11
618.6724287839913
 21
195.3716877254322
 31
0.0
  0
LINE
  5
908D
330
8C4A
100
AcDbEntity
  8
Visible (ISO)
100
AcDbLine
 10
626.5862501591479
 20
191.9430185226231
 30
0.0
 11
618.67242878399
 21
191.9430185226231
 31
0.0
  0
ELLIPSE
  5
908E
330
8C4A
100
AcDbEntity
  8
Visible (ISO)
100
AcDbEllipse
 10
643.6724287839877
 20
177.7997580610393
 30
0.0
 11
-0.0000000000040563
 21
-25.71501902106335
 31
0.0
210
0.0
220
0.0
230
1.0
 40
0.5833166986076649
 41
2.389118277426083
 42
2.526407603458334
  0
LINE
  5
908F
330
8C4A
100
AcDbEntity
  8
Visible (ISO)
100
AcDbLine
 10
635.0157839374003
 20
198.8003569282403
 30
0.0
 11
652.3290736305814
 21
198.8003569282403
 31
0.0
  0
LINE
  5
9090
330
8C4A
100
AcDbEntity
  8
Visible (ISO)
100
AcDbLine
 10
618.67242878399
 20
191.9430185226231
 30
0.0
 11
618.672428783989
 21
186.4394431303993
 31
0.0
  0
LINE
  5
9091
330
8C4A
100
AcDbEntity
  8
Visible (ISO)
100
AcDbLine
 10
638.772428783989
 20
186.4394431303993
 30
0.0
 11
618.672428783989
 21
186.4394431303993
 31
0.0
  0
LINE
  5
9092
330
8C4A
100
AcDbEntity
  8
Visible (ISO)
100
AcDbLine
 10
668.672428783989
 20
186.4394431303993
 30
0.0
 11
648.5724287839891
 21
186.4394431303993
 31
0.0
  0
LINE
  5
9093
330
8C4A
100
AcDbEntity
  8
Visible (ISO)
100
AcDbLine
 10
668.672428783989
 20
186.4394431303993
 30
0.0
 11
668.67242878399
 21
191.9430185226231
 31
0.0
  0
LINE
  5
9094
330
8C4A
100
AcDbEntity
  8
Visible (ISO)
100
AcDbLine
 10
668.6724287839904
 20
177.7997580610393
 30
0.0
 11
668.672428783989
 21
186.4394431303993
 31
0.0
  0
LINE
  5
9095
330
8C4A
100
AcDbEntity
  8
Visible (ISO)
100
AcDbLine
 10
618.672428783989
 20
186.4394431303993
 30
0.0
 11
618.6724287839904
 21
177.7997580610393
 31
0.0
  0
LINE
  5
9096
330
8C4A
100
AcDbEntity
  8
Visible (ISO)
100
AcDbLine
 10
648.5724287839905
 20
177.7997580610393
 30
0.0
 11
668.6724287839904
 21
177.7997580610393
 31
0.0
  0
LINE
  5
9097
330
8C4A
100
AcDbEntity
  8
Visible (ISO)
100
AcDbLine
 10
618.6724287839904
 20
177.7997580610393
 30
0.0
 11
638.7724287839907
 21
177.7997580610393
 31
0.0
  0
LINE
  5
9098
330
8C4A
100
AcDbEntity
  8
Visible (ISO)
100
AcDbLine
 10
638.772428783989
 20
186.4394431303993
 30
0.0
 11
639.3423017650668
 21
187.4561787198002
 31
0.0
  0
ELLIPSE
  5
9099
330
8C4A
100
AcDbEntity
  8
Visible (ISO)
100
AcDbEllipse
 10
643.6724287839886
 20
184.8809883452489
 30
0.0
 11
0.000000000000814
 21
5.150380749100545
 31
0.0
210
0.0
220
0.0
230
1.0
 40
0.9708020132051762
 41
5.23598775598287
 42
7.330382858376124
  0
LINE
  5
909A
330
8C4A
100
AcDbEntity
  8
Visible (ISO)
100
AcDbLine
 10
648.0025558029113
 20
187.4561787198002
 30
0.0
 11
648.5724287839891
 21
186.4394431303993
 31
0.0
  0
LINE
  5
909B
330
8C4A
100
AcDbEntity
  8
Visible (ISO)
100
AcDbLine
 10
648.5724287839905
 20
177.7997580610393
 30
0.0
 11
648.002555802913
 21
177.7997580610393
 31
0.0
  0
LINE
  5
909C
330
8C4A
100
AcDbEntity
  8
Visible (ISO)
100
AcDbLine
 10
648.002555802913
 20
177.7997580610393
 30
0.0
 11
639.3423017650686
 21
177.7997580610393
 31
0.0
  0
LINE
  5
909D
330
8C4A
100
AcDbEntity
  8
Visible (ISO)
100
AcDbLine
 10
639.3423017650686
 20
177.7997580610393
 30
0.0
 11
638.7724287839907
 21
177.7997580610393
 31
0.0
  0
LINE
  5
909E
330
8C4A
100
AcDbEntity
  8
Visible (ISO)
100
AcDbLine
 10
648.5724287839891
 20
186.4394431303993
 30
0.0
 11
648.5724287839905
 21
177.7997580610393
 31
0.0
  0
LINE
  5
909F
330
8C4A
100
AcDbEntity
  8
Visible (ISO)
100
AcDbLine
 10
638.7724287839907
 20
177.7997580610393
 30
0.0
 11
638.772428783989
 21
186.4394431303993
 31
0.0
  0
LINE
  5
90A0
330
8C4A
100
AcDbEntity
  8
Visible (ISO)
100
AcDbLine
 10
598.6724287839917
 20
203.1111456762722
 30
0.0
 11
598.6724287839917
 21
169.1111456762722
 31
0.0
  0
LINE
  5
90A1
330
8C4A
100
AcDbEntity
  8
Visible (ISO)
100
AcDbLine
 10
601.5224287839917
 20
203.1111456762722
 30
0.0
 11
601.5224287839917
 21
169.1111456762722
 31
0.0
  0
LINE
  5
90A2
330
8C4A
100
AcDbEntity
  8
Visible (ISO)
100
AcDbLine
 10
605.1985281500804
 20
193.0111456762718
 30
0.0
 11
605.1985281500804
 21
179.2111456762725
 31
0.0
  0
LINE
  5
90A3
330
8C4A
100
AcDbEntity
  8
Visible (ISO)
100
AcDbLine
 10
601.5224287839917
 20
169.1111456762722
 30
0.0
 11
598.6724287839917
 21
169.1111456762722
 31
0.0
  0
LINE
  5
90A4
330
8C4A
100
AcDbEntity
  8
Visible (ISO)
100
AcDbLine
 10
601.5224287839917
 20
203.1111456762722
 30
0.0
 11
598.6724287839917
 21
203.1111456762722
 31
0.0
  0
LINE
  5
90A5
330
8C4A
100
AcDbEntity
  8
Visible (ISO)
100
AcDbLine
 10
605.1985281500804
 20
179.2111456762725
 30
0.0
 11
601.5224287839917
 21
169.1111456762722
 31
0.0
  0
LINE
  5
90A6
330
8C4A
100
AcDbEntity
  8
Visible (ISO)
100
AcDbLine
 10
605.1985281500804
 20
193.0111456762718
 30
0.0
 11
601.5224287839917
 21
203.1111456762722
 31
0.0
  0
LINE
  5
90A7
330
8C4A
100
AcDbEntity
  8
Visible (ISO)
100
AcDbLine
 10
618.6724287839918
 20
179.2111456762725
 30
0.0
 11
605.1985281500804
 21
179.2111456762725
 31
0.0
  0
LINE
  5
90A8
330
8C4A
100
AcDbEntity
  8
Visible (ISO)
100
AcDbLine
 10
618.6724287839918
 20
193.0111456762718
 30
0.0
 11
605.1985281500804
 21
193.0111456762718
 31
0.0
  0
LINE
  5
90A9
330
8C4A
100
AcDbEntity
  8
0
  6
CENTER
100
AcDbLine
 10
700.8001756802975
 20
186.1111456762722
 30
0.0
 11
586.5446818876796
 21
186.1111456762722
 31
0.0
  0
LINE
  5
90AA
330
8C4A
100
AcDbEntity
  8
Visible (ISO)
100
AcDbLine
 10
688.6724287839918
 20
203.1111456762722
 30
0.0
 11
688.6724287839918
 21
169.1111456762722
 31
0.0
  0
LINE
  5
90AB
330
8C4A
100
AcDbEntity
  8
Visible (ISO)
100
AcDbLine
 10
685.8224287839918
 20
203.1111456762722
 30
0.0
 11
685.8224287839918
 21
169.1111456762722
 31
0.0
  0
LINE
  5
90AC
330
8C4A
100
AcDbEntity
  8
Visible (ISO)
100
AcDbLine
 10
682.1463294179027
 20
193.0111456762718
 30
0.0
 11
682.1463294179027
 21
179.2111456762725
 31
0.0
  0
LINE
  5
90AD
330
8C4A
100
AcDbEntity
  8
Visible (ISO)
100
AcDbLine
 10
688.6724287839918
 20
169.1111456762722
 30
0.0
 11
685.8224287839918
 21
169.1111456762722
 31
0.0
  0
LINE
  5
90AE
330
8C4A
100
AcDbEntity
  8
Visible (ISO)
100
AcDbLine
 10
688.6724287839918
 20
203.1111456762722
 30
0.0
 11
685.8224287839918
 21
203.1111456762722
 31
0.0
  0
LINE
  5
90AF
330
8C4A
100
AcDbEntity
  8
Visible (ISO)
100
AcDbLine
 10
682.1463294179027
 20
193.0111456762718
 30
0.0
 11
685.8224287839918
 21
203.1111456762722
 31
0.0
  0
LINE
  5
90B0
330
8C4A
100
AcDbEntity
  8
Visible (ISO)
100
AcDbLine
 10
682.1463294179027
 20
179.2111456762725
 30
0.0
 11
685.8224287839918
 21
169.1111456762722
 31
0.0
  0
LINE
  5
90B1
330
8C4A
100
AcDbEntity
  8
Visible (ISO)
100
AcDbLine
 10
682.1463294179031
 20
179.2111456762725
 30
0.0
 11
668.6724287839918
 21
179.2111456762725
 31
0.0
  0
LINE
  5
90B2
330
8C4A
100
AcDbEntity
  8
Visible (ISO)
100
AcDbLine
 10
682.1463294179031
 20
193.0111456762718
 30
0.0
 11
668.6724287839918
 21
193.0111456762718
 31
0.0
  0
ELLIPSE
  5
90B3
330
8C4A
100
AcDbEntity
  8
Visible (ISO)
100
AcDbEllipse
 10
643.6724287839967
 20
196.6951781156734
 30
0.0
 11
29.49999999999992
 21
-0.0000000000171613
 31
0.0
210
0.0
220
0.0
230
1.0
 40
0.8571673007021134
 41
2.130414958220562
 42
2.581974022165528
  0
LINE
  5
90B4
330
8C4A
100
AcDbEntity
  8
Visible (ISO)
100
AcDbLine
 10
628.0119690206272
 20
218.1243606332266
 30
0.0
 11
659.332888547359
 21
218.1243606332266
 31
0.0
  0
ELLIPSE
  5
90B5
330
8C4A
100
AcDbEntity
  8
Visible (ISO)
100
AcDbEllipse
 10
643.6724287839967
 20
196.6951781156734
 30
0.0
 11
29.49999999999993
 21
-0.0000000000145592
 31
0.0
210
0.0
220
0.0
230
1.0
 40
0.857167300702113
 41
0.5596186314255541
 42
1.011177695370499
  0
ELLIPSE
  5
90B6
330
8C4A
100
AcDbEntity
  8
Visible (ISO)
100
AcDbEllipse
 10
643.6724287839954
 20
193.7594610886866
 30
0.0
 11
-29.50000000000003
 21
0.000000000011946
 31
0.0
210
0.0
220
0.0
230
1.0
 40
0.8571673007021132
 41
3.701211285015206
 42
4.15277034896017
  0
LINE
  5
90B7
330
8C4A
100
AcDbEntity
  8
Visible (ISO)
100
AcDbLine
 10
659.3328885473572
 20
215.1886436062389
 30
0.0
 11
628.0119690206259
 21
215.1886436062389
 31
0.0
  0
ELLIPSE
  5
90B8
330
8C4A
100
AcDbEntity
  8
Visible (ISO)
100
AcDbEllipse
 10
643.6724287839954
 20
193.7594610886866
 30
0.0
 11
-29.50000000000003
 21
0.0000000000145634
 31
0.0
210
0.0
220
0.0
230
1.0
 40
0.8571673007021132
 41
5.272007611810243
 42
5.723566675755185
  0
LINE
  5
90B9
330
8C4A
100
AcDbEntity
  8
Visible (ISO)
100
AcDbLine
 10
618.6724287839931
 20
207.1830951118048
 30
0.0
 11
618.6724287839931
 21
206.6680570368947
 31
0.0
  0
SPLINE
  5
90BA
330
8C4A
100
AcDbEntity
  8
Visible (ISO)
100
AcDbSpline
210
0.0
220
0.0
230
1.0
 70
     8
 71
     3
 72
     8
 73
     4
 74
     0
 42
0.0000000001
 43
0.0000000001
 40
-0.0352749969214828
 40
-0.0352749969214828
 40
-0.0352749969214828
 40
-0.0352749969214828
 40
0.0
 40
0.0
 40
0.0
 40
0.0
 10
618.9168590749657
 20
206.9968641345916
 30
0.0
 10
618.8353856273286
 20
207.0589840081996
 30
0.0
 10
618.7539078515258
 20
207.1210615707608
 30
0.0
 10
618.6724287839931
 20
207.1830951118048
 30
0.0
  0
SPLINE
  5
90BB
330
8C4A
100
AcDbEntity
  8
Visible (ISO)
100
AcDbSpline
210
0.0
220
0.0
230
1.0
 70
     8
 71
     3
 72
     8
 73
     4
 74
     0
 42
0.0000000001
 43
0.0000000001
 40
-0.0541680490474437
 40
-0.0541680490474437
 40
-0.0541680490474437
 40
-0.0541680490474437
 40
0.0
 40
0.0
 40
0.0
 40
0.0
 10
628.1201949890816
 20
214.6736055313288
 30
0.0
 10
628.0839971467628
 20
214.8452706517431
 30
0.0
 10
628.0479216175224
 20
215.0169550391504
 30
0.0
 10
628.0119690206259
 20
215.1886436062389
 30
0.0
  0
SPLINE
  5
90BC
330
8C4A
100
AcDbEntity
  8
Visible (ISO)
100
AcDbSpline
210
0.0
220
0.0
230
1.0
 70
     8
 71
     3
 72
     8
 73
     4
 74
     0
 42
0.0000000001
 43
0.0000000001
 40
-0.0541680490474225
 40
-0.0541680490474225
 40
-0.0541680490474225
 40
-0.0541680490474225
 40
0.0
 40
0.0
 40
0.0
 40
0.0
 10
659.2246625789014
 20
214.6736055313288
 30
0.0
 10
659.2608604212207
 20
214.845270651744
 30
0.0
 10
659.2969359504607
 20
215.0169550391504
 30
0.0
 10
659.3328885473572
 20
215.1886436062389
 30
0.0
  0
SPLINE
  5
90BD
330
8C4A
100
AcDbEntity
  8
Visible (ISO)
100
AcDbSpline
210
0.0
220
0.0
230
1.0
 70
     8
 71
     3
 72
     8
 73
     4
 74
     0
 42
0.0000000001
 43
0.0000000001
 40
-0.0352749969214933
 40
-0.0352749969214933
 40
-0.0352749969214933
 40
-0.0352749969214933
 40
0.0
 40
0.0
 40
0.0
 40
0.0
 10
668.4279984930205
 20
206.9968641345916
 30
0.0
 10
668.5094719406577
 20
207.0589840081996
 30
0.0
 10
668.5909497164605
 20
207.1210615707608
 30
0.0
 10
668.6724287839931
 20
207.1830951118048
 30
0.0
  0
LINE
  5
90BE
330
8C4A
100
AcDbEntity
  8
Visible (ISO)
100
AcDbLine
 10
668.6724287839931
 20
206.6680570368947
 30
0.0
 11
668.6724287839931
 21
207.1830951118048
 31
0.0
  0
LINE
  5
90BF
330
8C4A
100
AcDbEntity
  8
Visible (ISO)
100
AcDbLine
 10
659.332888547359
 20
218.1243606332266
 30
0.0
 11
659.3328885473572
 21
215.1886436062389
 31
0.0
  0
LINE
  5
90C0
330
8C4A
100
AcDbEntity
  8
Visible (ISO)
100
AcDbLine
 10
668.6724287839945
 20
210.1188121387916
 30
0.0
 11
668.6724287839931
 21
207.1830951118048
 31
0.0
  0
LINE
  5
90C1
330
8C4A
100
AcDbEntity
  8
Visible (ISO)
100
AcDbLine
 10
628.0119690206272
 20
218.1243606332266
 30
0.0
 11
628.0119690206259
 21
215.1886436062389
 31
0.0
  0
LINE
  5
90C2
330
8C4A
100
AcDbEntity
  8
Visible (ISO)
100
AcDbLine
 10
618.6724287839945
 20
210.1188121387916
 30
0.0
 11
618.6724287839931
 21
207.1830951118048
 31
0.0
  0
LINE
  5
90C3
330
8C4A
100
AcDbEntity
  8
0
  6
CENTER
100
AcDbLine
 10
643.6724287839886
 20
161.7703059488743
 30
0.0
 11
643.6724287839886
 21
247.5203931892068
 31
0.0
  0
LINE
  5
90C4
330
8C4A
100
AcDbEntity
  8
0
  6
CENTER
100
AcDbLine
 10
782.1361326330641
 20
162.0705307433257
 30
0.0
 11
782.1361326330641
 21
210.1517606092296
 31
0.0
  0
LINE
  5
90C5
330
8C4A
100
AcDbEntity
  8
0
  6
CENTER
100
AcDbLine
 10
758.0955177001124
 20
186.1111456762776
 30
0.0
 11
806.1767475660158
 21
186.1111456762776
 31
0.0
  0
LINE
  5
90C6
330
8C4A
100
AcDbEntity
  8
0
  6
CENTER
100
AcDbLine
 10
765.6513647320369
 20
369.4405459339786
 30
0.0
 11
862.2953010199578
 21
369.4405459339786
 31
0.0
  0
ENDSEC
  0
SECTION
  2
OBJECTS
  0
DICTIONARY
  5
8C38
330
0
100
AcDbDictionary
281
     1
  3
ACAD_GROUP
350
8C39
  3
ACAD_LAYOUT
350
8C45
  3
ACAD_MLINESTYLE
350
8C42
  3
ACAD_PLOTSETTINGS
350
8C44
  3
ACAD_PLOTSTYLENAME
350
8C3A
  3
AcDbVariableDictionary
350
8C90
  0
DICTIONARY
  5
8D08
330
8C2E
100
AcDbDictionary
280
     1
281
     1
  3
ACAD_LAYERSTATES
360
8D09
  0
DICTIONARY
  5
8C5C
330
8C4A
100
AcDbDictionary
280
     1
281
     1
  3
ACAD_LAYOUTSELFREF
360
8CFF
  0
DICTIONARY
  5
8C5E
330
8C46
100
AcDbDictionary
280
     1
281
     1
  3
ACAD_LAYOUTSELFREF
360
8CFE
  0
DICTIONARY
  5
8C39
102
{ACAD_REACTORS
330
8C38
102
}
330
8C38
100
AcDbDictionary
281
     1
  0
DICTIONARY
  5
8C45
102
{ACAD_REACTORS
330
8C38
102
}
330
8C38
100
AcDbDictionary
281
     1
  3
Model
350
8C4D
  3
ﾚｲｱｳﾄ1
350
8C49
  0
DICTIONARY
  5
8C42
102
{ACAD_REACTORS
330
8C38
102
}
330
8C38
100
AcDbDictionary
281
     1
  3
Standard
350
8C43
  0
DICTIONARY
  5
8C44
102
{ACAD_REACTORS
330
8C38
102
}
330
8C38
100
AcDbDictionary
281
     1
  0
ACDBDICTIONARYWDFLT
  5
8C3A
102
{ACAD_REACTORS
330
8C38
102
}
330
8C38
100
AcDbDictionary
281
     1
  3
Normal
350
8C3B
100
AcDbDictionaryWithDefault
340
8C3B
  0
DICTIONARY
  5
8C90
102
{ACAD_REACTORS
330
8C38
102
}
330
8C38
100
AcDbDictionary
281
     1
  3
DIMASSOC
350
8C91
  0
DICTIONARY
  5
8D09
102
{ACAD_REACTORS
330
8D08
102
}
330
8D08
100
AcDbDictionary
281
     1
  0
XRECORD
  5
8CFF
102
{ACAD_REACTORS
330
8C5C
102
}
330
8C5C
100
AcDbXrecord
280
     1
340
8C4A
  0
XRECORD
  5
8CFE
102
{ACAD_REACTORS
330
8C5E
102
}
330
8C5E
100
AcDbXrecord
280
     1
340
8C46
  0
LAYOUT
  5
8C4D
102
{ACAD_REACTORS
330
8C45
102
}
330
8C45
100
AcDbPlotSettings
  1

  2
SII LP-2150 (D-SCAN C2)
  4

  6

 40
0.0
 41
0.0
 42
0.0
 43
0.0
 44
0.0
 45
0.0
 46
0.0
 47
0.0
 48
0.0
 49
0.0
140
0.0
141
0.0
142
1.0
143
1.0
 70
  1712
 72
     0
 73
     0
 74
     0
  7

 75
     0
147
1.0
148
0.0
149
0.0
100
AcDbLayout
  1
Model
 70
     1
 71
     0
 10
0.0
 20
0.0
 11
12.0
 21
9.0
 12
0.0
 22
0.0
 32
0.0
 14
0.0
 24
0.0
 34
0.0
 15
0.0
 25
0.0
 35
0.0
146
0.0
 13
0.0
 23
0.0
 33
0.0
 16
1.0
 26
0.0
 36
0.0
 17
0.0
 27
1.0
 37
0.0
 76
     0
330
8C4A
  0
LAYOUT
  5
8C49
102
{ACAD_REACTORS
330
8C45
102
}
330
8C45
100
AcDbPlotSettings
  1

  2
SII LP-2150 (D-SCAN C2)
  4

  6

 40
0.0
 41
0.0
 42
0.0
 43
0.0
 44
0.0
 45
0.0
 46
0.0
 47
0.0
 48
0.0
 49
0.0
140
0.0
141
0.0
142
1.0
143
1.0
 70
   688
 72
     0
 73
     0
 74
     5
  7

 75
    16
147
1.0
148
0.0
149
0.0
100
AcDbLayout
  1
ﾚｲｱｳﾄ1
 70
     1
 71
     1
 10
-580.5701293945312
 20
0.0
 11
0.0
 21
407.8999938964844
 12
0.0
 22
0.0
 32
0.0
 14
-580.5701293945312
 24
0.0
 34
0.0
 15
0.0
 25
407.8999938964844
 35
0.0
146
0.0
 13
0.0
 23
0.0
 33
0.0
 16
1.0
 26
0.0
 36
0.0
 17
0.0
 27
1.0
 37
0.0
 76
     0
330
8C46
  0
MLINESTYLE
  5
8C43
102
{ACAD_REACTORS
330
8C42
102
}
330
8C42
100
AcDbMlineStyle
  2
STANDARD
 70
     0
  3

 62
   256
 51
90.0
 52
90.0
 71
     2
 49
0.5
 62
   256
  6
BYLAYER
 49
-0.5
 62
   256
  6
BYLAYER
  0
ACDBPLACEHOLDER
  5
8C3B
102
{ACAD_REACTORS
330
8C3A
102
}
330
8C3A
  0
DICTIONARYVAR
  5
8C91
102
{ACAD_REACTORS
330
8C90
102
}
330
8C90
100
DictionaryVariables
280
     0
  1
1
  0
ENDSEC
  0
EOF
