  0
SECTION
  2
HEADER
  9
$ACADVER
  1
AC1015
  9
$ACADMAINTVER
 70
    14
  9
$DWGCODEPAGE
  3
ANSI_932
  9
$INSBASE
 10
0.0
 20
0.0
 30
0.0
  9
$EXTMIN
 10
32.71134138030447
 20
89.81986349526142
 30
-0.0000000349181948
  9
$EXTMAX
 10
2414.229195378311
 20
1178.973370860819
 30
0.0000000814935746
  9
$LIMMIN
 10
0.0
 20
0.0
  9
$LIMMAX
 10
420.0
 20
297.0
  9
$ORTHOMODE
 70
     0
  9
$REGENMODE
 70
     1
  9
$FILLMODE
 70
     1
  9
$QTEXTMODE
 70
     0
  9
$MIRRTEXT
 70
     1
  9
$LTSCALE
 40
1.0
  9
$ATTMODE
 70
     1
  9
$TEXTSIZE
 40
2.5
  9
$TRACEWID
 40
1.0
  9
$TEXTSTYLE
  7
Standard
  9
$CLAYER
  8
0
  9
$CELTYPE
  6
ByLayer
  9
$CECOLOR
 62
   256
  9
$CELTSCALE
 40
1.0
  9
$DISPSILH
 70
     0
  9
$DIMSCALE
 40
1.0
  9
$DIMASZ
 40
2.5
  9
$DIMEXO
 40
0.625
  9
$DIMDLI
 40
3.75
  9
$DIMRND
 40
0.0
  9
$DIMDLE
 40
0.0
  9
$DIMEXE
 40
1.25
  9
$DIMTP
 40
0.0
  9
$DIMTM
 40
0.0
  9
$DIMTXT
 40
2.5
  9
$DIMCEN
 40
2.5
  9
$DIMTSZ
 40
0.0
  9
$DIMTOL
 70
     0
  9
$DIMLIM
 70
     0
  9
$DIMTIH
 70
     0
  9
$DIMTOH
 70
     0
  9
$DIMSE1
 70
     0
  9
$DIMSE2
 70
     0
  9
$DIMTAD
 70
     1
  9
$DIMZIN
 70
     8
  9
$DIMBLK
  1

  9
$DIMASO
 70
     1
  9
$DIMSHO
 70
     1
  9
$DIMPOST
  1

  9
$DIMAPOST
  1

  9
$DIMALT
 70
     0
  9
$DIMALTD
 70
     3
  9
$DIMALTF
 40
0.03937007874016
  9
$DIMLFAC
 40
1.0
  9
$DIMTOFL
 70
     1
  9
$DIMTVP
 40
0.0
  9
$DIMTIX
 70
     0
  9
$DIMSOXD
 70
     0
  9
$DIMSAH
 70
     0
  9
$DIMBLK1
  1

  9
$DIMBLK2
  1

  9
$DIMSTYLE
  2
ISO-25
  9
$DIMCLRD
 70
     0
  9
$DIMCLRE
 70
     0
  9
$DIMCLRT
 70
     0
  9
$DIMTFAC
 40
1.0
  9
$DIMGAP
 40
0.625
  9
$DIMJUST
 70
     0
  9
$DIMSD1
 70
     0
  9
$DIMSD2
 70
     0
  9
$DIMTOLJ
 70
     0
  9
$DIMTZIN
 70
     8
  9
$DIMALTZ
 70
     0
  9
$DIMALTTZ
 70
     0
  9
$DIMUPT
 70
     0
  9
$DIMDEC
 70
     2
  9
$DIMTDEC
 70
     2
  9
$DIMALTU
 70
     2
  9
$DIMALTTD
 70
     3
  9
$DIMTXSTY
  7
Standard
  9
$DIMAUNIT
 70
     0
  9
$DIMADEC
 70
     0
  9
$DIMALTRND
 40
0.0
  9
$DIMAZIN
 70
     0
  9
$DIMDSEP
 70
    44
  9
$DIMATFIT
 70
     3
  9
$DIMFRAC
 70
     0
  9
$DIMLDRBLK
  1

  9
$DIMLUNIT
 70
     2
  9
$DIMLWD
 70
    -2
  9
$DIMLWE
 70
    -2
  9
$DIMTMOVE
 70
     0
  9
$LUNITS
 70
     2
  9
$LUPREC
 70
     4
  9
$SKETCHINC
 40
1.0
  9
$FILLETRAD
 40
10.0
  9
$AUNITS
 70
     0
  9
$AUPREC
 70
     0
  9
$MENU
  1
.
  9
$ELEVATION
 40
0.0
  9
$PELEVATION
 40
0.0
  9
$THICKNESS
 40
0.0
  9
$LIMCHECK
 70
     0
  9
$CHAMFERA
 40
10.0
  9
$CHAMFERB
 40
10.0
  9
$CHAMFERC
 40
20.0
  9
$CHAMFERD
 40
0.0
  9
$SKPOLY
 70
     0
  9
$TDCREATE
 40
2454284.644024340
  9
$TDUCREATE
 40
2454284.269024340
  9
$TDUPDATE
 40
2456899.672481689
  9
$TDUUPDATE
 40
2456899.297481689
  9
$TDINDWG
 40
0.0019001389
  9
$TDUSRTIMER
 40
0.0019001389
  9
$USRTIMER
 70
     1
  9
$ANGBASE
 50
0.0
  9
$ANGDIR
 70
     0
  9
$PDMODE
 70
     0
  9
$PDSIZE
 40
0.0
  9
$PLINEWID
 40
0.0
  9
$SPLFRAME
 70
     0
  9
$SPLINETYPE
 70
     6
  9
$SPLINESEGS
 70
     8
  9
$HANDSEED
  5
665
  9
$SURFTAB1
 70
     6
  9
$SURFTAB2
 70
     6
  9
$SURFTYPE
 70
     6
  9
$SURFU
 70
     6
  9
$SURFV
 70
     6
  9
$UCSBASE
  2

  9
$UCSNAME
  2

  9
$UCSORG
 10
0.0
 20
0.0
 30
0.0
  9
$UCSXDIR
 10
1.0
 20
0.0
 30
0.0
  9
$UCSYDIR
 10
0.0
 20
1.0
 30
0.0
  9
$UCSORTHOREF
  2

  9
$UCSORTHOVIEW
 70
     0
  9
$UCSORGTOP
 10
0.0
 20
0.0
 30
0.0
  9
$UCSORGBOTTOM
 10
0.0
 20
0.0
 30
0.0
  9
$UCSORGLEFT
 10
0.0
 20
0.0
 30
0.0
  9
$UCSORGRIGHT
 10
0.0
 20
0.0
 30
0.0
  9
$UCSORGFRONT
 10
0.0
 20
0.0
 30
0.0
  9
$UCSORGBACK
 10
0.0
 20
0.0
 30
0.0
  9
$PUCSBASE
  2

  9
$PUCSNAME
  2

  9
$PUCSORG
 10
0.0
 20
0.0
 30
0.0
  9
$PUCSXDIR
 10
1.0
 20
0.0
 30
0.0
  9
$PUCSYDIR
 10
0.0
 20
1.0
 30
0.0
  9
$PUCSORTHOREF
  2

  9
$PUCSORTHOVIEW
 70
     0
  9
$PUCSORGTOP
 10
0.0
 20
0.0
 30
0.0
  9
$PUCSORGBOTTOM
 10
0.0
 20
0.0
 30
0.0
  9
$PUCSORGLEFT
 10
0.0
 20
0.0
 30
0.0
  9
$PUCSORGRIGHT
 10
0.0
 20
0.0
 30
0.0
  9
$PUCSORGFRONT
 10
0.0
 20
0.0
 30
0.0
  9
$PUCSORGBACK
 10
0.0
 20
0.0
 30
0.0
  9
$USERI1
 70
     0
  9
$USERI2
 70
     0
  9
$USERI3
 70
     0
  9
$USERI4
 70
     0
  9
$USERI5
 70
     0
  9
$USERR1
 40
0.0
  9
$USERR2
 40
0.0
  9
$USERR3
 40
0.0
  9
$USERR4
 40
0.0
  9
$USERR5
 40
0.0
  9
$WORLDVIEW
 70
     1
  9
$SHADEDGE
 70
     3
  9
$SHADEDIF
 70
    70
  9
$TILEMODE
 70
     1
  9
$MAXACTVP
 70
    48
  9
$PINSBASE
 10
0.0
 20
0.0
 30
0.0
  9
$PLIMCHECK
 70
     0
  9
$PEXTMIN
 10
26.66076962115562
 20
20.31135699206657
 30
-0.0015258207003583
  9
$PEXTMAX
 10
240.039213369355
 20
182.8886381005154
 30
0.0000000349246037
  9
$PLIMMIN
 10
-6.350006103515625
 20
-6.349999904632568
  9
$PLIMMAX
 10
273.0499877929687
 20
209.5499939918517
  9
$UNITMODE
 70
     0
  9
$VISRETAIN
 70
     1
  9
$PLINEGEN
 70
     0
  9
$PSLTSCALE
 70
     1
  9
$TREEDEPTH
 70
  3020
  9
$CMLSTYLE
  2
Standard
  9
$CMLJUST
 70
     0
  9
$CMLSCALE
 40
20.0
  9
$PROXYGRAPHICS
 70
     1
  9
$MEASUREMENT
 70
     1
  9
$CELWEIGHT
370
    -1
  9
$ENDCAPS
280
     0
  9
$JOINSTYLE
280
     0
  9
$LWDISPLAY
290
     0
  9
$INSUNITS
 70
     4
  9
$HYPERLINKBASE
  1

  9
$STYLESHEET
  1

  9
$XEDIT
290
     1
  9
$CEPSNTYPE
380
     0
  9
$PSTYLEMODE
290
     1
  9
$FINGERPRINTGUID
  2
{FDEAD578-A652-11D2-9A35-0060089B3A3F}
  9
$VERSIONGUID
  2
{2507343A-E04F-4F22-A16D-4883541741AF}
  9
$EXTNAMES
290
     1
  9
$PSVPSCALE
 40
0.0
  9
$OLESTARTUP
290
     0
  0
ENDSEC
  0
SECTION
  2
CLASSES
  0
CLASS
  1
ACDBDICTIONARYWDFLT
  2
AcDbDictionaryWithDefault
  3
AutoCAD 2000
 90
        0
280
     0
281
     0
  0
CLASS
  1
ACDBPLACEHOLDER
  2
AcDbPlaceHolder
  3
AutoCAD 2000
 90
        0
280
     0
281
     0
  0
CLASS
  1
LAYOUT
  2
AcDbLayout
  3
AutoCAD 2000
 90
        0
280
     0
281
     0
  0
CLASS
  1
DICTIONARYVAR
  2
AcDbDictionaryVar
  3
AutoCAD 2000
 90
        0
280
     0
281
     0
  0
CLASS
  1
LONG_TRANSACTION
  2
AcDbLongTransaction
  3
AutoCAD 2000
 90
    32768
280
     0
281
     0
  0
CLASS
  1
LWPOLYLINE
  2
AcDbPolyline
  3
AutoCAD 2000
 90
    32768
280
     0
281
     1
  0
CLASS
  1
HATCH
  2
AcDbHatch
  3
AutoCAD 2000
 90
    32768
280
     0
281
     1
  0
CLASS
  1
XRECORD
  2
AcDbXrecord
  3
AutoCAD 2000
 90
    32768
280
     0
281
     0
  0
ENDSEC
  0
SECTION
  2
TABLES
  0
TABLE
  2
VPORT
  5
8
330
0
100
AcDbSymbolTable
 70
     2
  0
VPORT
  5
664
330
8
100
AcDbSymbolTableRecord
100
AcDbViewportTableRecord
  2
*Active
 70
     0
 10
0.0
 20
0.0
 11
1.0
 21
1.0
 12
1223.470268379307
 22
634.3966171780405
 13
0.0
 23
0.0
 14
10.0
 24
10.0
 15
10.0
 25
10.0
 16
0.0
 26
0.0
 36
1.0
 17
0.0
 27
0.0
 37
0.0
 40
1501.741862454894
 41
1.592161016949152
 42
50.0
 43
0.0
 44
0.0
 50
0.0
 51
0.0
 71
     0
 72
   100
 73
     1
 74
     3
 75
     0
 76
     0
 77
     0
 78
     0
281
     0
 65
     1
110
0.0
120
0.0
130
0.0
111
1.0
121
0.0
131
0.0
112
0.0
122
1.0
132
0.0
 79
     0
146
0.0
  0
ENDTAB
  0
TABLE
  2
LTYPE
  5
5
330
0
100
AcDbSymbolTable
 70
     3
  0
LTYPE
  5
14
330
5
100
AcDbSymbolTableRecord
100
AcDbLinetypeTableRecord
  2
ByBlock
 70
     0
  3

 72
    65
 73
     0
 40
0.0
  0
LTYPE
  5
15
330
5
100
AcDbSymbolTableRecord
100
AcDbLinetypeTableRecord
  2
ByLayer
 70
     0
  3

 72
    65
 73
     0
 40
0.0
  0
LTYPE
  5
16
330
5
100
AcDbSymbolTableRecord
100
AcDbLinetypeTableRecord
  2
Continuous
 70
     0
  3
Solid line
 72
    65
 73
     0
 40
0.0
  0
LTYPE
  5
86
330
5
100
AcDbSymbolTableRecord
100
AcDbLinetypeTableRecord
  2
HIDDEN
 70
     0
  3
Hidden __ __ __ __ __ __ __ __ __ __ __ __ __ _
 72
    65
 73
     2
 40
0.375
 49
0.25
 74
     0
 49
-0.125
 74
     0
  0
LTYPE
  5
341
330
5
100
AcDbSymbolTableRecord
100
AcDbLinetypeTableRecord
  2
CENTER
 70
     0
  3
Center ____ _ ____ _ ____ _ ____ _ ____ _ ____
 72
    65
 73
     4
 40
50.8
 49
31.75
 74
     0
 49
-6.349999999999999
 74
     0
 49
6.349999999999999
 74
     0
 49
-6.349999999999999
 74
     0
  0
ENDTAB
  0
TABLE
  2
LAYER
  5
2
102
{ACAD_XDICTIONARY
360
342
102
}
330
0
100
AcDbSymbolTable
 70
     2
  0
LAYER
  5
10
330
2
100
AcDbSymbolTableRecord
100
AcDbLayerTableRecord
  2
0
 70
     0
 62
     7
  6
Continuous
370
    -3
390
F
  0
LAYER
  5
354
330
2
100
AcDbSymbolTableRecord
100
AcDbLayerTableRecord
  2
Visible (ISO)
 70
     0
 62
     7
  6
Continuous
370
    35
390
F
  0
ENDTAB
  0
TABLE
  2
STYLE
  5
3
330
0
100
AcDbSymbolTable
 70
     1
  0
STYLE
  5
11
330
3
100
AcDbSymbolTableRecord
100
AcDbTextStyleTableRecord
  2
Standard
 70
     0
 40
0.0
 41
1.0
 50
0.0
 71
     0
 42
2.5
  3
txt
  4

  0
ENDTAB
  0
TABLE
  2
VIEW
  5
6
330
0
100
AcDbSymbolTable
 70
     0
  0
ENDTAB
  0
TABLE
  2
UCS
  5
7
330
0
100
AcDbSymbolTable
 70
     0
  0
ENDTAB
  0
TABLE
  2
APPID
  5
9
330
0
100
AcDbSymbolTable
 70
     1
  0
APPID
  5
12
330
9
100
AcDbSymbolTableRecord
100
AcDbRegAppTableRecord
  2
ACAD
 70
     0
  0
ENDTAB
  0
TABLE
  2
DIMSTYLE
  5
A
330
0
100
AcDbSymbolTable
 70
     1
100
AcDbDimStyleTable
 71
     0
  0
DIMSTYLE
105
27
330
A
100
AcDbSymbolTableRecord
100
AcDbDimStyleTableRecord
  2
ISO-25
 70
     0
 41
2.5
 42
0.625
 43
3.75
 44
1.25
 73
     0
 74
     0
 77
     1
 78
     8
140
2.5
141
2.5
143
0.03937007874016
147
0.625
171
     3
172
     1
271
     2
272
     2
274
     3
278
    44
283
     0
284
     8
340
11
  0
ENDTAB
  0
TABLE
  2
BLOCK_RECORD
  5
1
330
0
100
AcDbSymbolTable
 70
     1
  0
BLOCK_RECORD
  5
1F
102
{ACAD_XDICTIONARY
360
2FA
102
}
330
1
100
AcDbSymbolTableRecord
100
AcDbBlockTableRecord
  2
*Model_Space
340
22
  0
BLOCK_RECORD
  5
55
102
{ACAD_XDICTIONARY
360
2FC
102
}
330
1
100
AcDbSymbolTableRecord
100
AcDbBlockTableRecord
  2
*Paper_Space
340
56
  0
BLOCK_RECORD
  5
50
102
{ACAD_XDICTIONARY
360
2FE
102
}
330
1
100
AcDbSymbolTableRecord
100
AcDbBlockTableRecord
  2
*Paper_Space0
340
51
  0
ENDTAB
  0
ENDSEC
  0
SECTION
  2
BLOCKS
  0
BLOCK
  5
20
330
1F
100
AcDbEntity
  8
0
100
AcDbBlockBegin
  2
*Model_Space
 70
     0
 10
0.0
 20
0.0
 30
0.0
  3
*Model_Space
  1

  0
ENDBLK
  5
21
330
1F
100
AcDbEntity
  8
0
100
AcDbBlockEnd
  0
BLOCK
  5
57
330
55
100
AcDbEntity
 67
     1
  8
0
100
AcDbBlockBegin
  2
*Paper_Space
 70
     0
 10
0.0
 20
0.0
 30
0.0
  3
*Paper_Space
  1

  0
ENDBLK
  5
58
330
55
100
AcDbEntity
 67
     1
  8
0
100
AcDbBlockEnd
  0
BLOCK
  5
52
330
50
100
AcDbEntity
  8
0
100
AcDbBlockBegin
  2
*Paper_Space0
 70
     0
 10
0.0
 20
0.0
 30
0.0
  3
*Paper_Space0
  1

  0
VIEWPORT
  5
6B
330
50
100
AcDbEntity
  8
0
100
AcDbViewport
 10
133.3499908447265
 20
101.5999970436096
 30
0.0
 40
381.3957395593834
 41
218.2856291881582
 69
     0
 12
133.3499908447265
 22
101.5999970436096
 13
0.0
 23
0.0
 14
10.0
 24
10.0
 15
10.0
 25
10.0
 16
0.0
 26
0.0
 36
1.0
 17
0.0
 27
0.0
 37
0.0
 42
50.0
 43
0.0
 44
0.0
 45
218.2856291881582
 50
0.0
 51
0.0
 72
   100
 90
    32800
  1

281
     0
 71
     1
 74
     0
110
0.0
120
0.0
130
0.0
111
1.0
121
0.0
131
0.0
112
0.0
122
1.0
132
0.0
 79
     0
146
0.0
  0
VIEWPORT
  5
6D
330
50
100
AcDbEntity
  8
0
100
AcDbViewport
 10
133.349993944168
 20
101.599993944168
 30
0.0
 40
213.3599903106689
 41
162.5599903106689
 69
     0
 12
210.0
 22
148.5
 13
0.0
 23
0.0
 14
10.0
 24
10.0
 15
10.0
 25
10.0
 16
0.0
 26
0.0
 36
1.0
 17
0.0
 27
0.0
 37
0.0
 42
50.0
 43
0.0
 44
0.0
 45
324.0677920111345
 50
0.0
 51
0.0
 72
   100
 90
    32864
  1

281
     0
 71
     1
 74
     0
110
0.0
120
0.0
130
0.0
111
1.0
121
0.0
131
0.0
112
0.0
122
1.0
132
0.0
 79
     0
146
0.0
  0
ENDBLK
  5
53
330
50
100
AcDbEntity
  8
0
100
AcDbBlockEnd
  0
ENDSEC
  0
SECTION
  2
ENTITIES
  0
LINE
  5
1BE
330
1F
100
AcDbEntity
  8
0
  6
Continuous
100
AcDbLine
 10
163.4077067478678
 20
263.6300418835317
 30
0.0
 11
162.5416757175426
 21
264.1299821371157
 31
0.0
  0
ARC
  5
1BF
330
1F
100
AcDbEntity
  8
0
  6
Continuous
100
AcDbCircle
 10
308.7115476917556
 20
256.6292929497226
 30
0.0
 40
3.0
100
AcDbArc
 50
90.00010599999894
 51
179.9992199999996
  0
ARC
  5
1C0
330
1F
100
AcDbEntity
  8
0
  6
Continuous
100
AcDbCircle
 10
188.7116714330481
 20
256.6293223565617
 30
0.0
 40
3.0
100
AcDbArc
 50
359.9992999999946
 51
90.00010599999894
  0
ARC
  5
1C1
330
1F
100
AcDbEntity
  8
0
  6
Continuous
100
AcDbCircle
 10
328.2115298742855
 20
264.6293267666869
 30
0.0
 40
4.9999998
100
AcDbArc
 50
269.9999300000059
 51
348.4706830627235
  0
ARC
  5
1C2
330
1F
100
AcDbEntity
  8
0
  6
Continuous
100
AcDbCircle
 10
169.2116911385844
 20
264.6292902854161
 30
0.0
 40
4.9999998
100
AcDbArc
 50
191.5299900000062
 51
270.0000499999985
  0
LINE
  5
1C3
330
1F
100
AcDbEntity
  8
0
  6
Continuous
100
AcDbLine
 10
169.2116613873178
 20
259.6292858226565
 30
0.0
 11
248.7116014665273
 21
259.6292952718415
 31
0.0
  0
LINE
  5
1C4
330
1F
100
AcDbEntity
  8
0
  6
Continuous
100
AcDbLine
 10
328.2115139305915
 20
259.6293164429605
 30
0.0
 11
248.7116014665273
 21
259.6292952718415
 31
0.0
  0
LINE
  5
1C5
330
1F
100
AcDbEntity
  8
0
  6
Continuous
100
AcDbLine
 10
305.7115575702895
 20
256.6293250251833
 30
0.0
 11
305.7115752007108
 21
226.9297160781235
 31
0.0
  0
LINE
  5
1C6
330
1F
100
AcDbEntity
  8
0
  6
Continuous
100
AcDbLine
 10
191.7116505084561
 20
256.6292949698745
 30
0.0
 11
191.711652779828
 21
226.929714704871
 31
0.0
  0
ARC
  5
1C7
330
1F
100
AcDbEntity
  8
0
  6
Continuous
100
AcDbCircle
 10
752.383263962581
 20
256.629286360321
 30
0.0
 40
3.0
100
AcDbArc
 50
90.0
 51
180.0
  0
ARC
  5
1C8
330
1F
100
AcDbEntity
  8
0
  6
Continuous
100
AcDbCircle
 10
632.3833839625812
 20
256.629286360321
 30
0.0
 40
3.0
100
AcDbArc
 50
0.0
 51
90.0
  0
ARC
  5
1C9
330
1F
100
AcDbEntity
  8
0
  6
Continuous
100
AcDbCircle
 10
771.8832339625811
 20
264.6292963603211
 30
0.0
 40
4.9999998
100
AcDbArc
 50
270.0
 51
0.0
  0
ARC
  5
1CA
330
1F
100
AcDbEntity
  8
0
  6
Continuous
100
AcDbCircle
 10
612.8834139625811
 20
264.6292963603211
 30
0.0
 40
4.9999998
100
AcDbArc
 50
180.0
 51
270.0
  0
LINE
  5
1CB
330
1F
100
AcDbEntity
  8
0
  6
Continuous
100
AcDbLine
 10
612.8834139625811
 20
259.629286360321
 30
0.0
 11
692.3833239625811
 21
259.629286360321
 31
0.0
  0
LINE
  5
1CC
330
1F
100
AcDbEntity
  8
0
  6
Continuous
100
AcDbLine
 10
771.8832339625811
 20
259.629286360321
 30
0.0
 11
692.3833239625811
 21
259.629286360321
 31
0.0
  0
LINE
  5
1CD
330
1F
100
AcDbEntity
  8
0
  6
Continuous
100
AcDbLine
 10
749.383263962581
 20
256.629286360321
 30
0.0
 11
749.383263962581
 21
226.9297214226293
 31
0.0
  0
LINE
  5
1CE
330
1F
100
AcDbEntity
  8
0
  6
Continuous
100
AcDbLine
 10
776.8832439625811
 20
273.6298963603211
 30
0.0
 11
776.8832439625811
 21
264.6292963603211
 31
0.0
  0
LINE
  5
1CF
330
1F
100
AcDbEntity
  8
0
  6
Continuous
100
AcDbLine
 10
607.8834039625811
 20
273.6298963603211
 30
0.0
 11
607.8834039625811
 21
264.6292963603211
 31
0.0
  0
LINE
  5
1D0
330
1F
100
AcDbEntity
  8
0
  6
Continuous
100
AcDbLine
 10
635.3833839625812
 20
256.629286360321
 30
0.0
 11
635.3833839625812
 21
226.9297200493773
 31
0.0
  0
LINE
  5
1D1
330
1F
100
AcDbEntity
  8
0
  6
Continuous
100
AcDbLine
 10
339.7115918703159
 20
836.417484930779
 30
0.0
 11
339.711577678883
 21
826.9839248736499
 31
0.0
  0
LINE
  5
1D2
330
1F
100
AcDbEntity
  8
0
  6
Continuous
100
AcDbLine
 10
340.7769571345277
 20
826.9507128256158
 30
0.0
 11
337.5900414215793
 21
827.0502836075014
 31
0.0
  0
LINE
  5
1D3
330
1F
100
AcDbEntity
  8
0
  6
Continuous
100
AcDbLine
 10
340.7755007415742
 20
836.4507119376035
 30
0.0
 11
337.5900384416963
 21
836.3511748693682
 31
0.0
  0
LINE
  5
1D4
330
1F
100
AcDbEntity
  8
0
  6
Continuous
100
AcDbLine
 10
342.7755575018893
 20
826.9506841170066
 30
0.0
 11
340.7755319049408
 21
826.9506646112576
 31
0.0
  0
LINE
  5
1D5
330
1F
100
AcDbEntity
  8
0
  6
Continuous
100
AcDbLine
 10
342.7755447950423
 20
836.4506883694986
 30
0.0
 11
340.7755328178093
 21
836.4506955939456
 31
0.0
  0
LINE
  5
1D6
330
1F
100
AcDbEntity
  8
0
  6
Continuous
100
AcDbLine
 10
342.7755508484294
 20
836.7006834545769
 30
0.0
 11
342.7755541215221
 21
826.7006876699568
 31
0.0
  0
LINE
  5
1D7
330
1F
100
AcDbEntity
  8
0
  6
Continuous
100
AcDbLine
 10
355.2755083796057
 20
836.7006475779575
 30
0.0
 11
342.7755508484294
 21
836.7006834545769
 31
0.0
  0
LINE
  5
1D8
330
1F
100
AcDbEntity
  8
0
  6
Continuous
100
AcDbLine
 10
355.2755145803346
 20
826.700683971419
 30
0.0
 11
342.7755541215221
 21
826.7006876699568
 31
0.0
  0
LINE
  5
1D9
330
1F
100
AcDbEntity
  8
0
  6
Continuous
100
AcDbLine
 10
355.2755083796057
 20
836.7006475779575
 30
0.0
 11
355.2755145803346
 21
826.700683971419
 31
0.0
  0
LINE
  5
1DA
330
1F
100
AcDbEntity
  8
0
  6
Continuous
100
AcDbLine
 10
160.0253640889182
 20
834.8507006129509
 30
0.0
 11
161.1853220000011
 21
839.2006639476608
 31
0.0
  0
LINE
  5
1DB
330
1F
100
AcDbEntity
  8
0
  6
Continuous
100
AcDbLine
 10
160.0253679009004
 20
828.5507009129505
 30
0.0
 11
161.1853253744386
 21
824.2006892460318
 31
0.0
  0
LINE
  5
1DC
330
1F
100
AcDbEntity
  8
0
  6
Continuous
100
AcDbLine
 10
167.7115659094354
 20
839.2006872231942
 30
0.0
 11
161.1853677969763
 21
839.2007080343603
 31
0.0
  0
LINE
  5
1DD
330
1F
100
AcDbEntity
  8
0
  6
Continuous
100
AcDbLine
 10
167.7115659094354
 20
824.2007143676755
 30
0.0
 11
161.185371171414
 21
824.2007333327311
 31
0.0
  0
LINE
  5
1DE
330
1F
100
AcDbEntity
  8
0
  6
Continuous
100
AcDbLine
 10
161.1853701928328
 20
828.5507009129505
 30
0.0
 11
161.185371171414
 21
824.2007333327311
 31
0.0
  0
LINE
  5
1DF
330
1F
100
AcDbEntity
  8
0
  6
Continuous
100
AcDbLine
 10
161.1853677969763
 20
839.2007080343603
 30
0.0
 11
161.1853687755667
 21
834.8507006129509
 31
0.0
  0
LINE
  5
1E0
330
1F
100
AcDbEntity
  8
0
  6
Continuous
100
AcDbLine
 10
166.1853776300949
 20
839.2006920900026
 30
0.0
 11
166.1853810045324
 21
824.2007173883733
 31
0.0
  0
ELLIPSE
  5
1E1
330
1F
100
AcDbEntity
  8
0
  6
Continuous
100
AcDbEllipse
 10
161.421431470982
 20
831.7007007629507
 30
0.0
 11
0.0
 21
3.149999850000198
 31
0.0
210
0.0
220
0.0
230
1.0
 40
0.7098473443812015
 41
3.141592653589793
 42
6.283185307179586
  0
LINE
  5
1E2
330
1F
100
AcDbEntity
  8
0
  6
Continuous
100
AcDbLine
 10
136.0354115927723
 20
828.5507009129505
 30
0.0
 11
161.421431470982
 21
828.5507009129505
 31
0.0
  0
LINE
  5
1E3
330
1F
100
AcDbEntity
  8
0
  6
Continuous
100
AcDbLine
 10
136.0354115927723
 20
834.8507006129509
 30
0.0
 11
161.421431470982
 21
834.8507006129509
 31
0.0
  0
ARC
  5
1E4
330
1F
100
AcDbEntity
  8
0
  6
Continuous
100
AcDbCircle
 10
136.0354115927723
 20
831.7007007629507
 30
0.0
 40
3.149999850000199
100
AcDbArc
 50
90.0
 51
270.0
  0
LINE
  5
1E5
330
1F
100
AcDbEntity
  8
0
  6
Continuous
100
AcDbLine
 10
167.7115659094354
 20
839.2006872231942
 30
0.0
 11
167.7115659094354
 21
824.2007143676755
 31
0.0
  0
ARC
  5
1E6
330
1F
100
AcDbEntity
  8
0
  6
Continuous
100
AcDbCircle
 10
248.7115875665519
 20
831.7007007629507
 30
0.0
 40
98.50001147441446
100
AcDbArc
 50
2.909648060193239
 51
178.1673862626142
  0
ARC
  5
1E7
330
1F
100
AcDbEntity
  8
0
  6
Continuous
100
AcDbCircle
 10
248.7115875665519
 20
831.7007007629507
 30
0.0
 40
98.50001147441446
100
AcDbArc
 50
181.8326137373857
 51
357.0903262871101
  0
ARC
  5
1E8
330
1F
100
AcDbEntity
  8
0
  6
Continuous
100
AcDbCircle
 10
248.7115875665519
 20
831.7007007629507
 30
0.0
 40
89.00003336729673
100
AcDbArc
 50
182.0283070951573
 51
177.9716929048426
  0
CIRCLE
  5
1E9
330
1F
100
AcDbEntity
  8
0
  6
Continuous
100
AcDbCircle
 10
248.7115875665519
 20
831.7007007629507
 30
0.0
 40
24.99999745505022
  0
CIRCLE
  5
1EA
330
1F
100
AcDbEntity
  8
0
  6
Continuous
100
AcDbCircle
 10
248.7116226850405
 20
831.7007007629507
 30
0.0
 40
10.00004238406432
  0
ARC
  5
1EB
330
1F
100
AcDbEntity
  8
0
  6
HIDDEN
 48
10.0
100
AcDbCircle
 10
248.7116025743884
 20
831.7007007629507
 30
0.0
 40
96.0
100
AcDbArc
 50
122.4617400000004
 51
147.5382499999972
  0
ARC
  5
1EC
330
1F
100
AcDbEntity
  8
0
  6
HIDDEN
 48
10.0
100
AcDbCircle
 10
248.7116025743884
 20
831.7007007629507
 30
0.0
 40
96.0
100
AcDbArc
 50
212.4617500000018
 51
237.5382599999995
  0
ARC
  5
1ED
330
1F
100
AcDbEntity
  8
0
  6
HIDDEN
 48
10.0
100
AcDbCircle
 10
248.7116025743884
 20
831.7007007629507
 30
0.0
 40
96.0
100
AcDbArc
 50
302.4617400000004
 51
327.538249999998
  0
ARC
  5
1EE
330
1F
100
AcDbEntity
  8
0
  6
HIDDEN
 48
10.0
100
AcDbCircle
 10
248.7116025743884
 20
831.7007007629507
 30
0.0
 40
96.0
100
AcDbArc
 50
32.46175000000188
 51
57.53826100000498
  0
LINE
  5
1EF
330
1F
100
AcDbEntity
  8
0
  6
HIDDEN
 48
10.0
100
AcDbLine
 10
197.1848925743884
 20
750.7007007629507
 30
0.0
 11
300.2383065743883
 21
750.7007007629507
 31
0.0
  0
LINE
  5
1F0
330
1F
100
AcDbEntity
  8
0
  6
HIDDEN
 48
10.0
100
AcDbLine
 10
329.7116025743884
 20
780.1739907629507
 30
0.0
 11
329.7116025743884
 21
883.2274107629508
 31
0.0
  0
LINE
  5
1F1
330
1F
100
AcDbEntity
  8
0
  6
HIDDEN
 48
10.0
100
AcDbLine
 10
197.1848925743884
 20
912.7007007629508
 30
0.0
 11
300.2383065743883
 21
912.7007007629508
 31
0.0
  0
LINE
  5
1F2
330
1F
100
AcDbEntity
  8
0
  6
HIDDEN
 48
10.0
100
AcDbLine
 10
167.7116025743884
 20
780.1739907629507
 30
0.0
 11
167.7116025743884
 21
883.2274107629508
 31
0.0
  0
LINE
  5
1F3
330
1F
100
AcDbEntity
  8
0
  6
Continuous
100
AcDbLine
 10
167.7115887498112
 20
383.6301253125277
 30
0.0
 11
167.711613754393
 21
398.63009816797
 31
0.0
  0
ARC
  5
1F4
330
1F
100
AcDbEntity
  8
0
  6
Continuous
100
AcDbCircle
 10
149.1854472854379
 20
391.130116360321
 30
0.0
 40
16.30000019999999
100
AcDbArc
 50
27.3950531076479
 51
332.6050831076543
  0
CIRCLE
  5
1F5
330
1F
100
AcDbEntity
  8
0
  6
Continuous
100
AcDbCircle
 10
149.1854472854379
 20
391.130116360321
 30
0.0
 40
10.00000049999999
  0
LINE
  5
1F6
330
1F
100
AcDbEntity
  8
0
  6
Continuous
100
AcDbLine
 10
159.185429600634
 20
391.1301369492175
 30
0.0
 11
161.1853573426676
 21
398.6300748924767
 31
0.0
  0
LINE
  5
1F7
330
1F
100
AcDbEntity
  8
0
  6
Continuous
100
AcDbLine
 10
159.185429600634
 20
391.1301369492175
 30
0.0
 11
161.1853607171051
 21
383.6301001908478
 31
0.0
  0
LINE
  5
1F8
330
1F
100
AcDbEntity
  8
0
  6
Continuous
100
AcDbLine
 10
167.711613754393
 20
398.63009816797
 30
0.0
 11
161.1854031396428
 21
398.6301189791762
 31
0.0
  0
LINE
  5
1F9
330
1F
100
AcDbEntity
  8
0
  6
Continuous
100
AcDbLine
 10
167.7115887498112
 20
383.6301253125277
 30
0.0
 11
161.1854065140805
 21
383.630144277547
 31
0.0
  0
LINE
  5
1FA
330
1F
100
AcDbEntity
  8
0
  6
Continuous
100
AcDbLine
 10
161.1854031396428
 20
398.6301189791762
 30
0.0
 11
161.1854065140805
 21
383.630144277547
 31
0.0
  0
LINE
  5
1FB
330
1F
100
AcDbEntity
  8
0
  6
Continuous
100
AcDbLine
 10
166.1854129727614
 20
398.6301030348186
 30
0.0
 11
166.1854163471989
 21
383.6301283331892
 31
0.0
  0
LINE
  5
1FC
330
1F
100
AcDbEntity
  8
0
  6
Continuous
100
AcDbLine
 10
259.7118319671762
 20
402.6300138838633
 30
0.0
 11
258.7117860734879
 21
406.3622518904783
 31
0.0
  0
ARC
  5
1FD
330
1F
100
AcDbEntity
  8
0
  6
Continuous
100
AcDbCircle
 10
241.7115983944927
 20
432.6300181555303
 30
0.0
 40
3.0
100
AcDbArc
 50
89.99982900000103
 51
180.000219999996
  0
ARC
  5
1FE
330
1F
100
AcDbEntity
  8
0
  6
Continuous
100
AcDbCircle
 10
255.7116236833126
 20
432.6300310878288
 30
0.0
 40
3.0
100
AcDbArc
 50
0.0002199999960869
 51
89.99982900000103
  0
ARC
  5
1FF
330
1F
100
AcDbEntity
  8
0
  6
Continuous
100
AcDbCircle
 10
272.7116023289995
 20
401.6299900655955
 30
0.0
 40
1.000000019999999
100
AcDbArc
 50
0.0007999999958612
 51
90.00022599999148
  0
ARC
  5
200
330
1F
100
AcDbEntity
  8
0
  6
Continuous
100
AcDbCircle
 10
324.2333308096403
 20
389.6300720289561
 30
0.0
 40
8.000000099999999
100
AcDbArc
 50
12.00008999999321
 51
89.99992499999244
  0
ARC
  5
201
330
1F
100
AcDbEntity
  8
0
  6
Continuous
100
AcDbCircle
 10
154.7116027895353
 20
308.0015496725194
 30
0.0
 40
4.9999998
100
AcDbArc
 50
299.9995500000014
 51
0.0001000000035506
  0
ARC
  5
202
330
1F
100
AcDbEntity
  8
0
  6
Continuous
100
AcDbCircle
 10
158.2116074413256
 20
295.0111522436115
 30
0.0
 40
8.000000099999999
100
AcDbArc
 50
120.0001920000002
 51
179.9998499999914
  0
ARC
  5
203
330
1F
100
AcDbEntity
  8
0
  6
Continuous
100
AcDbCircle
 10
342.711606490483
 20
308.0015096826552
 30
0.0
 40
4.9999998
100
AcDbArc
 50
180.0000700000005
 51
239.999990000008
  0
ARC
  5
204
330
1F
100
AcDbEntity
  8
0
  6
Continuous
100
AcDbCircle
 10
339.2115844327982
 20
295.0111971285742
 30
0.0
 40
8.000000099999999
100
AcDbArc
 50
0.0001300000000561
 51
59.99999999999951
  0
ARC
  5
205
330
1F
100
AcDbEntity
  8
0
  6
Continuous
100
AcDbCircle
 10
287.7116240575287
 20
359.4424007043618
 30
0.0
 40
50.00000399999999
100
AcDbArc
 50
0.0000100000010064
 51
12.000010000004
  0
ARC
  5
206
330
1F
100
AcDbEntity
  8
0
  6
Continuous
100
AcDbCircle
 10
173.1898603812673
 20
389.6300839504987
 30
0.0
 40
8.000000099999999
100
AcDbArc
 50
89.88820100000262
 51
133.2184242398988
  0
ARC
  5
207
330
1F
100
AcDbEntity
  8
0
  6
Continuous
100
AcDbCircle
 10
209.7116001574431
 20
359.442389290412
 30
0.0
 40
50.00000399999999
100
AcDbArc
 50
167.999980000007
 51
179.9999600000024
  0
ARC
  5
208
330
1F
100
AcDbEntity
  8
0
  6
Continuous
100
AcDbCircle
 10
272.7116023289995
 20
401.6299900655955
 30
0.0
 40
1.000000019999999
100
AcDbArc
 50
0.0007999999958612
 51
90.00022599999148
  0
ARC
  5
209
330
1F
100
AcDbEntity
  8
0
  6
Continuous
100
AcDbCircle
 10
224.711603306896
 20
401.6299828193438
 30
0.0
 40
1.000000019999999
100
AcDbArc
 50
90.00022599999148
 51
180.0007999999958
  0
LINE
  5
20A
330
1F
100
AcDbEntity
  8
0
  6
Continuous
100
AcDbLine
 10
339.7116272129824
 20
364.8468421425253
 30
0.0
 11
339.7116130215495
 21
355.4132820853961
 31
0.0
  0
LINE
  5
20B
330
1F
100
AcDbEntity
  8
0
  6
Continuous
100
AcDbLine
 10
340.7769924771942
 20
355.3800700373621
 30
0.0
 11
337.7116090175372
 21
355.4758437117701
 31
0.0
  0
LINE
  5
20C
330
1F
100
AcDbEntity
  8
0
  6
Continuous
100
AcDbLine
 10
340.7755360842406
 20
364.8800691493498
 30
0.0
 11
337.4264437331862
 21
364.7754190852487
 31
0.0
  0
LINE
  5
20D
330
1F
100
AcDbEntity
  8
0
  6
Continuous
100
AcDbLine
 10
342.7755928445558
 20
355.380041328753
 30
0.0
 11
340.7755672476073
 21
355.3800218230038
 31
0.0
  0
LINE
  5
20E
330
1F
100
AcDbEntity
  8
0
  6
Continuous
100
AcDbLine
 10
342.7755801377088
 20
364.8800455812448
 30
0.0
 11
340.7755681604758
 21
364.8800528056919
 31
0.0
  0
LINE
  5
20F
330
1F
100
AcDbEntity
  8
0
  6
Continuous
100
AcDbLine
 10
342.7755861910959
 20
365.1300406663232
 30
0.0
 11
342.7755894641886
 21
355.1300448817031
 31
0.0
  0
LINE
  5
210
330
1F
100
AcDbEntity
  8
0
  6
Continuous
100
AcDbLine
 10
355.2755437222722
 20
365.1300047897037
 30
0.0
 11
342.7755861910959
 21
365.1300406663232
 31
0.0
  0
LINE
  5
211
330
1F
100
AcDbEntity
  8
0
  6
Continuous
100
AcDbLine
 10
355.275549923001
 20
355.1300411831651
 30
0.0
 11
342.7755894641886
 21
355.1300448817031
 31
0.0
  0
LINE
  5
212
330
1F
100
AcDbEntity
  8
0
  6
Continuous
100
AcDbLine
 10
355.2755437222722
 20
365.1300047897037
 30
0.0
 11
355.275549923001
 21
355.1300411831651
 31
0.0
  0
LINE
  5
213
330
1F
100
AcDbEntity
  8
0
  6
Continuous
100
AcDbLine
 10
241.7116124833214
 20
435.6300226798972
 30
0.0
 11
255.7115813841132
 21
435.6300306735441
 31
0.0
  0
LINE
  5
214
330
1F
100
AcDbEntity
  8
0
  6
Continuous
100
AcDbLine
 10
258.7115846014981
 20
406.3621945220234
 30
0.0
 11
258.7116002173593
 21
432.6300413617169
 31
0.0
  0
LINE
  5
215
330
1F
100
AcDbEntity
  8
0
  6
Continuous
100
AcDbLine
 10
258.7115846014981
 20
406.3621945220234
 30
0.0
 11
238.7116120998584
 21
406.3622253981123
 31
0.0
  0
LINE
  5
216
330
1F
100
AcDbEntity
  8
0
  6
Continuous
100
AcDbLine
 10
238.7116120998584
 20
406.3622253981123
 30
0.0
 11
238.7116191874265
 21
432.6300092436139
 31
0.0
  0
LINE
  5
217
330
1F
100
AcDbEntity
  8
0
  6
Continuous
100
AcDbLine
 10
237.7113747453086
 20
402.6300173241266
 30
0.0
 11
238.7114218062347
 21
406.3622550179823
 31
0.0
  0
LINE
  5
218
330
1F
100
AcDbEntity
  8
0
  6
Continuous
100
AcDbLine
 10
333.7114788847084
 20
273.6299459071466
 30
0.0
 11
248.7116078766939
 21
273.62999519604
 31
0.0
  0
LINE
  5
219
330
1F
100
AcDbEntity
  8
0
  6
Continuous
100
AcDbLine
 10
347.2115705128812
 20
273.6299652685551
 30
0.0
 11
347.2115866457816
 21
295.0111578442491
 31
0.0
  0
LINE
  5
21A
330
1F
100
AcDbEntity
  8
0
  6
Continuous
100
AcDbLine
 10
248.7116033562447
 20
402.6300293506063
 30
0.0
 11
272.711608340644
 21
402.6300470198158
 31
0.0
  0
LINE
  5
21B
330
1F
100
AcDbEntity
  8
0
  6
Continuous
100
AcDbLine
 10
167.7116084700378
 20
395.4600717375459
 30
0.0
 11
167.7115887497466
 21
383.6300866674636
 31
0.0
  0
LINE
  5
21C
330
1F
100
AcDbEntity
  8
0
  6
Continuous
100
AcDbLine
 10
337.7116073523884
 20
359.4762193085799
 30
0.0
 11
337.711609059318
 21
307.9939691458054
 31
0.0
  0
LINE
  5
21D
330
1F
100
AcDbEntity
  8
0
  6
Continuous
100
AcDbLine
 10
248.7115834432643
 20
305.1147602689994
 30
0.0
 11
337.7116240218883
 21
305.1147906850175
 31
0.0
  0
LINE
  5
21E
330
1F
100
AcDbEntity
  8
0
  6
Continuous
100
AcDbLine
 10
248.7115834432643
 20
305.1147602689994
 30
0.0
 11
159.711580796149
 21
305.1147778654864
 31
0.0
  0
LINE
  5
21F
330
1F
100
AcDbEntity
  8
0
  6
Continuous
100
AcDbLine
 10
340.2116088883571
 20
303.6713900544317
 30
0.0
 11
343.2115825309215
 21
301.9393606121119
 31
0.0
  0
LINE
  5
220
330
1F
100
AcDbEntity
  8
0
  6
Continuous
100
AcDbLine
 10
163.7358057893507
 20
383.630039185259
 30
0.0
 11
160.8042095870368
 21
369.8379480596962
 31
0.0
  0
LINE
  5
221
330
1F
100
AcDbEntity
  8
0
  6
Continuous
100
AcDbLine
 10
167.7115887497466
 20
383.6300866674636
 30
0.0
 11
163.7357793137721
 21
383.6300863450272
 31
0.0
  0
LINE
  5
222
330
1F
100
AcDbEntity
  8
0
  6
Continuous
100
AcDbLine
 10
157.2115640408571
 20
303.6714145353704
 30
0.0
 11
154.2115792692889
 21
301.9393672692177
 31
0.0
  0
LINE
  5
223
330
1F
100
AcDbEntity
  8
0
  6
Continuous
100
AcDbLine
 10
150.2115935840897
 20
273.6300261059269
 30
0.0
 11
248.7116078766939
 21
273.62999519604
 31
0.0
  0
LINE
  5
224
330
1F
100
AcDbEntity
  8
0
  6
Continuous
100
AcDbLine
 10
150.211603602597
 20
279.6299888138509
 30
0.0
 11
248.7116037234991
 21
279.6299870483788
 31
0.0
  0
LINE
  5
225
330
1F
100
AcDbEntity
  8
0
  6
Continuous
100
AcDbLine
 10
255.2115929614128
 20
270.3800397823589
 30
0.0
 11
242.2115263741329
 21
270.3799799922316
 31
0.0
  0
LINE
  5
226
330
1F
100
AcDbEntity
  8
0
  6
Continuous
100
AcDbLine
 10
243.07760946924
 20
263.6300142693183
 30
0.0
 11
242.2115806073516
 21
264.1299644534132
 31
0.0
  0
LINE
  5
227
330
1F
100
AcDbEntity
  8
0
  6
Continuous
100
AcDbLine
 10
255.21159373424
 20
264.13005148297
 30
0.0
 11
255.2115721863583
 21
271.6300075451562
 31
0.0
  0
LINE
  5
228
330
1F
100
AcDbEntity
  8
0
  6
Continuous
100
AcDbLine
 10
255.2115721863583
 20
271.6300075451562
 30
0.0
 11
242.2115627509574
 21
271.6300533138404
 31
0.0
  0
LINE
  5
229
330
1F
100
AcDbEntity
  8
0
  6
Continuous
100
AcDbLine
 10
254.3455591153242
 20
263.6299782528975
 30
0.0
 11
243.0775880850833
 21
263.6300251650903
 31
0.0
  0
LINE
  5
22A
330
1F
100
AcDbEntity
  8
0
  6
Continuous
100
AcDbLine
 10
322.7477022296088
 20
263.6300196266573
 30
0.0
 11
334.0156652407908
 21
263.6299768003792
 31
0.0
  0
LINE
  5
22B
330
1F
100
AcDbEntity
  8
0
  6
Continuous
100
AcDbLine
 10
321.8817115538458
 20
264.130051363311
 30
0.0
 11
321.8817009526592
 21
271.6300355176641
 31
0.0
  0
LINE
  5
22C
330
1F
100
AcDbEntity
  8
0
  6
Continuous
100
AcDbLine
 10
334.881675638805
 20
271.6300074546094
 30
0.0
 11
321.8817009526592
 21
271.6300355176641
 31
0.0
  0
LINE
  5
22D
330
1F
100
AcDbEntity
  8
0
  6
Continuous
100
AcDbLine
 10
321.8817115538458
 20
264.130051363311
 30
0.0
 11
334.8816808939527
 21
264.1300260241993
 31
0.0
  0
LINE
  5
22E
330
1F
100
AcDbEntity
  8
0
  6
Continuous
100
AcDbLine
 10
322.7476541152564
 20
263.6300441421445
 30
0.0
 11
321.8816500743955
 21
264.1300826886555
 31
0.0
  0
LINE
  5
22F
330
1F
100
AcDbEntity
  8
0
  6
Continuous
100
AcDbLine
 10
334.0156251454973
 20
263.6299972299517
 30
0.0
 11
334.8816862399921
 21
264.1300233002563
 31
0.0
  0
LINE
  5
230
330
1F
100
AcDbEntity
  8
0
  6
Continuous
100
AcDbLine
 10
321.8816699218737
 20
270.3799594721125
 30
0.0
 11
334.8816990868795
 21
270.3800383298406
 31
0.0
  0
LINE
  5
231
330
1F
100
AcDbEntity
  8
0
  6
Continuous
100
AcDbLine
 10
321.8817009526592
 20
271.6300355176641
 30
0.0
 11
321.8816983377651
 21
273.6299885356967
 31
0.0
  0
LINE
  5
232
330
1F
100
AcDbEntity
  8
0
  6
Continuous
100
AcDbLine
 10
334.881675638805
 20
271.6300074546094
 30
0.0
 11
334.881678624567
 21
273.6299912887521
 31
0.0
  0
LINE
  5
233
330
1F
100
AcDbEntity
  8
0
  6
Continuous
100
AcDbLine
 10
334.8816808939527
 20
264.1300260241993
 30
0.0
 11
334.881675638805
 21
271.6300074546094
 31
0.0
  0
LINE
  5
234
330
1F
100
AcDbEntity
  8
0
  6
Continuous
100
AcDbLine
 10
175.5416239327714
 20
264.1299834749419
 30
0.0
 11
175.541667555828
 21
271.6300410100251
 31
0.0
  0
LINE
  5
235
330
1F
100
AcDbEntity
  8
0
  6
Continuous
100
AcDbLine
 10
175.541667555828
 20
271.6300410100251
 30
0.0
 11
175.5416542488551
 21
273.6299994759434
 31
0.0
  0
LINE
  5
236
330
1F
100
AcDbEntity
  8
0
  6
Continuous
100
AcDbLine
 10
162.541684596006
 20
271.6300396189411
 30
0.0
 11
162.5416849087485
 21
273.6300248150554
 31
0.0
  0
LINE
  5
237
330
1F
100
AcDbEntity
  8
0
  6
Continuous
100
AcDbLine
 10
175.541667555828
 20
271.6300410100251
 30
0.0
 11
162.541684596006
 21
271.6300396189411
 31
0.0
  0
LINE
  5
238
330
1F
100
AcDbEntity
  8
0
  6
Continuous
100
AcDbLine
 10
150.2115935840897
 20
273.6300261059269
 30
0.0
 11
150.211629285518
 21
295.0111792701928
 31
0.0
  0
LINE
  5
239
330
1F
100
AcDbEntity
  8
0
  6
Continuous
100
AcDbLine
 10
248.7116033562447
 20
402.6300293506063
 30
0.0
 11
224.7115956988259
 21
402.6300130433686
 31
0.0
  0
LINE
  5
23A
330
1F
100
AcDbEntity
  8
0
  6
Continuous
100
AcDbLine
 10
248.7116025743885
 20
397.6300663603209
 30
0.0
 11
173.189840248081
 21
397.6300356307277
 31
0.0
  0
LINE
  5
23B
330
1F
100
AcDbEntity
  8
0
  6
Continuous
100
AcDbLine
 10
159.7115745512223
 20
359.4662685902609
 30
0.0
 11
159.711604532621
 21
307.9969332191823
 31
0.0
  0
LINE
  5
23C
330
1F
100
AcDbEntity
  8
0
  6
Continuous
100
AcDbLine
 10
273.7115825530627
 20
397.6300625399261
 30
0.0
 11
273.711588269969
 21
401.6299966681582
 31
0.0
  0
LINE
  5
23D
330
1F
100
AcDbEntity
  8
0
  6
Continuous
100
AcDbLine
 10
223.7116225957147
 20
397.6300701807159
 30
0.0
 11
223.7116283126215
 21
401.630004308948
 31
0.0
  0
LINE
  5
23E
330
1F
100
AcDbEntity
  8
0
  6
Continuous
100
AcDbLine
 10
332.0585085182265
 20
391.2933411760349
 30
0.0
 11
336.6190195493304
 21
369.8380003192518
 31
0.0
  0
LINE
  5
23F
330
1F
100
AcDbEntity
  8
0
  6
Continuous
100
AcDbLine
 10
248.7115942496775
 20
299.6299464395377
 30
0.0
 11
154.2020277211108
 21
299.6299412077825
 31
0.0
  0
LINE
  5
240
330
1F
100
AcDbEntity
  8
0
  6
Continuous
100
AcDbLine
 10
248.7116025743885
 20
397.6300663603209
 30
0.0
 11
324.2333162771096
 21
397.6300545252949
 31
0.0
  0
LINE
  5
241
330
1F
100
AcDbEntity
  8
0
  6
Continuous
100
AcDbLine
 10
159.9855041521355
 20
364.69764993089
 30
0.0
 11
336.6189778529041
 21
364.6976214938657
 31
0.0
  0
LINE
  5
242
330
1F
100
AcDbEntity
  8
0
  6
Continuous
100
AcDbLine
 10
242.2115627509574
 20
271.6300533138404
 30
0.0
 11
242.2115494439849
 21
273.6300117797589
 31
0.0
  0
LINE
  5
243
330
1F
100
AcDbEntity
  8
0
  6
Continuous
100
AcDbLine
 10
248.7115942496775
 20
299.6299464395377
 30
0.0
 11
343.211548848034
 21
299.6299334054329
 31
0.0
  0
LINE
  5
244
330
1F
100
AcDbEntity
  8
0
  6
Continuous
100
AcDbLine
 10
162.5416409729496
 20
264.1299820838582
 30
0.0
 11
175.5416239327714
 21
264.1299834749419
 31
0.0
  0
LINE
  5
245
330
1F
100
AcDbEntity
  8
0
  6
Continuous
100
AcDbLine
 10
174.6755930053441
 20
263.6300430431111
 30
0.0
 11
175.5416239327714
 21
264.1299834749419
 31
0.0
  0
LINE
  5
246
330
1F
100
AcDbEntity
  8
0
  6
Continuous
100
AcDbLine
 10
162.5416645119157
 20
270.3799916655565
 30
0.0
 11
175.5416338520226
 21
270.3799663264447
 31
0.0
  0
LINE
  5
247
330
1F
100
AcDbEntity
  8
0
  6
Continuous
100
AcDbLine
 10
163.4076452684278
 20
263.6299770774006
 30
0.0
 11
174.675654484794
 21
263.6300117177666
 31
0.0
  0
LINE
  5
248
330
1F
100
AcDbEntity
  8
0
  6
Continuous
100
AcDbLine
 10
162.5416409729496
 20
264.1299820838582
 30
0.0
 11
162.541684596006
 21
271.6300396189411
 31
0.0
  0
LINE
  5
249
330
1F
100
AcDbEntity
  8
0
  6
Continuous
100
AcDbLine
 10
255.21159373424
 20
264.13005148297
 30
0.0
 11
242.2115298199796
 21
264.1299903308716
 31
0.0
  0
LINE
  5
24A
330
1F
100
AcDbEntity
  8
0
  6
Continuous
100
AcDbLine
 10
347.2115705128812
 20
273.6299652685551
 30
0.0
 11
333.7114788847084
 21
273.6299459071466
 31
0.0
  0
LINE
  5
24B
330
1F
100
AcDbEntity
  8
0
  6
Continuous
100
AcDbLine
 10
242.2115298199796
 20
264.1299903308716
 30
0.0
 11
242.2115627509574
 21
271.6300533138404
 31
0.0
  0
LINE
  5
24C
330
1F
100
AcDbEntity
  8
0
  6
Continuous
100
AcDbLine
 10
255.2115721863583
 20
271.6300075451562
 30
0.0
 11
255.2115724991003
 21
273.6299927412702
 31
0.0
  0
LINE
  5
24D
330
1F
100
AcDbEntity
  8
0
  6
Continuous
100
AcDbLine
 10
254.345584190969
 20
263.6301001553669
 30
0.0
 11
255.2115830421616
 21
264.130056930856
 31
0.0
  0
LINE
  5
24E
330
1F
100
AcDbEntity
  8
0
  6
Continuous
100
AcDbLine
 10
347.2115750401153
 20
279.6299811761461
 30
0.0
 11
248.7116037234991
 21
279.6299870483788
 31
0.0
  0
ARC
  5
24F
330
1F
100
AcDbEntity
  8
0
  6
Continuous
100
AcDbCircle
 10
685.3833339625812
 20
432.630046360321
 30
0.0
 40
3.0
100
AcDbArc
 50
90.0
 51
180.0
  0
ARC
  5
250
330
1F
100
AcDbEntity
  8
0
  6
Continuous
100
AcDbCircle
 10
699.3833439625811
 20
432.630046360321
 30
0.0
 40
3.0
100
AcDbArc
 50
0.0
 51
90.0
  0
CIRCLE
  5
251
330
1F
100
AcDbEntity
  8
0
  6
Continuous
100
AcDbCircle
 10
692.3833239625812
 20
289.129966360321
 30
0.0
 40
4.195000199999999
  0
ARC
  5
252
330
1F
100
AcDbEntity
  8
0
  6
Continuous
100
AcDbCircle
 10
668.3833239625812
 20
401.6300263603211
 30
0.0
 40
1.000000019999999
100
AcDbArc
 50
90.0
 51
180.0
  0
ARC
  5
253
330
1F
100
AcDbEntity
  8
0
  6
Continuous
100
AcDbCircle
 10
716.3833239625812
 20
401.6300263603211
 30
0.0
 40
1.000000019999999
100
AcDbArc
 50
0.0
 51
90.0
  0
ARC
  5
254
330
1F
100
AcDbEntity
  8
0
  6
Continuous
100
AcDbCircle
 10
616.8616239625812
 20
389.6301163603213
 30
0.0
 40
8.000000099999999
100
AcDbArc
 50
90.0
 51
167.9997699999981
  0
ARC
  5
255
330
1F
100
AcDbEntity
  8
0
  6
Continuous
100
AcDbCircle
 10
731.3833839625813
 20
359.4424363603211
 30
0.0
 40
50.00000399999999
100
AcDbArc
 50
0.0
 51
12.0000499999994
  0
ARC
  5
256
330
1F
100
AcDbEntity
  8
0
  6
Continuous
100
AcDbCircle
 10
653.3833239625812
 20
359.4424363603211
 30
0.0
 40
50.00000399999999
100
AcDbArc
 50
167.9999500000006
 51
180.0
  0
ARC
  5
257
330
1F
100
AcDbEntity
  8
0
  6
Continuous
100
AcDbCircle
 10
782.8833039625813
 20
295.0111963603209
 30
0.0
 40
8.000000099999999
100
AcDbArc
 50
0.0
 51
60.0001099999931
  0
ARC
  5
258
330
1F
100
AcDbEntity
  8
0
  6
Continuous
100
AcDbCircle
 10
786.3833439625811
 20
308.0014963603211
 30
0.0
 40
4.9999998
100
AcDbArc
 50
180.0
 51
240.0001299999965
  0
ARC
  5
259
330
1F
100
AcDbEntity
  8
0
  6
Continuous
100
AcDbCircle
 10
601.8833439625812
 20
295.0111963603212
 30
0.0
 40
8.000000099999999
100
AcDbArc
 50
119.9998900000068
 51
180.0
  0
ARC
  5
25A
330
1F
100
AcDbEntity
  8
0
  6
Continuous
100
AcDbCircle
 10
598.3833339625812
 20
308.0014963603213
 30
0.0
 40
4.9999998
100
AcDbArc
 50
299.9998660000061
 51
0.0
  0
ARC
  5
25B
330
1F
100
AcDbEntity
  8
0
  6
Continuous
100
AcDbCircle
 10
767.9050839625813
 20
389.6301163603211
 30
0.0
 40
8.000000099999999
100
AcDbArc
 50
12.00023000000186
 51
90.0
  0
ARC
  5
25C
330
1F
100
AcDbEntity
  8
0
  6
Continuous
100
AcDbCircle
 10
716.3833239625812
 20
401.6300263603211
 30
0.0
 40
1.000000019999999
100
AcDbArc
 50
0.0
 51
90.0
  0
CIRCLE
  5
25D
330
1F
100
AcDbEntity
  8
0
  6
Continuous
100
AcDbCircle
 10
692.3833239625812
 20
289.129966360321
 30
0.0
 40
4.795000199999999
  0
CIRCLE
  5
25E
330
1F
100
AcDbEntity
  8
0
  6
Continuous
100
AcDbCircle
 10
692.3833239625812
 20
360.1300663603209
 30
0.0
 40
5.0000154
  0
LINE
  5
25F
330
1F
100
AcDbEntity
  8
0
  6
Continuous
100
AcDbLine
 10
685.3833339625812
 20
435.630046360321
 30
0.0
 11
699.3833439625811
 21
435.630046360321
 31
0.0
  0
LINE
  5
260
330
1F
100
AcDbEntity
  8
0
  6
Continuous
100
AcDbLine
 10
702.3833439625811
 20
406.362196360321
 30
0.0
 11
702.3833439625811
 21
432.630046360321
 31
0.0
  0
LINE
  5
261
330
1F
100
AcDbEntity
  8
0
  6
Continuous
100
AcDbLine
 10
703.3832933123606
 20
402.630046360321
 30
0.0
 11
702.3833139625812
 21
406.362286360321
 31
0.0
  0
LINE
  5
262
330
1F
100
AcDbEntity
  8
0
  6
Continuous
100
AcDbLine
 10
702.3833439625811
 20
406.362196360321
 30
0.0
 11
682.3833339625812
 21
406.362196360321
 31
0.0
  0
LINE
  5
263
330
1F
100
AcDbEntity
  8
0
  6
Continuous
100
AcDbLine
 10
682.3833339625812
 20
406.362196360321
 30
0.0
 11
682.3833339625812
 21
432.630046360321
 31
0.0
  0
LINE
  5
264
330
1F
100
AcDbEntity
  8
0
  6
Continuous
100
AcDbLine
 10
681.3831507510281
 20
402.630046360321
 30
0.0
 11
682.3831539625814
 21
406.362286360321
 31
0.0
  0
LINE
  5
265
330
1F
100
AcDbEntity
  8
0
  6
Continuous
100
AcDbLine
 10
690.3492639625812
 20
364.6976563603211
 30
0.0
 11
604.4759439625811
 21
364.6976563603213
 31
0.0
  0
LINE
  5
266
330
1F
100
AcDbEntity
  8
0
  6
Continuous
100
AcDbLine
 10
744.8831739625814
 20
271.629976360321
 30
0.0
 11
731.8831539625814
 21
271.629976360321
 31
0.0
  0
LINE
  5
267
330
1F
100
AcDbEntity
  8
0
  6
Continuous
100
AcDbLine
 10
744.0171939625813
 20
263.629966360321
 30
0.0
 11
732.7491939625813
 21
263.629966360321
 31
0.0
  0
LINE
  5
268
330
1F
100
AcDbEntity
  8
0
  6
Continuous
100
AcDbLine
 10
744.8831739625814
 20
264.129976360321
 30
0.0
 11
744.8831739625814
 21
271.629976360321
 31
0.0
  0
LINE
  5
269
330
1F
100
AcDbEntity
  8
0
  6
Continuous
100
AcDbLine
 10
732.7491939625813
 20
263.629966360321
 30
0.0
 11
731.8832139625812
 21
264.129976360321
 31
0.0
  0
LINE
  5
26A
330
1F
100
AcDbEntity
  8
0
  6
Continuous
100
AcDbLine
 10
744.8831739625814
 20
270.379966360321
 30
0.0
 11
731.8831539625814
 21
270.379966360321
 31
0.0
  0
LINE
  5
26B
330
1F
100
AcDbEntity
  8
0
  6
Continuous
100
AcDbLine
 10
593.8833339625812
 20
279.6299563603212
 30
0.0
 11
593.8833339625812
 21
273.6299563603213
 31
0.0
  0
LINE
  5
26C
330
1F
100
AcDbEntity
  8
0
  6
Continuous
100
AcDbLine
 10
593.8833339625812
 20
279.6299563603212
 30
0.0
 11
692.3833239625812
 21
279.6299563603211
 31
0.0
  0
LINE
  5
26D
330
1F
100
AcDbEntity
  8
0
  6
Continuous
100
AcDbLine
 10
790.8833439625811
 20
279.6299563603211
 30
0.0
 11
790.8833439625811
 21
273.6299563603211
 31
0.0
  0
LINE
  5
26E
330
1F
100
AcDbEntity
  8
0
  6
Continuous
100
AcDbLine
 10
593.8833339625812
 20
273.6299563603213
 30
0.0
 11
692.3833239625812
 21
273.6299563603211
 31
0.0
  0
LINE
  5
26F
330
1F
100
AcDbEntity
  8
0
  6
Continuous
100
AcDbLine
 10
609.0364239625812
 20
391.2934363603212
 30
0.0
 11
604.4759439625811
 21
369.8379763603213
 31
0.0
  0
LINE
  5
270
330
1F
100
AcDbEntity
  8
0
  6
Continuous
100
AcDbLine
 10
783.8833839625813
 20
303.6714163603209
 30
0.0
 11
786.8833839625813
 21
301.939396360321
 31
0.0
  0
LINE
  5
271
330
1F
100
AcDbEntity
  8
0
  6
Continuous
100
AcDbLine
 10
692.3833239625812
 20
305.114746360321
 30
0.0
 11
603.3833439625811
 21
305.1147463603212
 31
0.0
  0
LINE
  5
272
330
1F
100
AcDbEntity
  8
0
  6
Continuous
100
AcDbLine
 10
600.8833239625812
 20
303.6713863603212
 30
0.0
 11
597.8833839625813
 21
301.9393963603212
 31
0.0
  0
LINE
  5
273
330
1F
100
AcDbEntity
  8
0
  6
Continuous
100
AcDbLine
 10
692.3833239625812
 20
305.114746360321
 30
0.0
 11
781.3833339625812
 21
305.114746360321
 31
0.0
  0
LINE
  5
274
330
1F
100
AcDbEntity
  8
0
  6
Continuous
100
AcDbLine
 10
781.3833339625812
 20
359.476216360321
 30
0.0
 11
781.3833339625812
 21
307.993966360321
 31
0.0
  0
LINE
  5
275
330
1F
100
AcDbEntity
  8
0
  6
Continuous
100
AcDbLine
 10
692.3833239625812
 20
402.630046360321
 30
0.0
 11
716.3833239625812
 21
402.630046360321
 31
0.0
  0
LINE
  5
276
330
1F
100
AcDbEntity
  8
0
  6
Continuous
100
AcDbLine
 10
790.8833139625811
 20
279.629956360321
 30
0.0
 11
790.8833139625812
 21
295.0111963603209
 31
0.0
  0
LINE
  5
277
330
1F
100
AcDbEntity
  8
0
  6
Continuous
100
AcDbLine
 10
790.8833439625811
 20
273.6299563603211
 30
0.0
 11
692.3833239625812
 21
273.6299563603211
 31
0.0
  0
LINE
  5
278
330
1F
100
AcDbEntity
  8
0
  6
Continuous
100
AcDbLine
 10
692.3833239625812
 20
299.629966360321
 30
0.0
 11
786.8833239625812
 21
299.629966360321
 31
0.0
  0
LINE
  5
279
330
1F
100
AcDbEntity
  8
0
  6
Continuous
100
AcDbLine
 10
731.8831539625814
 20
271.629976360321
 30
0.0
 11
731.8831539625814
 21
273.6299563603211
 31
0.0
  0
LINE
  5
27A
330
1F
100
AcDbEntity
  8
0
  6
Continuous
100
AcDbLine
 10
694.417443962581
 20
364.6976563603211
 30
0.0
 11
780.2907339625813
 21
364.6976563603211
 31
0.0
  0
LINE
  5
27B
330
1F
100
AcDbEntity
  8
0
  6
Continuous
100
AcDbLine
 10
692.3833239625812
 20
299.629966360321
 30
0.0
 11
597.8738139625813
 21
299.6299663603212
 31
0.0
  0
LINE
  5
27C
330
1F
100
AcDbEntity
  8
0
  6
Continuous
100
AcDbLine
 10
775.7302239625812
 20
391.2933463603209
 30
0.0
 11
780.2907339625813
 21
369.837976360321
 31
0.0
  0
LINE
  5
27D
330
1F
100
AcDbEntity
  8
0
  6
Continuous
100
AcDbLine
 10
667.3833339625812
 20
397.6300663603209
 30
0.0
 11
667.3833339625812
 21
401.6300263603211
 31
0.0
  0
LINE
  5
27E
330
1F
100
AcDbEntity
  8
0
  6
Continuous
100
AcDbLine
 10
717.3833139625813
 20
397.6300663603209
 30
0.0
 11
717.3833139625813
 21
401.6300263603211
 31
0.0
  0
LINE
  5
27F
330
1F
100
AcDbEntity
  8
0
  6
Continuous
100
AcDbLine
 10
603.3833439625811
 20
359.4663163603212
 30
0.0
 11
603.3833439625811
 21
307.9968763603212
 31
0.0
  0
LINE
  5
280
330
1F
100
AcDbEntity
  8
0
  6
Continuous
100
AcDbLine
 10
692.3833239625812
 20
397.6300663603209
 30
0.0
 11
616.8616239625812
 21
397.6300663603212
 31
0.0
  0
LINE
  5
281
330
1F
100
AcDbEntity
  8
0
  6
Continuous
100
AcDbLine
 10
692.3833239625812
 20
402.630046360321
 30
0.0
 11
668.3833239625812
 21
402.630046360321
 31
0.0
  0
LINE
  5
282
330
1F
100
AcDbEntity
  8
0
  6
Continuous
100
AcDbLine
 10
593.8833939625814
 20
279.6299563603212
 30
0.0
 11
593.8833939625813
 21
295.0111963603212
 31
0.0
  0
LINE
  5
283
330
1F
100
AcDbEntity
  8
0
  6
Continuous
100
AcDbLine
 10
778.7492439625812
 20
263.6300263603211
 30
0.0
 11
777.8832339625812
 21
264.1300363603211
 31
0.0
  0
LINE
  5
284
330
1F
100
AcDbEntity
  8
0
  6
Continuous
100
AcDbLine
 10
606.8835039625812
 20
271.6299763603212
 30
0.0
 11
593.8835139625812
 21
271.6299763603212
 31
0.0
  0
LINE
  5
285
330
1F
100
AcDbEntity
  8
0
  6
Continuous
100
AcDbLine
 10
593.8835139625812
 20
271.6299763603212
 30
0.0
 11
593.8835139625812
 21
273.6299563603213
 31
0.0
  0
LINE
  5
286
330
1F
100
AcDbEntity
  8
0
  6
Continuous
100
AcDbLine
 10
606.8835039625812
 20
271.6299763603212
 30
0.0
 11
606.8835039625812
 21
273.6299563603213
 31
0.0
  0
LINE
  5
287
330
1F
100
AcDbEntity
  8
0
  6
Continuous
100
AcDbLine
 10
606.8835039625812
 20
264.1299763603212
 30
0.0
 11
606.8835039625812
 21
271.6299763603212
 31
0.0
  0
LINE
  5
288
330
1F
100
AcDbEntity
  8
0
  6
Continuous
100
AcDbLine
 10
593.8835139625812
 20
264.1299763603212
 30
0.0
 11
606.8835039625812
 21
264.1299763603212
 31
0.0
  0
LINE
  5
289
330
1F
100
AcDbEntity
  8
0
  6
Continuous
100
AcDbLine
 10
594.7494639625813
 20
263.6300563603213
 30
0.0
 11
593.8834839625813
 21
264.1300363603213
 31
0.0
  0
LINE
  5
28A
330
1F
100
AcDbEntity
  8
0
  6
Continuous
100
AcDbLine
 10
606.0174639625813
 20
263.6299663603212
 30
0.0
 11
606.8835039625812
 21
264.1299763603212
 31
0.0
  0
LINE
  5
28B
330
1F
100
AcDbEntity
  8
0
  6
Continuous
100
AcDbLine
 10
593.8835139625812
 20
270.3799663603212
 30
0.0
 11
606.8835039625812
 21
270.3799663603212
 31
0.0
  0
LINE
  5
28C
330
1F
100
AcDbEntity
  8
0
  6
Continuous
100
AcDbLine
 10
652.8835239625812
 20
271.629976360321
 30
0.0
 11
652.8835239625812
 21
273.6299563603211
 31
0.0
  0
LINE
  5
28D
330
1F
100
AcDbEntity
  8
0
  6
Continuous
100
AcDbLine
 10
594.7495239625811
 20
263.6299663603212
 30
0.0
 11
606.0175239625812
 21
263.6299663603212
 31
0.0
  0
LINE
  5
28E
330
1F
100
AcDbEntity
  8
0
  6
Continuous
100
AcDbLine
 10
593.8835139625812
 20
264.1299763603212
 30
0.0
 11
593.8835139625812
 21
271.6299763603212
 31
0.0
  0
LINE
  5
28F
330
1F
100
AcDbEntity
  8
0
  6
Continuous
100
AcDbLine
 10
639.8835039625812
 20
271.629976360321
 30
0.0
 11
639.8835039625812
 21
273.6299563603211
 31
0.0
  0
LINE
  5
290
330
1F
100
AcDbEntity
  8
0
  6
Continuous
100
AcDbLine
 10
652.8835239625812
 20
264.129976360321
 30
0.0
 11
652.8835239625812
 21
271.629976360321
 31
0.0
  0
LINE
  5
291
330
1F
100
AcDbEntity
  8
0
  6
Continuous
100
AcDbLine
 10
639.8835039625812
 20
264.129976360321
 30
0.0
 11
652.8835239625812
 21
264.129976360321
 31
0.0
  0
LINE
  5
292
330
1F
100
AcDbEntity
  8
0
  6
Continuous
100
AcDbLine
 10
640.7495139625814
 20
263.6301163603211
 30
0.0
 11
639.8835039625812
 21
264.130066360321
 31
0.0
  0
LINE
  5
293
330
1F
100
AcDbEntity
  8
0
  6
Continuous
100
AcDbLine
 10
652.0174539625811
 20
263.629966360321
 30
0.0
 11
652.8835239625812
 21
264.129976360321
 31
0.0
  0
LINE
  5
294
330
1F
100
AcDbEntity
  8
0
  6
Continuous
100
AcDbLine
 10
639.8835039625812
 20
270.379966360321
 30
0.0
 11
652.8835239625812
 21
270.379966360321
 31
0.0
  0
LINE
  5
295
330
1F
100
AcDbEntity
  8
0
  6
Continuous
100
AcDbLine
 10
639.8835039625812
 20
271.629976360321
 30
0.0
 11
652.8835239625812
 21
271.629976360321
 31
0.0
  0
LINE
  5
296
330
1F
100
AcDbEntity
  8
0
  6
Continuous
100
AcDbLine
 10
640.7495139625814
 20
263.629966360321
 30
0.0
 11
652.0174839625813
 21
263.629966360321
 31
0.0
  0
LINE
  5
297
330
1F
100
AcDbEntity
  8
0
  6
Continuous
100
AcDbLine
 10
639.8835039625812
 20
264.129976360321
 30
0.0
 11
639.8835039625812
 21
271.629976360321
 31
0.0
  0
LINE
  5
298
330
1F
100
AcDbEntity
  8
0
  6
Continuous
100
AcDbLine
 10
777.8832339625812
 20
270.379966360321
 30
0.0
 11
790.8832539625811
 21
270.379966360321
 31
0.0
  0
LINE
  5
299
330
1F
100
AcDbEntity
  8
0
  6
Continuous
100
AcDbLine
 10
777.8832339625812
 20
271.629976360321
 30
0.0
 11
777.8832339625812
 21
273.6299563603211
 31
0.0
  0
LINE
  5
29A
330
1F
100
AcDbEntity
  8
0
  6
Continuous
100
AcDbLine
 10
790.8832539625811
 20
271.629976360321
 30
0.0
 11
790.8832539625811
 21
273.6299563603211
 31
0.0
  0
LINE
  5
29B
330
1F
100
AcDbEntity
  8
0
  6
Continuous
100
AcDbLine
 10
790.0172139625813
 20
263.629966360321
 30
0.0
 11
790.8832539625811
 21
264.129976360321
 31
0.0
  0
LINE
  5
29C
330
1F
100
AcDbEntity
  8
0
  6
Continuous
100
AcDbLine
 10
777.8832339625812
 20
264.129976360321
 30
0.0
 11
790.8832539625811
 21
264.129976360321
 31
0.0
  0
LINE
  5
29D
330
1F
100
AcDbEntity
  8
0
  6
Continuous
100
AcDbLine
 10
777.8832339625812
 20
264.129976360321
 30
0.0
 11
777.8832339625812
 21
271.629976360321
 31
0.0
  0
LINE
  5
29E
330
1F
100
AcDbEntity
  8
0
  6
Continuous
100
AcDbLine
 10
790.8832539625811
 20
264.129976360321
 30
0.0
 11
790.8832539625811
 21
271.629976360321
 31
0.0
  0
LINE
  5
29F
330
1F
100
AcDbEntity
  8
0
  6
Continuous
100
AcDbLine
 10
777.8832339625812
 20
271.629976360321
 30
0.0
 11
790.8832539625811
 21
271.629976360321
 31
0.0
  0
LINE
  5
2A0
330
1F
100
AcDbEntity
  8
0
  6
Continuous
100
AcDbLine
 10
778.7492439625812
 20
263.629966360321
 30
0.0
 11
790.0172139625813
 21
263.629966360321
 31
0.0
  0
LINE
  5
2A1
330
1F
100
AcDbEntity
  8
0
  6
Continuous
100
AcDbLine
 10
790.8833139625811
 20
279.629956360321
 30
0.0
 11
692.3833239625812
 21
279.6299563603211
 31
0.0
  0
LINE
  5
2A2
330
1F
100
AcDbEntity
  8
0
  6
Continuous
100
AcDbLine
 10
744.8831739625814
 20
264.129976360321
 30
0.0
 11
731.8831539625814
 21
264.129976360321
 31
0.0
  0
LINE
  5
2A3
330
1F
100
AcDbEntity
  8
0
  6
Continuous
100
AcDbLine
 10
744.017133962581
 20
263.630056360321
 30
0.0
 11
744.8832339625812
 21
264.130066360321
 31
0.0
  0
LINE
  5
2A4
330
1F
100
AcDbEntity
  8
0
  6
Continuous
100
AcDbLine
 10
731.8831539625814
 20
264.129976360321
 30
0.0
 11
731.8831539625814
 21
271.629976360321
 31
0.0
  0
LINE
  5
2A5
330
1F
100
AcDbEntity
  8
0
  6
Continuous
100
AcDbLine
 10
744.8831739625814
 20
271.629976360321
 30
0.0
 11
744.8831739625814
 21
273.6299563603211
 31
0.0
  0
LINE
  5
2A6
330
1F
100
AcDbEntity
  8
0
  6
Continuous
100
AcDbLine
 10
692.3833063331867
 20
397.630066360321
 30
0.0
 11
767.9050063331867
 21
397.6300663603209
 31
0.0
  0
TEXT
  5
2A7
330
1F
100
AcDbEntity
  8
0
100
AcDbText
 10
32.85499999999911
 20
1130.90140784119
 30
0.0
 40
48.000002
  1
DHC2S17RD000 3S
 41
1.32095
100
AcDbText
  0
CIRCLE
  5
2A8
330
1F
100
AcDbEntity
  8
0
  6
Continuous
100
AcDbCircle
 10
692.3833239625813
 20
220.4297001327082
 30
0.0
 40
3.500015258788379
  0
LINE
  5
2A9
330
1F
100
AcDbEntity
  8
0
  6
Continuous
100
AcDbLine
 10
337.7116262685711
 20
216.9296848739196
 30
0.0
 11
329.7116110097825
 21
216.9296855812695
 31
0.0
  0
LINE
  5
2AA
330
1F
100
AcDbEntity
  8
0
  6
Continuous
100
AcDbLine
 10
337.7116268875037
 20
223.929715391497
 30
0.0
 11
329.7116116287147
 21
223.9297160988463
 31
0.0
  0
LINE
  5
2AB
330
1F
100
AcDbEntity
  8
0
  6
Continuous
100
AcDbLine
 10
337.7116262685711
 20
216.9296848739196
 30
0.0
 11
337.7116268875037
 21
223.929715391497
 31
0.0
  0
LINE
  5
2AC
330
1F
100
AcDbEntity
  8
0
  6
Continuous
100
AcDbLine
 10
819.3832858156088
 20
207.2796887309268
 30
0.0
 11
816.5332780508036
 21
207.2796887309268
 31
0.0
  0
LINE
  5
2AD
330
1F
100
AcDbEntity
  8
0
  6
Continuous
100
AcDbLine
 10
816.5332780508036
 20
207.2796887309268
 30
0.0
 11
813.8581000654006
 21
199.9296978862003
 31
0.0
  0
LINE
  5
2AE
330
1F
100
AcDbEntity
  8
0
100
AcDbLine
 10
819.3832858156088
 20
116.2797039897162
 30
0.0
 11
816.5333384952582
 21
116.2797039897162
 31
0.0
  0
LINE
  5
2AF
330
1F
100
AcDbEntity
  8
0
100
AcDbLine
 10
816.5333384952582
 20
116.2797039897162
 30
0.0
 11
813.8581605098544
 21
123.6296948344424
 31
0.0
  0
ARC
  5
2B0
330
1F
100
AcDbEntity
  8
0
100
AcDbCircle
 10
817.0934603761557
 20
117.079691782685
 30
0.0
 40
0.8000000417232513
100
AcDbArc
 50
200.0000071589904
 51
270.0000043257204
  0
LINE
  5
2B1
330
1F
100
AcDbEntity
  8
0
100
AcDbLine
 10
813.8581000654006
 20
199.9296978862003
 30
0.0
 11
813.8581000654006
 21
123.6298609042107
 31
0.0
  0
LINE
  5
2B2
330
1F
100
AcDbEntity
  8
0
100
AcDbLine
 10
819.3832858156088
 20
207.2796887309268
 30
0.0
 11
819.3832858156088
 21
116.2797039897162
 31
0.0
  0
LINE
  5
2B3
330
1F
100
AcDbEntity
  8
0
  6
Continuous
100
AcDbLine
 10
743.9100117965469
 20
226.9297446382996
 30
0.0
 11
743.9100117965469
 21
195.9298514498233
 31
0.0
  0
ARC
  5
2B4
330
1F
100
AcDbEntity
  8
0
100
AcDbCircle
 10
736.9295657228352
 20
133.6297253520212
 30
0.0
 40
13.00000047683716
100
AcDbArc
 50
210.0000051605297
 51
269.9999974955313
  0
LINE
  5
2B5
330
1F
100
AcDbEntity
  8
0
100
AcDbLine
 10
773.3833468507651
 20
120.6297406108103
 30
0.0
 11
736.9437563966634
 21
120.6297406108103
 31
0.0
  0
LINE
  5
2B6
330
1F
100
AcDbEntity
  8
0
100
AcDbLine
 10
773.3833468507651
 20
226.9297436625675
 30
0.0
 11
773.3833468507651
 21
120.6297406108103
 31
0.0
  0
LINE
  5
2B7
330
1F
100
AcDbEntity
  8
0
100
AcDbLine
 10
813.8581605098544
 20
123.6296948344424
 30
0.0
 11
773.3833468507651
 21
123.629694834443
 31
0.0
  0
LINE
  5
2B8
330
1F
100
AcDbEntity
  8
0
  6
Continuous
100
AcDbLine
 10
813.8581000654006
 20
199.9296978862003
 30
0.0
 11
773.3833468507651
 21
199.9296978862003
 31
0.0
  0
LINE
  5
2B9
330
1F
100
AcDbEntity
  8
0
100
AcDbLine
 10
690.6764376710775
 20
161.8297070414737
 30
0.0
 11
694.0901644777182
 21
161.8297070414737
 31
0.0
  0
LINE
  5
2BA
330
1F
100
AcDbEntity
  8
0
  6
Continuous
100
AcDbLine
 10
640.8566407089693
 20
226.9297800716012
 30
0.0
 11
640.8566193913052
 21
195.9298868831321
 31
0.0
  0
LINE
  5
2BB
330
1F
100
AcDbEntity
  8
0
100
AcDbLine
 10
673.3559257199424
 20
151.8297379821839
 30
0.0
 11
659.0953740753421
 21
127.129738433097
 31
0.0
  0
ARC
  5
2BC
330
1F
100
AcDbEntity
  8
0
100
AcDbCircle
 10
647.8370364259601
 20
133.6297253520212
 30
0.0
 40
13.00000047683716
100
AcDbArc
 50
269.9999974955313
 51
330.0000016696627
  0
ARC
  5
2BD
330
1F
100
AcDbEntity
  8
0
100
AcDbCircle
 10
690.6764376710775
 20
141.8297375590524
 30
0.0
 40
20.00000095367429
100
AcDbArc
 50
90.00000865141489
 51
149.9999966606942
  0
ARC
  5
2BE
330
1F
100
AcDbEntity
  8
0
100
AcDbCircle
 10
694.0901644777182
 20
141.8297375590524
 30
0.0
 40
20.00000095367429
100
AcDbArc
 50
30.0000033393057
 51
90.00000500896346
  0
LINE
  5
2BF
330
1F
100
AcDbEntity
  8
0
  6
Continuous
100
AcDbLine
 10
611.3833010743976
 20
225.929758921357
 30
0.0
 11
611.3833010743976
 21
213.929758921357
 31
0.0
  0
LINE
  5
2C0
330
1F
100
AcDbEntity
  8
0
  6
Continuous
100
AcDbLine
 10
568.2332785383882
 20
207.2796887309268
 30
0.0
 11
570.9084565237917
 21
199.9296978862008
 31
0.0
  0
LINE
  5
2C1
330
1F
100
AcDbEntity
  8
0
  6
Continuous
100
AcDbLine
 10
565.3833163331866
 20
207.2796887309268
 30
0.0
 11
568.2332785383882
 21
207.2796887309268
 31
0.0
  0
LINE
  5
2C2
330
1F
100
AcDbEntity
  8
0
  6
Continuous
100
AcDbLine
 10
570.9084565237917
 20
199.9296978862008
 30
0.0
 11
611.3833010743976
 21
199.9296978862008
 31
0.0
  0
LINE
  5
2C3
330
1F
100
AcDbEntity
  8
0
100
AcDbLine
 10
606.8833010743976
 20
123.6297406108099
 30
0.0
 11
611.3833010743976
 21
123.6297406108099
 31
0.0
  0
LINE
  5
2C4
330
1F
100
AcDbEntity
  8
0
100
AcDbLine
 10
568.2333155223187
 20
116.2797039897162
 30
0.0
 11
570.9084935077214
 21
123.6296948344424
 31
0.0
  0
LINE
  5
2C5
330
1F
100
AcDbEntity
  8
0
100
AcDbLine
 10
565.3833163331866
 20
116.2797039897156
 30
0.0
 11
568.2333155223187
 21
116.2797039897162
 31
0.0
  0
LINE
  5
2C6
330
1F
100
AcDbEntity
  8
0
100
AcDbLine
 10
570.9084935077214
 20
123.6296948344424
 30
0.0
 11
606.8833010743976
 21
123.629694834443
 31
0.0
  0
LINE
  5
2C7
330
1F
100
AcDbEntity
  8
0
100
AcDbLine
 10
565.3833163331866
 20
207.2796887309268
 30
0.0
 11
565.3833163331866
 21
116.2797039897156
 31
0.0
  0
LINE
  5
2C8
330
1F
100
AcDbEntity
  8
0
100
AcDbLine
 10
570.9084565237917
 20
199.9296978862008
 30
0.0
 11
570.9084935077214
 21
123.6296948344424
 31
0.0
  0
LINE
  5
2C9
330
1F
100
AcDbEntity
  8
0
100
AcDbLine
 10
611.3833010743976
 20
226.929743662568
 30
0.0
 11
611.3833010743976
 21
120.6297406108103
 31
0.0
  0
LINE
  5
2CA
330
1F
100
AcDbEntity
  8
0
100
AcDbLine
 10
611.3833010743976
 20
120.6297406108103
 30
0.0
 11
647.8512728761556
 21
120.6297406108103
 31
0.0
  0
LINE
  5
2CB
330
1F
100
AcDbEntity
  8
0
  6
Continuous
100
AcDbLine
 10
611.3833010743976
 20
226.929743662568
 30
0.0
 11
773.3833468507651
 21
226.9297436625675
 31
0.0
  0
LINE
  5
2CC
330
1F
100
AcDbEntity
  8
0
  6
Continuous
100
AcDbLine
 10
611.3833010743976
 20
212.9297284037785
 30
0.0
 11
773.3833468507651
 21
212.9297284037785
 31
0.0
  0
LINE
  5
2CD
330
1F
100
AcDbEntity
  8
0
  6
Continuous
100
AcDbLine
 10
611.3833011225803
 20
195.9298494983573
 30
0.0
 11
773.3833128919179
 21
195.9298514498237
 31
0.0
  0
LINE
  5
2CE
330
1F
100
AcDbEntity
  8
0
100
AcDbLine
 10
711.4106629469992
 20
151.8297525303104
 30
0.0
 11
725.6712145915996
 21
127.1297529812241
 31
0.0
  0
LINE
  5
2CF
330
1F
100
AcDbEntity
  8
0
100
AcDbLine
 10
294.211592167462
 20
955.8507123116605
 30
0.0
 11
286.8616470991029
 21
953.1755509874924
 31
0.0
  0
LINE
  5
2D0
330
1F
100
AcDbEntity
  8
0
100
AcDbLine
 10
294.211592167462
 20
958.7006855041616
 30
0.0
 11
294.211592167462
 21
955.8507123116605
 31
0.0
  0
LINE
  5
2D1
330
1F
100
AcDbEntity
  8
0
  6
HIDDEN
 48
10.0
100
AcDbLine
 10
286.8616470991029
 20
922.5127331051607
 30
0.0
 11
286.8616470991029
 21
912.7007007629508
 31
0.0
  0
LINE
  5
2D2
330
1F
100
AcDbEntity
  8
0
100
AcDbLine
 10
286.8616470991029
 20
953.1755509874924
 30
0.0
 11
286.8616470991029
 21
922.5127331051607
 31
0.0
  0
LINE
  5
2D3
330
1F
100
AcDbEntity
  8
0
100
AcDbLine
 10
203.2116532026186
 20
955.8507113073684
 30
0.0
 11
210.5615982709779
 21
953.1755499832003
 31
0.0
  0
LINE
  5
2D4
330
1F
100
AcDbEntity
  8
0
100
AcDbLine
 10
203.2116532026186
 20
958.7006855041616
 30
0.0
 11
203.2116532026186
 21
955.8507113073684
 31
0.0
  0
LINE
  5
2D5
330
1F
100
AcDbEntity
  8
0
  6
HIDDEN
 48
10.0
100
AcDbLine
 10
210.5615982709779
 20
922.5127626116245
 30
0.0
 11
210.5615982709779
 21
912.7007007629508
 31
0.0
  0
LINE
  5
2D6
330
1F
100
AcDbEntity
  8
0
100
AcDbLine
 10
210.5615982709779
 20
953.1755499832003
 30
0.0
 11
210.5615982709779
 21
922.5127626116245
 31
0.0
  0
LINE
  5
2D7
330
1F
100
AcDbEntity
  8
0
100
AcDbLine
 10
203.2116532026186
 20
958.7006855041616
 30
0.0
 11
294.211592167462
 21
958.7006855041616
 31
0.0
  0
LINE
  5
2D8
330
1F
100
AcDbEntity
  8
0
100
AcDbLine
 10
210.5615982709779
 20
953.1755237609976
 30
0.0
 11
286.8616470991029
 21
953.1755237609976
 31
0.0
  0
LINE
  5
2D9
330
1F
100
AcDbEntity
  8
0
100
AcDbLine
 10
294.211592167462
 20
707.550728904474
 30
0.0
 11
286.8616470991029
 21
710.2258902286417
 31
0.0
  0
LINE
  5
2DA
330
1F
100
AcDbEntity
  8
0
100
AcDbLine
 10
294.211592167462
 20
704.7007160217401
 30
0.0
 11
294.211592167462
 21
707.550728904474
 31
0.0
  0
LINE
  5
2DB
330
1F
100
AcDbEntity
  8
0
100
AcDbLine
 10
203.2116532026186
 20
707.5507177302185
 30
0.0
 11
210.561598270978
 21
710.2258790543857
 31
0.0
  0
LINE
  5
2DC
330
1F
100
AcDbEntity
  8
0
100
AcDbLine
 10
203.2116532026186
 20
704.7007160217401
 30
0.0
 11
203.2116532026186
 21
707.5507177302185
 31
0.0
  0
LINE
  5
2DD
330
1F
100
AcDbEntity
  8
0
100
AcDbLine
 10
203.2116532026186
 20
704.7007160217401
 30
0.0
 11
294.211592167462
 21
704.7007160217401
 31
0.0
  0
LINE
  5
2DE
330
1F
100
AcDbEntity
  8
0
100
AcDbLine
 10
210.561598270978
 20
710.225923541271
 30
0.0
 11
286.8616470991029
 21
710.225923541271
 31
0.0
  0
LINE
  5
2DF
330
1F
100
AcDbEntity
  8
0
  6
HIDDEN
 48
10.0
100
AcDbLine
 10
286.8616470991029
 20
740.8886684207407
 30
0.0
 11
286.8616470991029
 21
750.7007007629506
 31
0.0
  0
LINE
  5
2E0
330
1F
100
AcDbEntity
  8
0
100
AcDbLine
 10
286.8616470991029
 20
710.2258902286417
 30
0.0
 11
286.8616470991029
 21
740.8886684207407
 31
0.0
  0
LINE
  5
2E1
330
1F
100
AcDbEntity
  8
0
  6
HIDDEN
 48
10.0
100
AcDbLine
 10
210.5615982709778
 20
740.8886389142769
 30
0.0
 11
210.5615982709777
 21
750.7007007629507
 31
0.0
  0
LINE
  5
2E2
330
1F
100
AcDbEntity
  8
0
100
AcDbLine
 10
210.561598270978
 20
710.2258790543857
 30
0.0
 11
210.5615982709778
 21
740.8886389142769
 31
0.0
  0
LINE
  5
2E3
330
1F
100
AcDbEntity
  8
0
  6
Continuous
100
AcDbLine
 10
329.711611240949
 20
226.92971636723
 30
0.0
 11
329.7116116143769
 21
195.9298231787532
 31
0.0
  0
LINE
  5
2E4
330
1F
100
AcDbEntity
  8
0
100
AcDbLine
 10
308.4159570734005
 20
195.929822922224
 30
0.0
 11
294.1897699491765
 21
163.1877194495874
 31
0.0
  0
LINE
  5
2E5
330
1F
100
AcDbEntity
  8
0
  6
Continuous
100
AcDbLine
 10
300.2383105190062
 20
226.92971636723
 30
0.0
 11
300.2383105190062
 21
195.9298231787532
 31
0.0
  0
ARC
  5
2E6
330
1F
100
AcDbEntity
  8
0
100
AcDbCircle
 10
269.1404589825373
 20
130.6297554692818
 30
0.0
 40
10.00000047683716
100
AcDbArc
 50
269.9999984909091
 51
336.515433723047
  0
LINE
  5
2E7
330
1F
100
AcDbEntity
  8
0
  6
Continuous
100
AcDbLine
 10
278.7784631203716
 20
195.9298225652082
 30
0.0
 11
329.7116116143769
 21
195.9298231787532
 31
0.0
  0
LINE
  5
2E8
330
1F
100
AcDbEntity
  8
0
  6
Continuous
100
AcDbLine
 10
167.7116341291318
 20
226.9297144157648
 30
0.0
 11
167.7116345025602
 21
195.929821227288
 31
0.0
  0
LINE
  5
2E9
330
1F
100
AcDbEntity
  8
0
  6
Continuous
100
AcDbLine
 10
197.1849394314283
 20
226.9297518005315
 30
0.0
 11
197.1849181137644
 21
195.929858612062
 31
0.0
  0
LINE
  5
2EA
330
1F
100
AcDbEntity
  8
0
  6
Continuous
100
AcDbLine
 10
167.7116345025602
 20
195.929821227288
 30
0.0
 11
218.6447412056544
 21
195.9298218408326
 31
0.0
  0
LINE
  5
2EB
330
1F
100
AcDbEntity
  8
0
100
AcDbLine
 10
189.0072677115902
 20
195.9298214838165
 30
0.0
 11
203.2334360601004
 21
163.1877624261458
 31
0.0
  0
ARC
  5
2EC
330
1F
100
AcDbEntity
  8
0
100
AcDbCircle
 10
228.2827516995492
 20
130.6297342602146
 30
0.0
 40
10.00000047683716
100
AcDbArc
 50
203.4845664464887
 51
269.9999948484357
  0
LINE
  5
2ED
330
1F
100
AcDbEntity
  8
0
  6
Continuous
100
AcDbLine
 10
329.711611240949
 20
226.92971636723
 30
0.0
 11
167.7116341291318
 21
226.9297144157648
 31
0.0
  0
LINE
  5
2EE
330
1F
100
AcDbEntity
  8
0
  6
Continuous
100
AcDbLine
 10
167.7116342977765
 20
212.9297907097098
 30
0.0
 11
329.7116114095932
 21
212.9297926611756
 31
0.0
  0
CIRCLE
  5
2EF
330
1F
100
AcDbEntity
  8
0
100
AcDbCircle
 10
248.7116025743883
 20
161.7796963603213
 30
0.0
 40
36.14999485015868
  0
CIRCLE
  5
2F0
330
1F
100
AcDbEntity
  8
0
100
AcDbCircle
 10
248.7116025743883
 20
161.7796963603213
 30
0.0
 40
45.49996948242188
  0
LINE
  5
34E
330
1F
100
AcDbEntity
  8
0
  6
CENTER
100
AcDbLine
 10
364.4050350479365
 20
831.7007007629509
 30
0.0
 11
119.8520758837269
 21
831.7007007629506
 31
0.0
  0
LINE
  5
34F
330
1F
100
AcDbEntity
  8
0
  6
CENTER
100
AcDbLine
 10
248.7115875665519
 20
691.1403344764667
 30
0.0
 11
248.7115875665519
 21
972.2610670494347
 31
0.0
  0
LINE
  5
350
330
1F
100
AcDbEntity
  8
0
  6
CENTER
100
AcDbLine
 10
311.6173368190892
 20
161.7796963603214
 30
0.0
 11
185.8058683296875
 21
161.7796963603211
 31
0.0
  0
LINE
  5
351
330
1F
100
AcDbEntity
  8
0
  6
CENTER
100
AcDbLine
 10
248.7116025743883
 20
100.8155326016251
 30
0.0
 11
248.7116025743883
 21
445.1682314178437
 31
0.0
  0
LINE
  5
352
330
1F
100
AcDbEntity
  8
0
  6
CENTER
100
AcDbLine
 10
830.6647648152379
 20
161.779593365191
 30
0.0
 11
554.1018478511355
 21
161.7795933651908
 31
0.0
  0
LINE
  5
353
330
1F
100
AcDbEntity
  8
0
  6
CENTER
100
AcDbLine
 10
692.3833063331867
 20
137.5002887258981
 30
0.0
 11
692.3833063331867
 21
445.1681284227134
 31
0.0
  0
LINE
  5
4DA
330
1F
100
AcDbEntity
  8
Visible (ISO)
100
AcDbLine
 10
1980.975364265184
 20
276.6251407127479
 30
0.0
 11
1987.617793449501
 21
260.9765582040568
 31
0.0
  0
LINE
  5
4DB
330
1F
100
AcDbEntity
  8
Visible (ISO)
100
AcDbLine
 10
1986.823132862057
 20
259.009704231144
 30
0.0
 11
1979.008510292272
 21
277.4198013001928
 31
0.0
  0
LINE
  5
4DC
330
1F
100
AcDbEntity
  8
Visible (ISO)
100
AcDbLine
 10
1987.6177934495
 20
260.9765582040568
 30
0.0
 11
1986.823132862057
 21
259.009704231144
 31
0.0
  0
LINE
  5
4DD
330
1F
100
AcDbEntity
  8
Visible (ISO)
100
AcDbLine
 10
1980.975364265182
 20
276.6251407127479
 30
0.0
 11
1979.008510292272
 21
277.4198013001928
 31
0.0
  0
LINE
  5
4DE
330
1F
100
AcDbEntity
  8
Visible (ISO)
100
AcDbLine
 10
1920.876959792346
 20
320.9545317929105
 30
0.0
 11
1977.757829059953
 21
186.9516013587103
 31
0.0
  0
ARC
  5
4DF
330
1F
100
AcDbEntity
  8
Visible (ISO)
100
AcDbCircle
 10
1915.353930671631
 20
318.6101450219744
 30
0.0
 40
5.999999999999974
100
AcDbArc
 50
22.99999999998575
 51
93.00000000000558
  0
ARC
  5
4E0
330
1F
100
AcDbEntity
  8
Visible (ISO)
100
AcDbCircle
 10
1972.234799939237
 20
184.6072145877747
 30
0.0
 40
5.999999999999974
100
AcDbArc
 50
312.9999999999749
 51
22.99999999998575
  0
LINE
  5
4E1
330
1F
100
AcDbEntity
  8
Visible (ISO)
100
AcDbLine
 10
1884.165663826673
 20
322.9838712929308
 30
0.0
 11
1953.715804697765
 21
159.1340073783976
 31
0.0
  0
LINE
  5
4E2
330
1F
100
AcDbEntity
  8
Visible (ISO)
100
AcDbLine
 10
1944.15164048118
 20
278.9193435545671
 30
0.0
 11
1963.688196905644
 21
232.8941008819461
 31
0.0
  0
LINE
  5
4E3
330
1F
100
AcDbEntity
  8
Visible (ISO)
100
AcDbLine
 10
1833.077644460064
 20
301.2982936617763
 30
0.0
 11
1902.627785331155
 21
137.4484297472431
 31
0.0
  0
LINE
  5
4E4
330
1F
100
AcDbEntity
  8
Visible (ISO)
100
AcDbLine
 10
1820.620902631618
 20
306.331144048926
 30
0.0
 11
1897.594934944006
 21
124.9916879187967
 31
0.0
  0
LINE
  5
4E5
330
1F
100
AcDbEntity
  8
Visible (ISO)
100
AcDbLine
 10
1796.687776441854
 20
296.1721347082052
 30
0.0
 11
1873.661808754242
 21
114.8326785780755
 31
0.0
  0
LINE
  5
4E6
330
1F
100
AcDbEntity
  8
Visible (ISO)
100
AcDbLine
 10
1986.823132862057
 20
259.009704231144
 30
0.0
 11
1957.827229978304
 21
246.7016736837322
 31
0.0
  0
LINE
  5
4E7
330
1F
100
AcDbEntity
  8
Visible (ISO)
100
AcDbLine
 10
1979.008510292272
 20
277.4198013001928
 30
0.0
 11
1950.012607408519
 21
265.111770752781
 31
0.0
  0
LINE
  5
4E8
330
1F
100
AcDbEntity
  8
Visible (ISO)
100
AcDbLine
 10
1976.326790099611
 20
180.2190923780594
 30
0.0
 11
1953.715804697765
 21
159.1340073783976
 31
0.0
  0
LINE
  5
4E9
330
1F
100
AcDbEntity
  8
Visible (ISO)
100
AcDbLine
 10
1915.039914934174
 20
324.6019222305017
 30
0.0
 11
1884.165663826675
 21
322.9838712929308
 31
0.0
  0
LINE
  5
4EA
330
1F
100
AcDbEntity
  8
Visible (ISO)
100
AcDbLine
 10
1963.688196905644
 20
232.8941008819461
 30
0.0
 11
1959.08567263838
 21
230.9404452394992
 31
0.0
  0
LINE
  5
4EB
330
1F
100
AcDbEntity
  8
Visible (ISO)
100
AcDbLine
 10
1944.15164048118
 20
278.9193435545671
 30
0.0
 11
1939.549116213918
 21
276.9656879121212
 31
0.0
  0
LINE
  5
4EC
330
1F
100
AcDbEntity
  8
Visible (ISO)
100
AcDbLine
 10
1953.715804697765
 20
159.1340073783976
 30
0.0
 11
1902.627785331154
 21
137.4484297472426
 31
0.0
  0
LINE
  5
4ED
330
1F
100
AcDbEntity
  8
Visible (ISO)
100
AcDbLine
 10
1884.165663826673
 20
322.9838712929308
 30
0.0
 11
1833.077644460064
 21
301.2982936617763
 31
0.0
  0
LINE
  5
4EE
330
1F
100
AcDbEntity
  8
Visible (ISO)
100
AcDbLine
 10
1902.627785331155
 20
137.4484297472431
 30
0.0
 11
1897.594934944004
 21
124.9916879187967
 31
0.0
  0
LINE
  5
4EF
330
1F
100
AcDbEntity
  8
Visible (ISO)
100
AcDbLine
 10
1833.077644460064
 20
301.2982936617763
 30
0.0
 11
1820.620902631618
 21
306.3311440489265
 31
0.0
  0
LINE
  5
4F0
330
1F
100
AcDbEntity
  8
Visible (ISO)
100
AcDbLine
 10
1897.594934944004
 20
124.9916879187967
 30
0.0
 11
1873.661808754242
 21
114.8326785780755
 31
0.0
  0
LINE
  5
4F1
330
1F
100
AcDbEntity
  8
Visible (ISO)
100
AcDbLine
 10
1820.620902631618
 20
306.331144048926
 30
0.0
 11
1796.687776441854
 21
296.1721347082052
 31
0.0
  0
LINE
  5
4F2
330
1F
100
AcDbEntity
  8
Visible (ISO)
100
AcDbLine
 10
1857.446466921935
 20
153.0336299963519
 30
0.0
 11
1814.412865023035
 21
134.7669497394781
 31
0.0
  0
LINE
  5
4F3
330
1F
100
AcDbEntity
  8
Visible (ISO)
100
AcDbLine
 10
1812.903118274159
 20
257.9711832899292
 30
0.0
 11
1769.869516375257
 21
239.7045030330559
 31
0.0
  0
LINE
  5
4F4
330
1F
100
AcDbEntity
  8
Visible (ISO)
100
AcDbLine
 10
1732.432818744434
 20
222.0186105261891
 30
0.0
 11
1714.918738278237
 21
203.8822492852736
 31
0.0
  0
LINE
  5
4F5
330
1F
100
AcDbEntity
  8
Visible (ISO)
100
AcDbLine
 10
1750.472474196093
 20
120.122896409317
 30
0.0
 11
1775.68498326674
 21
120.122896409317
 31
0.0
  0
LINE
  5
4F6
330
1F
100
AcDbEntity
  8
Visible (ISO)
100
AcDbLine
 10
1747.820002651154
 20
212.3114574825776
 30
0.0
 11
1735.651480431676
 21
207.146226249923
 31
0.0
  0
LINE
  5
4F7
330
1F
100
AcDbEntity
  8
Visible (ISO)
100
AcDbLine
 10
1767.222555613612
 20
132.7694340909665
 30
0.0
 11
1779.391077833087
 21
137.9346653236211
 31
0.0
  0
LINE
  5
4F8
330
1F
100
AcDbEntity
  8
Visible (ISO)
100
AcDbLine
 10
1743.472457685897
 20
222.5536315745016
 30
0.0
 11
1747.820002651154
 21
212.3114574825781
 31
0.0
  0
LINE
  5
4F9
330
1F
100
AcDbEntity
  8
Visible (ISO)
100
AcDbLine
 10
1743.472457685897
 20
222.5536315745016
 30
0.0
 11
1731.95631883449
 21
249.6839545327466
 31
0.0
  0
LINE
  5
4FA
330
1F
100
AcDbEntity
  8
Visible (ISO)
100
AcDbLine
 10
1795.254761649751
 20
100.5621682734522
 30
0.0
 11
1783.738622798345
 21
127.6924912316976
 31
0.0
  0
LINE
  5
4FB
330
1F
100
AcDbEntity
  8
Visible (ISO)
100
AcDbLine
 10
1779.391077833087
 20
137.9346653236211
 30
0.0
 11
1783.738622798343
 21
127.6924912316976
 31
0.0
  0
LINE
  5
4FC
330
1F
100
AcDbEntity
  8
Visible (ISO)
100
AcDbLine
 10
1799.387205307034
 20
134.3349204160154
 30
0.0
 11
1783.738622798343
 21
127.6924912316976
 31
0.0
  0
LINE
  5
4FD
330
1F
100
AcDbEntity
  8
Visible (ISO)
100
AcDbLine
 10
1799.387205307034
 20
134.3349204160154
 30
0.0
 11
1759.121040194589
 21
229.1960607588193
 31
0.0
  0
LINE
  5
4FE
330
1F
100
AcDbEntity
  8
Visible (ISO)
100
AcDbLine
 10
1759.121040194589
 20
229.1960607588189
 30
0.0
 11
1743.472457685897
 21
222.5536315745011
 31
0.0
  0
LINE
  5
4FF
330
1F
100
AcDbEntity
  8
Visible (ISO)
100
AcDbLine
 10
1747.604901343181
 20
256.3263837170647
 30
0.0
 11
1759.121040194591
 21
229.1960607588193
 31
0.0
  0
LINE
  5
500
330
1F
100
AcDbEntity
  8
Visible (ISO)
100
AcDbLine
 10
1799.387205307034
 20
134.3349204160154
 30
0.0
 11
1810.903344158444
 21
107.2045974577699
 31
0.0
  0
LINE
  5
501
330
1F
100
AcDbEntity
  8
Visible (ISO)
100
AcDbLine
 10
1747.604901343181
 20
256.3263837170643
 30
0.0
 11
1731.956318834488
 21
249.6839545327466
 31
0.0
  0
LINE
  5
502
330
1F
100
AcDbEntity
  8
Visible (ISO)
100
AcDbLine
 10
1810.903344158444
 20
107.2045974577699
 30
0.0
 11
1795.254761649751
 21
100.5621682734522
 31
0.0
  0
LINE
  5
503
330
1F
100
AcDbEntity
  8
Visible (ISO)
100
AcDbLine
 10
1721.598977293099
 20
236.9744044605854
 30
0.0
 11
1728.632137605906
 21
220.4053170984416
 31
0.0
  0
LINE
  5
504
330
1F
100
AcDbEntity
  8
Visible (ISO)
100
AcDbLine
 10
1721.598977293099
 20
236.9744044605854
 30
0.0
 11
1734.946297668161
 21
242.6400058236799
 31
0.0
  0
LINE
  5
505
330
1F
100
AcDbEntity
  8
Visible (ISO)
100
AcDbLine
 10
1728.632137605906
 20
220.4053170984412
 30
0.0
 11
1741.979457980968
 21
226.0709184615357
 31
0.0
  0
LINE
  5
506
330
1F
100
AcDbEntity
  8
Visible (ISO)
100
AcDbLine
 10
1684.813613839679
 20
172.7074803287109
 30
0.0
 11
1689.49122057319
 21
177.5512838972517
 31
0.0
  0
LINE
  5
507
330
1F
100
AcDbEntity
  8
Visible (ISO)
100
AcDbLine
 10
1704.372930873964
 20
121.9507030238487
 30
0.0
 11
1701.8774214634
 21
127.8297547726688
 31
0.0
  0
LINE
  5
508
330
1F
100
AcDbEntity
  8
Visible (ISO)
100
AcDbLine
 10
1686.705628090906
 20
163.5722600830458
 30
0.0
 11
1684.210118680338
 21
169.4513118318659
 31
0.0
  0
LINE
  5
509
330
1F
100
AcDbEntity
  8
Visible (ISO)
100
AcDbLine
 10
1713.868124797344
 20
120.1228964093165
 30
0.0
 11
1707.134445434322
 21
120.1228964093165
 31
0.0
  0
ARC
  5
50A
330
1F
100
AcDbEntity
  8
Visible (ISO)
100
AcDbCircle
 10
1686.971633240696
 20
170.6235052173342
 30
0.0
 40
3.000000000000011
100
AcDbArc
 50
135.9999999999699
 51
202.9999999999857
  0
ARC
  5
50B
330
1F
100
AcDbEntity
  8
Visible (ISO)
100
AcDbCircle
 10
1707.134445434324
 20
123.122896409317
 30
0.0
 40
3.000000000000016
100
AcDbArc
 50
202.9999999999857
 51
270.0
  0
LINE
  5
50C
330
1F
100
AcDbEntity
  8
Visible (ISO)
100
AcDbLine
 10
1778.917462441019
 20
101.9405156194252
 30
0.0
 11
1771.884302128213
 21
118.509602981569
 31
0.0
  0
LINE
  5
50D
330
1F
100
AcDbEntity
  8
Visible (ISO)
100
AcDbLine
 10
1792.264782816079
 20
107.6061169825193
 30
0.0
 11
1778.917462441019
 21
101.9405156194252
 31
0.0
  0
LINE
  5
50E
330
1F
100
AcDbEntity
  8
Visible (ISO)
100
AcDbLine
 10
1785.231622503272
 20
124.1752043446631
 30
0.0
 11
1771.884302128213
 21
118.509602981569
 31
0.0
  0
CIRCLE
  5
50F
330
1F
100
AcDbEntity
  8
Visible (ISO)
100
AcDbCircle
 10
1732.17029949672
 20
161.7795933651914
 30
0.0
 40
45.49999999999977
  0
CIRCLE
  5
510
330
1F
100
AcDbEntity
  8
Visible (ISO)
100
AcDbCircle
 10
1732.17029949672
 20
161.7795933651914
 30
0.0
 40
36.14999999999983
  0
LINE
  5
511
330
1F
100
AcDbEntity
  8
Visible (ISO)
100
AcDbLine
 10
1822.869907253324
 20
112.2841021281306
 30
0.0
 11
1811.353768401916
 21
139.414425086376
 31
0.0
  0
SPLINE
  5
512
330
1F
100
AcDbEntity
  8
Visible (ISO)
100
AcDbSpline
210
0.0
220
0.0
230
1.0
 70
    24
 71
     3
 72
     8
 73
     4
 74
     0
 42
0.0000000001
 43
0.0000000001
 40
-0.1444018675892024
 40
-0.1444018675892024
 40
-0.1444018675892024
 40
-0.1444018675892024
 40
0.0
 40
0.0
 40
0.0
 40
0.0
 10
1822.869907253324
 20
112.2841021281307
 30
0.0
 10
1823.04651730348
 20
112.7212273414498
 30
0.0
 10
1823.223111935583
 20
113.1583143937519
 30
0.0
 10
1823.399680978288
 20
113.5953381100722
 30
0.0
  0
LINE
  5
513
330
1F
100
AcDbEntity
  8
Visible (ISO)
100
AcDbLine
 10
1812.160203880933
 20
140.0738868204975
 30
0.0
 11
1823.399680978288
 21
113.5953381100721
 31
0.0
  0
SPLINE
  5
514
330
1F
100
AcDbEntity
  8
Visible (ISO)
100
AcDbSpline
210
0.0
220
0.0
230
1.0
 70
     8
 71
     3
 72
     8
 73
     4
 74
     0
 42
0.0000000001
 43
0.0000000001
 40
-0.1444018675916853
 40
-0.1444018675916853
 40
-0.1444018675916853
 40
-0.1444018675916853
 40
0.0
 40
0.0
 40
0.0
 40
0.0
 10
1811.353768401918
 20
139.4144250863756
 30
0.0
 10
1811.622716585613
 20
139.6340152893045
 30
0.0
 10
1811.891534161663
 20
139.8538387009422
 30
0.0
 10
1812.160203880933
 20
140.0738868204972
 30
0.0
  0
SPLINE
  5
515
330
1F
100
AcDbEntity
  8
Visible (ISO)
100
AcDbSpline
210
0.0
220
0.0
230
1.0
 70
    24
 71
     3
 72
     8
 73
     4
 74
     0
 42
0.0000000001
 43
0.0000000001
 40
-0.1444018675903042
 40
-0.1444018675903042
 40
-0.1444018675903042
 40
-0.1444018675903042
 40
0.0
 40
0.0
 40
0.0
 40
0.0
 10
1759.571464438063
 20
261.405888387425
 30
0.0
 10
1760.008589651374
 20
261.2292783372732
 30
0.0
 10
1760.44567670368
 20
261.0526837051689
 30
0.0
 10
1760.882700420003
 20
260.8761146624621
 30
0.0
  0
LINE
  5
516
330
1F
100
AcDbEntity
  8
Visible (ISO)
100
AcDbLine
 10
1771.087603289471
 20
234.27556542918
 30
0.0
 11
1759.571464438063
 21
261.4058883874254
 31
0.0
  0
SPLINE
  5
517
330
1F
100
AcDbEntity
  8
Visible (ISO)
100
AcDbSpline
210
0.0
220
0.0
230
1.0
 70
     8
 71
     3
 72
     8
 73
     4
 74
     0
 42
0.0000000001
 43
0.0000000001
 40
-0.1444018675911055
 40
-0.1444018675911055
 40
-0.1444018675911055
 40
-0.1444018675911055
 40
0.0
 40
0.0
 40
0.0
 40
0.0
 10
1771.087603289471
 20
234.2755654291801
 30
0.0
 10
1771.432390369228
 20
234.3164903894072
 30
0.0
 10
1771.777254477595
 20
234.3571593979728
 30
0.0
 10
1772.122177517359
 20
234.3975659520371
 30
0.0
  0
LINE
  5
518
330
1F
100
AcDbEntity
  8
Visible (ISO)
100
AcDbLine
 10
1760.882700420003
 20
260.8761146624619
 30
0.0
 11
1772.122177517359
 21
234.3975659520369
 31
0.0
  0
LINE
  5
519
330
1F
100
AcDbEntity
  8
Visible (ISO)
100
AcDbLine
 10
1771.087603289471
 20
234.2755654291795
 30
0.0
 11
1811.353768401916
 21
139.4144250863755
 31
0.0
  0
LINE
  5
51A
330
1F
100
AcDbEntity
  8
Visible (ISO)
100
AcDbLine
 10
1812.160203880933
 20
140.0738868204971
 30
0.0
 11
1772.122177517359
 21
234.3975659520369
 31
0.0
  0
LINE
  5
51B
330
1F
100
AcDbEntity
  8
Visible (ISO)
100
AcDbLine
 10
1748.525406196634
 20
256.717114845554
 30
0.0
 11
1760.041545048042
 21
229.5867918873091
 31
0.0
  0
SPLINE
  5
51C
330
1F
100
AcDbEntity
  8
Visible (ISO)
100
AcDbSpline
210
0.0
220
0.0
230
1.0
 70
    24
 71
     3
 72
     8
 73
     4
 74
     0
 42
0.0000000001
 43
0.0000000001
 40
-0.1444018654059577
 40
-0.1444018654059577
 40
-0.1444018654059577
 40
-0.1444018654059577
 40
0.0
 40
0.0
 40
0.0
 40
0.0
 10
1810.512613029954
 20
108.1251023112228
 30
0.0
 10
1810.949636746282
 20
107.9485332685145
 30
0.0
 10
1811.386723798591
 20
107.7719386364084
 30
0.0
 10
1811.823849011897
 20
107.5953285862593
 30
0.0
  0
SPLINE
  5
51D
330
1F
100
AcDbEntity
  8
Visible (ISO)
100
AcDbSpline
210
0.0
220
0.0
230
1.0
 70
    24
 71
     3
 72
     8
 73
     4
 74
     0
 42
0.0000000001
 43
0.0000000001
 40
-0.144401865410082
 40
-0.144401865410082
 40
-0.144401865410082
 40
-0.144401865410082
 40
0.0
 40
0.0
 40
0.0
 40
0.0
 10
1747.99563247167
 20
255.4058788636122
 30
0.0
 10
1748.172201514376
 20
255.8429025799333
 30
0.0
 10
1748.348796146478
 20
256.2799896322363
 30
0.0
 10
1748.525406196634
 20
256.7171148455542
 30
0.0
  0
SPLINE
  5
51E
330
1F
100
AcDbEntity
  8
Visible (ISO)
100
AcDbSpline
210
0.0
220
0.0
230
1.0
 70
     8
 71
     3
 72
     8
 73
     4
 74
     0
 42
0.0000000001
 43
0.0000000001
 40
-0.1444018654071689
 40
-0.1444018654071689
 40
-0.1444018654071689
 40
-0.1444018654071689
 40
0.0
 40
0.0
 40
0.0
 40
0.0
 10
1759.235109569025
 20
228.9273301531872
 30
0.0
 10
1759.503779288294
 20
229.1473782727413
 30
0.0
 10
1759.772596864343
 20
229.367201684378
 30
0.0
 10
1760.041545048042
 20
229.5867918873087
 30
0.0
  0
SPLINE
  5
51F
330
1F
100
AcDbEntity
  8
Visible (ISO)
100
AcDbSpline
210
0.0
220
0.0
230
1.0
 70
     8
 71
     3
 72
     8
 73
     4
 74
     0
 42
0.0000000001
 43
0.0000000001
 40
-0.1444018654035001
 40
-0.1444018654035001
 40
-0.1444018654035001
 40
-0.1444018654035001
 40
0.0
 40
0.0
 40
0.0
 40
0.0
 10
1799.273135932599
 20
134.6036510216478
 30
0.0
 10
1799.618058972367
 20
134.644057575712
 30
0.0
 10
1799.962923080737
 20
134.6847265842785
 30
0.0
 10
1800.307710160487
 20
134.7256515445047
 30
0.0
  0
LINE
  5
520
330
1F
100
AcDbEntity
  8
Visible (ISO)
100
AcDbLine
 10
1800.307710160487
 20
134.7256515445042
 30
0.0
 11
1760.041545048042
 21
229.5867918873086
 31
0.0
  0
LINE
  5
521
330
1F
100
AcDbEntity
  8
Visible (ISO)
100
AcDbLine
 10
1800.307710160487
 20
134.7256515445046
 30
0.0
 11
1811.823849011897
 21
107.5953285862592
 31
0.0
  0
LINE
  5
522
330
1F
100
AcDbEntity
  8
Visible (ISO)
100
AcDbLine
 10
1759.571464438063
 20
261.4058883874249
 30
0.0
 11
1748.525406196634
 21
256.7171148455536
 31
0.0
  0
LINE
  5
523
330
1F
100
AcDbEntity
  8
Visible (ISO)
100
AcDbLine
 10
1771.087603289471
 20
234.2755654291795
 30
0.0
 11
1760.041545048042
 21
229.5867918873086
 31
0.0
  0
LINE
  5
524
330
1F
100
AcDbEntity
  8
Visible (ISO)
100
AcDbLine
 10
1811.353768401916
 20
139.4144250863755
 30
0.0
 11
1800.307710160487
 21
134.7256515445042
 31
0.0
  0
LINE
  5
525
330
1F
100
AcDbEntity
  8
Visible (ISO)
100
AcDbLine
 10
1822.869907253324
 20
112.2841021281306
 30
0.0
 11
1811.823849011895
 21
107.5953285862592
 31
0.0
  0
ELLIPSE
  5
526
330
1F
100
AcDbEntity
  8
Visible (ISO)
100
AcDbEllipse
 10
1984.296578858228
 20
831.7007007629838
 30
0.0
 11
-0.0000000000000089
 21
8.499999999999966
 31
0.0
210
0.0
220
0.0
230
1.0
 40
0.3907311284892726
 41
0.0
 42
6.283185307179585
  0
ELLIPSE
  5
527
330
1F
100
AcDbEntity
  8
Visible (ISO)
100
AcDbEllipse
 10
1982.915821578049
 20
831.7007007629834
 30
0.0
 11
-0.000000000001274
 21
9.999999999999966
 31
0.0
210
0.0
220
0.0
230
1.0
 40
0.3907311284892726
 41
5.844803532225285
 42
9.863159735723217
  0
LINE
  5
528
330
1F
100
AcDbEntity
  8
Visible (ISO)
100
AcDbLine
 10
1985.706350811827
 20
824.0044629371562
 30
0.0
 11
1984.574376817579
 21
822.6463033208339
 31
0.0
  0
LINE
  5
529
330
1F
100
AcDbEntity
  8
Visible (ISO)
100
AcDbLine
 10
1985.706350811827
 20
839.3969385888087
 30
0.0
 11
1984.574376817579
 21
840.7550982051304
 31
0.0
  0
ELLIPSE
  5
52A
330
1F
100
AcDbEntity
  8
Visible (ISO)
100
AcDbEllipse
 10
1953.919918694298
 20
831.7007007629797
 30
0.0
 11
0.0000000000000112
 21
-9.999999999999966
 31
0.0
210
0.0
220
0.0
230
1.0
 40
0.3907311284892726
 41
3.141592653593404
 42
6.283185307183197
  0
ELLIPSE
  5
52B
330
1F
100
AcDbEntity
  8
Visible (ISO)
100
AcDbEllipse
 10
1949.317394427035
 20
831.7007007629788
 30
0.0
 11
-0.0000000000000289
 21
-24.99999999999994
 31
0.0
210
0.0
220
0.0
230
1.0
 40
0.3907311284892727
 41
3.141592653593442
 42
6.283185307183235
  0
ELLIPSE
  5
52C
330
1F
100
AcDbEntity
  8
Visible (ISO)
100
AcDbEllipse
 10
1918.940734263106
 20
831.7007007629756
 30
0.0
 11
0.0000000000113513
 21
-88.9999999999998
 31
0.0
210
0.0
220
0.0
230
1.0
 40
0.3907311284892727
 41
2.986475144767682
 42
6.438302816001065
  0
ELLIPSE
  5
52D
330
1F
100
AcDbEntity
  8
Visible (ISO)
100
AcDbEllipse
 10
1953.919918694298
 20
831.7007007629797
 30
0.0
 11
0.0000000000031898
 21
-24.99999999999994
 31
0.0
210
0.0
220
0.0
230
1.0
 40
0.3907311284892727
 41
1.982313172862061
 42
7.442464787906676
  0
ELLIPSE
  5
52E
330
1F
100
AcDbEntity
  8
Visible (ISO)
100
AcDbEllipse
 10
1867.852714896494
 20
831.7007007629692
 30
0.0
 11
0.0000000000000586
 21
-88.9999999999998
 31
0.0
210
0.0
220
0.0
230
1.0
 40
0.3907311284892727
 41
3.141592653593391
 42
6.283185307183184
  0
ELLIPSE
  5
52F
330
1F
100
AcDbEntity
  8
Visible (ISO)
100
AcDbEllipse
 10
1859.107918788698
 20
831.700700762968
 30
0.0
 11
0.0000000000125622
 21
-98.4999999999998
 31
0.0
210
0.0
220
0.0
230
1.0
 40
0.3907311284892727
 41
2.703210878635462
 42
6.721567082133264
  0
ELLIPSE
  5
530
330
1F
100
AcDbEntity
  8
Visible (ISO)
100
AcDbEllipse
 10
1835.174792598934
 20
831.7007007629648
 30
0.0
 11
0.0000000000000571
 21
-98.49999999999978
 31
0.0
210
0.0
220
0.0
230
1.0
 40
0.3907311284892727
 41
3.141592653593404
 42
6.283185307183196
  0
ELLIPSE
  5
531
330
1F
100
AcDbEntity
  8
Visible (ISO)
100
AcDbEllipse
 10
1792.141190700033
 20
831.7007007629593
 30
0.0
 11
0.0000000000000627
 21
-56.99999999999986
 31
0.0
210
0.0
220
0.0
230
1.0
 40
0.3907311284892726
 41
3.141592653593372
 42
6.283185307183165
  0
LINE
  5
532
330
1F
100
AcDbEntity
  8
Visible (ISO)
100
AcDbLine
 10
1982.915821578049
 20
821.7007007629833
 30
0.0
 11
1953.919918694298
 21
821.7007007629797
 31
0.0
  0
LINE
  5
533
330
1F
100
AcDbEntity
  8
Visible (ISO)
100
AcDbLine
 10
1982.915821578049
 20
841.7007007629834
 30
0.0
 11
1953.919918694298
 21
841.7007007629797
 31
0.0
  0
LINE
  5
534
330
1F
100
AcDbEntity
  8
Visible (ISO)
100
AcDbLine
 10
1950.417647127028
 20
754.2164376611552
 30
0.0
 11
1924.313350440869
 21
743.7692896822629
 31
0.0
  0
LINE
  5
535
330
1F
100
AcDbEntity
  8
Visible (ISO)
100
AcDbLine
 10
1950.417647127028
 20
909.1849638647952
 30
0.0
 11
1924.313350440869
 21
919.6321118436801
 31
0.0
  0
LINE
  5
536
330
1F
100
AcDbEntity
  8
Visible (ISO)
100
AcDbLine
 10
1953.919918694298
 20
806.7007007629797
 30
0.0
 11
1949.317394427035
 21
806.7007007629788
 31
0.0
  0
LINE
  5
537
330
1F
100
AcDbEntity
  8
Visible (ISO)
100
AcDbLine
 10
1953.919918694298
 20
856.7007007629797
 30
0.0
 11
1949.317394427035
 21
856.7007007629788
 31
0.0
  0
LINE
  5
538
330
1F
100
AcDbEntity
  8
Visible (ISO)
100
AcDbLine
 10
1918.940734263106
 20
742.7007007629752
 30
0.0
 11
1867.852714896494
 21
742.7007007629688
 31
0.0
  0
LINE
  5
539
330
1F
100
AcDbEntity
  8
Visible (ISO)
100
AcDbLine
 10
1918.940734263104
 20
920.7007007629751
 30
0.0
 11
1867.852714896494
 21
920.7007007629687
 31
0.0
  0
LINE
  5
53A
330
1F
100
AcDbEntity
  8
Visible (ISO)
100
AcDbLine
 10
1875.599557417556
 20
742.7007007629566
 30
0.0
 11
1875.444687898053
 21
742.5148859577955
 31
0.0
  0
LINE
  5
53B
330
1F
100
AcDbEntity
  8
Visible (ISO)
100
AcDbLine
 10
1875.599557417556
 20
920.7007007629565
 30
0.0
 11
1875.444687898053
 21
920.8865155681175
 31
0.0
  0
LINE
  5
53C
330
1F
100
AcDbEntity
  8
Visible (ISO)
100
AcDbLine
 10
1859.107918788696
 20
733.2007007629679
 30
0.0
 11
1835.174792598934
 21
733.2007007629652
 31
0.0
  0
LINE
  5
53D
330
1F
100
AcDbEntity
  8
Visible (ISO)
100
AcDbLine
 10
1859.107918788698
 20
930.2007007629674
 30
0.0
 11
1835.174792598934
 21
930.2007007629647
 31
0.0
  0
LINE
  5
53E
330
1F
100
AcDbEntity
  8
Visible (ISO)
100
AcDbLine
 10
1803.786531490394
 20
774.7007007629611
 30
0.0
 11
1792.141190700031
 21
774.7007007629597
 31
0.0
  0
LINE
  5
53F
330
1F
100
AcDbEntity
  8
Visible (ISO)
100
AcDbLine
 10
1803.786531490394
 20
888.7007007629605
 30
0.0
 11
1792.141190700031
 21
888.7007007629593
 31
0.0
  0
ELLIPSE
  5
540
330
1F
100
AcDbEntity
  8
Visible (ISO)
100
AcDbEllipse
 10
1723.63652879846
 20
777.5173084734476
 30
0.0
 11
-17.77842408268897
 21
-0.0000000000054487
 31
0.0
210
0.0
220
0.0
230
1.0
 40
0.5624795512520749
 41
5.461627070273174
 42
6.28318530718065
  0
ELLIPSE
  5
541
330
1F
100
AcDbEntity
  8
Visible (ISO)
100
AcDbEllipse
 10
1723.63652879846
 20
885.8840930524868
 30
0.0
 11
-17.77842408268897
 21
-0.0000000000054498
 31
0.0
210
0.0
220
0.0
230
1.0
 40
0.5624795512520749
 41
0.0000000000010639
 42
0.8215582369077488
  0
ELLIPSE
  5
542
330
1F
100
AcDbEntity
  8
Visible (ISO)
100
AcDbEllipse
 10
1634.033271421706
 20
831.7007007629397
 30
0.0
 11
-113.7819141292094
 21
-0.0000000000348754
 31
0.0
210
0.0
220
0.0
230
1.0
 40
0.5624795512520749
 41
2.320034416683426
 42
2.607283206513014
  0
ELLIPSE
  5
543
330
1F
100
AcDbEntity
  8
Visible (ISO)
100
AcDbEllipse
 10
1634.033271421706
 20
831.7007007629397
 30
0.0
 11
-113.7819141292094
 21
-0.0000000000348754
 31
0.0
210
0.0
220
0.0
230
1.0
 40
0.5624795512520749
 41
3.675902100668364
 42
3.963150890497563
  0
LINE
  5
544
330
1F
100
AcDbEntity
  8
Visible (ISO)
100
AcDbLine
 10
1705.858104715768
 20
912.7007007629615
 30
0.0
 11
1743.472457686784
 21
912.7007007629661
 31
0.0
  0
LINE
  5
545
330
1F
100
AcDbEntity
  8
Visible (ISO)
100
AcDbLine
 10
1705.858104715768
 20
885.8840930524813
 30
0.0
 11
1705.858104715768
 21
912.7007007629615
 31
0.0
  0
LINE
  5
546
330
1F
100
AcDbEntity
  8
Visible (ISO)
100
AcDbLine
 10
1705.858104715768
 20
750.7007007629615
 30
0.0
 11
1705.858104715768
 21
777.5173084734417
 31
0.0
  0
LINE
  5
547
330
1F
100
AcDbEntity
  8
Visible (ISO)
100
AcDbLine
 10
1743.472457686784
 20
750.7007007629665
 30
0.0
 11
1705.858104715768
 21
750.7007007629615
 31
0.0
  0
ELLIPSE
  5
548
330
1F
100
AcDbEntity
  8
Visible (ISO)
100
AcDbEllipse
 10
1763.605540243007
 20
831.7007007629561
 30
0.0
 11
0.0000000000122347
 21
-96.00000000000006
 31
0.0
210
0.0
220
0.0
230
1.0
 40
0.3907311284892726
 41
5.278953311005439
 42
5.716620976558189
  0
LINE
  5
549
330
1F
100
AcDbEntity
  8
Visible (ISO)
100
AcDbLine
 10
1731.956318835375
 20
883.2273928749307
 30
0.0
 11
1731.956318835375
 21
780.1740086510251
 31
0.0
  0
ELLIPSE
  5
54A
330
1F
100
AcDbEntity
  8
Visible (ISO)
100
AcDbEllipse
 10
1763.605540243007
 20
831.7007007629561
 30
0.0
 11
0.0000000000161093
 21
-95.99999999999983
 31
0.0
210
0.0
220
0.0
230
1.0
 40
0.3907311284892727
 41
3.708156984209686
 42
4.145824649762705
  0
LINE
  5
54B
330
1F
100
AcDbEntity
  8
Visible (ISO)
100
AcDbLine
 10
1760.041545048928
 20
750.7007007629716
 30
0.0
 11
1759.121040195475
 21
750.7007007629725
 31
0.0
  0
LINE
  5
54C
330
1F
100
AcDbEntity
  8
Visible (ISO)
100
AcDbLine
 10
1759.121040195475
 20
750.7007007629725
 30
0.0
 11
1743.472457686784
 21
750.7007007629701
 31
0.0
  0
LINE
  5
54D
330
1F
100
AcDbEntity
  8
Visible (ISO)
100
AcDbLine
 10
1759.121040195475
 20
912.7007007629716
 30
0.0
 11
1743.472457686784
 21
912.7007007629698
 31
0.0
  0
LINE
  5
54E
330
1F
100
AcDbEntity
  8
Visible (ISO)
100
AcDbLine
 10
1759.121040195475
 20
912.7007007629716
 30
0.0
 11
1760.041545048928
 21
912.700700762971
 31
0.0
  0
LINE
  5
54F
330
1F
100
AcDbEntity
  8
Visible (ISO)
100
AcDbLine
 10
1747.604901344066
 20
780.1740086510269
 30
0.0
 11
1747.604901344065
 21
883.227392874933
 31
0.0
  0
ELLIPSE
  5
550
330
1F
100
AcDbEntity
  8
Visible (ISO)
100
AcDbEllipse
 10
1779.254122751698
 20
831.7007007629579
 30
0.0
 11
-0.0000000000083739
 21
95.9999999999998
 31
0.0
210
0.0
220
0.0
230
1.0
 40
0.3907311284892727
 41
2.137360657416241
 42
2.575028322969263
  0
ELLIPSE
  5
551
330
1F
100
AcDbEntity
  8
Visible (ISO)
100
AcDbEllipse
 10
1779.254122751698
 20
831.7007007629579
 30
0.0
 11
-0.0000000000122485
 21
95.99999999999965
 31
0.0
210
0.0
220
0.0
230
1.0
 40
0.3907311284892726
 41
0.5665643306207624
 42
1.004231996173498
  0
ELLIPSE
  5
552
330
1F
100
AcDbEntity
  8
Visible (ISO)
100
AcDbEllipse
 10
1779.254122751698
 20
831.7007007629575
 30
0.0
 11
0.0000000000121042
 21
-94.99999999999888
 31
0.0
210
0.0
220
0.0
230
1.0
 40
0.3907311284892727
 41
5.282010299457294
 42
5.713563988106328
  0
LINE
  5
553
330
1F
100
AcDbEntity
  8
Visible (ISO)
100
AcDbLine
 10
1747.995632472556
 20
882.9354545927774
 30
0.0
 11
1747.995632472556
 21
780.4659469331816
 31
0.0
  0
ELLIPSE
  5
554
330
1F
100
AcDbEntity
  8
Visible (ISO)
100
AcDbEllipse
 10
1779.254122751698
 20
831.7007007629579
 30
0.0
 11
0.00000000001594
 21
-94.99999999999969
 31
0.0
210
0.0
220
0.0
230
1.0
 40
0.3907311284892727
 41
3.711213972661527
 42
4.142767661310845
  0
LINE
  5
555
330
1F
100
AcDbEntity
  8
Visible (ISO)
100
AcDbLine
 10
1747.604901344066
 20
780.1740086510269
 30
0.0
 11
1731.956318835375
 21
780.1740086510251
 31
0.0
  0
LINE
  5
556
330
1F
100
AcDbEntity
  8
Visible (ISO)
100
AcDbLine
 10
1747.604901344065
 20
883.227392874933
 30
0.0
 11
1731.956318835375
 21
883.2273928749307
 31
0.0
  0
ELLIPSE
  5
557
330
1F
100
AcDbEntity
  8
Visible (ISO)
100
AcDbEllipse
 10
1725.11555745039
 20
885.6948599766413
 30
0.0
 11
-0.0000000000000581
 21
8.999999999999982
 31
0.0
210
0.0
220
0.0
230
1.0
 40
0.3907311284892727
 41
0.0000000000033196
 42
3.141592653593112
  0
ELLIPSE
  5
558
330
1F
100
AcDbEntity
  8
Visible (ISO)
100
AcDbEllipse
 10
1725.11555745039
 20
777.7065415493027
 30
0.0
 11
-0.0000000000000113
 21
-8.999999999999982
 31
0.0
210
0.0
220
0.0
230
1.0
 40
0.3907311284892727
 41
3.141592653593443
 42
6.283185307183237
  0
LINE
  5
559
330
1F
100
AcDbEntity
  8
Visible (ISO)
100
AcDbLine
 10
1731.956318835375
 20
876.6948599766417
 30
0.0
 11
1725.11555745039
 21
876.6948599766413
 31
0.0
  0
LINE
  5
55A
330
1F
100
AcDbEntity
  8
Visible (ISO)
100
AcDbLine
 10
1735.300485635905
 20
894.6948599766427
 30
0.0
 11
1725.11555745039
 21
894.6948599766413
 31
0.0
  0
LINE
  5
55B
330
1F
100
AcDbEntity
  8
Visible (ISO)
100
AcDbLine
 10
1725.11555745039
 20
786.7065415493027
 30
0.0
 11
1731.956318835375
 21
786.7065415493032
 31
0.0
  0
LINE
  5
55C
330
1F
100
AcDbEntity
  8
Visible (ISO)
100
AcDbLine
 10
1725.11555745039
 20
768.7065415493028
 30
0.0
 11
1735.300485635905
 21
768.7065415493036
 31
0.0
  0
LINE
  5
55D
330
1F
100
AcDbEntity
  8
Visible (ISO)
100
AcDbLine
 10
1684.813613840565
 20
750.7007007629551
 30
0.0
 11
1705.858104715768
 21
750.7007007629615
 31
0.0
  0
LINE
  5
55E
330
1F
100
AcDbEntity
  8
Visible (ISO)
100
AcDbLine
 10
1705.858104715768
 20
912.7007007629615
 30
0.0
 11
1684.813613840565
 21
912.7007007629552
 31
0.0
  0
LINE
  5
55F
330
1F
100
AcDbEntity
  8
Visible (ISO)
100
AcDbLine
 10
1684.813613840565
 20
750.7007007629556
 30
0.0
 11
1683.971633241581
 21
750.7007007629551
 31
0.0
  0
LINE
  5
560
330
1F
100
AcDbEntity
  8
Visible (ISO)
100
AcDbLine
 10
1683.971633241581
 20
912.7007007629542
 30
0.0
 11
1684.813613840565
 21
912.7007007629552
 31
0.0
  0
LINE
  5
561
330
1F
100
AcDbEntity
  8
Visible (ISO)
100
AcDbLine
 10
1683.971633241581
 20
750.7007007629547
 30
0.0
 11
1683.971633241581
 21
791.2365991478166
 31
0.0
  0
SPLINE
  5
562
330
1F
100
AcDbEntity
  8
Visible (ISO)
100
AcDbSpline
210
0.0
220
0.0
230
1.0
 70
     8
 71
     3
 72
    16
 73
    12
 74
     0
 42
0.0000000001
 43
0.0000000001
 40
0.0
 40
0.0
 40
0.0
 40
0.0
 40
0.2094395102393193
 40
0.2094395102393193
 40
0.4188790204786386
 40
0.4188790204786386
 40
0.6283185307179578
 40
0.6283185307179578
 40
0.837758040957277
 40
0.837758040957277
 40
1.047197551196596
 40
1.047197551196596
 40
1.047197551196596
 40
1.047197551196596
 10
1683.971633241581
 20
791.2365991478166
 30
0.0
 10
1683.971633241581
 20
791.6040920440293
 30
0.0
 10
1684.000603250632
 20
791.9715968860925
 30
0.0
 10
1684.11734022163
 20
792.6993577773871
 30
0.0
 10
1684.205102506076
 20
793.0596491728691
 30
0.0
 10
1684.442073210876
 20
793.7649369091929
 30
0.0
 10
1684.591293852278
 20
794.1100019141706
 30
0.0
 10
1684.95562254562
 20
794.7744899180968
 30
0.0
 10
1685.17081711672
 20
795.0940189987729
 30
0.0
 10
1685.672114242405
 20
795.6921378093505
 30
0.0
 10
1685.958462679719
 20
795.9707927421302
 30
0.0
 10
1686.280728031338
 20
796.2173443260701
 30
0.0
  0
LINE
  5
563
330
1F
100
AcDbEntity
  8
Visible (ISO)
100
AcDbLine
 10
1709.739666439721
 20
814.16478544282
 30
0.0
 11
1686.280728031338
 21
796.2173443260701
 31
0.0
  0
SPLINE
  5
564
330
1F
100
AcDbEntity
  8
Visible (ISO)
100
AcDbSpline
210
0.0
220
0.0
230
1.0
 70
     8
 71
     3
 72
    22
 73
    18
 74
     0
 42
0.0000000001
 43
0.0000000001
 40
-1.047197551196597
 40
-1.047197551196597
 40
-1.047197551196597
 40
-1.047197551196597
 40
-0.8775218358661081
 40
-0.8775218358661081
 40
-0.5573775351696129
 40
-0.5573775351696129
 40
-0.2621873609311138
 40
-0.2621873609311138
 40
0.020049881211014
 40
0.020049881211014
 40
0.2985115490937718
 40
0.2985115490937718
 40
0.5818603769492445
 40
0.5818603769492445
 40
0.8785256604776979
 40
0.8785256604776979
 40
1.047197551196597
 40
1.047197551196597
 40
1.047197551196597
 40
1.047197551196597
 10
1709.739666439721
 20
849.2366160831045
 30
0.0
 10
1710.439639374469
 20
848.7010964099207
 30
0.0
 10
1711.11591038069
 20
848.0784372922855
 30
0.0
 10
1712.962191716572
 20
846.0457130069187
 30
0.0
 10
1714.036428352113
 20
844.4243102325255
 30
0.0
 10
1715.694872173776
 20
840.8985167194838
 30
0.0
 10
1716.310403823295
 20
839.0276300036687
 30
0.0
 10
1717.087245868323
 20
835.1917805503701
 30
0.0
 10
1717.267382215181
 20
833.2353584912951
 30
0.0
 10
1717.208748134931
 20
829.3606866901589
 30
0.0
 10
1716.975604249496
 20
827.4428720367252
 30
0.0
 10
1716.119265380676
 20
823.7550977437114
 30
0.0
 10
1715.489343226182
 20
821.989055924577
 30
0.0
 10
1713.86880827313
 20
818.7246878689718
 30
0.0
 10
1712.863096263253
 20
817.2440850029641
 30
0.0
 10
1711.107907456386
 20
815.3155951955671
 30
0.0
 10
1710.435498239375
 20
814.6971369087752
 30
0.0
 10
1709.739666439721
 20
814.16478544282
 30
0.0
  0
LINE
  5
565
330
1F
100
AcDbEntity
  8
Visible (ISO)
100
AcDbLine
 10
1686.280728031338
 20
867.1840571998393
 30
0.0
 11
1709.739666439721
 21
849.2366160831045
 31
0.0
  0
SPLINE
  5
566
330
1F
100
AcDbEntity
  8
Visible (ISO)
100
AcDbSpline
210
0.0
220
0.0
230
1.0
 70
     8
 71
     3
 72
    16
 73
    12
 74
     0
 42
0.0000000001
 43
0.0000000001
 40
-1.047197551196596
 40
-1.047197551196596
 40
-1.047197551196596
 40
-1.047197551196596
 40
-0.8377580409572768
 40
-0.8377580409572768
 40
-0.6283185307179578
 40
-0.6283185307179578
 40
-0.4188790204786386
 40
-0.4188790204786386
 40
-0.2094395102393193
 40
-0.2094395102393193
 40
0.0
 40
0.0
 40
0.0
 40
0.0
 10
1686.280728031338
 20
867.1840571998393
 30
0.0
 10
1685.958462679719
 20
867.4306087837791
 30
0.0
 10
1685.672114242405
 20
867.7092637165594
 30
0.0
 10
1685.17081711672
 20
868.3073825271364
 30
0.0
 10
1684.95562254562
 20
868.6269116078122
 30
0.0
 10
1684.591293852278
 20
869.2913996117383
 30
0.0
 10
1684.442073210878
 20
869.6364646167165
 30
0.0
 10
1684.205102506076
 20
870.3417523530404
 30
0.0
 10
1684.11734022163
 20
870.7020437485219
 30
0.0
 10
1684.000603250632
 20
871.4298046398168
 30
0.0
 10
1683.971633241581
 20
871.79730948188
 30
0.0
 10
1683.971633241581
 20
872.1648023780923
 30
0.0
  0
LINE
  5
567
330
1F
100
AcDbEntity
  8
Visible (ISO)
100
AcDbLine
 10
1683.971633241581
 20
872.1648023780923
 30
0.0
 11
1683.971633241581
 21
912.7007007629547
 31
0.0
  0
LINE
  5
568
330
1F
100
AcDbEntity
  8
Visible (ISO)
100
AcDbLine
 10
1777.670299497605
 20
958.7007007629516
 30
0.0
 11
1686.670299497606
 21
958.7007007629516
 31
0.0
  0
LINE
  5
569
330
1F
100
AcDbEntity
  8
Visible (ISO)
100
AcDbLine
 10
1777.670299497605
 20
955.8507007629517
 30
0.0
 11
1686.670299497606
 21
955.8507007629517
 31
0.0
  0
LINE
  5
56A
330
1F
100
AcDbEntity
  8
Visible (ISO)
100
AcDbLine
 10
1770.320299497606
 20
953.1755195410953
 30
0.0
 11
1694.020299497607
 21
953.1755195410953
 31
0.0
  0
LINE
  5
56B
330
1F
100
AcDbEntity
  8
Visible (ISO)
100
AcDbLine
 10
1686.670299497604
 20
955.8507007629517
 30
0.0
 11
1686.670299497604
 21
958.7007007629516
 31
0.0
  0
LINE
  5
56C
330
1F
100
AcDbEntity
  8
Visible (ISO)
100
AcDbLine
 10
1777.670299497605
 20
955.8507007629511
 30
0.0
 11
1777.670299497605
 21
958.7007007629516
 31
0.0
  0
LINE
  5
56D
330
1F
100
AcDbEntity
  8
Visible (ISO)
100
AcDbLine
 10
1694.020299497607
 20
953.1755195410953
 30
0.0
 11
1686.670299497604
 21
955.8507007629517
 31
0.0
  0
LINE
  5
56E
330
1F
100
AcDbEntity
  8
Visible (ISO)
100
AcDbLine
 10
1770.320299497606
 20
953.175519541095
 30
0.0
 11
1777.670299497605
 21
955.8507007629517
 31
0.0
  0
LINE
  5
56F
330
1F
100
AcDbEntity
  8
Visible (ISO)
100
AcDbLine
 10
1694.020299497607
 20
912.700700762952
 30
0.0
 11
1694.020299497607
 21
953.1755195410953
 31
0.0
  0
LINE
  5
570
330
1F
100
AcDbEntity
  8
Visible (ISO)
100
AcDbLine
 10
1770.320299497606
 20
912.7007007629515
 30
0.0
 11
1770.320299497606
 21
953.175519541095
 31
0.0
  0
LINE
  5
571
330
1F
100
AcDbEntity
  8
Visible (ISO)
100
AcDbLine
 10
1777.670299497605
 20
704.7007007629524
 30
0.0
 11
1686.670299497606
 21
704.7007007629524
 31
0.0
  0
LINE
  5
572
330
1F
100
AcDbEntity
  8
Visible (ISO)
100
AcDbLine
 10
1777.670299497605
 20
707.5507007629523
 30
0.0
 11
1686.670299497606
 21
707.5507007629523
 31
0.0
  0
LINE
  5
573
330
1F
100
AcDbEntity
  8
Visible (ISO)
100
AcDbLine
 10
1770.320299497606
 20
710.2258819848087
 30
0.0
 11
1694.020299497607
 21
710.2258819848087
 31
0.0
  0
LINE
  5
574
330
1F
100
AcDbEntity
  8
Visible (ISO)
100
AcDbLine
 10
1686.670299497606
 20
704.7007007629519
 30
0.0
 11
1686.670299497606
 21
707.5507007629523
 31
0.0
  0
LINE
  5
575
330
1F
100
AcDbEntity
  8
Visible (ISO)
100
AcDbLine
 10
1777.670299497605
 20
704.7007007629515
 30
0.0
 11
1777.670299497605
 21
707.5507007629523
 31
0.0
  0
LINE
  5
576
330
1F
100
AcDbEntity
  8
Visible (ISO)
100
AcDbLine
 10
1770.320299497606
 20
710.2258819848087
 30
0.0
 11
1777.670299497605
 21
707.5507007629523
 31
0.0
  0
LINE
  5
577
330
1F
100
AcDbEntity
  8
Visible (ISO)
100
AcDbLine
 10
1694.020299497607
 20
710.2258819848087
 30
0.0
 11
1686.670299497606
 21
707.5507007629523
 31
0.0
  0
LINE
  5
578
330
1F
100
AcDbEntity
  8
Visible (ISO)
100
AcDbLine
 10
1694.020299497607
 20
710.2258819848087
 30
0.0
 11
1694.020299497607
 21
750.7007007629519
 31
0.0
  0
LINE
  5
579
330
1F
100
AcDbEntity
  8
Visible (ISO)
100
AcDbLine
 10
1770.320299497606
 20
710.2258819848087
 30
0.0
 11
1770.320299497606
 21
750.7007007629519
 31
0.0
  0
ELLIPSE
  5
57A
330
1F
100
AcDbEntity
  8
Visible (ISO)
100
AcDbEllipse
 10
1792.141190700426
 20
831.7007007614067
 30
0.0
 11
0.0000000000121125
 21
-94.99999999815027
 31
0.0
210
0.0
220
0.0
230
1.0
 40
0.3907311284892726
 41
0.5696213190725033
 42
0.5791340670701413
  0
SPLINE
  5
57B
330
1F
100
AcDbEntity
  8
Visible (ISO)
100
AcDbSpline
210
0.0
220
0.0
230
1.0
 70
     8
 71
     3
 72
     8
 73
     4
 74
     0
 42
0.0000000001
 43
0.0000000001
 40
-0.1444018675916853
 40
-0.1444018675916853
 40
-0.1444018675916853
 40
-0.1444018675916853
 40
0.0
 40
0.0
 40
0.0
 40
0.0
 10
1811.353768402802
 20
750.7007007629452
 30
0.0
 10
1811.622716586499
 20
751.034069599161
 30
0.0
 10
1811.891534162549
 20
751.3674093323059
 30
0.0
 10
1812.160203881819
 20
751.7007007629456
 30
0.0
  0
LINE
  5
57C
330
1F
100
AcDbEntity
  8
Visible (ISO)
100
AcDbLine
 10
1811.353768402802
 20
912.7007007629451
 30
0.0
 11
1771.087603290357
 21
912.7007007629734
 31
0.0
  0
SPLINE
  5
57D
330
1F
100
AcDbEntity
  8
Visible (ISO)
100
AcDbSpline
210
0.0
220
0.0
230
1.0
 70
     8
 71
     3
 72
     8
 73
     4
 74
     0
 42
0.0000000001
 43
0.0000000001
 40
-0.1444018675917289
 40
-0.1444018675917289
 40
-0.1444018675917289
 40
-0.1444018675917289
 40
0.0
 40
0.0
 40
0.0
 40
0.0
 10
1771.087603290358
 20
912.7007007629734
 30
0.0
 10
1771.432390370112
 20
912.3673319267579
 30
0.0
 10
1771.777254478479
 20
912.0339921936132
 30
0.0
 10
1772.122177518246
 20
911.7007007629734
 30
0.0
  0
LINE
  5
57E
330
1F
100
AcDbEntity
  8
Visible (ISO)
100
AcDbLine
 10
1772.122177518244
 20
911.7007007629734
 30
0.0
 11
1812.160203881819
 21
911.7007007629451
 31
0.0
  0
SPLINE
  5
57F
330
1F
100
AcDbEntity
  8
Visible (ISO)
100
AcDbSpline
210
0.0
220
0.0
230
1.0
 70
     8
 71
     3
 72
     8
 73
     4
 74
     0
 42
0.0000000001
 43
0.0000000001
 40
-0.1444018654072708
 40
-0.1444018654072708
 40
-0.1444018654072708
 40
-0.1444018654072708
 40
0.0
 40
0.0
 40
0.0
 40
0.0
 10
1812.160203881819
 20
911.7007007629451
 30
0.0
 10
1811.891534162551
 20
912.0339921935832
 30
0.0
 10
1811.622716586503
 20
912.3673319267256
 30
0.0
 10
1811.353768402802
 20
912.7007007629451
 30
0.0
  0
ELLIPSE
  5
580
330
1F
100
AcDbEntity
  8
Visible (ISO)
100
AcDbEllipse
 10
1792.141190700277
 20
831.700700763921
 30
0.0
 11
0.0000000000082906
 21
-94.99999999885375
 31
0.0
210
0.0
220
0.0
230
1.0
 40
0.3907311284892727
 41
2.562458586519923
 42
2.571971334517476
  0
ELLIPSE
  5
581
330
1F
100
AcDbEntity
  8
Visible (ISO)
100
AcDbEllipse
 10
1791.22068584658
 20
831.7007007629593
 30
0.0
 11
0.0000000000161232
 21
-95.99999999999972
 31
0.0
210
0.0
220
0.0
230
1.0
 40
0.3907311284892727
 41
3.708156984209686
 42
4.145824649762704
  0
SPLINE
  5
582
330
1F
100
AcDbEntity
  8
Visible (ISO)
100
AcDbSpline
210
0.0
220
0.0
230
1.0
 70
     8
 71
     3
 72
     8
 73
     4
 74
     0
 42
0.0000000001
 43
0.0000000001
 40
-0.1444018675899976
 40
-0.1444018675899976
 40
-0.1444018675899976
 40
-0.1444018675899976
 40
0.0
 40
0.0
 40
0.0
 40
0.0
 10
1759.571464438949
 20
883.2273928749343
 30
0.0
 10
1760.008589652262
 20
883.1303454546871
 30
0.0
 10
1760.445676704567
 20
883.0330323322202
 30
0.0
 10
1760.882700420891
 20
882.9354545927792
 30
0.0
  0
ELLIPSE
  5
583
330
1F
100
AcDbEntity
  8
Visible (ISO)
100
AcDbEllipse
 10
1792.141190700033
 20
831.7007007629593
 30
0.0
 11
-0.0000000000121153
 21
94.99999999999964
 31
0.0
210
0.0
220
0.0
230
1.0
 40
0.3907311284892727
 41
0.5696213190726028
 42
1.001175007721634
  0
LINE
  5
584
330
1F
100
AcDbEntity
  8
Visible (ISO)
100
AcDbLine
 10
1759.571464438949
 20
883.2273928749343
 30
0.0
 11
1759.571464438949
 21
780.1740086510287
 31
0.0
  0
SPLINE
  5
585
330
1F
100
AcDbEntity
  8
Visible (ISO)
100
AcDbSpline
210
0.0
220
0.0
230
1.0
 70
     8
 71
     3
 72
     8
 73
     4
 74
     0
 42
0.0000000001
 43
0.0000000001
 40
-0.1444018675903042
 40
-0.1444018675903042
 40
-0.1444018675903042
 40
-0.1444018675903042
 40
0.0
 40
0.0
 40
0.0
 40
0.0
 10
1759.571464438949
 20
780.1740086510287
 30
0.0
 10
1760.008589652262
 20
780.2710560712755
 30
0.0
 10
1760.445676704567
 20
780.3683691937424
 30
0.0
 10
1760.882700420891
 20
780.4659469331834
 30
0.0
  0
LINE
  5
586
330
1F
100
AcDbEntity
  8
Visible (ISO)
100
AcDbLine
 10
1760.882700420891
 20
780.4659469331834
 30
0.0
 11
1760.882700420891
 21
882.9354545927792
 31
0.0
  0
ELLIPSE
  5
587
330
1F
100
AcDbEntity
  8
Visible (ISO)
100
AcDbEllipse
 10
1791.22068584658
 20
831.7007007629593
 30
0.0
 11
0.0000000000122485
 21
-95.99999999999981
 31
0.0
210
0.0
220
0.0
230
1.0
 40
0.3907311284892727
 41
5.278953311005434
 42
5.716620976558186
  0
SPLINE
  5
588
330
1F
100
AcDbEntity
  8
Visible (ISO)
100
AcDbSpline
210
0.0
220
0.0
230
1.0
 70
     8
 71
     3
 72
     8
 73
     4
 74
     0
 42
0.0000000001
 43
0.0000000001
 40
-0.1444018675911055
 40
-0.1444018675911055
 40
-0.1444018675911055
 40
-0.1444018675911055
 40
0.0
 40
0.0
 40
0.0
 40
0.0
 10
1771.087603290358
 20
750.7007007629738
 30
0.0
 10
1771.432390370116
 20
751.0340695991915
 30
0.0
 10
1771.777254478481
 20
751.3674093323354
 30
0.0
 10
1772.122177518246
 20
751.7007007629738
 30
0.0
  0
ELLIPSE
  5
589
330
1F
100
AcDbEntity
  8
Visible (ISO)
100
AcDbEllipse
 10
1792.141190700033
 20
831.7007007629593
 30
0.0
 11
-0.0000000000082795
 21
94.99999999999916
 31
0.0
210
0.0
220
0.0
230
1.0
 40
0.3907311284892727
 41
2.14041764586808
 42
2.571971334517401
  0
LINE
  5
58A
330
1F
100
AcDbEntity
  8
Visible (ISO)
100
AcDbLine
 10
1771.087603290357
 20
750.7007007629738
 30
0.0
 11
1811.353768402802
 21
750.7007007629452
 31
0.0
  0
LINE
  5
58B
330
1F
100
AcDbEntity
  8
Visible (ISO)
100
AcDbLine
 10
1812.160203881819
 20
751.7007007629456
 30
0.0
 11
1772.122177518244
 21
751.7007007629738
 31
0.0
  0
ELLIPSE
  5
58C
330
1F
100
AcDbEntity
  8
Visible (ISO)
100
AcDbEllipse
 10
1780.174627605149
 20
831.7007007629579
 30
0.0
 11
-0.00000000000836
 21
96.00000000000006
 31
0.0
210
0.0
220
0.0
230
1.0
 40
0.3907311284892728
 41
2.137360657416245
 42
2.575028322969268
  0
LINE
  5
58D
330
1F
100
AcDbEntity
  8
Visible (ISO)
100
AcDbLine
 10
1748.52540619752
 20
780.1740086510269
 30
0.0
 11
1748.525406197518
 21
883.227392874933
 31
0.0
  0
ELLIPSE
  5
58E
330
1F
100
AcDbEntity
  8
Visible (ISO)
100
AcDbEllipse
 10
1780.174627605149
 20
831.7007007629579
 30
0.0
 11
-0.0000000000122402
 21
95.99999999999969
 31
0.0
210
0.0
220
0.0
230
1.0
 40
0.3907311284892727
 41
0.5665643306207633
 42
1.004231996173498
  0
SPLINE
  5
58F
330
1F
100
AcDbEntity
  8
Visible (ISO)
100
AcDbSpline
210
0.0
220
0.0
230
1.0
 70
     8
 71
     3
 72
     8
 73
     4
 74
     0
 42
0.0000000001
 43
0.0000000001
 40
-0.1444018654076396
 40
-0.1444018654076396
 40
-0.1444018654076396
 40
-0.1444018654076396
 40
0.0
 40
0.0
 40
0.0
 40
0.0
 10
1759.235109569911
 20
911.7007007629716
 30
0.0
 10
1759.503779289179
 20
912.0339921936094
 30
0.0
 10
1759.772596865227
 20
912.3673319267515
 30
0.0
 10
1760.041545048928
 20
912.7007007629716
 30
0.0
  0
SPLINE
  5
590
330
1F
100
AcDbEntity
  8
Visible (ISO)
100
AcDbSpline
210
0.0
220
0.0
230
1.0
 70
     8
 71
     3
 72
     8
 73
     4
 74
     0
 42
0.0000000001
 43
0.0000000001
 40
-0.1444018654053799
 40
-0.1444018654053799
 40
-0.1444018654053799
 40
-0.1444018654053799
 40
0.0
 40
0.0
 40
0.0
 40
0.0
 10
1747.995632472558
 20
882.9354545927779
 30
0.0
 10
1748.172201515265
 20
883.0330323322202
 30
0.0
 10
1748.34879614737
 20
883.130345454688
 30
0.0
 10
1748.52540619752
 20
883.227392874933
 30
0.0
  0
SPLINE
  5
591
330
1F
100
AcDbEntity
  8
Visible (ISO)
100
AcDbSpline
210
0.0
220
0.0
230
1.0
 70
     8
 71
     3
 72
     8
 73
     4
 74
     0
 42
0.0000000001
 43
0.0000000001
 40
-0.144401865410082
 40
-0.144401865410082
 40
-0.144401865410082
 40
-0.144401865410082
 40
0.0
 40
0.0
 40
0.0
 40
0.0
 10
1747.995632472558
 20
780.465946933182
 30
0.0
 10
1748.172201515263
 20
780.368369193741
 30
0.0
 10
1748.348796147366
 20
780.2710560712755
 30
0.0
 10
1748.52540619752
 20
780.1740086510274
 30
0.0
  0
SPLINE
  5
592
330
1F
100
AcDbEntity
  8
Visible (ISO)
100
AcDbSpline
210
0.0
220
0.0
230
1.0
 70
     8
 71
     3
 72
     8
 73
     4
 74
     0
 42
0.0000000001
 43
0.0000000001
 40
-0.1444018654071689
 40
-0.1444018654071689
 40
-0.1444018654071689
 40
-0.1444018654071689
 40
0.0
 40
0.0
 40
0.0
 40
0.0
 10
1759.235109569911
 20
751.700700762972
 30
0.0
 10
1759.503779289179
 20
751.3674093323341
 30
0.0
 10
1759.772596865227
 20
751.0340695991915
 30
0.0
 10
1760.041545048928
 20
750.7007007629725
 30
0.0
  0
LINE
  5
593
330
1F
100
AcDbEntity
  8
Visible (ISO)
100
AcDbLine
 10
1759.571464438949
 20
780.1740086510287
 30
0.0
 11
1748.52540619752
 21
780.1740086510269
 31
0.0
  0
LINE
  5
594
330
1F
100
AcDbEntity
  8
Visible (ISO)
100
AcDbLine
 10
1771.087603290357
 20
750.7007007629738
 30
0.0
 11
1760.041545048928
 21
750.7007007629725
 31
0.0
  0
LINE
  5
595
330
1F
100
AcDbEntity
  8
Visible (ISO)
100
AcDbLine
 10
1759.571464438949
 20
883.2273928749343
 30
0.0
 11
1748.52540619752
 21
883.227392874933
 31
0.0
  0
LINE
  5
596
330
1F
100
AcDbEntity
  8
Visible (ISO)
100
AcDbLine
 10
1771.087603290357
 20
912.7007007629734
 30
0.0
 11
1760.041545048928
 21
912.7007007629716
 31
0.0
  0
SPLINE
  5
597
330
1F
100
AcDbEntity
  8
Visible (ISO)
100
AcDbSpline
210
0.0
220
0.0
230
1.0
 70
     8
 71
     3
 72
    16
 73
    12
 74
     0
 42
0.0000000001
 43
0.0000000001
 40
3.296710162411595
 40
3.296710162411595
 40
3.296710162411595
 40
3.296710162411595
 40
3.55244776706672
 40
3.55244776706672
 40
3.89029380296194
 40
3.89029380296194
 40
4.233394382708643
 40
4.233394382708643
 40
4.566162637119931
 40
4.566162637119931
 40
4.578925759766641
 40
4.578925759766641
 40
4.578925759766641
 40
4.578925759766641
 10
1950.417647127028
 20
909.1849638647952
 30
0.0
 10
1953.886111622424
 20
907.7968566777443
 30
0.0
 10
1956.933681059167
 20
905.4322001730513
 30
0.0
 10
1963.168663690655
 20
898.4804654503266
 30
0.0
 10
1966.150300847762
 20
893.374832147874
 30
0.0
 10
1971.257707837711
 20
881.2292264323589
 30
0.0
 10
1973.350111921828
 20
874.1489292486365
 30
0.0
 10
1976.431259132084
 20
858.9648659101642
 30
0.0
 10
1977.44650228641
 20
850.9030251933316
 30
0.0
 10
1977.939585980701
 20
842.3344997479
 30
0.0
 10
1977.957008756228
 20
842.0177250890185
 30
0.0
 10
1977.973639879598
 20
841.7007007629583
 30
0.0
  0
SPLINE
  5
598
330
1F
100
AcDbEntity
  8
Visible (ISO)
100
AcDbSpline
210
0.0
220
0.0
230
1.0
 70
     8
 71
     3
 72
    16
 73
    12
 74
     0
 42
0.0000000001
 43
0.0000000001
 40
4.845852201002738
 40
4.845852201002738
 40
4.845852201002738
 40
4.845852201002738
 40
4.895171122430436
 40
4.895171122430436
 40
5.224374494666901
 40
5.224374494666901
 40
5.557809009644799
 40
5.557809009644799
 40
5.901819496015185
 40
5.901819496015185
 40
6.128067798357784
 40
6.128067798357784
 40
6.128067798357784
 40
6.128067798357784
 10
1977.973639879598
 20
821.7007007629588
 30
0.0
 10
1977.909374331943
 20
820.4756637355474
 30
0.0
 10
1977.833286349102
 20
819.254355780243
 30
0.0
 10
1977.159106222622
 20
809.9198867744819
 30
0.0
 10
1976.046582118947
 20
802.0330658263908
 30
0.0
 10
1972.829611201695
 20
787.3824036033709
 30
0.0
 10
1970.717863118851
 20
780.6383448866738
 30
0.0
 10
1965.506209879619
 20
768.8123549965569
 30
0.0
 10
1962.39856990517
 20
763.7744600040211
 30
0.0
 10
1956.229172858476
 20
757.4429668231098
 30
0.0
 10
1953.48616028088
 20
755.4444811276709
 30
0.0
 10
1950.417647127028
 20
754.2164376611552
 30
0.0
  0
ELLIPSE
  5
599
330
1F
100
AcDbEntity
  8
Visible (ISO)
100
AcDbEllipse
 10
2250.378802505186
 20
268.8008494584024
 30
0.0
 11
8.499999999999966
 21
0.0
 31
0.0
210
0.0
220
0.0
230
1.0
 40
0.9205048534524367
 41
0.0
 42
6.283185307179586
  0
ELLIPSE
  5
59A
330
1F
100
AcDbEntity
  8
Visible (ISO)
100
AcDbEllipse
 10
2250.378802505184
 20
268.2147527656681
 30
0.0
 11
-9.999999999999964
 21
0.0
 31
0.0
210
0.0
220
0.0
230
1.0
 40
0.9205048534524367
 41
0.0
 42
6.283185307179586
  0
ELLIPSE
  5
59B
330
1F
100
AcDbEntity
  8
Visible (ISO)
100
AcDbEllipse
 10
2250.378802505177
 20
255.9067222182562
 30
0.0
 11
9.999999999999966
 21
0.0000000000000005
 31
0.0
210
0.0
220
0.0
230
1.0
 40
0.9205048534524367
 41
3.141592653589503
 42
6.283185307179295
  0
ELLIPSE
  5
59C
330
1F
100
AcDbEntity
  8
Visible (ISO)
100
AcDbEllipse
 10
2250.378802505175
 20
253.9530665758103
 30
0.0
 11
24.99999999999994
 21
0.0
 31
0.0
210
0.0
220
0.0
230
1.0
 40
0.9205048534524367
 41
3.141592653589519
 42
6.283185307179311
  0
ELLIPSE
  5
59D
330
1F
100
AcDbEntity
  8
Visible (ISO)
100
AcDbEllipse
 10
2250.378802505166
 20
241.0589393356636
 30
0.0
 11
88.9999999999998
 21
-0.0000000000617784
 31
0.0
210
0.0
220
0.0
230
1.0
 40
0.9205048534524367
 41
2.111279552540449
 42
7.313498408230435
  0
ELLIPSE
  5
59E
330
1F
100
AcDbEntity
  8
Visible (ISO)
100
AcDbEllipse
 10
2250.378802505177
 20
255.9067222182562
 30
0.0
 11
24.99999999999994
 21
0.0
 31
0.0
210
0.0
220
0.0
230
1.0
 40
0.9205048534524367
 41
0.0
 42
6.283185307179586
  0
ELLIPSE
  5
59F
330
1F
100
AcDbEntity
  8
Visible (ISO)
100
AcDbEllipse
 10
2250.378802505151
 20
219.3733617045096
 30
0.0
 11
88.9999999999998
 21
0.0000000000000082
 31
0.0
210
0.0
220
0.0
230
1.0
 40
0.9205048534524367
 41
3.141592653589523
 42
6.283185307179316
  0
ELLIPSE
  5
5A0
330
1F
100
AcDbEntity
  8
Visible (ISO)
100
AcDbEllipse
 10
2250.378802505148
 20
215.661415983861
 30
0.0
 11
98.49999999999978
 21
-0.0000000000683731
 31
0.0
210
0.0
220
0.0
230
1.0
 40
0.9205048534524367
 41
2.654828978268763
 42
6.769948982502127
  0
ELLIPSE
  5
5A1
330
1F
100
AcDbEntity
  8
Visible (ISO)
100
AcDbEllipse
 10
2250.378802505142
 20
205.5024066431402
 30
0.0
 11
98.49999999999978
 21
0.0
 31
0.0
210
0.0
220
0.0
230
1.0
 40
0.9205048534524369
 41
3.141592653589519
 42
6.283185307179313
  0
LINE
  5
5A2
330
1F
100
AcDbEntity
  8
Visible (ISO)
100
AcDbLine
 10
2260.378802505184
 20
268.2147527656679
 30
0.0
 11
2260.378802505177
 21
255.9067222182556
 31
0.0
  0
LINE
  5
5A3
330
1F
100
AcDbEntity
  8
Visible (ISO)
100
AcDbLine
 10
2240.378802505186
 20
268.2147527656679
 30
0.0
 11
2240.378802505177
 21
255.9067222182561
 31
0.0
  0
LINE
  5
5A4
330
1F
100
AcDbEntity
  8
Visible (ISO)
100
AcDbLine
 10
2290.732876881997
 20
314.3117678721878
 30
0.0
 11
2296.173787973985
 21
311.3063027552284
 31
0.0
  0
LINE
  5
5A5
330
1F
100
AcDbEntity
  8
Visible (ISO)
100
AcDbLine
 10
2210.024728128336
 20
314.3117678721878
 30
0.0
 11
2204.583817036332
 21
311.3063027552284
 31
0.0
  0
LINE
  5
5A6
330
1F
100
AcDbEntity
  8
Visible (ISO)
100
AcDbLine
 10
2275.378802505177
 20
255.9067222182561
 30
0.0
 11
2275.378802505175
 21
253.9530665758102
 31
0.0
  0
LINE
  5
5A7
330
1F
100
AcDbEntity
  8
Visible (ISO)
100
AcDbLine
 10
2225.378802505177
 20
255.9067222182561
 30
0.0
 11
2225.378802505177
 21
253.9530665758102
 31
0.0
  0
LINE
  5
5A8
330
1F
100
AcDbEntity
  8
Visible (ISO)
100
AcDbLine
 10
2339.378802505166
 20
241.0589393356636
 30
0.0
 11
2339.378802505151
 21
219.373361704509
 31
0.0
  0
LINE
  5
5A9
330
1F
100
AcDbEntity
  8
Visible (ISO)
100
AcDbLine
 10
2161.378802505166
 20
241.058939335664
 30
0.0
 11
2161.378802505151
 21
219.3733617045095
 31
0.0
  0
LINE
  5
5AA
330
1F
100
AcDbEntity
  8
Visible (ISO)
100
AcDbLine
 10
2348.878802505148
 20
215.6614159838609
 30
0.0
 11
2348.878802505142
 21
205.5024066431401
 31
0.0
  0
LINE
  5
5AB
330
1F
100
AcDbEntity
  8
Visible (ISO)
100
AcDbLine
 10
2151.878802505148
 20
215.6614159838614
 30
0.0
 11
2151.878802505142
 21
205.5024066431406
 31
0.0
  0
ELLIPSE
  5
5AC
330
1F
100
AcDbEntity
  8
Visible (ISO)
100
AcDbEllipse
 10
2250.378802505121
 20
175.1230614030997
 30
0.0
 11
95.99999999999992
 21
-0.0000000000666023
 31
0.0
210
0.0
220
0.0
230
1.0
 40
0.9205048534524365
 41
5.278953311006523
 42
5.716620976559263
  0
LINE
  5
5AD
330
1F
100
AcDbEntity
  8
Visible (ISO)
100
AcDbLine
 10
2198.852110393179
 20
100.5621682734517
 30
0.0
 11
2301.905494617084
 21
100.5621682734517
 31
0.0
  0
ELLIPSE
  5
5AE
330
1F
100
AcDbEntity
  8
Visible (ISO)
100
AcDbEllipse
 10
2250.378802505121
 20
175.1230614030993
 30
0.0
 11
95.99999999999964
 21
-0.0000000000573042
 31
0.0
210
0.0
220
0.0
230
1.0
 40
0.9205048534524365
 41
3.708156984211498
 42
4.145824649764257
  0
LINE
  5
5AF
330
1F
100
AcDbEntity
  8
Visible (ISO)
100
AcDbLine
 10
2169.378802505132
 20
134.3349204160149
 30
0.0
 11
2169.378802505126
 21
127.6924912316972
 31
0.0
  0
LINE
  5
5B0
330
1F
100
AcDbEntity
  8
Visible (ISO)
100
AcDbLine
 10
2169.378802505132
 20
134.3349204160149
 30
0.0
 11
2169.378802505132
 21
134.7256515445037
 31
0.0
  0
LINE
  5
5B1
330
1F
100
AcDbEntity
  8
Visible (ISO)
100
AcDbLine
 10
2331.378802505129
 20
134.7256515445037
 30
0.0
 11
2331.378802505129
 21
134.3349204160149
 31
0.0
  0
LINE
  5
5B2
330
1F
100
AcDbEntity
  8
Visible (ISO)
100
AcDbLine
 10
2331.378802505129
 20
134.3349204160154
 30
0.0
 11
2331.378802505126
 21
127.6924912316976
 31
0.0
  0
ELLIPSE
  5
5B3
330
1F
100
AcDbEntity
  8
Visible (ISO)
100
AcDbEllipse
 10
2250.378802505126
 20
181.765490587417
 30
0.0
 11
-95.99999999999965
 21
0.0000000000665523
 31
0.0
210
0.0
220
0.0
230
1.0
 40
0.9205048534524367
 41
0.56656433062183
 42
1.004231996174572
  0
LINE
  5
5B4
330
1F
100
AcDbEntity
  8
Visible (ISO)
100
AcDbLine
 10
2301.905494617088
 20
107.2045974577699
 30
0.0
 11
2198.852110393182
 21
107.2045974577699
 31
0.0
  0
ELLIPSE
  5
5B5
330
1F
100
AcDbEntity
  8
Visible (ISO)
100
AcDbEllipse
 10
2250.378802505126
 20
181.765490587417
 30
0.0
 11
-95.9999999999996
 21
0.0000000000757894
 31
0.0
210
0.0
220
0.0
230
1.0
 40
0.9205048534524369
 41
2.137360657416833
 42
2.57502832296959
  0
LINE
  5
5B6
330
1F
100
AcDbEntity
  8
Visible (ISO)
100
AcDbLine
 10
2198.852110393182
 20
107.2045974577695
 30
0.0
 11
2198.852110393179
 21
100.5621682734522
 31
0.0
  0
LINE
  5
5B7
330
1F
100
AcDbEntity
  8
Visible (ISO)
100
AcDbLine
 10
2301.905494617088
 20
107.2045974577699
 30
0.0
 11
2301.905494617084
 21
100.5621682734522
 31
0.0
  0
LINE
  5
5B8
330
1F
100
AcDbEntity
  8
Visible (ISO)
100
AcDbLine
 10
2169.378802505113
 20
120.1228964093161
 30
0.0
 11
2169.378802505119
 21
127.6924912316972
 31
0.0
  0
LINE
  5
5B9
330
1F
100
AcDbEntity
  8
Visible (ISO)
100
AcDbLine
 10
2331.378802505113
 20
120.1228964093165
 30
0.0
 11
2325.518256189579
 21
120.1228964093165
 31
0.0
  0
LINE
  5
5BA
330
1F
100
AcDbEntity
  8
Visible (ISO)
100
AcDbLine
 10
2331.378802505119
 20
127.6924912316972
 30
0.0
 11
2331.378802505113
 21
120.1228964093161
 31
0.0
  0
LINE
  5
5BB
330
1F
100
AcDbEntity
  8
Visible (ISO)
100
AcDbLine
 10
2175.239348820647
 20
120.1228964093161
 30
0.0
 11
2169.378802505113
 21
120.1228964093161
 31
0.0
  0
ELLIPSE
  5
5BC
330
1F
100
AcDbEntity
  8
Visible (ISO)
100
AcDbEllipse
 10
2304.372961718793
 20
110.225059300497
 30
0.0
 11
8.999999999999994
 21
-0.0000000000062457
 31
0.0
210
0.0
220
0.0
230
1.0
 40
0.9205048534524369
 41
4.69204293998768
 42
6.039866530027754
  0
ELLIPSE
  5
5BD
330
1F
100
AcDbEntity
  8
Visible (ISO)
100
AcDbEllipse
 10
2196.384643291455
 20
110.225059300497
 30
0.0
 11
-8.999999999999964
 21
0.0000000000062478
 31
0.0
210
0.0
220
0.0
230
1.0
 40
0.9205048534524367
 41
0.2433187771533459
 42
1.5911423671935
  0
LINE
  5
5BE
330
1F
100
AcDbEntity
  8
Visible (ISO)
100
AcDbLine
 10
2377.378802505111
 20
116.2795933651909
 30
0.0
 11
2377.378802505111
 21
207.2795933651905
 31
0.0
  0
LINE
  5
5BF
330
1F
100
AcDbEntity
  8
Visible (ISO)
100
AcDbLine
 10
2374.528802505111
 20
116.2795933651909
 30
0.0
 11
2374.528802505111
 21
207.2795933651905
 31
0.0
  0
LINE
  5
5C0
330
1F
100
AcDbEntity
  8
Visible (ISO)
100
AcDbLine
 10
2371.853621283256
 20
123.6295933651908
 30
0.0
 11
2371.853621283256
 21
199.9295933651906
 31
0.0
  0
LINE
  5
5C1
330
1F
100
AcDbEntity
  8
Visible (ISO)
100
AcDbLine
 10
2374.528802505111
 20
207.2795933651905
 30
0.0
 11
2377.378802505111
 21
207.2795933651905
 31
0.0
  0
LINE
  5
5C2
330
1F
100
AcDbEntity
  8
Visible (ISO)
100
AcDbLine
 10
2374.528802505111
 20
116.2795933651909
 30
0.0
 11
2377.378802505111
 21
116.2795933651909
 31
0.0
  0
LINE
  5
5C3
330
1F
100
AcDbEntity
  8
Visible (ISO)
100
AcDbLine
 10
2371.853621283256
 20
199.9295933651906
 30
0.0
 11
2374.528802505111
 21
207.2795933651905
 31
0.0
  0
LINE
  5
5C4
330
1F
100
AcDbEntity
  8
Visible (ISO)
100
AcDbLine
 10
2371.853621283256
 20
123.6295933651908
 30
0.0
 11
2374.528802505111
 21
116.2795933651909
 31
0.0
  0
LINE
  5
5C5
330
1F
100
AcDbEntity
  8
Visible (ISO)
100
AcDbLine
 10
2348.692576069862
 20
199.9295933651906
 30
0.0
 11
2371.853621283256
 21
199.9295933651906
 31
0.0
  0
LINE
  5
5C6
330
1F
100
AcDbEntity
  8
Visible (ISO)
100
AcDbLine
 10
2331.378802505111
 20
123.6295933651908
 30
0.0
 11
2371.853621283256
 21
123.6295933651908
 31
0.0
  0
LINE
  5
5C7
330
1F
100
AcDbEntity
  8
Visible (ISO)
100
AcDbLine
 10
2123.378802505111
 20
116.2795933651909
 30
0.0
 11
2123.378802505111
 21
207.2795933651905
 31
0.0
  0
LINE
  5
5C8
330
1F
100
AcDbEntity
  8
Visible (ISO)
100
AcDbLine
 10
2126.228802505111
 20
116.2795933651909
 30
0.0
 11
2126.228802505111
 21
207.2795933651905
 31
0.0
  0
LINE
  5
5C9
330
1F
100
AcDbEntity
  8
Visible (ISO)
100
AcDbLine
 10
2128.903983726967
 20
123.6295933651908
 30
0.0
 11
2128.903983726967
 21
199.9295933651906
 31
0.0
  0
LINE
  5
5CA
330
1F
100
AcDbEntity
  8
Visible (ISO)
100
AcDbLine
 10
2123.378802505111
 20
207.2795933651905
 30
0.0
 11
2126.22880250511
 21
207.2795933651905
 31
0.0
  0
LINE
  5
5CB
330
1F
100
AcDbEntity
  8
Visible (ISO)
100
AcDbLine
 10
2123.378802505111
 20
116.2795933651909
 30
0.0
 11
2126.22880250511
 21
116.2795933651909
 31
0.0
  0
LINE
  5
5CC
330
1F
100
AcDbEntity
  8
Visible (ISO)
100
AcDbLine
 10
2128.903983726967
 20
123.6295933651908
 30
0.0
 11
2126.22880250511
 21
116.2795933651909
 31
0.0
  0
LINE
  5
5CD
330
1F
100
AcDbEntity
  8
Visible (ISO)
100
AcDbLine
 10
2128.903983726967
 20
199.9295933651906
 30
0.0
 11
2126.22880250511
 21
207.2795933651905
 31
0.0
  0
LINE
  5
5CE
330
1F
100
AcDbEntity
  8
Visible (ISO)
100
AcDbLine
 10
2128.903983726967
 20
199.9295933651906
 30
0.0
 11
2152.065028940361
 21
199.9295933651906
 31
0.0
  0
LINE
  5
5CF
330
1F
100
AcDbEntity
  8
Visible (ISO)
100
AcDbLine
 10
2128.903983726967
 20
123.6295933651908
 30
0.0
 11
2169.378802505111
 21
123.6295933651908
 31
0.0
  0
ELLIPSE
  5
5D0
330
1F
100
AcDbEntity
  8
Visible (ISO)
100
AcDbEllipse
 10
2250.378802505129
 20
186.8449952577772
 30
0.0
 11
95.99999999999928
 21
-0.0000000000574651
 31
0.0
210
0.0
220
0.0
230
1.0
 40
0.9205048534524367
 41
3.708156984211498
 42
4.145824649764257
  0
SPLINE
  5
5D1
330
1F
100
AcDbEntity
  8
Visible (ISO)
100
AcDbSpline
210
0.0
220
0.0
230
1.0
 70
     8
 71
     3
 72
     8
 73
     4
 74
     0
 42
0.0000000001
 43
0.0000000001
 40
-0.1444018675892024
 40
-0.1444018675892024
 40
-0.1444018675892024
 40
-0.1444018675892024
 40
0.0
 40
0.0
 40
0.0
 40
0.0
 10
2198.852110393186
 20
112.2841021281302
 30
0.0
 10
2198.949157813433
 20
112.7212273414494
 30
0.0
 10
2199.046470935899
 20
113.1583143937515
 30
0.0
 10
2199.144048675341
 20
113.5953381100722
 30
0.0
  0
ELLIPSE
  5
5D2
330
1F
100
AcDbEntity
  8
Visible (ISO)
100
AcDbEllipse
 10
2250.378802505129
 20
187.2357263862669
 30
0.0
 11
-94.99999999999971
 21
0.0000000000659695
 31
0.0
210
0.0
220
0.0
230
1.0
 40
0.9205048534524369
 41
0.5696213190736863
 42
1.001175007722719
  0
SPLINE
  5
5D3
330
1F
100
AcDbEntity
  8
Visible (ISO)
100
AcDbSpline
210
0.0
220
0.0
230
1.0
 70
     8
 71
     3
 72
     8
 73
     4
 74
     0
 42
0.0000000001
 43
0.0000000001
 40
-0.1444018675916853
 40
-0.1444018675916853
 40
-0.1444018675916853
 40
-0.1444018675916853
 40
0.0
 40
0.0
 40
0.0
 40
0.0
 10
2169.378802505135
 20
139.4144250863756
 30
0.0
 10
2169.712171341351
 20
139.6340152893041
 30
0.0
 10
2170.045511074496
 20
139.8538387009417
 30
0.0
 10
2170.378802505135
 20
140.0738868204967
 30
0.0
  0
LINE
  5
5D4
330
1F
100
AcDbEntity
  8
Visible (ISO)
100
AcDbLine
 10
2198.852110393186
 20
112.2841021281301
 30
0.0
 11
2301.905494617091
 21
112.2841021281301
 31
0.0
  0
SPLINE
  5
5D5
330
1F
100
AcDbEntity
  8
Visible (ISO)
100
AcDbSpline
210
0.0
220
0.0
230
1.0
 70
     8
 71
     3
 72
     8
 73
     4
 74
     0
 42
0.0000000001
 43
0.0000000001
 40
-0.1444018675894966
 40
-0.1444018675894966
 40
-0.1444018675894966
 40
-0.1444018675894966
 40
0.0
 40
0.0
 40
0.0
 40
0.0
 10
2301.905494617091
 20
112.2841021281302
 30
0.0
 10
2301.808447196844
 20
112.7212273414476
 30
0.0
 10
2301.711134074376
 20
113.158314393751
 30
0.0
 10
2301.613556334937
 20
113.5953381100722
 30
0.0
  0
LINE
  5
5D6
330
1F
100
AcDbEntity
  8
Visible (ISO)
100
AcDbLine
 10
2301.613556334937
 20
113.5953381100721
 30
0.0
 11
2199.144048675341
 21
113.5953381100721
 31
0.0
  0
LINE
  5
5D7
330
1F
100
AcDbEntity
  8
Visible (ISO)
100
AcDbLine
 10
2331.378802505133
 20
139.4144250863755
 30
0.0
 11
2331.378802505133
 21
153.9110042285697
 31
0.0
  0
LINE
  5
5D8
330
1F
100
AcDbEntity
  8
Visible (ISO)
100
AcDbLine
 10
2330.378802505133
 20
152.6054048195578
 30
0.0
 11
2330.378802505133
 21
140.0738868204971
 31
0.0
  0
SPLINE
  5
5D9
330
1F
100
AcDbEntity
  8
Visible (ISO)
100
AcDbSpline
210
0.0
220
0.0
230
1.0
 70
     8
 71
     3
 72
     8
 73
     4
 74
     0
 42
0.0000000001
 43
0.0000000001
 40
-0.1444018654072708
 40
-0.1444018654072708
 40
-0.1444018654072708
 40
-0.1444018654072708
 40
0.0
 40
0.0
 40
0.0
 40
0.0
 10
2330.378802505133
 20
140.0738868204972
 30
0.0
 10
2330.712093935772
 20
139.8538387009431
 30
0.0
 10
2331.045433668915
 20
139.6340152893063
 30
0.0
 10
2331.378802505133
 20
139.4144250863756
 30
0.0
  0
ELLIPSE
  5
5DA
330
1F
100
AcDbEntity
  8
Visible (ISO)
100
AcDbEllipse
 10
2250.378802505129
 20
186.8449952577776
 30
0.0
 11
96.0
 21
-0.0000000000666467
 31
0.0
210
0.0
220
0.0
230
1.0
 40
0.9205048534524365
 41
5.278953311006524
 42
5.716620976559263
  0
ELLIPSE
  5
5DB
330
1F
100
AcDbEntity
  8
Visible (ISO)
100
AcDbEllipse
 10
2250.378802505129
 20
187.2357263862664
 30
0.0
 11
-94.99999999999941
 21
0.0000000000749789
 31
0.0
210
0.0
220
0.0
230
1.0
 40
0.9205048534524371
 41
2.140417645868684
 42
2.571971334517735
  0
LINE
  5
5DC
330
1F
100
AcDbEntity
  8
Visible (ISO)
100
AcDbLine
 10
2169.378802505133
 20
153.9110042285697
 30
0.0
 11
2169.378802505135
 21
139.4144250863755
 31
0.0
  0
LINE
  5
5DD
330
1F
100
AcDbEntity
  8
Visible (ISO)
100
AcDbLine
 10
2170.378802505135
 20
140.0738868204966
 30
0.0
 11
2170.378802505133
 21
152.6054048195573
 31
0.0
  0
LINE
  5
5DE
330
1F
100
AcDbEntity
  8
Visible (ISO)
100
AcDbLine
 10
2301.905494617088
 20
107.5953285862592
 30
0.0
 11
2198.852110393182
 21
107.5953285862587
 31
0.0
  0
ELLIPSE
  5
5DF
330
1F
100
AcDbEntity
  8
Visible (ISO)
100
AcDbEllipse
 10
2250.378802505126
 20
182.1562217159063
 30
0.0
 11
-96.0
 21
0.0000000000757061
 31
0.0
210
0.0
220
0.0
230
1.0
 40
0.9205048534524367
 41
2.137360657416829
 42
2.575028322969584
  0
ELLIPSE
  5
5E0
330
1F
100
AcDbEntity
  8
Visible (ISO)
100
AcDbEllipse
 10
2250.378802505126
 20
182.1562217159058
 30
0.0
 11
-95.99999999999932
 21
0.0000000000666356
 31
0.0
210
0.0
220
0.0
230
1.0
 40
0.9205048534524369
 41
0.5665643306218353
 42
1.004231996174571
  0
LINE
  5
5E1
330
1F
100
AcDbEntity
  8
Visible (ISO)
100
AcDbLine
 10
2331.378802505133
 20
139.4144250863755
 30
0.0
 11
2331.378802505131
 21
134.7256515445042
 31
0.0
  0
LINE
  5
5E2
330
1F
100
AcDbEntity
  8
Visible (ISO)
100
AcDbLine
 10
2169.378802505135
 20
139.4144250863755
 30
0.0
 11
2169.378802505132
 21
134.7256515445037
 31
0.0
  0
LINE
  5
5E3
330
1F
100
AcDbEntity
  8
Visible (ISO)
100
AcDbLine
 10
2198.852110393186
 20
112.2841021281301
 30
0.0
 11
2198.852110393182
 21
107.5953285862587
 31
0.0
  0
LINE
  5
5E4
330
1F
100
AcDbEntity
  8
Visible (ISO)
100
AcDbLine
 10
2301.905494617091
 20
112.2841021281301
 30
0.0
 11
2301.905494617088
 21
107.5953285862587
 31
0.0
  0
SPLINE
  5
5E5
330
1F
100
AcDbEntity
  8
Visible (ISO)
100
AcDbSpline
210
0.0
220
0.0
230
1.0
 70
     8
 71
     3
 72
    16
 73
    12
 74
     0
 42
0.0000000001
 43
0.0000000001
 40
1.030313101050158
 40
1.030313101050158
 40
1.030313101050158
 40
1.030313101050158
 40
1.246506391348054
 40
1.246506391348054
 40
1.46269968164595
 40
1.46269968164595
 40
1.678892971943847
 40
1.678892971943847
 40
1.895086262241743
 40
1.895086262241743
 40
2.111279552539639
 40
2.111279552539639
 40
2.111279552539639
 40
2.111279552539639
 10
2210.02472812834
 20
314.3117678721902
 30
0.0
 10
2214.88552624414
 20
316.9967886215837
 30
0.0
 10
2220.054173353396
 20
319.1916863638031
 30
0.0
 10
2230.770602932664
 20
322.5077182486267
 30
0.0
 10
2236.318078796725
 20
323.6288076012525
 30
0.0
 10
2247.541155857364
 20
324.7499129657513
 30
0.0
 10
2253.216449152968
 20
324.7499129657513
 30
0.0
 10
2264.439526213606
 20
323.6288076012525
 30
0.0
 10
2269.987002077667
 20
322.5077182486267
 30
0.0
 10
2280.703431656938
 20
319.1916863638031
 30
0.0
 10
2285.872078766196
 20
316.9967886215837
 30
0.0
 10
2290.732876881994
 20
314.3117678721902
 30
0.0
  0
ELLIPSE
  5
5E6
330
1F
100
AcDbEntity
  8
Visible (ISO)
100
AcDbEllipse
 10
1352.149268397545
 20
241.0589393356636
 30
0.0
 11
88.99999999999975
 21
-0.0000000000626027
 31
0.0
210
0.0
220
0.0
230
1.0
 40
0.9205048534524369
 41
0.2092113372479183
 42
2.93238131634341
  0
ELLIPSE
  5
5E7
330
1F
100
AcDbEntity
  8
Visible (ISO)
100
AcDbEllipse
 10
1352.149268397527
 20
215.661415983861
 30
0.0
 11
98.4999999999998
 21
0.0000000000006331
 31
0.0
210
0.0
220
0.0
230
1.0
 40
0.9205048534524367
 41
0.0
 42
3.141592653589517
  0
ELLIPSE
  5
5E8
330
1F
100
AcDbEntity
  8
Visible (ISO)
100
AcDbEllipse
 10
1352.14926839752
 20
205.5024066431402
 30
0.0
 11
98.49999999999974
 21
-0.0000000000693084
 31
0.0
210
0.0
220
0.0
230
1.0
 40
0.9205048534524367
 41
6.221683766522353
 42
9.486279501428136
  0
LINE
  5
5E9
330
1F
100
AcDbEntity
  8
Visible (ISO)
100
AcDbLine
 10
1392.503342774375
 20
314.3117678721878
 30
0.0
 11
1397.944253866363
 21
311.3063027552284
 31
0.0
  0
LINE
  5
5EA
330
1F
100
AcDbEntity
  8
Visible (ISO)
100
AcDbLine
 10
1311.795194020714
 20
314.3117678721878
 30
0.0
 11
1306.354282928708
 21
311.3063027552284
 31
0.0
  0
LINE
  5
5EB
330
1F
100
AcDbEntity
  8
Visible (ISO)
100
AcDbLine
 10
1450.649268397527
 20
215.6614159838614
 30
0.0
 11
1450.64926839752
 21
205.5024066431406
 31
0.0
  0
LINE
  5
5EC
330
1F
100
AcDbEntity
  8
Visible (ISO)
100
AcDbLine
 10
1253.649268397527
 20
215.6614159838609
 30
0.0
 11
1253.64926839752
 21
205.5024066431401
 31
0.0
  0
ELLIPSE
  5
5ED
330
1F
100
AcDbEntity
  8
Visible (ISO)
100
AcDbEllipse
 10
1406.332660687013
 20
221.5165060171021
 30
0.0
 11
10.00000000000003
 21
-0.000000000006091
 31
0.0
210
0.0
220
0.0
230
1.0
 40
0.9205048534524365
 41
3.890830743478304
 42
4.712388980385392
  0
ELLIPSE
  5
5EE
330
1F
100
AcDbEntity
  8
Visible (ISO)
100
AcDbEllipse
 10
1406.332660687006
 20
212.909785637322
 30
0.0
 11
-0.0000000000052858
 21
-18.41009706904868
 31
0.0
210
0.0
220
0.0
230
1.0
 40
0.5431801887026503
 41
5.461627070271825
 42
6.28318530717852
  0
ELLIPSE
  5
5EF
330
1F
100
AcDbEntity
  8
Visible (ISO)
100
AcDbEllipse
 10
1297.965876107972
 20
221.5165060171021
 30
0.0
 11
10.00000000000002
 21
0.0000000000000164
 31
0.0
210
0.0
220
0.0
230
1.0
 40
0.9205048534524367
 41
4.712388980384901
 42
5.53394721729183
  0
ELLIPSE
  5
5F0
330
1F
100
AcDbEntity
  8
Visible (ISO)
100
AcDbEllipse
 10
1297.965876107967
 20
212.909785637322
 30
0.0
 11
-0.0000000000052847
 21
-18.41009706904868
 31
0.0
210
0.0
220
0.0
230
1.0
 40
0.5431801887026503
 41
0.0
 42
0.8215582369063696
  0
ELLIPSE
  5
5F1
330
1F
100
AcDbEntity
  8
Visible (ISO)
100
AcDbEllipse
 10
1352.149268397498
 20
175.1230614030997
 30
0.0
 11
-63.99999999999984
 21
0.0000000000389522
 31
0.0
210
0.0
220
0.0
230
1.0
 40
0.9205048534524365
 41
3.890830743478283
 42
4.345907017543867
  0
ELLIPSE
  5
5F2
330
1F
100
AcDbEntity
  8
Visible (ISO)
100
AcDbEllipse
 10
1352.14926839746
 20
120.1228964093167
 30
0.0
 11
-0.0000000000338255
 21
-117.8246212419116
 31
0.0
210
0.0
220
0.0
230
1.0
 40
0.5431801887026503
 41
2.320034416682037
 42
2.775110690747336
  0
LINE
  5
5F3
330
1F
100
AcDbEntity
  8
Visible (ISO)
100
AcDbLine
 10
1433.149268397492
 20
212.3114574825772
 30
0.0
 11
1406.332660687013
 21
212.3114574825772
 31
0.0
  0
LINE
  5
5F4
330
1F
100
AcDbEntity
  8
Visible (ISO)
100
AcDbLine
 10
1271.149268397494
 20
212.3114574825776
 30
0.0
 11
1297.965876107974
 21
212.3114574825776
 31
0.0
  0
ELLIPSE
  5
5F5
330
1F
100
AcDbEntity
  8
Visible (ISO)
100
AcDbEllipse
 10
1352.149268397498
 20
175.1230614030997
 30
0.0
 11
63.99999999999981
 21
-0.000000000051148
 31
0.0
210
0.0
220
0.0
230
1.0
 40
0.9205048534524367
 41
1.937278289637246
 42
2.392354563702838
  0
ELLIPSE
  5
5F6
330
1F
100
AcDbEntity
  8
Visible (ISO)
100
AcDbEllipse
 10
1352.14926839746
 20
120.1228964093167
 30
0.0
 11
-0.0000000000338255
 21
-117.8246212419116
 31
0.0
210
0.0
220
0.0
230
1.0
 40
0.5431801887026503
 41
3.508074616430313
 42
3.963150890496171
  0
LINE
  5
5F7
330
1F
100
AcDbEntity
  8
Visible (ISO)
100
AcDbLine
 10
1271.149268397482
 20
194.499688568273
 30
0.0
 11
1271.149268397494
 21
212.3114574825776
 31
0.0
  0
LINE
  5
5F8
330
1F
100
AcDbEntity
  8
Visible (ISO)
100
AcDbLine
 10
1297.965876107961
 20
194.499688568273
 30
0.0
 11
1271.149268397482
 21
194.499688568273
 31
0.0
  0
LINE
  5
5F9
330
1F
100
AcDbEntity
  8
Visible (ISO)
100
AcDbLine
 10
1433.149268397482
 20
194.499688568273
 30
0.0
 11
1406.332660687
 21
194.499688568273
 31
0.0
  0
LINE
  5
5FA
330
1F
100
AcDbEntity
  8
Visible (ISO)
100
AcDbLine
 10
1433.149268397492
 20
212.3114574825772
 30
0.0
 11
1433.149268397482
 21
194.499688568273
 31
0.0
  0
LINE
  5
5FB
330
1F
100
AcDbEntity
  8
Visible (ISO)
100
AcDbLine
 10
1433.149268397492
 20
222.5536315745011
 30
0.0
 11
1433.149268397492
 21
212.3114574825776
 31
0.0
  0
ELLIPSE
  5
5FC
330
1F
100
AcDbEntity
  8
Visible (ISO)
100
AcDbEllipse
 10
1352.149268397498
 20
175.1230614030993
 30
0.0
 11
96.00000000000006
 21
-0.0000000000675737
 31
0.0
210
0.0
220
0.0
230
1.0
 40
0.9205048534524367
 41
0.5665643306218451
 42
1.004231996174581
  0
LINE
  5
5FD
330
1F
100
AcDbEntity
  8
Visible (ISO)
100
AcDbLine
 10
1300.622576285536
 20
249.6839545327466
 30
0.0
 11
1403.675960509442
 21
249.6839545327466
 31
0.0
  0
ELLIPSE
  5
5FE
330
1F
100
AcDbEntity
  8
Visible (ISO)
100
AcDbEllipse
 10
1352.149268397498
 20
175.1230614030997
 30
0.0
 11
95.99999999999983
 21
-0.0000000000766165
 31
0.0
210
0.0
220
0.0
230
1.0
 40
0.9205048534524367
 41
2.137360657416845
 42
2.5750283229696
  0
LINE
  5
5FF
330
1F
100
AcDbEntity
  8
Visible (ISO)
100
AcDbLine
 10
1271.149268397494
 20
212.3114574825776
 30
0.0
 11
1271.149268397492
 21
222.5536315745011
 31
0.0
  0
ELLIPSE
  5
600
330
1F
100
AcDbEntity
  8
Visible (ISO)
100
AcDbEllipse
 10
1352.149268397482
 20
175.123061403077
 30
0.0
 11
-95.99999999997017
 21
0.0000000000675848
 31
0.0
210
0.0
220
0.0
230
1.0
 40
0.9205048534524367
 41
0.9757684398815236
 42
1.00423199617459
  0
ELLIPSE
  5
601
330
1F
100
AcDbEntity
  8
Visible (ISO)
100
AcDbEllipse
 10
1352.149268397498
 20
175.1230614030988
 30
0.0
 11
-95.99999999999891
 21
0.0000000000675626
 31
0.0
210
0.0
220
0.0
230
1.0
 40
0.9205048534524371
 41
0.6717999668554669
 42
0.8586927044652981
  0
LINE
  5
602
330
1F
100
AcDbEntity
  8
Visible (ISO)
100
AcDbLine
 10
1403.67596050946
 20
100.5621682734517
 30
0.0
 11
1300.622576285554
 21
100.5621682734517
 31
0.0
  0
ELLIPSE
  5
603
330
1F
100
AcDbEntity
  8
Visible (ISO)
100
AcDbEllipse
 10
1352.1492683975
 20
175.1230614030979
 30
0.0
 11
-95.99999999999756
 21
0.0000000000766887
 31
0.0
210
0.0
220
0.0
230
1.0
 40
0.9205048534524367
 41
2.282899949126131
 42
2.469792686735971
  0
ELLIPSE
  5
604
330
1F
100
AcDbEntity
  8
Visible (ISO)
100
AcDbEllipse
 10
1352.149268397556
 20
175.1230614030165
 30
0.0
 11
-95.9999999998922
 21
0.000000000076722
 31
0.0
210
0.0
220
0.0
230
1.0
 40
0.9205048534524365
 41
2.137360657416824
 42
2.165824213709903
  0
LINE
  5
605
330
1F
100
AcDbEntity
  8
Visible (ISO)
100
AcDbLine
 10
1433.149268397496
 20
229.1960607588189
 30
0.0
 11
1433.149268397492
 21
222.5536315745011
 31
0.0
  0
LINE
  5
606
330
1F
100
AcDbEntity
  8
Visible (ISO)
100
AcDbLine
 10
1271.149268397498
 20
229.1960607588189
 30
0.0
 11
1271.149268397492
 21
222.5536315745011
 31
0.0
  0
LINE
  5
607
330
1F
100
AcDbEntity
  8
Visible (ISO)
100
AcDbLine
 10
1403.675960509445
 20
256.3263837170643
 30
0.0
 11
1300.62257628554
 21
256.3263837170643
 31
0.0
  0
ELLIPSE
  5
608
330
1F
100
AcDbEntity
  8
Visible (ISO)
100
AcDbEllipse
 10
1352.149268397504
 20
181.765490587417
 30
0.0
 11
-95.99999999999981
 21
0.0000000000584255
 31
0.0
210
0.0
220
0.0
230
1.0
 40
0.9205048534524369
 41
3.708156984211512
 42
4.145824649764271
  0
ELLIPSE
  5
609
330
1F
100
AcDbEntity
  8
Visible (ISO)
100
AcDbEllipse
 10
1352.149268397504
 20
181.765490587417
 30
0.0
 11
-95.99999999999965
 21
0.0000000000675626
 31
0.0
210
0.0
220
0.0
230
1.0
 40
0.9205048534524367
 41
5.278953311006532
 42
5.716620976559271
  0
LINE
  5
60A
330
1F
100
AcDbEntity
  8
Visible (ISO)
100
AcDbLine
 10
1403.675960509445
 20
256.3263837170643
 30
0.0
 11
1403.675960509442
 21
249.6839545327466
 31
0.0
  0
LINE
  5
60B
330
1F
100
AcDbEntity
  8
Visible (ISO)
100
AcDbLine
 10
1300.62257628554
 20
256.3263837170643
 30
0.0
 11
1300.622576285536
 21
249.6839545327466
 31
0.0
  0
LINE
  5
60C
330
1F
100
AcDbEntity
  8
Visible (ISO)
100
AcDbLine
 10
1329.215941120362
 20
230.1232263968822
 30
0.0
 11
1375.082595674624
 21
230.1232263968822
 31
0.0
  0
LINE
  5
60D
330
1F
100
AcDbEntity
  8
Visible (ISO)
100
AcDbLine
 10
1433.149268397474
 20
172.7074803287105
 30
0.0
 11
1433.149268397482
 21
194.4996885682726
 31
0.0
  0
LINE
  5
60E
330
1F
100
AcDbEntity
  8
Visible (ISO)
100
AcDbLine
 10
1433.14926839748
 20
121.9507030238487
 30
0.0
 11
1433.149268397474
 21
169.4513118318655
 31
0.0
  0
LINE
  5
60F
330
1F
100
AcDbEntity
  8
Visible (ISO)
100
AcDbLine
 10
1271.149268397482
 20
194.499688568273
 30
0.0
 11
1271.149268397474
 21
172.7074803287105
 31
0.0
  0
LINE
  5
610
330
1F
100
AcDbEntity
  8
Visible (ISO)
100
AcDbLine
 10
1271.149268397474
 20
169.4513118318659
 30
0.0
 11
1271.14926839748
 21
121.9507030238487
 31
0.0
  0
ELLIPSE
  5
611
330
1F
100
AcDbEntity
  8
Visible (ISO)
100
AcDbEllipse
 10
1406.14342761116
 20
234.3554621426075
 30
0.0
 11
-8.999999999999982
 21
0.0
 31
0.0
210
0.0
220
0.0
230
1.0
 40
0.9205048534524367
 41
3.141592653589526
 42
6.283185307179319
  0
ELLIPSE
  5
612
330
1F
100
AcDbEntity
  8
Visible (ISO)
100
AcDbEllipse
 10
1298.155109183821
 20
234.3554621426075
 30
0.0
 11
-8.999999999999982
 21
-0.0000000000000164
 31
0.0
210
0.0
220
0.0
230
1.0
 40
0.9205048534524367
 41
3.141592653589524
 42
6.283185307179317
  0
ELLIPSE
  5
613
330
1F
100
AcDbEntity
  8
Visible (ISO)
100
AcDbEllipse
 10
1298.155109183818
 20
228.6898607795129
 30
0.0
 11
8.999999999999978
 21
0.0
 31
0.0
210
0.0
220
0.0
230
1.0
 40
0.9205048534524369
 41
0.0
 42
6.283185307179586
  0
ELLIPSE
  5
614
330
1F
100
AcDbEntity
  8
Visible (ISO)
100
AcDbEllipse
 10
1406.143427611156
 20
228.6898607795129
 30
0.0
 11
-8.999999999999978
 21
0.0
 31
0.0
210
0.0
220
0.0
230
1.0
 40
0.9205048534524369
 41
0.0
 42
6.283185307179586
  0
LINE
  5
615
330
1F
100
AcDbEntity
  8
Visible (ISO)
100
AcDbLine
 10
1307.155109183821
 20
234.3554621426073
 30
0.0
 11
1307.155109183818
 21
228.6898607795128
 31
0.0
  0
LINE
  5
616
330
1F
100
AcDbEntity
  8
Visible (ISO)
100
AcDbLine
 10
1289.155109183822
 20
234.3554621426073
 30
0.0
 11
1289.155109183818
 21
228.6898607795128
 31
0.0
  0
LINE
  5
617
330
1F
100
AcDbEntity
  8
Visible (ISO)
100
AcDbLine
 10
1397.143427611156
 20
228.6898607795128
 30
0.0
 11
1397.14342761116
 21
234.3554621426073
 31
0.0
  0
LINE
  5
618
330
1F
100
AcDbEntity
  8
Visible (ISO)
100
AcDbLine
 10
1415.143427611156
 20
228.6898607795128
 30
0.0
 11
1415.14342761116
 21
234.3554621426073
 31
0.0
  0
ELLIPSE
  5
619
330
1F
100
AcDbEntity
  8
Visible (ISO)
100
AcDbEllipse
 10
1406.143427611175
 20
115.8906606635915
 30
0.0
 11
-9.000000000000044
 21
0.0000000000000245
 31
0.0
210
0.0
220
0.0
230
1.0
 40
0.9205048534524367
 41
5.747001299033994
 42
6.283185307179323
  0
ELLIPSE
  5
61A
330
1F
100
AcDbEntity
  8
Visible (ISO)
100
AcDbEllipse
 10
1406.143427611175
 20
115.8906606635915
 30
0.0
 11
9.000000000000017
 21
-0.000000000006338
 31
0.0
210
0.0
220
0.0
230
1.0
 40
0.9205048534524369
 41
0.0
 42
0.5361840081461367
  0
ELLIPSE
  5
61B
330
1F
100
AcDbEntity
  8
Visible (ISO)
100
AcDbEllipse
 10
1406.143427611171
 20
110.225059300497
 30
0.0
 11
8.999999999999978
 21
0.0
 31
0.0
210
0.0
220
0.0
230
1.0
 40
0.9205048534524369
 41
0.0
 42
6.283185307179586
  0
LINE
  5
61C
330
1F
100
AcDbEntity
  8
Visible (ISO)
100
AcDbLine
 10
1415.143427611175
 20
115.8906606635914
 30
0.0
 11
1415.143427611171
 21
110.2250593004969
 31
0.0
  0
LINE
  5
61D
330
1F
100
AcDbEntity
  8
Visible (ISO)
100
AcDbLine
 10
1397.143427611175
 20
115.8906606635914
 30
0.0
 11
1397.143427611171
 21
110.2250593004969
 31
0.0
  0
ELLIPSE
  5
61E
330
1F
100
AcDbEntity
  8
Visible (ISO)
100
AcDbEllipse
 10
1298.155109183838
 20
115.8906606635915
 30
0.0
 11
-9.00000000000006
 21
-0.0000000000000164
 31
0.0
210
0.0
220
0.0
230
1.0
 40
0.9205048534524367
 41
5.74700129903401
 42
6.283185307179317
  0
ELLIPSE
  5
61F
330
1F
100
AcDbEntity
  8
Visible (ISO)
100
AcDbEllipse
 10
1298.155109183836
 20
115.8906606635915
 30
0.0
 11
8.99999999999995
 21
-0.0000000000063338
 31
0.0
210
0.0
220
0.0
230
1.0
 40
0.9205048534524367
 41
0.0
 42
0.5361840081461358
  0
ELLIPSE
  5
620
330
1F
100
AcDbEntity
  8
Visible (ISO)
100
AcDbEllipse
 10
1298.155109183833
 20
110.225059300497
 30
0.0
 11
-8.999999999999978
 21
0.0
 31
0.0
210
0.0
220
0.0
230
1.0
 40
0.9205048534524369
 41
0.0
 42
6.283185307179586
  0
LINE
  5
621
330
1F
100
AcDbEntity
  8
Visible (ISO)
100
AcDbLine
 10
1289.155109183832
 20
110.2250593004969
 30
0.0
 11
1289.155109183836
 21
115.8906606635914
 31
0.0
  0
LINE
  5
622
330
1F
100
AcDbEntity
  8
Visible (ISO)
100
AcDbLine
 10
1307.155109183832
 20
110.2250593004969
 30
0.0
 11
1307.155109183836
 21
115.8906606635914
 31
0.0
  0
LINE
  5
623
330
1F
100
AcDbEntity
  8
Visible (ISO)
100
AcDbLine
 10
1433.149268397474
 20
172.7074803287105
 30
0.0
 11
1433.149268397474
 21
169.4513118318659
 31
0.0
  0
LINE
  5
624
330
1F
100
AcDbEntity
  8
Visible (ISO)
100
AcDbLine
 10
1433.14926839748
 20
121.9507030238487
 30
0.0
 11
1433.149268397482
 21
120.1228964093161
 31
0.0
  0
LINE
  5
625
330
1F
100
AcDbEntity
  8
Visible (ISO)
100
AcDbLine
 10
1271.149268397482
 20
120.1228964093161
 30
0.0
 11
1271.14926839748
 21
121.9507030238487
 31
0.0
  0
LINE
  5
626
330
1F
100
AcDbEntity
  8
Visible (ISO)
100
AcDbLine
 10
1271.149268397474
 20
169.4513118318659
 30
0.0
 11
1271.149268397474
 21
172.7074803287105
 31
0.0
  0
LINE
  5
627
330
1F
100
AcDbEntity
  8
Visible (ISO)
100
AcDbLine
 10
1392.61337001262
 20
120.1228964093161
 30
0.0
 11
1433.149268397482
 21
120.1228964093161
 31
0.0
  0
LINE
  5
628
330
1F
100
AcDbEntity
  8
Visible (ISO)
100
AcDbLine
 10
1392.61337001262
 20
120.1228964093165
 30
0.0
 11
1390.015293801266
 21
120.1228964093165
 31
0.0
  0
LINE
  5
629
330
1F
100
AcDbEntity
  8
Visible (ISO)
100
AcDbLine
 10
1372.067852684534
 20
120.1228964093165
 30
0.0
 11
1390.015293801266
 21
120.1228964093165
 31
0.0
  0
LINE
  5
62A
330
1F
100
AcDbEntity
  8
Visible (ISO)
100
AcDbLine
 10
1332.23068411045
 20
120.1228964093165
 30
0.0
 11
1372.067852684534
 21
120.1228964093165
 31
0.0
  0
LINE
  5
62B
330
1F
100
AcDbEntity
  8
Visible (ISO)
100
AcDbLine
 10
1314.283242993698
 20
120.1228964093161
 30
0.0
 11
1332.23068411045
 21
120.1228964093161
 31
0.0
  0
LINE
  5
62C
330
1F
100
AcDbEntity
  8
Visible (ISO)
100
AcDbLine
 10
1314.283242993698
 20
120.1228964093165
 30
0.0
 11
1311.685166782344
 21
120.1228964093165
 31
0.0
  0
LINE
  5
62D
330
1F
100
AcDbEntity
  8
Visible (ISO)
100
AcDbLine
 10
1271.149268397482
 20
120.1228964093165
 30
0.0
 11
1311.685166782344
 21
120.1228964093165
 31
0.0
  0
LINE
  5
62E
330
1F
100
AcDbEntity
  8
Visible (ISO)
100
AcDbLine
 10
1225.149268397489
 20
207.2795933651905
 30
0.0
 11
1225.149268397489
 21
116.2795933651909
 31
0.0
  0
LINE
  5
62F
330
1F
100
AcDbEntity
  8
Visible (ISO)
100
AcDbLine
 10
1227.999268397489
 20
207.2795933651905
 30
0.0
 11
1227.999268397489
 21
116.2795933651909
 31
0.0
  0
LINE
  5
630
330
1F
100
AcDbEntity
  8
Visible (ISO)
100
AcDbLine
 10
1230.674449619346
 20
199.9295933651906
 30
0.0
 11
1230.674449619346
 21
123.6295933651908
 31
0.0
  0
LINE
  5
631
330
1F
100
AcDbEntity
  8
Visible (ISO)
100
AcDbLine
 10
1227.999268397489
 20
116.2795933651909
 30
0.0
 11
1225.149268397489
 21
116.2795933651909
 31
0.0
  0
LINE
  5
632
330
1F
100
AcDbEntity
  8
Visible (ISO)
100
AcDbLine
 10
1227.999268397489
 20
207.2795933651905
 30
0.0
 11
1225.149268397489
 21
207.2795933651905
 31
0.0
  0
LINE
  5
633
330
1F
100
AcDbEntity
  8
Visible (ISO)
100
AcDbLine
 10
1230.674449619346
 20
123.6295933651908
 30
0.0
 11
1227.999268397489
 21
116.2795933651909
 31
0.0
  0
LINE
  5
634
330
1F
100
AcDbEntity
  8
Visible (ISO)
100
AcDbLine
 10
1230.674449619346
 20
199.9295933651906
 30
0.0
 11
1227.999268397489
 21
207.2795933651905
 31
0.0
  0
LINE
  5
635
330
1F
100
AcDbEntity
  8
Visible (ISO)
100
AcDbLine
 10
1271.149268397489
 20
123.6295933651908
 30
0.0
 11
1230.674449619346
 21
123.6295933651908
 31
0.0
  0
LINE
  5
636
330
1F
100
AcDbEntity
  8
Visible (ISO)
100
AcDbLine
 10
1271.149268397489
 20
199.9295933651906
 30
0.0
 11
1230.674449619346
 21
199.9295933651906
 31
0.0
  0
LINE
  5
637
330
1F
100
AcDbEntity
  8
Visible (ISO)
100
AcDbLine
 10
1479.149268397489
 20
207.2795933651905
 30
0.0
 11
1479.149268397489
 21
116.2795933651909
 31
0.0
  0
LINE
  5
638
330
1F
100
AcDbEntity
  8
Visible (ISO)
100
AcDbLine
 10
1476.299268397489
 20
207.2795933651905
 30
0.0
 11
1476.299268397489
 21
116.2795933651909
 31
0.0
  0
LINE
  5
639
330
1F
100
AcDbEntity
  8
Visible (ISO)
100
AcDbLine
 10
1473.624087175631
 20
199.9295933651906
 30
0.0
 11
1473.624087175631
 21
123.6295933651908
 31
0.0
  0
LINE
  5
63A
330
1F
100
AcDbEntity
  8
Visible (ISO)
100
AcDbLine
 10
1479.149268397489
 20
116.2795933651909
 30
0.0
 11
1476.299268397489
 21
116.2795933651909
 31
0.0
  0
LINE
  5
63B
330
1F
100
AcDbEntity
  8
Visible (ISO)
100
AcDbLine
 10
1479.149268397489
 20
207.2795933651905
 30
0.0
 11
1476.299268397489
 21
207.2795933651905
 31
0.0
  0
LINE
  5
63C
330
1F
100
AcDbEntity
  8
Visible (ISO)
100
AcDbLine
 10
1473.624087175631
 20
199.9295933651906
 30
0.0
 11
1476.299268397489
 21
207.2795933651905
 31
0.0
  0
LINE
  5
63D
330
1F
100
AcDbEntity
  8
Visible (ISO)
100
AcDbLine
 10
1473.624087175631
 20
123.6295933651908
 30
0.0
 11
1476.299268397489
 21
116.2795933651909
 31
0.0
  0
LINE
  5
63E
330
1F
100
AcDbEntity
  8
Visible (ISO)
100
AcDbLine
 10
1473.624087175631
 20
123.6295933651908
 30
0.0
 11
1433.149268397489
 21
123.6295933651908
 31
0.0
  0
LINE
  5
63F
330
1F
100
AcDbEntity
  8
Visible (ISO)
100
AcDbLine
 10
1473.624087175631
 20
199.9295933651906
 30
0.0
 11
1433.149268397489
 21
199.9295933651906
 31
0.0
  0
ELLIPSE
  5
640
330
1F
100
AcDbEntity
  8
Visible (ISO)
100
AcDbEllipse
 10
1352.149268397505
 20
186.8449952577776
 30
0.0
 11
95.99999999999971
 21
-0.0000000000766665
 31
0.0
210
0.0
220
0.0
230
1.0
 40
0.9205048534524369
 41
2.137360657416849
 42
2.5750283229696
  0
LINE
  5
641
330
1F
100
AcDbEntity
  8
Visible (ISO)
100
AcDbLine
 10
1300.622576285543
 20
261.4058883874245
 30
0.0
 11
1403.675960509449
 21
261.4058883874245
 31
0.0
  0
ELLIPSE
  5
642
330
1F
100
AcDbEntity
  8
Visible (ISO)
100
AcDbEllipse
 10
1352.149268397505
 20
186.8449952577776
 30
0.0
 11
95.99999999999981
 21
-0.0000000000676015
 31
0.0
210
0.0
220
0.0
230
1.0
 40
0.9205048534524367
 41
0.5665643306218425
 42
1.004231996174585
  0
ELLIPSE
  5
643
330
1F
100
AcDbEntity
  8
Visible (ISO)
100
AcDbEllipse
 10
1352.149268397504
 20
182.1562217159063
 30
0.0
 11
-96.00000000000008
 21
0.0000000000583367
 31
0.0
210
0.0
220
0.0
230
1.0
 40
0.9205048534524367
 41
3.708156984211511
 42
4.145824649764267
  0
LINE
  5
644
330
1F
100
AcDbEntity
  8
Visible (ISO)
100
AcDbLine
 10
1403.675960509447
 20
256.7171148455531
 30
0.0
 11
1300.62257628554
 21
256.7171148455531
 31
0.0
  0
ELLIPSE
  5
645
330
1F
100
AcDbEntity
  8
Visible (ISO)
100
AcDbEllipse
 10
1352.149268397504
 20
182.1562217159063
 30
0.0
 11
-95.99999999999969
 21
0.0000000000675959
 31
0.0
210
0.0
220
0.0
230
1.0
 40
0.9205048534524367
 41
5.278953311006532
 42
5.716620976559268
  0
LINE
  5
646
330
1F
100
AcDbEntity
  8
Visible (ISO)
100
AcDbLine
 10
1271.149268397498
 20
229.5867918873081
 30
0.0
 11
1271.149268397498
 21
229.1960607588189
 31
0.0
  0
SPLINE
  5
647
330
1F
100
AcDbEntity
  8
Visible (ISO)
100
AcDbSpline
210
0.0
220
0.0
230
1.0
 70
     8
 71
     3
 72
     8
 73
     4
 74
     0
 42
0.0000000001
 43
0.0000000001
 40
-0.0268635700144264
 40
-0.0268635700144264
 40
-0.0268635700144264
 40
-0.0268635700144264
 40
0.0
 40
0.0
 40
0.0
 40
0.0
 10
1271.3353184666
 20
229.4642143927863
 30
0.0
 10
1271.273302866519
 20
229.5050815921264
 30
0.0
 10
1271.211286135615
 20
229.5459407752101
 30
0.0
 10
1271.149268397498
 20
229.5867918873083
 30
0.0
  0
SPLINE
  5
648
330
1F
100
AcDbEntity
  8
Visible (ISO)
100
AcDbSpline
210
0.0
220
0.0
230
1.0
 70
     8
 71
     3
 72
     8
 73
     4
 74
     0
 42
0.0000000001
 43
0.0000000001
 40
-0.0430264723428459
 40
-0.0430264723428459
 40
-0.0430264723428459
 40
-0.0430264723428459
 40
0.0
 40
0.0
 40
0.0
 40
0.0
 10
1300.709396766748
 20
256.3263837170644
 30
0.0
 10
1300.68043303586
 20
256.4566235945604
 30
0.0
 10
1300.651492865888
 20
256.5868675260486
 30
0.0
 10
1300.62257628554
 20
256.7171148455537
 30
0.0
  0
SPLINE
  5
649
330
1F
100
AcDbEntity
  8
Visible (ISO)
100
AcDbSpline
210
0.0
220
0.0
230
1.0
 70
     8
 71
     3
 72
     8
 73
     4
 74
     0
 42
0.0000000001
 43
0.0000000001
 40
-0.0430264723434126
 40
-0.0430264723434126
 40
-0.0430264723434126
 40
-0.0430264723434126
 40
0.0
 40
0.0
 40
0.0
 40
0.0
 10
1403.589140028238
 20
256.3263837170644
 30
0.0
 10
1403.618103759127
 20
256.4566235945586
 30
0.0
 10
1403.647043929099
 20
256.5868675260468
 30
0.0
 10
1403.675960509447
 20
256.7171148455537
 30
0.0
  0
SPLINE
  5
64A
330
1F
100
AcDbEntity
  8
Visible (ISO)
100
AcDbSpline
210
0.0
220
0.0
230
1.0
 70
     8
 71
     3
 72
     8
 73
     4
 74
     0
 42
0.0000000001
 43
0.0000000001
 40
-0.0268635700143888
 40
-0.0268635700143888
 40
-0.0268635700143888
 40
-0.0268635700143888
 40
0.0
 40
0.0
 40
0.0
 40
0.0
 10
1432.963218328394
 20
229.4642143927863
 30
0.0
 10
1433.025233928475
 20
229.5050815921264
 30
0.0
 10
1433.087250659381
 20
229.5459407752101
 30
0.0
 10
1433.149268397498
 20
229.5867918873083
 30
0.0
  0
LINE
  5
64B
330
1F
100
AcDbEntity
  8
Visible (ISO)
100
AcDbLine
 10
1433.149268397498
 20
229.1960607588189
 30
0.0
 11
1433.149268397498
 21
229.5867918873077
 31
0.0
  0
LINE
  5
64C
330
1F
100
AcDbEntity
  8
Visible (ISO)
100
AcDbLine
 10
1403.675960509449
 20
261.4058883874245
 30
0.0
 11
1403.675960509447
 21
256.7171148455531
 31
0.0
  0
LINE
  5
64D
330
1F
100
AcDbEntity
  8
Visible (ISO)
100
AcDbLine
 10
1433.1492683975
 20
234.275565429179
 30
0.0
 11
1433.149268397498
 21
229.5867918873081
 31
0.0
  0
LINE
  5
64E
330
1F
100
AcDbEntity
  8
Visible (ISO)
100
AcDbLine
 10
1300.622576285543
 20
261.4058883874245
 30
0.0
 11
1300.62257628554
 21
256.7171148455536
 31
0.0
  0
LINE
  5
64F
330
1F
100
AcDbEntity
  8
Visible (ISO)
100
AcDbLine
 10
1271.149268397502
 20
234.2755654291795
 30
0.0
 11
1271.149268397498
 21
229.5867918873081
 31
0.0
  0
SPLINE
  5
650
330
1F
100
AcDbEntity
  8
Visible (ISO)
100
AcDbSpline
210
0.0
220
0.0
230
1.0
 70
     8
 71
     3
 72
    16
 73
    12
 74
     0
 42
0.0000000001
 43
0.0000000001
 40
1.030313101050158
 40
1.030313101050158
 40
1.030313101050158
 40
1.030313101050158
 40
1.246506391348054
 40
1.246506391348054
 40
1.46269968164595
 40
1.46269968164595
 40
1.678892971943847
 40
1.678892971943847
 40
1.895086262241743
 40
1.895086262241743
 40
2.111279552539639
 40
2.111279552539639
 40
2.111279552539639
 40
2.111279552539639
 10
1392.503342774372
 20
314.3117678721902
 30
0.0
 10
1387.642544658571
 20
316.9967886215837
 30
0.0
 10
1382.473897549315
 20
319.1916863638031
 30
0.0
 10
1371.757467970045
 20
322.5077182486267
 30
0.0
 10
1366.209992105982
 20
323.6288076012525
 30
0.0
 10
1354.986915045346
 20
324.7499129657513
 30
0.0
 10
1349.311621749741
 20
324.7499129657513
 30
0.0
 10
1338.088544689105
 20
323.6288076012525
 30
0.0
 10
1332.541068825042
 20
322.5077182486267
 30
0.0
 10
1321.824639245774
 20
319.1916863638031
 30
0.0
 10
1316.655992136516
 20
316.9967886215837
 30
0.0
 10
1311.795194020717
 20
314.3117678721902
 30
0.0
  0
LINE
  5
651
330
1F
100
AcDbEntity
  8
0
  6
CENTER
100
AcDbLine
 10
1681.928440016644
 20
140.4531892962813
 30
0.0
 11
2001.354389861645
 21
276.0414606493181
 31
0.0
  0
LINE
  5
652
330
1F
100
AcDbEntity
  8
0
  6
CENTER
 62
     0
370
    25
100
AcDbLine
 10
1732.17029949672
 20
100.8503627461823
 30
0.0
 11
1732.17029949672
 21
222.7088239842005
 31
0.0
  0
LINE
  5
653
330
1F
100
AcDbEntity
  8
0
  6
CENTER
 62
     0
370
    25
100
AcDbLine
 10
1671.241068877711
 20
161.7795933651914
 30
0.0
 11
1793.099530115729
 21
161.7795933651914
 31
0.0
  0
LINE
  5
654
330
1F
100
AcDbEntity
  8
0
  6
CENTER
100
AcDbLine
 10
1689.291049790595
 20
831.7007007629479
 30
0.0
 11
2007.48830802372
 21
831.7007007629802
 31
0.0
  0
LINE
  5
655
330
1F
100
AcDbEntity
  8
0
  6
CENTER
100
AcDbLine
 10
1732.170299497605
 20
671.3651424701536
 30
0.0
 11
1732.170299497605
 21
992.0362590557513
 31
0.0
  0
LINE
  5
656
330
1F
100
AcDbEntity
  8
0
  6
CENTER
100
AcDbLine
 10
2414.081838025877
 20
161.7795933651909
 30
0.0
 11
2086.675766984324
 21
161.7795933651909
 31
0.0
  0
LINE
  5
657
330
1F
100
AcDbEntity
  8
0
  6
CENTER
100
AcDbLine
 10
2250.378802505101
 20
89.86319402526305
 30
0.0
 11
2250.378802505101
 21
345.3211800750209
 31
0.0
  0
LINE
  5
658
330
1F
100
AcDbEntity
  8
0
  6
CENTER
100
AcDbLine
 10
1515.852303918255
 20
161.7795933651909
 30
0.0
 11
1188.446232876701
 21
161.7795933651909
 31
0.0
  0
LINE
  5
659
330
1F
100
AcDbEntity
  8
0
  6
CENTER
100
AcDbLine
 10
1352.149268397478
 20
89.86319402526305
 30
0.0
 11
1352.149268397478
 21
342.6409703737222
 31
0.0
  0
VIEWPORT
  5
71
330
55
100
AcDbEntity
 67
     1
  8
0
100
AcDbViewport
 10
133.3499908447265
 20
101.5999970436096
 30
0.0
 40
381.3957395593834
 41
218.2856291881582
 68
     1
 69
     1
 12
133.3499908447265
 22
101.5999970436096
 13
0.0
 23
0.0
 14
10.0
 24
10.0
 15
10.0
 25
10.0
 16
0.0
 26
0.0
 36
1.0
 17
0.0
 27
0.0
 37
0.0
 42
50.0
 43
0.0
 44
0.0
 45
218.2856291881582
 50
0.0
 51
0.0
 72
   100
 90
    32800
  1

281
     0
 71
     1
 74
     0
110
0.0
120
0.0
130
0.0
111
1.0
121
0.0
131
0.0
112
0.0
122
1.0
132
0.0
 79
     0
146
0.0
  0
VIEWPORT
  5
73
330
55
100
AcDbEntity
 67
     1
  8
0
100
AcDbViewport
 10
133.349993944168
 20
101.599993944168
 30
0.0
 40
213.3599903106689
 41
162.5599903106689
 68
     2
 69
     2
 12
210.0
 22
148.5
 13
0.0
 23
0.0
 14
10.0
 24
10.0
 15
10.0
 25
10.0
 16
0.0
 26
0.0
 36
1.0
 17
0.0
 27
0.0
 37
0.0
 42
50.0
 43
0.0
 44
0.0
 45
324.0677920111345
 50
0.0
 51
0.0
 72
   100
 90
    32864
  1

281
     0
 71
     1
 74
     0
110
0.0
120
0.0
130
0.0
111
1.0
121
0.0
131
0.0
112
0.0
122
1.0
132
0.0
 79
     0
146
0.0
  0
ENDSEC
  0
SECTION
  2
OBJECTS
  0
DICTIONARY
  5
C
330
0
100
AcDbDictionary
281
     1
  3
ACAD_GROUP
350
D
  3
ACAD_LAYOUT
350
1A
  3
ACAD_MLINESTYLE
350
17
  3
ACAD_PLOTSETTINGS
350
19
  3
ACAD_PLOTSTYLENAME
350
E
  3
AcDbVariableDictionary
350
5E
  0
DICTIONARY
  5
342
330
2
100
AcDbDictionary
280
     1
281
     1
  3
ACAD_LAYERSTATES
360
343
  0
DICTIONARY
  5
2FA
330
1F
100
AcDbDictionary
280
     1
281
     1
  3
ACAD_LAYOUTSELFREF
360
331
  0
DICTIONARY
  5
2FC
330
55
100
AcDbDictionary
280
     1
281
     1
  3
ACAD_LAYOUTSELFREF
360
335
  0
DICTIONARY
  5
2FE
330
50
100
AcDbDictionary
280
     1
281
     1
  3
ACAD_LAYOUTSELFREF
360
334
  0
DICTIONARY
  5
D
102
{ACAD_REACTORS
330
C
102
}
330
C
100
AcDbDictionary
281
     1
  0
DICTIONARY
  5
1A
102
{ACAD_REACTORS
330
C
102
}
330
C
100
AcDbDictionary
281
     1
  3
Model
350
22
  3
ﾚｲｱｳﾄ1
350
51
  3
ﾚｲｱｳﾄ2
350
56
  0
DICTIONARY
  5
17
102
{ACAD_REACTORS
330
C
102
}
330
C
100
AcDbDictionary
281
     1
  3
Standard
350
18
  0
DICTIONARY
  5
19
102
{ACAD_REACTORS
330
C
102
}
330
C
100
AcDbDictionary
281
     1
  0
ACDBDICTIONARYWDFLT
  5
E
102
{ACAD_REACTORS
330
C
102
}
330
C
100
AcDbDictionary
281
     1
  3
Normal
350
F
100
AcDbDictionaryWithDefault
340
F
  0
DICTIONARY
  5
5E
102
{ACAD_REACTORS
330
C
102
}
330
C
100
AcDbDictionary
281
     1
  3
DIMASSOC
350
5F
  3
HIDETEXT
350
63
  0
DICTIONARY
  5
343
102
{ACAD_REACTORS
330
342
102
}
330
342
100
AcDbDictionary
281
     1
  0
XRECORD
  5
331
102
{ACAD_REACTORS
330
2FA
102
}
330
2FA
100
AcDbXrecord
280
     1
340
1F
  0
XRECORD
  5
335
102
{ACAD_REACTORS
330
2FC
102
}
330
2FC
100
AcDbXrecord
280
     1
340
55
  0
XRECORD
  5
334
102
{ACAD_REACTORS
330
2FE
102
}
330
2FE
100
AcDbXrecord
280
     1
340
50
  0
LAYOUT
  5
22
102
{ACAD_REACTORS
330
1A
102
}
330
1A
100
AcDbPlotSettings
  1

  2
none_device
  4
ANSI_A_(8.50_x_11.00_Inches)
  6

 40
6.349999904632568
 41
19.04999923706054
 42
6.350006103515625
 43
19.04998779296875
 44
215.8999938964843
 45
279.3999938964843
 46
0.0
 47
0.0
 48
0.0
 49
0.0
140
0.0
141
0.0
142
1.0
143
78.436453180766
 70
 11952
 72
     0
 73
     1
 74
     0
  7

 75
     0
147
0.0127491741332998
148
0.0
149
0.0
100
AcDbLayout
  1
Model
 70
     1
 71
     0
 10
0.0
 20
0.0
 11
12.0
 21
9.0
 12
0.0
 22
0.0
 32
0.0
 14
0.0
 24
0.0
 34
0.0
 15
0.0
 25
0.0
 35
0.0
146
0.0
 13
0.0
 23
0.0
 33
0.0
 16
1.0
 26
0.0
 36
0.0
 17
0.0
 27
1.0
 37
0.0
 76
     0
330
1F
  0
LAYOUT
  5
51
102
{ACAD_REACTORS
330
1A
102
}
330
1A
100
AcDbPlotSettings
  1

  2
none_device
  4
Letter_(8.50_x_11.00_Inches)
  6

 40
6.349999904632568
 41
6.349999904632568
 42
6.350006103515625
 43
6.350006103515625
 44
215.8999938964843
 45
279.3999938964843
 46
0.0
 47
0.0
 48
0.0
 49
0.0
140
0.0
141
0.0
142
1.0
143
1.0
 70
   688
 72
     1
 73
     1
 74
     5
  7

 75
    16
147
1.0
148
0.0
149
0.0
100
AcDbLayout
  1
ﾚｲｱｳﾄ1
 70
     1
 71
     1
 10
-6.350006103515625
 20
-6.349999904632568
 11
273.0499877929687
 21
209.5499939918517
 12
0.0
 22
0.0
 32
0.0
 14
26.66076962115562
 24
20.31135699206657
 34
-0.0015258207003583
 15
240.039213369355
 25
182.8886381005154
 35
0.0000000349246037
146
0.0
 13
0.0
 23
0.0
 33
0.0
 16
1.0
 26
0.0
 36
0.0
 17
0.0
 27
1.0
 37
0.0
 76
     0
330
50
331
6B
  0
LAYOUT
  5
56
102
{ACAD_REACTORS
330
1A
102
}
330
1A
100
AcDbPlotSettings
  1

  2
none_device
  4
Letter_(8.50_x_11.00_Inches)
  6

 40
6.349999904632568
 41
6.349999904632568
 42
6.350006103515625
 43
6.350006103515625
 44
215.8999938964843
 45
279.3999938964843
 46
0.0
 47
0.0
 48
0.0
 49
0.0
140
0.0
141
0.0
142
1.0
143
1.0
 70
   688
 72
     1
 73
     1
 74
     5
  7

 75
    16
147
1.0
148
0.0
149
0.0
100
AcDbLayout
  1
ﾚｲｱｳﾄ2
 70
     1
 71
     2
 10
-6.350006103515625
 20
-6.349999904632568
 11
273.0499877929687
 21
209.5499939918517
 12
0.0
 22
0.0
 32
0.0
 14
26.66076962115562
 24
20.31135699206657
 34
-0.0015258207003583
 15
240.039213369355
 25
182.8886381005154
 35
0.0000000349246037
146
0.0
 13
0.0
 23
0.0
 33
0.0
 16
1.0
 26
0.0
 36
0.0
 17
0.0
 27
1.0
 37
0.0
 76
     0
330
55
331
71
  0
MLINESTYLE
  5
18
102
{ACAD_REACTORS
330
17
102
}
330
17
100
AcDbMlineStyle
  2
STANDARD
 70
     0
  3

 62
   256
 51
90.0
 52
90.0
 71
     2
 49
0.5
 62
   256
  6
BYLAYER
 49
-0.5
 62
   256
  6
BYLAYER
  0
ACDBPLACEHOLDER
  5
F
102
{ACAD_REACTORS
330
E
102
}
330
E
  0
DICTIONARYVAR
  5
5F
102
{ACAD_REACTORS
330
5E
102
}
330
5E
100
DictionaryVariables
280
     0
  1
2
  0
DICTIONARYVAR
  5
63
102
{ACAD_REACTORS
330
5E
102
}
330
5E
100
DictionaryVariables
280
     0
  1
1
  0
ENDSEC
  0
EOF
