  0
SECTION
  2
HEADER
  9
$ACADVER
  1
AC1015
  9
$ACADMAINTVER
 70
    14
  9
$DWGCODEPAGE
  3
ANSI_932
  9
$INSBASE
 10
0.0
 20
0.0
 30
0.0
  9
$EXTMIN
 10
125.3885954339057
 20
97.06662377846805
 30
-0.0000000000112498
  9
$EXTMAX
 10
2339.05222807443
 20
1073.054470267346
 30
0.0000000000002956
  9
$LIMMIN
 10
0.0
 20
0.0
  9
$LIMMAX
 10
420.0
 20
297.0
  9
$ORTHOMODE
 70
     0
  9
$REGENMODE
 70
     1
  9
$FILLMODE
 70
     1
  9
$QTEXTMODE
 70
     0
  9
$MIRRTEXT
 70
     1
  9
$LTSCALE
 40
1.0
  9
$ATTMODE
 70
     1
  9
$TEXTSIZE
 40
2.5
  9
$TRACEWID
 40
1.0
  9
$TEXTSTYLE
  7
Standard
  9
$CLAYER
  8
0
  9
$CELTYPE
  6
ByLayer
  9
$CECOLOR
 62
   256
  9
$CELTSCALE
 40
1.0
  9
$DISPSILH
 70
     0
  9
$DIMSCALE
 40
1.0
  9
$DIMASZ
 40
2.5
  9
$DIMEXO
 40
0.625
  9
$DIMDLI
 40
3.75
  9
$DIMRND
 40
0.0
  9
$DIMDLE
 40
0.0
  9
$DIMEXE
 40
1.25
  9
$DIMTP
 40
0.0
  9
$DIMTM
 40
0.0
  9
$DIMTXT
 40
2.5
  9
$DIMCEN
 40
2.5
  9
$DIMTSZ
 40
0.0
  9
$DIMTOL
 70
     0
  9
$DIMLIM
 70
     0
  9
$DIMTIH
 70
     0
  9
$DIMTOH
 70
     0
  9
$DIMSE1
 70
     0
  9
$DIMSE2
 70
     0
  9
$DIMTAD
 70
     1
  9
$DIMZIN
 70
     8
  9
$DIMBLK
  1

  9
$DIMASO
 70
     1
  9
$DIMSHO
 70
     1
  9
$DIMPOST
  1

  9
$DIMAPOST
  1

  9
$DIMALT
 70
     0
  9
$DIMALTD
 70
     3
  9
$DIMALTF
 40
0.03937007874016
  9
$DIMLFAC
 40
1.0
  9
$DIMTOFL
 70
     1
  9
$DIMTVP
 40
0.0
  9
$DIMTIX
 70
     0
  9
$DIMSOXD
 70
     0
  9
$DIMSAH
 70
     0
  9
$DIMBLK1
  1

  9
$DIMBLK2
  1

  9
$DIMSTYLE
  2
ISO-25
  9
$DIMCLRD
 70
     0
  9
$DIMCLRE
 70
     0
  9
$DIMCLRT
 70
     0
  9
$DIMTFAC
 40
1.0
  9
$DIMGAP
 40
0.625
  9
$DIMJUST
 70
     0
  9
$DIMSD1
 70
     0
  9
$DIMSD2
 70
     0
  9
$DIMTOLJ
 70
     0
  9
$DIMTZIN
 70
     8
  9
$DIMALTZ
 70
     0
  9
$DIMALTTZ
 70
     0
  9
$DIMUPT
 70
     0
  9
$DIMDEC
 70
     2
  9
$DIMTDEC
 70
     2
  9
$DIMALTU
 70
     2
  9
$DIMALTTD
 70
     3
  9
$DIMTXSTY
  7
Standard
  9
$DIMAUNIT
 70
     0
  9
$DIMADEC
 70
     0
  9
$DIMALTRND
 40
0.0
  9
$DIMAZIN
 70
     0
  9
$DIMDSEP
 70
    44
  9
$DIMATFIT
 70
     3
  9
$DIMFRAC
 70
     0
  9
$DIMLDRBLK
  1

  9
$DIMLUNIT
 70
     2
  9
$DIMLWD
 70
    -2
  9
$DIMLWE
 70
    -2
  9
$DIMTMOVE
 70
     0
  9
$LUNITS
 70
     2
  9
$LUPREC
 70
     4
  9
$SKETCHINC
 40
1.0
  9
$FILLETRAD
 40
10.0
  9
$AUNITS
 70
     0
  9
$AUPREC
 70
     0
  9
$MENU
  1
.
  9
$ELEVATION
 40
0.0
  9
$PELEVATION
 40
0.0
  9
$THICKNESS
 40
0.0
  9
$LIMCHECK
 70
     0
  9
$CHAMFERA
 40
10.0
  9
$CHAMFERB
 40
10.0
  9
$CHAMFERC
 40
20.0
  9
$CHAMFERD
 40
0.0
  9
$SKPOLY
 70
     0
  9
$TDCREATE
 40
2454278.668195521
  9
$TDUCREATE
 40
2454278.293195521
  9
$TDUPDATE
 40
2456899.672522257
  9
$TDUUPDATE
 40
2456899.297522256
  9
$TDINDWG
 40
0.0011731481
  9
$TDUSRTIMER
 40
0.0011731481
  9
$USRTIMER
 70
     1
  9
$ANGBASE
 50
0.0
  9
$ANGDIR
 70
     0
  9
$PDMODE
 70
     0
  9
$PDSIZE
 40
0.0
  9
$PLINEWID
 40
0.0
  9
$SPLFRAME
 70
     0
  9
$SPLINETYPE
 70
     6
  9
$SPLINESEGS
 70
     8
  9
$HANDSEED
  5
648
  9
$SURFTAB1
 70
     6
  9
$SURFTAB2
 70
     6
  9
$SURFTYPE
 70
     6
  9
$SURFU
 70
     6
  9
$SURFV
 70
     6
  9
$UCSBASE
  2

  9
$UCSNAME
  2

  9
$UCSORG
 10
0.0
 20
0.0
 30
0.0
  9
$UCSXDIR
 10
1.0
 20
0.0
 30
0.0
  9
$UCSYDIR
 10
0.0
 20
1.0
 30
0.0
  9
$UCSORTHOREF
  2

  9
$UCSORTHOVIEW
 70
     0
  9
$UCSORGTOP
 10
0.0
 20
0.0
 30
0.0
  9
$UCSORGBOTTOM
 10
0.0
 20
0.0
 30
0.0
  9
$UCSORGLEFT
 10
0.0
 20
0.0
 30
0.0
  9
$UCSORGRIGHT
 10
0.0
 20
0.0
 30
0.0
  9
$UCSORGFRONT
 10
0.0
 20
0.0
 30
0.0
  9
$UCSORGBACK
 10
0.0
 20
0.0
 30
0.0
  9
$PUCSBASE
  2

  9
$PUCSNAME
  2

  9
$PUCSORG
 10
0.0
 20
0.0
 30
0.0
  9
$PUCSXDIR
 10
1.0
 20
0.0
 30
0.0
  9
$PUCSYDIR
 10
0.0
 20
1.0
 30
0.0
  9
$PUCSORTHOREF
  2

  9
$PUCSORTHOVIEW
 70
     0
  9
$PUCSORGTOP
 10
0.0
 20
0.0
 30
0.0
  9
$PUCSORGBOTTOM
 10
0.0
 20
0.0
 30
0.0
  9
$PUCSORGLEFT
 10
0.0
 20
0.0
 30
0.0
  9
$PUCSORGRIGHT
 10
0.0
 20
0.0
 30
0.0
  9
$PUCSORGFRONT
 10
0.0
 20
0.0
 30
0.0
  9
$PUCSORGBACK
 10
0.0
 20
0.0
 30
0.0
  9
$USERI1
 70
     0
  9
$USERI2
 70
     0
  9
$USERI3
 70
     0
  9
$USERI4
 70
     0
  9
$USERI5
 70
     0
  9
$USERR1
 40
0.0
  9
$USERR2
 40
0.0
  9
$USERR3
 40
0.0
  9
$USERR4
 40
0.0
  9
$USERR5
 40
0.0
  9
$WORLDVIEW
 70
     1
  9
$SHADEDGE
 70
     3
  9
$SHADEDIF
 70
    70
  9
$TILEMODE
 70
     1
  9
$MAXACTVP
 70
    48
  9
$PINSBASE
 10
0.0
 20
0.0
 30
0.0
  9
$PLIMCHECK
 70
     0
  9
$PEXTMIN
 10
26.66076962115562
 20
20.31135699206657
 30
-0.0015258207003583
  9
$PEXTMAX
 10
240.039213369355
 20
182.8886381005154
 30
0.0000000349246037
  9
$PLIMMIN
 10
-6.350006103515625
 20
-6.349999904632568
  9
$PLIMMAX
 10
273.0499877929687
 20
209.5499939918517
  9
$UNITMODE
 70
     0
  9
$VISRETAIN
 70
     1
  9
$PLINEGEN
 70
     0
  9
$PSLTSCALE
 70
     1
  9
$TREEDEPTH
 70
  3020
  9
$CMLSTYLE
  2
Standard
  9
$CMLJUST
 70
     0
  9
$CMLSCALE
 40
20.0
  9
$PROXYGRAPHICS
 70
     1
  9
$MEASUREMENT
 70
     1
  9
$CELWEIGHT
370
    -1
  9
$ENDCAPS
280
     0
  9
$JOINSTYLE
280
     0
  9
$LWDISPLAY
290
     0
  9
$INSUNITS
 70
     4
  9
$HYPERLINKBASE
  1

  9
$STYLESHEET
  1

  9
$XEDIT
290
     1
  9
$CEPSNTYPE
380
     0
  9
$PSTYLEMODE
290
     1
  9
$FINGERPRINTGUID
  2
{FDEAD578-A652-11D2-9A35-0060089B3A3F}
  9
$VERSIONGUID
  2
{CF60BEA0-48B7-419F-8BD0-0EBE30E1A8B1}
  9
$EXTNAMES
290
     1
  9
$PSVPSCALE
 40
0.0
  9
$OLESTARTUP
290
     0
  0
ENDSEC
  0
SECTION
  2
CLASSES
  0
CLASS
  1
ACDBDICTIONARYWDFLT
  2
AcDbDictionaryWithDefault
  3
AutoCAD 2000
 90
        0
280
     0
281
     0
  0
CLASS
  1
ACDBPLACEHOLDER
  2
AcDbPlaceHolder
  3
AutoCAD 2000
 90
        0
280
     0
281
     0
  0
CLASS
  1
LAYOUT
  2
AcDbLayout
  3
AutoCAD 2000
 90
        0
280
     0
281
     0
  0
CLASS
  1
DICTIONARYVAR
  2
AcDbDictionaryVar
  3
AutoCAD 2000
 90
        0
280
     0
281
     0
  0
CLASS
  1
LONG_TRANSACTION
  2
AcDbLongTransaction
  3
AutoCAD 2000
 90
    32768
280
     0
281
     0
  0
CLASS
  1
LWPOLYLINE
  2
AcDbPolyline
  3
AutoCAD 2000
 90
    32768
280
     0
281
     1
  0
CLASS
  1
HATCH
  2
AcDbHatch
  3
AutoCAD 2000
 90
    32768
280
     0
281
     1
  0
CLASS
  1
XRECORD
  2
AcDbXrecord
  3
AutoCAD 2000
 90
    32768
280
     0
281
     0
  0
ENDSEC
  0
SECTION
  2
TABLES
  0
TABLE
  2
VPORT
  5
8
330
0
100
AcDbSymbolTable
 70
     2
  0
VPORT
  5
647
330
8
100
AcDbSymbolTableRecord
100
AcDbViewportTableRecord
  2
*Active
 70
     0
 10
0.0
 20
0.0
 11
1.0
 21
1.0
 12
1232.220411754167
 22
585.060547022907
 13
0.0
 23
0.0
 14
10.0
 24
10.0
 15
10.0
 25
10.0
 16
0.0
 26
0.0
 36
1.0
 17
0.0
 27
0.0
 37
0.0
 40
1395.896042076462
 41
1.592161016949152
 42
50.0
 43
0.0
 44
0.0
 50
0.0
 51
0.0
 71
     0
 72
   100
 73
     1
 74
     3
 75
     0
 76
     0
 77
     0
 78
     0
281
     0
 65
     1
110
0.0
120
0.0
130
0.0
111
1.0
121
0.0
131
0.0
112
0.0
122
1.0
132
0.0
 79
     0
146
0.0
  0
ENDTAB
  0
TABLE
  2
LTYPE
  5
5
330
0
100
AcDbSymbolTable
 70
     3
  0
LTYPE
  5
14
330
5
100
AcDbSymbolTableRecord
100
AcDbLinetypeTableRecord
  2
ByBlock
 70
     0
  3

 72
    65
 73
     0
 40
0.0
  0
LTYPE
  5
15
330
5
100
AcDbSymbolTableRecord
100
AcDbLinetypeTableRecord
  2
ByLayer
 70
     0
  3

 72
    65
 73
     0
 40
0.0
  0
LTYPE
  5
16
330
5
100
AcDbSymbolTableRecord
100
AcDbLinetypeTableRecord
  2
Continuous
 70
     0
  3
Solid line
 72
    65
 73
     0
 40
0.0
  0
LTYPE
  5
86
330
5
100
AcDbSymbolTableRecord
100
AcDbLinetypeTableRecord
  2
HIDDEN
 70
     0
  3
Hidden __ __ __ __ __ __ __ __ __ __ __ __ __ _
 72
    65
 73
     2
 40
0.375
 49
0.25
 74
     0
 49
-0.125
 74
     0
  0
LTYPE
  5
34E
330
5
100
AcDbSymbolTableRecord
100
AcDbLinetypeTableRecord
  2
CENTER
 70
     0
  3
Center ____ _ ____ _ ____ _ ____ _ ____ _ ____
 72
    65
 73
     4
 40
50.8
 49
31.75
 74
     0
 49
-6.349999999999999
 74
     0
 49
6.349999999999999
 74
     0
 49
-6.349999999999999
 74
     0
  0
ENDTAB
  0
TABLE
  2
LAYER
  5
2
102
{ACAD_XDICTIONARY
360
34F
102
}
330
0
100
AcDbSymbolTable
 70
     2
  0
LAYER
  5
10
330
2
100
AcDbSymbolTableRecord
100
AcDbLayerTableRecord
  2
0
 70
     0
 62
     7
  6
Continuous
370
    -3
390
F
  0
LAYER
  5
361
330
2
100
AcDbSymbolTableRecord
100
AcDbLayerTableRecord
  2
Visible (ISO)
 70
     0
 62
     7
  6
Continuous
370
    35
390
F
  0
ENDTAB
  0
TABLE
  2
STYLE
  5
3
330
0
100
AcDbSymbolTable
 70
     1
  0
STYLE
  5
11
330
3
100
AcDbSymbolTableRecord
100
AcDbTextStyleTableRecord
  2
Standard
 70
     0
 40
0.0
 41
1.0
 50
0.0
 71
     0
 42
2.5
  3
txt
  4

  0
ENDTAB
  0
TABLE
  2
VIEW
  5
6
330
0
100
AcDbSymbolTable
 70
     0
  0
ENDTAB
  0
TABLE
  2
UCS
  5
7
330
0
100
AcDbSymbolTable
 70
     0
  0
ENDTAB
  0
TABLE
  2
APPID
  5
9
330
0
100
AcDbSymbolTable
 70
     1
  0
APPID
  5
12
330
9
100
AcDbSymbolTableRecord
100
AcDbRegAppTableRecord
  2
ACAD
 70
     0
  0
ENDTAB
  0
TABLE
  2
DIMSTYLE
  5
A
330
0
100
AcDbSymbolTable
 70
     1
100
AcDbDimStyleTable
 71
     0
  0
DIMSTYLE
105
27
330
A
100
AcDbSymbolTableRecord
100
AcDbDimStyleTableRecord
  2
ISO-25
 70
     0
 41
2.5
 42
0.625
 43
3.75
 44
1.25
 73
     0
 74
     0
 77
     1
 78
     8
140
2.5
141
2.5
143
0.03937007874016
147
0.625
171
     3
172
     1
271
     2
272
     2
274
     3
278
    44
283
     0
284
     8
340
11
  0
ENDTAB
  0
TABLE
  2
BLOCK_RECORD
  5
1
330
0
100
AcDbSymbolTable
 70
     1
  0
BLOCK_RECORD
  5
1F
102
{ACAD_XDICTIONARY
360
307
102
}
330
1
100
AcDbSymbolTableRecord
100
AcDbBlockTableRecord
  2
*Model_Space
340
22
  0
BLOCK_RECORD
  5
55
102
{ACAD_XDICTIONARY
360
309
102
}
330
1
100
AcDbSymbolTableRecord
100
AcDbBlockTableRecord
  2
*Paper_Space
340
56
  0
BLOCK_RECORD
  5
50
102
{ACAD_XDICTIONARY
360
30B
102
}
330
1
100
AcDbSymbolTableRecord
100
AcDbBlockTableRecord
  2
*Paper_Space0
340
51
  0
ENDTAB
  0
ENDSEC
  0
SECTION
  2
BLOCKS
  0
BLOCK
  5
20
330
1F
100
AcDbEntity
  8
0
100
AcDbBlockBegin
  2
*Model_Space
 70
     0
 10
0.0
 20
0.0
 30
0.0
  3
*Model_Space
  1

  0
ENDBLK
  5
21
330
1F
100
AcDbEntity
  8
0
100
AcDbBlockEnd
  0
BLOCK
  5
57
330
55
100
AcDbEntity
 67
     1
  8
0
100
AcDbBlockBegin
  2
*Paper_Space
 70
     0
 10
0.0
 20
0.0
 30
0.0
  3
*Paper_Space
  1

  0
ENDBLK
  5
58
330
55
100
AcDbEntity
 67
     1
  8
0
100
AcDbBlockEnd
  0
BLOCK
  5
52
330
50
100
AcDbEntity
  8
0
100
AcDbBlockBegin
  2
*Paper_Space0
 70
     0
 10
0.0
 20
0.0
 30
0.0
  3
*Paper_Space0
  1

  0
VIEWPORT
  5
6B
330
50
100
AcDbEntity
  8
0
100
AcDbViewport
 10
133.3499908447265
 20
101.5999970436096
 30
0.0
 40
381.3957395593834
 41
218.2856291881582
 69
     0
 12
133.3499908447265
 22
101.5999970436096
 13
0.0
 23
0.0
 14
10.0
 24
10.0
 15
10.0
 25
10.0
 16
0.0
 26
0.0
 36
1.0
 17
0.0
 27
0.0
 37
0.0
 42
50.0
 43
0.0
 44
0.0
 45
218.2856291881582
 50
0.0
 51
0.0
 72
   100
 90
    32800
  1

281
     0
 71
     1
 74
     0
110
0.0
120
0.0
130
0.0
111
1.0
121
0.0
131
0.0
112
0.0
122
1.0
132
0.0
 79
     0
146
0.0
  0
VIEWPORT
  5
6D
330
50
100
AcDbEntity
  8
0
100
AcDbViewport
 10
133.349993944168
 20
101.599993944168
 30
0.0
 40
213.3599903106689
 41
162.5599903106689
 69
     0
 12
210.0
 22
148.5
 13
0.0
 23
0.0
 14
10.0
 24
10.0
 15
10.0
 25
10.0
 16
0.0
 26
0.0
 36
1.0
 17
0.0
 27
0.0
 37
0.0
 42
50.0
 43
0.0
 44
0.0
 45
324.0677920111345
 50
0.0
 51
0.0
 72
   100
 90
    32864
  1

281
     0
 71
     1
 74
     0
110
0.0
120
0.0
130
0.0
111
1.0
121
0.0
131
0.0
112
0.0
122
1.0
132
0.0
 79
     0
146
0.0
  0
ENDBLK
  5
53
330
50
100
AcDbEntity
  8
0
100
AcDbBlockEnd
  0
ENDSEC
  0
SECTION
  2
ENTITIES
  0
LINE
  5
1C7
330
1F
100
AcDbEntity
  8
0
  6
Continuous
100
AcDbLine
 10
488.4835101443699
 20
204.8012107659303
 30
0.0
 11
488.4835107633016
 21
211.8012412835078
 31
0.0
  0
LINE
  5
1C8
330
1F
100
AcDbEntity
  8
0
  6
Continuous
100
AcDbLine
 10
488.4835101443699
 20
204.8012107659303
 30
0.0
 11
480.4834948855809
 21
204.8012114732799
 31
0.0
  0
LINE
  5
1C9
330
1F
100
AcDbEntity
  8
0
  6
Continuous
100
AcDbLine
 10
488.4835107633016
 20
211.8012412835078
 30
0.0
 11
480.4834955045135
 21
211.8012419908568
 31
0.0
  0
CIRCLE
  5
1CA
330
1F
100
AcDbEntity
  8
0
  6
Continuous
100
AcDbCircle
 10
410.4834752951768
 20
158.0514098375375
 30
0.0
 40
38.75000095367441
  0
CIRCLE
  5
1CB
330
1F
100
AcDbEntity
  8
0
  6
Continuous
100
AcDbCircle
 10
410.4834752951768
 20
158.0514098375375
 30
0.0
 40
29.75000095367432
  0
LINE
  5
1CC
330
1F
100
AcDbEntity
  8
0
  6
Continuous
100
AcDbLine
 10
358.7537581886385
 20
185.6014051939936
 30
0.0
 11
371.7742003193865
 21
159.8273876710802
 31
0.0
  0
LINE
  5
1CD
330
1F
100
AcDbEntity
  8
0
  6
Continuous
100
AcDbLine
 10
462.2132014741208
 20
185.60140600886
 30
0.0
 11
449.1927443874678
 21
159.8273602632081
 31
0.0
  0
LINE
  5
1CE
330
1F
100
AcDbEntity
  8
0
  6
Continuous
100
AcDbLine
 10
480.4834952423028
 20
202.301448877369
 30
0.0
 11
340.4834799835139
 21
202.3014477747031
 31
0.0
  0
LINE
  5
1CF
330
1F
100
AcDbEntity
  8
0
  6
Continuous
100
AcDbLine
 10
340.4834801150459
 20
185.6014050500936
 30
0.0
 11
383.2335153108879
 21
185.601405386801
 31
0.0
  0
LINE
  5
1D0
330
1F
100
AcDbEntity
  8
0
  6
Continuous
100
AcDbLine
 10
340.4834798889987
 20
214.3014749776392
 30
0.0
 11
340.4834801150459
 21
185.6014050500936
 31
0.0
  0
LINE
  5
1D1
330
1F
100
AcDbEntity
  8
0
  6
Continuous
100
AcDbLine
 10
371.7536825257202
 20
214.3014354950497
 30
0.0
 11
371.7536827517659
 21
185.6014052963838
 31
0.0
  0
LINE
  5
1D2
330
1F
100
AcDbEntity
  8
0
  6
Continuous
100
AcDbLine
 10
437.7334348454878
 20
185.6014058160528
 30
0.0
 11
480.4834953738359
 21
185.6014061527602
 31
0.0
  0
LINE
  5
1D3
330
1F
100
AcDbEntity
  8
0
  6
Continuous
100
AcDbLine
 10
449.2133382874377
 20
214.3013376924282
 30
0.0
 11
449.2133385134843
 21
185.6014059064703
 31
0.0
  0
LINE
  5
1D4
330
1F
100
AcDbEntity
  8
0
  6
Continuous
100
AcDbLine
 10
480.4834951477892
 20
214.3012982098964
 30
0.0
 11
480.4834953738359
 21
185.6014061527602
 31
0.0
  0
LINE
  5
1D5
330
1F
100
AcDbEntity
  8
0
  6
Continuous
100
AcDbLine
 10
872.5644430308539
 20
196.8014250963264
 30
0.0
 11
872.5644430308539
 21
119.3013945787483
 31
0.0
  0
LINE
  5
1D6
330
1F
100
AcDbEntity
  8
0
  6
Continuous
100
AcDbLine
 10
867.1665899001677
 20
189.8013945787493
 30
0.0
 11
867.1666956268536
 21
126.3014250963264
 31
0.0
  0
LINE
  5
1D7
330
1F
100
AcDbEntity
  8
0
  6
Continuous
100
AcDbLine
 10
834.5644277720648
 20
124.301409837537
 30
0.0
 11
834.5644277720648
 21
214.3014098375368
 31
0.0
  0
LINE
  5
1D8
330
1F
100
AcDbEntity
  8
0
  6
Continuous
100
AcDbLine
 10
694.5644125132749
 20
124.301409837537
 30
0.0
 11
694.5644125132749
 21
214.3014098375374
 31
0.0
  0
LINE
  5
1D9
330
1F
100
AcDbEntity
  8
0
  6
Continuous
100
AcDbLine
 10
656.5644430308537
 20
196.8014250963264
 30
0.0
 11
656.5644430308537
 21
119.3013945787483
 31
0.0
  0
LINE
  5
1DA
330
1F
100
AcDbEntity
  8
0
  6
Continuous
100
AcDbLine
 10
661.9622591147499
 20
189.8013945787471
 30
0.0
 11
661.9622021022543
 21
126.3014250963264
 31
0.0
  0
ARC
  5
1DB
330
1F
100
AcDbEntity
  8
0
  6
Continuous
100
AcDbCircle
 10
762.8945211558539
 20
143.1013976305061
 30
0.0
 40
15.0
100
AcDbArc
 50
90.00000865142791
 51
149.9999966606829
  0
LINE
  5
1DC
330
1F
100
AcDbEntity
  8
0
  6
Continuous
100
AcDbLine
 10
694.5644125132749
 20
124.301409837537
 30
0.0
 11
727.7916463999938
 21
124.301409837537
 31
0.0
  0
LINE
  5
1DD
330
1F
100
AcDbEntity
  8
0
  6
Continuous
100
AcDbLine
 10
656.5644430308537
 20
119.3013945787483
 30
0.0
 11
659.4143992636682
 21
119.3013945787483
 31
0.0
  0
LINE
  5
1DE
330
1F
100
AcDbEntity
  8
0
  6
Continuous
100
AcDbLine
 10
659.4143992636682
 20
119.3013945787483
 30
0.0
 11
661.9622021022543
 21
126.3014250963264
 31
0.0
  0
LINE
  5
1DF
330
1F
100
AcDbEntity
  8
0
  6
Continuous
100
AcDbLine
 10
661.9622021022543
 20
126.3014250963264
 30
0.0
 11
694.5644125132749
 21
126.3014250963274
 31
0.0
  0
ARC
  5
1E0
330
1F
100
AcDbEntity
  8
0
  6
Continuous
100
AcDbCircle
 10
727.7916463999938
 20
136.3014098375375
 30
0.0
 40
12.0
100
AcDbArc
 50
269.9999974955182
 51
330.0000016696448
  0
LINE
  5
1E1
330
1F
100
AcDbEntity
  8
0
  6
Continuous
100
AcDbLine
 10
749.9041631926396
 20
150.6014469931819
 30
0.0
 11
738.1839481911232
 21
130.3014394992709
 31
0.0
  0
LINE
  5
1E2
330
1F
100
AcDbEntity
  8
0
  6
Continuous
100
AcDbLine
 10
801.3371938853456
 20
124.301409837537
 30
0.0
 11
834.5644277720648
 21
124.301409837537
 31
0.0
  0
LINE
  5
1E3
330
1F
100
AcDbEntity
  8
0
  6
Continuous
100
AcDbLine
 10
762.8945211558539
 20
158.1013976305071
 30
0.0
 11
766.2343191294865
 21
158.1013976305071
 31
0.0
  0
ARC
  5
1E4
330
1F
100
AcDbEntity
  8
0
  6
Continuous
100
AcDbCircle
 10
801.3371938853456
 20
136.3014098375375
 30
0.0
 40
12.0
100
AcDbArc
 50
210.0000051605362
 51
269.9999974955182
  0
LINE
  5
1E5
330
1F
100
AcDbEntity
  8
0
  6
Continuous
100
AcDbLine
 10
779.2246575590188
 20
150.6014185588959
 30
0.0
 11
790.9448725605369
 21
130.301411064985
 31
0.0
  0
ARC
  5
1E6
330
1F
100
AcDbEntity
  8
0
  6
Continuous
100
AcDbCircle
 10
766.2343191294865
 20
143.1013976305061
 30
0.0
 40
15.0
100
AcDbArc
 50
30.00000333931701
 51
90.00000500895042
  0
LINE
  5
1E7
330
1F
100
AcDbEntity
  8
0
  6
Continuous
100
AcDbLine
 10
872.5644430308539
 20
119.3013945787483
 30
0.0
 11
869.7144984654411
 21
119.3013945787483
 31
0.0
  0
LINE
  5
1E8
330
1F
100
AcDbEntity
  8
0
  6
Continuous
100
AcDbLine
 10
869.7144984654411
 20
119.3013945787483
 30
0.0
 11
867.1666956268536
 21
126.3014250963264
 31
0.0
  0
LINE
  5
1E9
330
1F
100
AcDbEntity
  8
0
  6
Continuous
100
AcDbLine
 10
867.1666956268536
 20
126.3014250963264
 30
0.0
 11
834.5644277720648
 21
126.3014250963264
 31
0.0
  0
LINE
  5
1EA
330
1F
100
AcDbEntity
  8
0
  6
Continuous
100
AcDbLine
 10
694.5644125132749
 20
185.6014128892952
 30
0.0
 11
834.5644277720648
 21
185.6014128892952
 31
0.0
  0
LINE
  5
1EB
330
1F
100
AcDbEntity
  8
0
  6
Continuous
100
AcDbLine
 10
695.5644430308539
 20
202.3013182848029
 30
0.0
 11
834.5644277720648
 21
202.3013182848029
 31
0.0
  0
LINE
  5
1EC
330
1F
100
AcDbEntity
  8
0
  6
Continuous
100
AcDbLine
 10
656.5644430308537
 20
196.8014250963264
 30
0.0
 11
659.414456276164
 21
196.8014250963264
 31
0.0
  0
LINE
  5
1ED
330
1F
100
AcDbEntity
  8
0
  6
Continuous
100
AcDbLine
 10
659.414456276164
 20
196.8014250963264
 30
0.0
 11
661.9622591147499
 21
189.8013945787471
 31
0.0
  0
LINE
  5
1EE
330
1F
100
AcDbEntity
  8
0
  6
Continuous
100
AcDbLine
 10
661.9622591147499
 20
189.8013945787471
 30
0.0
 11
694.5644125132765
 21
189.8013945787481
 31
0.0
  0
LINE
  5
1EF
330
1F
100
AcDbEntity
  8
0
  6
Continuous
100
AcDbLine
 10
725.834615149994
 20
214.3014098375373
 30
0.0
 11
725.8346151499938
 21
185.6014128892952
 31
0.0
  0
LINE
  5
1F0
330
1F
100
AcDbEntity
  8
0
  6
Continuous
100
AcDbLine
 10
803.2941661457115
 20
214.301409837537
 30
0.0
 11
803.2942251355597
 21
185.6013486168014
 31
0.0
  0
LINE
  5
1F1
330
1F
100
AcDbEntity
  8
0
  6
Continuous
100
AcDbLine
 10
872.5644430308539
 20
196.8014250963264
 30
0.0
 11
869.714392738752
 21
196.8014250963264
 31
0.0
  0
LINE
  5
1F2
330
1F
100
AcDbEntity
  8
0
  6
Continuous
100
AcDbLine
 10
869.714392738752
 20
196.8014250963264
 30
0.0
 11
867.1665899001677
 21
189.8013945787493
 31
0.0
  0
LINE
  5
1F3
330
1F
100
AcDbEntity
  8
0
  6
Continuous
100
AcDbLine
 10
867.1665899001677
 20
189.8013945787493
 30
0.0
 11
834.5644277720648
 21
189.8013945787481
 31
0.0
  0
LINE
  5
1F4
330
1F
100
AcDbEntity
  8
0
  6
Continuous
100
AcDbLine
 10
449.2335256724536
 20
868.1818478940838
 30
0.0
 11
449.2335256724536
 21
865.3318821007628
 31
0.0
  0
LINE
  5
1F5
330
1F
100
AcDbEntity
  8
0
  6
Continuous
100
AcDbLine
 10
371.7334951548759
 20
868.1818478940838
 30
0.0
 11
371.7334951548767
 21
865.3318431869859
 31
0.0
  0
LINE
  5
1F6
330
1F
100
AcDbEntity
  8
0
  6
Continuous
100
AcDbLine
 10
371.7334951548759
 20
652.1818478940838
 30
0.0
 11
449.2335256724536
 21
652.1818478940838
 31
0.0
  0
LINE
  5
1F7
330
1F
100
AcDbEntity
  8
0
  6
Continuous
100
AcDbLine
 10
371.7334951548759
 20
655.0318886256778
 30
0.0
 11
378.7335256724535
 21
657.5796914642649
 31
0.0
  0
LINE
  5
1F8
330
1F
100
AcDbEntity
  8
0
  6
Continuous
100
AcDbLine
 10
378.7335256724535
 20
657.5796914642649
 30
0.0
 11
378.7335256724535
 21
666.9391915644065
 31
0.0
  0
LINE
  5
1F9
330
1F
100
AcDbEntity
  8
0
  6
HIDDEN
 48
10.0
100
AcDbLine
 10
378.7335256724535
 20
666.9391915644065
 30
0.0
 11
378.7335256724535
 21
690.1818578940837
 31
0.0
  0
LINE
  5
1FA
330
1F
100
AcDbEntity
  8
0
  6
Continuous
100
AcDbLine
 10
371.7334951548759
 20
652.1818478940838
 30
0.0
 11
371.7334951548759
 21
655.0318886256778
 31
0.0
  0
LINE
  5
1FB
330
1F
100
AcDbEntity
  8
0
  6
Continuous
100
AcDbLine
 10
371.7334951548767
 20
865.3318431869859
 30
0.0
 11
378.7335256724535
 21
862.7840403483999
 31
0.0
  0
LINE
  5
1FC
330
1F
100
AcDbEntity
  8
0
  6
Continuous
100
AcDbLine
 10
378.7335256724535
 20
862.7840403483999
 30
0.0
 11
378.7335256724535
 21
853.4245042237612
 31
0.0
  0
LINE
  5
1FD
330
1F
100
AcDbEntity
  8
0
  6
HIDDEN
 48
10.0
100
AcDbLine
 10
378.7335256724535
 20
853.4245042237612
 30
0.0
 11
378.7335256724535
 21
830.1818378940838
 31
0.0
  0
LINE
  5
1FE
330
1F
100
AcDbEntity
  8
0
  6
Continuous
100
AcDbLine
 10
449.233525672455
 20
655.0318497119018
 30
0.0
 11
442.2334951548759
 21
657.5796525504879
 31
0.0
  0
LINE
  5
1FF
330
1F
100
AcDbEntity
  8
0
  6
Continuous
100
AcDbLine
 10
442.2334951548759
 20
657.5796525504879
 30
0.0
 11
442.2334951548759
 21
666.9392154807479
 31
0.0
  0
LINE
  5
200
330
1F
100
AcDbEntity
  8
0
  6
HIDDEN
 48
10.0
100
AcDbLine
 10
442.2334951548759
 20
666.9392154807479
 30
0.0
 11
442.2334951548759
 21
690.1818578940837
 31
0.0
  0
LINE
  5
201
330
1F
100
AcDbEntity
  8
0
  6
Continuous
100
AcDbLine
 10
449.2335256724536
 20
652.1818478940838
 30
0.0
 11
449.233525672455
 21
655.0318497119018
 31
0.0
  0
LINE
  5
202
330
1F
100
AcDbEntity
  8
0
  6
Continuous
100
AcDbLine
 10
449.2335256724536
 20
865.3318821007628
 30
0.0
 11
442.2334951548759
 21
862.7840792621766
 31
0.0
  0
LINE
  5
203
330
1F
100
AcDbEntity
  8
0
  6
Continuous
100
AcDbLine
 10
442.2334951548759
 20
862.7840792621766
 30
0.0
 11
442.2334951548759
 21
853.4244803074198
 31
0.0
  0
LINE
  5
204
330
1F
100
AcDbEntity
  8
0
  6
HIDDEN
 48
10.0
100
AcDbLine
 10
442.2334951548759
 20
853.4244803074198
 30
0.0
 11
442.2334951548759
 21
830.1818378940838
 31
0.0
  0
LINE
  5
205
330
1F
100
AcDbEntity
  8
0
  6
Continuous
100
AcDbLine
 10
371.7334951548759
 20
868.1818478940838
 30
0.0
 11
449.2335256724536
 21
868.1818478940838
 31
0.0
  0
CIRCLE
  5
206
330
1F
100
AcDbEntity
  8
0
  6
Continuous
100
AcDbCircle
 10
764.5644201024989
 20
208.3012267320686
 30
0.0
 40
3.500015258788379
  0
TEXT
  5
207
330
1F
100
AcDbEntity
  8
0
100
AcDbText
 10
125.4043750918645
 20
1025.038089509007
 30
0.0
 40
48.000002
  1
DHC2S17RD000 2.5S
 41
1.32095
100
AcDbText
  0
LINE
  5
208
330
1F
100
AcDbEntity
  8
0
  6
Continuous
100
AcDbLine
 10
817.0642930308538
 20
245.3014298375371
 30
0.0
 11
817.0642930308538
 21
247.3014098375371
 31
0.0
  0
LINE
  5
209
330
1F
100
AcDbEntity
  8
0
  6
Continuous
100
AcDbLine
 10
804.0642730308539
 20
237.8014298375371
 30
0.0
 11
804.0642730308539
 21
245.3014298375371
 31
0.0
  0
LINE
  5
20A
330
1F
100
AcDbEntity
  8
0
  6
Continuous
100
AcDbLine
 10
816.1982530308534
 20
237.3015098375371
 30
0.0
 11
817.0643530308536
 21
237.8015198375371
 31
0.0
  0
LINE
  5
20B
330
1F
100
AcDbEntity
  8
0
  6
Continuous
100
AcDbLine
 10
817.0642930308538
 20
237.8014298375371
 30
0.0
 11
804.0642730308539
 21
237.8014298375371
 31
0.0
  0
LINE
  5
20C
330
1F
100
AcDbEntity
  8
0
  6
Continuous
100
AcDbLine
 10
804.0642730308539
 20
239.3013998375371
 30
0.0
 11
764.5644430308537
 21
239.3013998375371
 31
0.0
  0
LINE
  5
20D
330
1F
100
AcDbEntity
  8
0
  6
Continuous
100
AcDbLine
 10
694.5644125132749
 20
214.3014098375374
 30
0.0
 11
834.5644277720648
 21
214.3014098375368
 31
0.0
  0
LINE
  5
20E
330
1F
100
AcDbEntity
  8
0
  6
Continuous
100
AcDbLine
 10
848.5643830308536
 20
246.3068798375372
 30
0.0
 11
848.5643830308536
 21
244.3014098375371
 31
0.0
  0
LINE
  5
20F
330
1F
100
AcDbEntity
  8
0
  6
Continuous
100
AcDbLine
 10
862.5644530308536
 20
253.3014098375371
 30
0.0
 11
764.5644430308537
 21
253.3014098375371
 31
0.0
  0
LINE
  5
210
330
1F
100
AcDbEntity
  8
0
  6
Continuous
100
AcDbLine
 10
850.9303630308536
 20
237.3014198375371
 30
0.0
 11
862.1983330308538
 21
237.3014198375371
 31
0.0
  0
LINE
  5
211
330
1F
100
AcDbEntity
  8
0
  6
Continuous
100
AcDbLine
 10
850.0643530308536
 20
245.3014298375371
 30
0.0
 11
863.0643730308536
 21
245.3014298375371
 31
0.0
  0
LINE
  5
212
330
1F
100
AcDbEntity
  8
0
  6
Continuous
100
AcDbLine
 10
863.0643730308536
 20
237.8014298375371
 30
0.0
 11
863.0643730308536
 21
245.3014298375371
 31
0.0
  0
LINE
  5
213
330
1F
100
AcDbEntity
  8
0
  6
Continuous
100
AcDbLine
 10
850.0643530308536
 20
237.8014298375371
 30
0.0
 11
850.0643530308536
 21
245.3014298375371
 31
0.0
  0
LINE
  5
214
330
1F
100
AcDbEntity
  8
0
  6
Continuous
100
AcDbLine
 10
850.0643530308536
 20
237.8014298375371
 30
0.0
 11
863.0643730308536
 21
237.8014298375371
 31
0.0
  0
LINE
  5
215
330
1F
100
AcDbEntity
  8
0
  6
Continuous
100
AcDbLine
 10
862.1983330308538
 20
237.3014198375371
 30
0.0
 11
863.0643730308536
 21
237.8014298375371
 31
0.0
  0
LINE
  5
216
330
1F
100
AcDbEntity
  8
0
  6
Continuous
100
AcDbLine
 10
863.0643730308536
 20
245.3014298375371
 30
0.0
 11
863.0643730308536
 21
247.3014098375371
 31
0.0
  0
LINE
  5
217
330
1F
100
AcDbEntity
  8
0
  6
Continuous
100
AcDbLine
 10
850.0643530308536
 20
245.3014298375371
 30
0.0
 11
850.0643530308536
 21
247.3014098375371
 31
0.0
  0
LINE
  5
218
330
1F
100
AcDbEntity
  8
0
  6
Continuous
100
AcDbLine
 10
850.0643530308536
 20
244.0514198375371
 30
0.0
 11
863.0643730308536
 21
244.0514198375371
 31
0.0
  0
LINE
  5
219
330
1F
100
AcDbEntity
  8
0
  6
Continuous
100
AcDbLine
 10
712.0646230308537
 20
237.8014298375371
 30
0.0
 11
712.0646230308537
 21
245.3014298375371
 31
0.0
  0
LINE
  5
21A
330
1F
100
AcDbEntity
  8
0
  6
Continuous
100
AcDbLine
 10
712.9306330308538
 20
237.3014198375371
 30
0.0
 11
724.1986030308537
 21
237.3014198375371
 31
0.0
  0
LINE
  5
21B
330
1F
100
AcDbEntity
  8
0
  6
Continuous
100
AcDbLine
 10
712.0646230308537
 20
245.3014298375371
 30
0.0
 11
725.0646430308536
 21
245.3014298375371
 31
0.0
  0
LINE
  5
21C
330
1F
100
AcDbEntity
  8
0
  6
Continuous
100
AcDbLine
 10
712.0646230308537
 20
244.0514198375371
 30
0.0
 11
725.0646430308536
 21
244.0514198375371
 31
0.0
  0
LINE
  5
21D
330
1F
100
AcDbEntity
  8
0
  6
Continuous
100
AcDbLine
 10
724.1985730308535
 20
237.3014198375371
 30
0.0
 11
725.0646430308536
 21
237.8014298375371
 31
0.0
  0
LINE
  5
21E
330
1F
100
AcDbEntity
  8
0
  6
Continuous
100
AcDbLine
 10
712.9306330308538
 20
237.3015698375372
 30
0.0
 11
712.0646230308537
 21
237.8015198375371
 31
0.0
  0
LINE
  5
21F
330
1F
100
AcDbEntity
  8
0
  6
Continuous
100
AcDbLine
 10
712.0646230308537
 20
237.8014298375371
 30
0.0
 11
725.0646430308536
 21
237.8014298375371
 31
0.0
  0
LINE
  5
220
330
1F
100
AcDbEntity
  8
0
  6
Continuous
100
AcDbLine
 10
725.0646430308536
 20
237.8014298375371
 30
0.0
 11
725.0646430308536
 21
245.3014298375371
 31
0.0
  0
LINE
  5
221
330
1F
100
AcDbEntity
  8
0
  6
Continuous
100
AcDbLine
 10
712.0646230308537
 20
245.3014298375371
 30
0.0
 11
712.0646230308537
 21
247.3014098375371
 31
0.0
  0
LINE
  5
222
330
1F
100
AcDbEntity
  8
0
  6
Continuous
100
AcDbLine
 10
725.0646430308536
 20
239.3013998375371
 30
0.0
 11
764.5644430308537
 21
239.3013998375371
 31
0.0
  0
LINE
  5
223
330
1F
100
AcDbEntity
  8
0
  6
Continuous
100
AcDbLine
 10
666.0646330308536
 20
237.8014298375373
 30
0.0
 11
666.0646330308536
 21
245.3014298375373
 31
0.0
  0
LINE
  5
224
330
1F
100
AcDbEntity
  8
0
  6
Continuous
100
AcDbLine
 10
666.9306430308536
 20
237.3014198375373
 30
0.0
 11
678.1986430308536
 21
237.3014198375373
 31
0.0
  0
LINE
  5
225
330
1F
100
AcDbEntity
  8
0
  6
Continuous
100
AcDbLine
 10
725.0646430308536
 20
245.3014298375371
 30
0.0
 11
725.0646430308536
 21
247.3014098375371
 31
0.0
  0
LINE
  5
226
330
1F
100
AcDbEntity
  8
0
  6
Continuous
100
AcDbLine
 10
666.0646330308536
 20
244.0514198375373
 30
0.0
 11
679.0646230308537
 21
244.0514198375373
 31
0.0
  0
LINE
  5
227
330
1F
100
AcDbEntity
  8
0
  6
Continuous
100
AcDbLine
 10
678.1985830308538
 20
237.3014198375373
 30
0.0
 11
679.0646230308537
 21
237.8014298375373
 31
0.0
  0
LINE
  5
228
330
1F
100
AcDbEntity
  8
0
  6
Continuous
100
AcDbLine
 10
666.9305830308537
 20
237.3015098375373
 30
0.0
 11
666.0646030308537
 21
237.8014898375374
 31
0.0
  0
LINE
  5
229
330
1F
100
AcDbEntity
  8
0
  6
Continuous
100
AcDbLine
 10
666.0646330308536
 20
237.8014298375373
 30
0.0
 11
679.0646230308537
 21
237.8014298375373
 31
0.0
  0
LINE
  5
22A
330
1F
100
AcDbEntity
  8
0
  6
Continuous
100
AcDbLine
 10
679.0646230308537
 20
237.8014298375373
 30
0.0
 11
679.0646230308537
 21
245.3014298375373
 31
0.0
  0
LINE
  5
22B
330
1F
100
AcDbEntity
  8
0
  6
Continuous
100
AcDbLine
 10
679.0646230308537
 20
245.3014298375373
 30
0.0
 11
679.0646230308537
 21
247.3014098375374
 31
0.0
  0
LINE
  5
22C
330
1F
100
AcDbEntity
  8
0
  6
Continuous
100
AcDbLine
 10
666.0646330308536
 20
245.3014298375373
 30
0.0
 11
666.0646330308536
 21
247.3014098375374
 31
0.0
  0
LINE
  5
22D
330
1F
100
AcDbEntity
  8
0
  6
Continuous
100
AcDbLine
 10
679.0646230308537
 20
245.3014298375373
 30
0.0
 11
666.0646330308536
 21
245.3014298375373
 31
0.0
  0
LINE
  5
22E
330
1F
100
AcDbEntity
  8
0
  6
Continuous
100
AcDbLine
 10
850.9303630308536
 20
237.3014798375371
 30
0.0
 11
850.0643530308536
 21
237.8014898375372
 31
0.0
  0
LINE
  5
22F
330
1F
100
AcDbEntity
  8
0
  6
Continuous
100
AcDbLine
 10
666.0645130308537
 20
253.8014198375373
 30
0.0
 11
666.0645130308537
 21
268.6826498375373
 31
0.0
  0
LINE
  5
230
330
1F
100
AcDbEntity
  8
0
  6
Continuous
100
AcDbLine
 10
764.5644430308537
 20
376.3014998375371
 30
0.0
 11
740.5644430308536
 21
376.3014998375371
 31
0.0
  0
LINE
  5
231
330
1F
100
AcDbEntity
  8
0
  6
Continuous
100
AcDbLine
 10
764.5644430308537
 20
371.3015198375371
 30
0.0
 11
689.0427430308537
 21
371.3015198375373
 31
0.0
  0
LINE
  5
232
330
1F
100
AcDbEntity
  8
0
  6
Continuous
100
AcDbLine
 10
675.5644630308536
 20
333.1377698375374
 30
0.0
 11
675.5644630308536
 21
281.6683298375373
 31
0.0
  0
LINE
  5
233
330
1F
100
AcDbEntity
  8
0
  6
Continuous
100
AcDbLine
 10
789.5644330308536
 20
371.3015198375371
 30
0.0
 11
789.5644330308536
 21
375.3014798375372
 31
0.0
  0
LINE
  5
234
330
1F
100
AcDbEntity
  8
0
  6
Continuous
100
AcDbLine
 10
739.5644530308536
 20
371.3015198375371
 30
0.0
 11
739.5644530308536
 21
375.3014798375372
 31
0.0
  0
LINE
  5
235
330
1F
100
AcDbEntity
  8
0
  6
Continuous
100
AcDbLine
 10
847.9113430308537
 20
364.9647998375371
 30
0.0
 11
852.4718530308536
 21
343.5094298375371
 31
0.0
  0
LINE
  5
236
330
1F
100
AcDbEntity
  8
0
  6
Continuous
100
AcDbLine
 10
764.5644430308537
 20
273.3014198375371
 30
0.0
 11
670.0549330308538
 21
273.3014198375373
 31
0.0
  0
LINE
  5
237
330
1F
100
AcDbEntity
  8
0
  6
Continuous
100
AcDbLine
 10
764.5644430308537
 20
371.3015198375371
 30
0.0
 11
840.0862030308537
 21
371.3015198375371
 31
0.0
  0
LINE
  5
238
330
1F
100
AcDbEntity
  8
0
  6
Continuous
100
AcDbLine
 10
843.5643730308536
 20
239.3013998375371
 30
0.0
 11
817.0642930308538
 21
239.3013998375371
 31
0.0
  0
LINE
  5
239
330
1F
100
AcDbEntity
  8
0
  6
Continuous
100
AcDbLine
 10
766.5985630308535
 20
338.3691098375372
 30
0.0
 11
852.4718530308536
 21
338.3691098375372
 31
0.0
  0
LINE
  5
23A
330
1F
100
AcDbEntity
  8
0
  6
Continuous
100
AcDbLine
 10
804.0642730308539
 20
245.3014298375371
 30
0.0
 11
804.0642730308539
 21
247.3014098375371
 31
0.0
  0
LINE
  5
23B
330
1F
100
AcDbEntity
  8
0
  6
Continuous
100
AcDbLine
 10
764.5644430308537
 20
273.3014198375371
 30
0.0
 11
859.0644430308536
 21
273.3014198375371
 31
0.0
  0
LINE
  5
23C
330
1F
100
AcDbEntity
  8
0
  6
Continuous
100
AcDbLine
 10
816.9647830308537
 20
236.3013998375371
 30
0.0
 11
816.9647830308537
 21
214.3014098375369
 31
0.0
  0
LINE
  5
23D
330
1F
100
AcDbEntity
  8
0
  6
Continuous
100
AcDbLine
 10
863.0642830308536
 20
247.3014098375371
 30
0.0
 11
764.5644430308537
 21
247.3014098375371
 31
0.0
  0
LINE
  5
23E
330
1F
100
AcDbEntity
  8
0
  6
Continuous
100
AcDbLine
 10
863.0644330308538
 20
253.8014198375371
 30
0.0
 11
863.0644330308538
 21
268.6826498375371
 31
0.0
  0
LINE
  5
23F
330
1F
100
AcDbEntity
  8
0
  6
Continuous
100
AcDbLine
 10
764.5644430308537
 20
376.3014998375371
 30
0.0
 11
788.5644430308537
 21
376.3014998375371
 31
0.0
  0
LINE
  5
240
330
1F
100
AcDbEntity
  8
0
  6
Continuous
100
AcDbLine
 10
853.5644530308536
 20
333.1476698375372
 30
0.0
 11
853.5644530308536
 21
281.6654198375371
 31
0.0
  0
LINE
  5
241
330
1F
100
AcDbEntity
  8
0
  6
Continuous
100
AcDbLine
 10
764.5644430308537
 20
278.7861998375371
 30
0.0
 11
853.5644530308536
 21
278.7861998375371
 31
0.0
  0
LINE
  5
242
330
1F
100
AcDbEntity
  8
0
  6
Continuous
100
AcDbLine
 10
673.0644430308537
 20
277.3428398375374
 30
0.0
 11
670.0645030308537
 21
275.6108498375374
 31
0.0
  0
LINE
  5
243
330
1F
100
AcDbEntity
  8
0
  6
Continuous
100
AcDbLine
 10
764.5644430308537
 20
278.7861998375371
 30
0.0
 11
675.5644630308536
 21
278.7861998375373
 31
0.0
  0
LINE
  5
244
330
1F
100
AcDbEntity
  8
0
  6
Continuous
100
AcDbLine
 10
856.0645030308537
 20
277.342869837537
 30
0.0
 11
859.0645030308538
 21
275.6108498375371
 31
0.0
  0
LINE
  5
245
330
1F
100
AcDbEntity
  8
0
  6
Continuous
100
AcDbLine
 10
681.2175430308537
 20
364.9648898375373
 30
0.0
 11
676.6570630308535
 21
343.5094298375374
 31
0.0
  0
LINE
  5
246
330
1F
100
AcDbEntity
  8
0
  6
Continuous
100
AcDbLine
 10
680.5645330308537
 20
246.3068798375374
 30
0.0
 11
680.5645330308537
 21
244.3014098375373
 31
0.0
  0
LINE
  5
247
330
1F
100
AcDbEntity
  8
0
  6
Continuous
100
AcDbLine
 10
685.5645430308536
 20
239.3013998375374
 30
0.0
 11
712.0646230308537
 21
239.3013998375371
 31
0.0
  0
LINE
  5
248
330
1F
100
AcDbEntity
  8
0
  6
Continuous
100
AcDbLine
 10
712.1641030308535
 20
236.3013998375371
 30
0.0
 11
712.1641030308534
 21
214.3014098375373
 31
0.0
  0
LINE
  5
249
330
1F
100
AcDbEntity
  8
0
  6
Continuous
100
AcDbLine
 10
666.0646330308536
 20
247.3014098375374
 30
0.0
 11
764.5644430308537
 21
247.3014098375371
 31
0.0
  0
LINE
  5
24A
330
1F
100
AcDbEntity
  8
0
  6
Continuous
100
AcDbLine
 10
863.0644630308536
 20
252.8014298375371
 30
0.0
 11
863.0644630308536
 21
248.3013398375371
 31
0.0
  0
LINE
  5
24B
330
1F
100
AcDbEntity
  8
0
  6
Continuous
100
AcDbLine
 10
666.5644630308536
 20
253.3014098375374
 30
0.0
 11
764.5644430308537
 21
253.3014098375371
 31
0.0
  0
LINE
  5
24C
330
1F
100
AcDbEntity
  8
0
  6
Continuous
100
AcDbLine
 10
666.0644530308537
 20
252.8014298375373
 30
0.0
 11
666.0644530308537
 21
248.3013398375373
 31
0.0
  0
LINE
  5
24D
330
1F
100
AcDbEntity
  8
0
  6
Continuous
100
AcDbLine
 10
817.0642930308538
 20
244.0514198375371
 30
0.0
 11
804.0642730308539
 21
244.0514198375371
 31
0.0
  0
LINE
  5
24E
330
1F
100
AcDbEntity
  8
0
  6
Continuous
100
AcDbLine
 10
804.9303130308537
 20
237.3014198375371
 30
0.0
 11
804.0643330308537
 21
237.8014298375371
 31
0.0
  0
LINE
  5
24F
330
1F
100
AcDbEntity
  8
0
  6
Continuous
100
AcDbLine
 10
817.0642930308538
 20
237.8014298375371
 30
0.0
 11
817.0642930308538
 21
245.3014298375371
 31
0.0
  0
LINE
  5
250
330
1F
100
AcDbEntity
  8
0
  6
Continuous
100
AcDbLine
 10
816.1983130308538
 20
237.3014198375371
 30
0.0
 11
804.9303130308537
 21
237.3014198375371
 31
0.0
  0
LINE
  5
251
330
1F
100
AcDbEntity
  8
0
  6
Continuous
100
AcDbLine
 10
817.0642930308538
 20
245.3014298375371
 30
0.0
 11
804.0642730308539
 21
245.3014298375371
 31
0.0
  0
LINE
  5
252
330
1F
100
AcDbEntity
  8
0
  6
Continuous
100
AcDbLine
 10
762.5303830308537
 20
338.3691098375372
 30
0.0
 11
676.6570630308535
 21
338.3691098375374
 31
0.0
  0
LINE
  5
253
330
1F
100
AcDbEntity
  8
0
  6
Continuous
100
AcDbLine
 10
754.0232530308538
 20
378.014529837537
 30
0.0
 11
754.5642730308538
 21
380.0337398375372
 31
0.0
  0
LINE
  5
254
330
1F
100
AcDbEntity
  8
0
  6
Continuous
100
AcDbLine
 10
754.5644530308536
 20
380.0336498375372
 30
0.0
 11
754.5644530308536
 21
406.3014998375371
 31
0.0
  0
LINE
  5
255
330
1F
100
AcDbEntity
  8
0
  6
Continuous
100
AcDbLine
 10
774.5644630308536
 20
380.0336498375372
 30
0.0
 11
754.5644530308536
 21
380.0336498375372
 31
0.0
  0
LINE
  5
256
330
1F
100
AcDbEntity
  8
0
  6
Continuous
100
AcDbLine
 10
775.1056330308536
 20
378.0138098375372
 30
0.0
 11
774.5644330308537
 21
380.0337398375372
 31
0.0
  0
LINE
  5
257
330
1F
100
AcDbEntity
  8
0
  6
Continuous
100
AcDbLine
 10
774.5644630308536
 20
380.0336498375372
 30
0.0
 11
774.5644630308536
 21
406.3014998375371
 31
0.0
  0
LINE
  5
258
330
1F
100
AcDbEntity
  8
0
  6
Continuous
100
AcDbLine
 10
757.5644530308537
 20
409.3014998375371
 30
0.0
 11
771.5644630308536
 21
409.3014998375371
 31
0.0
  0
CIRCLE
  5
259
330
1F
100
AcDbEntity
  8
0
  6
Continuous
100
AcDbCircle
 10
764.5644430308537
 20
333.8015198375371
 30
0.0
 40
5.0000154
  0
CIRCLE
  5
25A
330
1F
100
AcDbEntity
  8
0
  6
Continuous
100
AcDbCircle
 10
764.5644430308537
 20
262.8014198375371
 30
0.0
 40
4.795000199999999
  0
ARC
  5
25B
330
1F
100
AcDbEntity
  8
0
  6
Continuous
100
AcDbCircle
 10
819.9647830308538
 20
236.3013998375371
 30
0.0
 40
3.0
100
AcDbArc
 50
90.0
 51
180.0
  0
ARC
  5
25C
330
1F
100
AcDbEntity
  8
0
  6
Continuous
100
AcDbCircle
 10
849.5643730308536
 20
246.3013898375371
 30
0.0
 40
1.000000019999999
100
AcDbArc
 50
90.0
 51
180.0
  0
ARC
  5
25D
330
1F
100
AcDbEntity
  8
0
  6
Continuous
100
AcDbCircle
 10
862.5644530308536
 20
252.8014298375371
 30
0.0
 40
0.50000001
100
AcDbArc
 50
0.0
 51
90.0
  0
ARC
  5
25E
330
1F
100
AcDbEntity
  8
0
  6
Continuous
100
AcDbCircle
 10
843.5643730308536
 20
244.3014098375371
 30
0.0
 40
4.9999998
100
AcDbArc
 50
270.0
 51
0.0
  0
ARC
  5
25F
330
1F
100
AcDbEntity
  8
0
  6
Continuous
100
AcDbCircle
 10
862.0644430308537
 20
248.3013398375371
 30
0.0
 40
1.000000019999999
100
AcDbArc
 50
270.0
 51
0.0
  0
ARC
  5
260
330
1F
100
AcDbEntity
  8
0
  6
Continuous
100
AcDbCircle
 10
788.5644430308537
 20
375.3014798375372
 30
0.0
 40
1.000000019999999
100
AcDbArc
 50
0.0
 51
90.0
  0
ARC
  5
261
330
1F
100
AcDbEntity
  8
0
  6
Continuous
100
AcDbCircle
 10
709.1641030308535
 20
236.3013998375371
 30
0.0
 40
3.0
100
AcDbArc
 50
0.0
 51
90.0
  0
ARC
  5
262
330
1F
100
AcDbEntity
  8
0
  6
Continuous
100
AcDbCircle
 10
685.5645430308536
 20
244.3014098375373
 30
0.0
 40
4.9999998
100
AcDbArc
 50
180.0
 51
270.0
  0
ARC
  5
263
330
1F
100
AcDbEntity
  8
0
  6
Continuous
100
AcDbCircle
 10
843.5643730308536
 20
244.3014098375371
 30
0.0
 40
4.9999998
100
AcDbArc
 50
270.0
 51
0.0
  0
ARC
  5
264
330
1F
100
AcDbEntity
  8
0
  6
Continuous
100
AcDbCircle
 10
819.9647830308538
 20
236.3013998375371
 30
0.0
 40
3.0
100
AcDbArc
 50
90.0
 51
180.0
  0
ARC
  5
265
330
1F
100
AcDbEntity
  8
0
  6
Continuous
100
AcDbCircle
 10
679.5645430308536
 20
246.3013898375374
 30
0.0
 40
1.000000019999999
100
AcDbArc
 50
0.0
 51
90.0
  0
ARC
  5
266
330
1F
100
AcDbEntity
  8
0
  6
Continuous
100
AcDbCircle
 10
849.5643730308536
 20
246.3013898375371
 30
0.0
 40
1.000000019999999
100
AcDbArc
 50
90.0
 51
180.0
  0
ARC
  5
267
330
1F
100
AcDbEntity
  8
0
  6
Continuous
100
AcDbCircle
 10
667.0645030308537
 20
248.3013398375373
 30
0.0
 40
1.000000019999999
100
AcDbArc
 50
180.0
 51
270.0
  0
ARC
  5
268
330
1F
100
AcDbEntity
  8
0
  6
Continuous
100
AcDbCircle
 10
862.5644530308536
 20
252.8014298375371
 30
0.0
 40
0.50000001
100
AcDbArc
 50
0.0
 51
90.0
  0
ARC
  5
269
330
1F
100
AcDbEntity
  8
0
  6
Continuous
100
AcDbCircle
 10
666.5644630308536
 20
252.8014298375373
 30
0.0
 40
0.50000001
100
AcDbArc
 50
90.0
 51
180.0
  0
ARC
  5
26A
330
1F
100
AcDbEntity
  8
0
  6
Continuous
100
AcDbCircle
 10
862.0644430308537
 20
248.3013398375371
 30
0.0
 40
1.000000019999999
100
AcDbArc
 50
270.0
 51
0.0
  0
ARC
  5
26B
330
1F
100
AcDbEntity
  8
0
  6
Continuous
100
AcDbCircle
 10
840.0862030308537
 20
363.3015698375372
 30
0.0
 40
8.000000099999999
100
AcDbArc
 50
12.00023000000097
 51
90.0
  0
ARC
  5
26C
330
1F
100
AcDbEntity
  8
0
  6
Continuous
100
AcDbCircle
 10
670.5644530308537
 20
281.6729498375374
 30
0.0
 40
4.9999998
100
AcDbArc
 50
299.9998660000069
 51
0.0
  0
ARC
  5
26D
330
1F
100
AcDbEntity
  8
0
  6
Continuous
100
AcDbCircle
 10
674.0644630308536
 20
268.6826498375373
 30
0.0
 40
8.000000099999999
100
AcDbArc
 50
119.999890000001
 51
180.0
  0
ARC
  5
26E
330
1F
100
AcDbEntity
  8
0
  6
Continuous
100
AcDbCircle
 10
858.5644630308536
 20
281.6729498375372
 30
0.0
 40
4.9999998
100
AcDbArc
 50
180.0
 51
240.000129999998
  0
ARC
  5
26F
330
1F
100
AcDbEntity
  8
0
  6
Continuous
100
AcDbCircle
 10
855.0644230308536
 20
268.6826498375371
 30
0.0
 40
8.000000099999999
100
AcDbArc
 50
0.0
 51
60.00010999999897
  0
ARC
  5
270
330
1F
100
AcDbEntity
  8
0
  6
Continuous
100
AcDbCircle
 10
725.5644430308536
 20
333.1138898375372
 30
0.0
 40
50.00000399999999
100
AcDbArc
 50
167.9999500000015
 51
180.0
  0
ARC
  5
271
330
1F
100
AcDbEntity
  8
0
  6
Continuous
100
AcDbCircle
 10
803.5645030308538
 20
333.1138898375372
 30
0.0
 40
50.00000399999999
100
AcDbArc
 50
0.0
 51
12.00004999999852
  0
ARC
  5
272
330
1F
100
AcDbEntity
  8
0
  6
Continuous
100
AcDbCircle
 10
689.0427430308537
 20
363.3015698375374
 30
0.0
 40
8.000000099999999
100
AcDbArc
 50
90.0
 51
167.999769999999
  0
ARC
  5
273
330
1F
100
AcDbEntity
  8
0
  6
Continuous
100
AcDbCircle
 10
862.5644230308537
 20
253.8014198375371
 30
0.0
 40
0.4999999800000001
100
AcDbArc
 50
270.0
 51
0.0
  0
ARC
  5
274
330
1F
100
AcDbEntity
  8
0
  6
Continuous
100
AcDbCircle
 10
788.5644430308537
 20
375.3014798375372
 30
0.0
 40
1.000000019999999
100
AcDbArc
 50
0.0
 51
90.0
  0
ARC
  5
275
330
1F
100
AcDbEntity
  8
0
  6
Continuous
100
AcDbCircle
 10
740.5644430308536
 20
375.3014798375372
 30
0.0
 40
1.000000019999999
100
AcDbArc
 50
90.0
 51
180.0
  0
ARC
  5
276
330
1F
100
AcDbEntity
  8
0
  6
Continuous
100
AcDbCircle
 10
666.5645230308537
 20
253.8014198375373
 30
0.0
 40
0.50000001
100
AcDbArc
 50
180.0
 51
270.0
  0
CIRCLE
  5
277
330
1F
100
AcDbEntity
  8
0
  6
Continuous
100
AcDbCircle
 10
764.5644430308537
 20
262.8014198375371
 30
0.0
 40
4.195000199999999
  0
ARC
  5
278
330
1F
100
AcDbEntity
  8
0
  6
Continuous
100
AcDbCircle
 10
771.5644630308536
 20
406.3014998375371
 30
0.0
 40
3.0
100
AcDbArc
 50
0.0
 51
90.0
  0
ARC
  5
279
330
1F
100
AcDbEntity
  8
0
  6
Continuous
100
AcDbCircle
 10
757.5644530308537
 20
406.3014998375371
 30
0.0
 40
3.0
100
AcDbArc
 50
90.0
 51
180.0
  0
LINE
  5
27A
330
1F
100
AcDbEntity
  8
0
  6
Continuous
100
AcDbLine
 10
508.9834274260737
 20
253.3014233604403
 30
0.0
 11
410.4834561094577
 21
253.301429232673
 31
0.0
  0
LINE
  5
27B
330
1F
100
AcDbEntity
  8
0
  6
Continuous
100
AcDbLine
 10
416.1174365769274
 20
237.301542339661
 30
0.0
 11
416.9834354281203
 21
237.8014991151502
 31
0.0
  0
LINE
  5
27C
330
1F
100
AcDbEntity
  8
0
  6
Continuous
100
AcDbLine
 10
416.9834245723166
 20
245.3014497294503
 30
0.0
 11
416.9834248850589
 21
247.3014349255644
 31
0.0
  0
LINE
  5
27D
330
1F
100
AcDbEntity
  8
0
  6
Continuous
100
AcDbLine
 10
403.9833822059383
 20
237.8014325151658
 30
0.0
 11
403.983415136916
 21
245.3014954981346
 31
0.0
  0
LINE
  5
27E
330
1F
100
AcDbEntity
  8
0
  6
Continuous
100
AcDbLine
 10
340.4834798889987
 20
214.3014749776392
 30
0.0
 11
480.4834951477892
 21
214.3012982098964
 31
0.0
  0
LINE
  5
27F
330
1F
100
AcDbEntity
  8
0
  6
Continuous
100
AcDbLine
 10
508.9834228988398
 20
247.3014074528492
 30
0.0
 11
495.483331270667
 21
247.3013880914407
 31
0.0
  0
LINE
  5
280
330
1F
100
AcDbEntity
  8
0
  6
Continuous
100
AcDbLine
 10
465.8838016387634
 20
239.3014188916082
 30
0.0
 11
416.9834012314639
 21
239.3013708766669
 31
0.0
  0
LINE
  5
281
330
1F
100
AcDbEntity
  8
0
  6
Continuous
100
AcDbLine
 10
416.9834461201986
 20
237.8014936672642
 30
0.0
 11
403.9833822059383
 21
237.8014325151658
 31
0.0
  0
LINE
  5
282
330
1F
100
AcDbEntity
  8
0
  6
Continuous
100
AcDbLine
 10
355.0831151115159
 20
239.3014065998803
 30
0.0
 11
403.9833917960635
 21
239.3014166453511
 31
0.0
  0
LINE
  5
283
330
1F
100
AcDbEntity
  8
0
  6
Continuous
100
AcDbLine
 10
324.3134933589082
 20
237.8014242681523
 30
0.0
 11
324.3135369819644
 21
245.3014818032352
 31
0.0
  0
LINE
  5
284
330
1F
100
AcDbEntity
  8
0
  6
Continuous
100
AcDbLine
 10
325.1794976543862
 20
237.3014192616948
 30
0.0
 11
336.4475068707525
 21
237.3014539020608
 31
0.0
  0
LINE
  5
285
330
1F
100
AcDbEntity
  8
0
  6
Continuous
100
AcDbLine
 10
324.3135168978742
 20
244.0514338498506
 30
0.0
 11
337.313486237981
 21
244.0514085107389
 31
0.0
  0
LINE
  5
286
330
1F
100
AcDbEntity
  8
0
  6
Continuous
100
AcDbLine
 10
336.4474453913024
 20
237.3014852274053
 30
0.0
 11
337.31347631873
 21
237.801425659236
 31
0.0
  0
LINE
  5
287
330
1F
100
AcDbEntity
  8
0
  6
Continuous
100
AcDbLine
 10
324.3134933589082
 20
237.8014242681523
 30
0.0
 11
337.31347631873
 21
237.801425659236
 31
0.0
  0
LINE
  5
288
330
1F
100
AcDbEntity
  8
0
  6
Continuous
100
AcDbLine
 10
410.4834466356359
 20
273.3013886238319
 30
0.0
 11
504.9834012339926
 21
273.3013755897271
 31
0.0
  0
LINE
  5
289
330
1F
100
AcDbEntity
  8
0
  6
Continuous
100
AcDbLine
 10
403.983415136916
 20
245.3014954981346
 30
0.0
 11
403.9834018299435
 21
247.3014539640531
 31
0.0
  0
LINE
  5
28A
330
1F
100
AcDbEntity
  8
0
  6
Continuous
100
AcDbLine
 10
321.757356538094
 20
338.3690921151842
 30
0.0
 11
498.3908302388628
 21
338.3690636781599
 31
0.0
  0
LINE
  5
28B
330
1F
100
AcDbEntity
  8
0
  6
Continuous
100
AcDbLine
 10
410.4834549603471
 20
371.301508544615
 30
0.0
 11
486.0051686630682
 21
371.301496709589
 31
0.0
  0
LINE
  5
28C
330
1F
100
AcDbEntity
  8
0
  6
Continuous
100
AcDbLine
 10
410.4834466356359
 20
273.3013886238319
 30
0.0
 11
315.9738801070695
 21
273.3013833920766
 31
0.0
  0
LINE
  5
28D
330
1F
100
AcDbEntity
  8
0
  6
Continuous
100
AcDbLine
 10
493.8303609041849
 20
364.964783360329
 30
0.0
 11
498.390871935289
 21
343.509442503546
 31
0.0
  0
LINE
  5
28E
330
1F
100
AcDbEntity
  8
0
  6
Continuous
100
AcDbLine
 10
385.4834749816731
 20
371.3015123650101
 30
0.0
 11
385.4834806985801
 21
375.3014464932422
 31
0.0
  0
LINE
  5
28F
330
1F
100
AcDbEntity
  8
0
  6
Continuous
100
AcDbLine
 10
435.4834349390211
 20
371.3015047242202
 30
0.0
 11
435.4834406559276
 21
375.3014388524523
 31
0.0
  0
LINE
  5
290
330
1F
100
AcDbEntity
  8
0
  6
Continuous
100
AcDbLine
 10
321.4834269371807
 20
333.137710774555
 30
0.0
 11
321.4834569185794
 21
281.6683754034765
 31
0.0
  0
LINE
  5
291
330
1F
100
AcDbEntity
  8
0
  6
Continuous
100
AcDbLine
 10
410.4834549603471
 20
371.301508544615
 30
0.0
 11
334.9616926340394
 21
371.3014778150219
 31
0.0
  0
LINE
  5
292
330
1F
100
AcDbEntity
  8
0
  6
Continuous
100
AcDbLine
 10
410.483455742203
 20
376.3014715349005
 30
0.0
 11
386.4834480847843
 21
376.3014552276628
 31
0.0
  0
LINE
  5
293
330
1F
100
AcDbEntity
  8
0
  6
Continuous
100
AcDbLine
 10
311.9834459700481
 20
247.301468290221
 30
0.0
 11
311.9834816714766
 21
268.682621454487
 31
0.0
  0
LINE
  5
294
330
1F
100
AcDbEntity
  8
0
  6
Continuous
100
AcDbLine
 10
337.3135199417864
 20
245.3014831943192
 30
0.0
 11
324.3135369819644
 21
245.3014818032352
 31
0.0
  0
LINE
  5
295
330
1F
100
AcDbEntity
  8
0
  6
Continuous
100
AcDbLine
 10
324.3135369819644
 20
245.3014818032352
 30
0.0
 11
324.3135372947069
 21
247.3014669993495
 31
0.0
  0
LINE
  5
296
330
1F
100
AcDbEntity
  8
0
  6
Continuous
100
AcDbLine
 10
337.3135199417864
 20
245.3014831943192
 30
0.0
 11
337.3135066348137
 21
247.3014416602376
 31
0.0
  0
LINE
  5
297
330
1F
100
AcDbEntity
  8
0
  6
Continuous
100
AcDbLine
 10
337.31347631873
 20
237.801425659236
 30
0.0
 11
337.3135199417864
 21
245.3014831943192
 31
0.0
  0
LINE
  5
298
330
1F
100
AcDbEntity
  8
0
  6
Continuous
100
AcDbLine
 10
462.8837976507903
 20
236.3014109032111
 30
0.0
 11
462.8837842400601
 21
214.3013204317595
 31
0.0
  0
LINE
  5
299
330
1F
100
AcDbEntity
  8
0
  6
Continuous
100
AcDbLine
 10
496.6535332799113
 20
237.8014682084934
 30
0.0
 11
496.6535280247637
 21
245.3014496389035
 31
0.0
  0
LINE
  5
29A
330
1F
100
AcDbEntity
  8
0
  6
Continuous
100
AcDbLine
 10
496.6535280247637
 20
245.3014496389035
 30
0.0
 11
496.6535310105256
 21
247.3014334730463
 31
0.0
  0
LINE
  5
29B
330
1F
100
AcDbEntity
  8
0
  6
Continuous
100
AcDbLine
 10
483.6535533386175
 20
245.3014777019582
 30
0.0
 11
483.6535507237234
 21
247.3014307199908
 31
0.0
  0
LINE
  5
29C
330
1F
100
AcDbEntity
  8
0
  6
Continuous
100
AcDbLine
 10
483.653522307832
 20
244.0514016564066
 30
0.0
 11
496.6535514728381
 21
244.0514805141348
 31
0.0
  0
LINE
  5
29D
330
1F
100
AcDbEntity
  8
0
  6
Continuous
100
AcDbLine
 10
495.7874775314559
 20
237.3014394142459
 30
0.0
 11
496.6535386259505
 21
237.8014654845504
 31
0.0
  0
LINE
  5
29E
330
1F
100
AcDbEntity
  8
0
  6
Continuous
100
AcDbLine
 10
484.5195065012149
 20
237.3014863264387
 30
0.0
 11
483.6535024603541
 21
237.8015248729496
 31
0.0
  0
LINE
  5
29F
330
1F
100
AcDbEntity
  8
0
  6
Continuous
100
AcDbLine
 10
483.6535639398042
 20
237.8014935476052
 30
0.0
 11
496.6535332799113
 21
237.8014682084934
 31
0.0
  0
LINE
  5
2A0
330
1F
100
AcDbEntity
  8
0
  6
Continuous
100
AcDbLine
 10
496.6535280247637
 20
245.3014496389035
 30
0.0
 11
483.6535533386175
 21
245.3014777019582
 31
0.0
  0
LINE
  5
2A1
330
1F
100
AcDbEntity
  8
0
  6
Continuous
100
AcDbLine
 10
483.6535639398042
 20
237.8014935476052
 30
0.0
 11
483.6535533386175
 21
245.3014777019582
 31
0.0
  0
LINE
  5
2A2
330
1F
100
AcDbEntity
  8
0
  6
Continuous
100
AcDbLine
 10
484.5195546155672
 20
237.3014618109515
 30
0.0
 11
495.7875176267495
 21
237.3014189846734
 31
0.0
  0
LINE
  5
2A3
330
1F
100
AcDbEntity
  8
0
  6
Continuous
100
AcDbLine
 10
416.1174115012828
 20
237.3014204371917
 30
0.0
 11
404.8494404710419
 21
237.3014673493845
 31
0.0
  0
LINE
  5
2A4
330
1F
100
AcDbEntity
  8
0
  6
Continuous
100
AcDbLine
 10
416.9834245723166
 20
245.3014497294503
 30
0.0
 11
403.983415136916
 21
245.3014954981346
 31
0.0
  0
LINE
  5
2A5
330
1F
100
AcDbEntity
  8
0
  6
Continuous
100
AcDbLine
 10
416.9834461201986
 20
237.8014936672642
 30
0.0
 11
416.9834245723166
 21
245.3014497294503
 31
0.0
  0
LINE
  5
2A6
330
1F
100
AcDbEntity
  8
0
  6
Continuous
100
AcDbLine
 10
404.8494618551984
 20
237.3014564536125
 30
0.0
 11
403.9834329933102
 21
237.8014066377073
 31
0.0
  0
LINE
  5
2A7
330
1F
100
AcDbEntity
  8
0
  6
Continuous
100
AcDbLine
 10
416.9834453473712
 20
244.051481966653
 30
0.0
 11
403.9833787600913
 21
244.0514221765257
 31
0.0
  0
LINE
  5
2A8
330
1F
100
AcDbEntity
  8
0
  6
Continuous
100
AcDbLine
 10
311.9834559885555
 20
253.301430998145
 30
0.0
 11
410.4834561094577
 21
253.301429232673
 31
0.0
  0
LINE
  5
2A9
330
1F
100
AcDbEntity
  8
0
  6
Continuous
100
AcDbLine
 10
483.6535190510698
 20
239.3013707570074
 30
0.0
 11
465.8838016387634
 21
239.3014188916082
 31
0.0
  0
LINE
  5
2AA
330
1F
100
AcDbEntity
  8
0
  6
Continuous
100
AcDbLine
 10
311.9834459700481
 20
247.301468290221
 30
0.0
 11
410.4834602626523
 21
247.3014373803342
 31
0.0
  0
LINE
  5
2AB
330
1F
100
AcDbEntity
  8
0
  6
Continuous
100
AcDbLine
 10
358.0831125606053
 20
236.3014281838248
 30
0.0
 11
358.0831120744481
 21
214.3014527558756
 31
0.0
  0
LINE
  5
2AC
330
1F
100
AcDbEntity
  8
0
  6
Continuous
100
AcDbLine
 10
337.3134936732971
 20
239.3013721634536
 30
0.0
 11
355.0831151115159
 21
239.3014065998803
 31
0.0
  0
LINE
  5
2AD
330
1F
100
AcDbEntity
  8
0
  6
Continuous
100
AcDbLine
 10
318.9834164268156
 20
277.3428567196646
 30
0.0
 11
315.9834316552472
 21
275.6108094535119
 31
0.0
  0
LINE
  5
2AE
330
1F
100
AcDbEntity
  8
0
  6
Continuous
100
AcDbLine
 10
329.4834411357052
 20
357.3015288517577
 30
0.0
 11
325.5076316997307
 21
357.3015285293214
 31
0.0
  0
LINE
  5
2AF
330
1F
100
AcDbEntity
  8
0
  6
Continuous
100
AcDbLine
 10
325.5076581753093
 20
357.3014813695532
 30
0.0
 11
322.5760619729952
 21
343.5093902439904
 31
0.0
  0
LINE
  5
2B0
330
1F
100
AcDbEntity
  8
0
  6
Continuous
100
AcDbLine
 10
501.9834612743157
 20
277.3428322387259
 30
0.0
 11
504.9834349168799
 21
275.6108027964061
 31
0.0
  0
LINE
  5
2B1
330
1F
100
AcDbEntity
  8
0
  6
Continuous
100
AcDbLine
 10
410.4834358292229
 20
278.7862024532936
 30
0.0
 11
321.4834331821074
 21
278.7862200497805
 31
0.0
  0
LINE
  5
2B2
330
1F
100
AcDbEntity
  8
0
  6
Continuous
100
AcDbLine
 10
410.4834358292229
 20
278.7862024532936
 30
0.0
 11
499.4834764078468
 21
278.7862328693116
 31
0.0
  0
LINE
  5
2B3
330
1F
100
AcDbEntity
  8
0
  6
Continuous
100
AcDbLine
 10
499.483459738347
 20
333.1476614928741
 30
0.0
 11
499.4834614452766
 21
281.6654113300995
 31
0.0
  0
LINE
  5
2B4
330
1F
100
AcDbEntity
  8
0
  6
Continuous
100
AcDbLine
 10
329.4834608559962
 20
369.13151392184
 30
0.0
 11
329.4834411357052
 21
357.3015288517577
 31
0.0
  0
LINE
  5
2B5
330
1F
100
AcDbEntity
  8
0
  6
Continuous
100
AcDbLine
 10
410.483455742203
 20
376.3014715349005
 30
0.0
 11
434.4834607266026
 21
376.30148920411
 31
0.0
  0
LINE
  5
2B6
330
1F
100
AcDbEntity
  8
0
  6
Continuous
100
AcDbLine
 10
508.9834228988398
 20
247.3014074528492
 30
0.0
 11
508.9834390317402
 21
268.6826000285433
 31
0.0
  0
LINE
  5
2B7
330
1F
100
AcDbEntity
  8
0
  6
Continuous
100
AcDbLine
 10
495.483331270667
 20
247.3013880914407
 30
0.0
 11
410.4834602626523
 21
247.3014373803342
 31
0.0
  0
LINE
  5
2B8
330
1F
100
AcDbEntity
  8
0
  6
Continuous
100
AcDbLine
 10
399.4832271312672
 20
376.3014595084208
 30
0.0
 11
400.4832741921931
 21
380.0336972022765
 31
0.0
  0
LINE
  5
2B9
330
1F
100
AcDbEntity
  8
0
  6
Continuous
100
AcDbLine
 10
400.4834644858171
 20
380.0336675824065
 30
0.0
 11
400.4834715733851
 21
406.301451427908
 31
0.0
  0
LINE
  5
2BA
330
1F
100
AcDbEntity
  8
0
  6
Continuous
100
AcDbLine
 10
420.4834369874566
 20
380.0336367063176
 30
0.0
 11
400.4834644858171
 21
380.0336675824065
 31
0.0
  0
LINE
  5
2BB
330
1F
100
AcDbEntity
  8
0
  6
Continuous
100
AcDbLine
 10
420.4834369874566
 20
380.0336367063176
 30
0.0
 11
420.4834526033179
 21
406.3014835460111
 31
0.0
  0
LINE
  5
2BC
330
1F
100
AcDbEntity
  8
0
  6
Continuous
100
AcDbLine
 10
403.48346486928
 20
409.3014648641914
 30
0.0
 11
417.4834337700718
 21
409.3014728578383
 31
0.0
  0
LINE
  5
2BD
330
1F
100
AcDbEntity
  8
0
  6
Continuous
100
AcDbLine
 10
517.0473961082306
 20
338.8014469739979
 30
0.0
 11
517.0474023089597
 21
328.8014833674593
 31
0.0
  0
LINE
  5
2BE
330
1F
100
AcDbEntity
  8
0
  6
Continuous
100
AcDbLine
 10
517.0474023089597
 20
328.8014833674593
 30
0.0
 11
504.547441850147
 21
328.8014870659973
 31
0.0
  0
LINE
  5
2BF
330
1F
100
AcDbEntity
  8
0
  6
Continuous
100
AcDbLine
 10
517.0473961082306
 20
338.8014469739979
 30
0.0
 11
504.5474385770543
 21
338.8014828506173
 31
0.0
  0
LINE
  5
2C0
330
1F
100
AcDbEntity
  8
0
  6
Continuous
100
AcDbLine
 10
504.5474385770543
 20
338.8014828506173
 30
0.0
 11
504.547441850147
 21
328.8014870659973
 31
0.0
  0
LINE
  5
2C1
330
1F
100
AcDbEntity
  8
0
  6
Continuous
100
AcDbLine
 10
504.5474325236674
 20
338.551487765539
 30
0.0
 11
502.5474205464341
 21
338.551494989986
 31
0.0
  0
LINE
  5
2C2
330
1F
100
AcDbEntity
  8
0
  6
Continuous
100
AcDbLine
 10
504.5474452305142
 20
329.0514835130471
 30
0.0
 11
502.5474196335657
 21
329.051464007298
 31
0.0
  0
LINE
  5
2C3
330
1F
100
AcDbEntity
  8
0
  6
Continuous
100
AcDbLine
 10
502.5473884701993
 20
338.551511333644
 30
0.0
 11
499.1982961191446
 21
338.4468612695428
 31
0.0
  0
LINE
  5
2C4
330
1F
100
AcDbEntity
  8
0
  6
Continuous
100
AcDbLine
 10
502.5488448631527
 20
329.0515122216562
 30
0.0
 11
499.4834614034956
 21
329.1472858960643
 31
0.0
  0
LINE
  5
2C5
330
1F
100
AcDbEntity
  8
0
  6
Continuous
100
AcDbLine
 10
501.4834795989408
 20
338.5182843268195
 30
0.0
 11
501.483465407508
 21
329.0847242696903
 31
0.0
  0
ARC
  5
2C6
330
1F
100
AcDbEntity
  8
0
  6
Continuous
100
AcDbCircle
 10
465.8837926413567
 20
236.3013781032451
 30
0.0
 40
3.0
100
AcDbArc
 50
89.99962700000414
 51
179.9994400000022
  0
ARC
  5
2C7
330
1F
100
AcDbEntity
  8
0
  6
Continuous
100
AcDbCircle
 10
386.4834556928546
 20
375.3014250036379
 30
0.0
 40
1.000000019999999
100
AcDbArc
 50
90.00022599999148
 51
180.0007999999958
  0
ARC
  5
2C8
330
1F
100
AcDbEntity
  8
0
  6
Continuous
100
AcDbCircle
 10
434.4834547149579
 20
375.3014322498896
 30
0.0
 40
1.000000019999999
100
AcDbArc
 50
0.0007999999958612
 51
90.00022599999148
  0
ARC
  5
2C9
330
1F
100
AcDbEntity
  8
0
  6
Continuous
100
AcDbCircle
 10
371.4834525434015
 20
333.1138314747062
 30
0.0
 40
50.00000399999999
100
AcDbArc
 50
167.9999800000078
 51
179.9999600000024
  0
ARC
  5
2CA
330
1F
100
AcDbEntity
  8
0
  6
Continuous
100
AcDbCircle
 10
334.961712767226
 20
363.3015261347928
 30
0.0
 40
8.000000099999999
100
AcDbArc
 50
89.88820100000262
 51
133.2184242398988
  0
ARC
  5
2CB
330
1F
100
AcDbEntity
  8
0
  6
Continuous
100
AcDbCircle
 10
449.483476443487
 20
333.113842888656
 30
0.0
 40
50.00000399999999
100
AcDbArc
 50
0.0000100000010064
 51
12.00001000000392
  0
ARC
  5
2CC
330
1F
100
AcDbEntity
  8
0
  6
Continuous
100
AcDbCircle
 10
500.9834368187568
 20
268.6826393128684
 30
0.0
 40
8.000000099999999
100
AcDbArc
 50
0.0001300000000561
 51
59.99999999999986
  0
ARC
  5
2CD
330
1F
100
AcDbEntity
  8
0
  6
Continuous
100
AcDbCircle
 10
504.4834588764414
 20
281.6729518669493
 30
0.0
 40
4.9999998
100
AcDbArc
 50
180.0000700000005
 51
239.9999900000061
  0
ARC
  5
2CE
330
1F
100
AcDbEntity
  8
0
  6
Continuous
100
AcDbCircle
 10
319.983459827284
 20
268.6825944279056
 30
0.0
 40
8.000000099999999
100
AcDbArc
 50
120.0001920000002
 51
179.9998499999914
  0
ARC
  5
2CF
330
1F
100
AcDbEntity
  8
0
  6
Continuous
100
AcDbCircle
 10
316.4834551754937
 20
281.6729918568136
 30
0.0
 40
4.9999998
100
AcDbArc
 50
299.9995500000029
 51
0.0001000000035506
  0
ARC
  5
2D0
330
1F
100
AcDbEntity
  8
0
  6
Continuous
100
AcDbCircle
 10
486.0051831955987
 20
363.3015142132502
 30
0.0
 40
8.000000099999999
100
AcDbArc
 50
12.0000899999933
 51
89.99992499999244
  0
ARC
  5
2D1
330
1F
100
AcDbEntity
  8
0
  6
Continuous
100
AcDbCircle
 10
465.8837926413567
 20
236.3013781032451
 30
0.0
 40
3.0
100
AcDbArc
 50
89.99962700000414
 51
179.9994400000022
  0
ARC
  5
2D2
330
1F
100
AcDbEntity
  8
0
  6
Continuous
100
AcDbCircle
 10
355.0831061141093
 20
236.3013658115172
 30
0.0
 40
3.0
100
AcDbArc
 50
359.9994400000022
 51
89.99943199999755
  0
ARC
  5
2D3
330
1F
100
AcDbEntity
  8
0
  6
Continuous
100
AcDbCircle
 10
434.4834547149579
 20
375.3014322498896
 30
0.0
 40
1.000000019999999
100
AcDbArc
 50
0.0007999999958612
 51
90.00022599999148
  0
ARC
  5
2D4
330
1F
100
AcDbEntity
  8
0
  6
Continuous
100
AcDbCircle
 10
417.4834760692712
 20
406.3014732721229
 30
0.0
 40
3.0
100
AcDbArc
 50
0.0002199999960869
 51
89.99982900000103
  0
ARC
  5
2D5
330
1F
100
AcDbEntity
  8
0
  6
Continuous
100
AcDbCircle
 10
403.4834507804513
 20
406.3014603398245
 30
0.0
 40
3.0
100
AcDbArc
 50
89.99982900000103
 51
180.000219999996
  0
LINE
  5
2D6
330
1F
100
AcDbEntity
  8
0
  6
Continuous
100
AcDbLine
 10
421.4836843531348
 20
376.3014560681575
 30
0.0
 11
420.4836384594464
 21
380.0336940747724
 31
0.0
  0
LINE
  5
2D7
330
1F
100
AcDbEntity
  8
0
  6
HIDDEN
 48
10.0
100
AcDbLine
 10
449.213349295177
 20
830.1818378940838
 30
0.0
 11
371.7536552951768
 21
830.1818378940838
 31
0.0
  0
LINE
  5
2D8
330
1F
100
AcDbEntity
  8
0
  6
HIDDEN
 48
10.0
100
AcDbLine
 10
449.213349295177
 20
690.1818578940837
 30
0.0
 11
371.7536552951768
 21
690.1818578940837
 31
0.0
  0
LINE
  5
2D9
330
1F
100
AcDbEntity
  8
0
  6
HIDDEN
 48
10.0
100
AcDbLine
 10
340.4834852951768
 20
721.4520278940839
 30
0.0
 11
340.4834852951768
 21
798.9116678940837
 31
0.0
  0
LINE
  5
2DA
330
1F
100
AcDbEntity
  8
0
  6
HIDDEN
 48
10.0
100
AcDbLine
 10
480.4834832951768
 20
721.4520278940839
 30
0.0
 11
480.4834832951768
 21
798.9116678940837
 31
0.0
  0
ARC
  5
2DB
330
1F
100
AcDbEntity
  8
0
  6
HIDDEN
 48
10.0
100
AcDbCircle
 10
410.4834752951768
 20
760.1818478940838
 30
0.0
 40
80.00000399999999
100
AcDbArc
 50
298.9550300000016
 51
331.044980000003
  0
ARC
  5
2DC
330
1F
100
AcDbEntity
  8
0
  6
HIDDEN
 48
10.0
100
AcDbCircle
 10
410.4834752951768
 20
760.1818478940838
 30
0.0
 40
80.00000399999999
100
AcDbArc
 50
28.95501799999512
 51
61.04497399999374
  0
ARC
  5
2DD
330
1F
100
AcDbEntity
  8
0
  6
HIDDEN
 48
10.0
100
AcDbCircle
 10
410.4834752951768
 20
760.1818478940838
 30
0.0
 40
80.00000399999999
100
AcDbArc
 50
118.9550300000016
 51
151.0449800000029
  0
ARC
  5
2DE
330
1F
100
AcDbEntity
  8
0
  6
HIDDEN
 48
10.0
100
AcDbCircle
 10
410.4834752951768
 20
760.1818478940838
 30
0.0
 40
80.00000399999999
100
AcDbArc
 50
208.9550199999969
 51
241.0449699999984
  0
CIRCLE
  5
2DF
330
1F
100
AcDbEntity
  8
0
  6
Continuous
100
AcDbCircle
 10
410.4835104136654
 20
760.1818478940838
 30
0.0
 40
10.00004238406432
  0
CIRCLE
  5
2E0
330
1F
100
AcDbEntity
  8
0
  6
Continuous
100
AcDbCircle
 10
410.4834752951768
 20
760.1818478940838
 30
0.0
 40
24.99999745505022
  0
ARC
  5
2E1
330
1F
100
AcDbEntity
  8
0
  6
Continuous
100
AcDbCircle
 10
410.4834752951768
 20
760.1818478940838
 30
0.0
 40
89.00003336729673
100
AcDbArc
 50
182.0283070951565
 51
177.9716929048434
  0
ARC
  5
2E2
330
1F
100
AcDbEntity
  8
0
  6
Continuous
100
AcDbCircle
 10
410.4834752951768
 20
760.1818478940838
 30
0.0
 40
98.50001147441446
100
AcDbArc
 50
181.8326137373882
 51
357.0903262871101
  0
ARC
  5
2E3
330
1F
100
AcDbEntity
  8
0
  6
Continuous
100
AcDbCircle
 10
410.4834752951768
 20
760.1818478940838
 30
0.0
 40
98.50001147441446
100
AcDbArc
 50
2.909648060194886
 51
178.1673862626117
  0
LINE
  5
2E4
330
1F
100
AcDbEntity
  8
0
  6
Continuous
100
AcDbLine
 10
327.95726535872
 20
372.3015452191128
 30
0.0
 11
327.9572687331573
 21
357.3015705174834
 31
0.0
  0
LINE
  5
2E5
330
1F
100
AcDbEntity
  8
0
  6
Continuous
100
AcDbLine
 10
322.9572555256014
 20
372.3015611634703
 30
0.0
 11
322.9572589000389
 21
357.3015864618412
 31
0.0
  0
LINE
  5
2E6
330
1F
100
AcDbEntity
  8
0
  6
Continuous
100
AcDbLine
 10
329.4834411357695
 20
357.3015674968219
 30
0.0
 11
322.9572589000389
 21
357.3015864618412
 31
0.0
  0
LINE
  5
2E7
330
1F
100
AcDbEntity
  8
0
  6
Continuous
100
AcDbLine
 10
329.4834661403514
 20
372.3015403522642
 30
0.0
 11
322.9572555256014
 21
372.3015611634703
 31
0.0
  0
LINE
  5
2E8
330
1F
100
AcDbEntity
  8
0
  6
Continuous
100
AcDbLine
 10
320.9572819865926
 20
364.8015791335117
 30
0.0
 11
322.9572131030636
 21
357.301542375142
 31
0.0
  0
LINE
  5
2E9
330
1F
100
AcDbEntity
  8
0
  6
Continuous
100
AcDbLine
 10
320.9572819865926
 20
364.8015791335117
 30
0.0
 11
322.9572097286261
 21
372.3015170767709
 31
0.0
  0
CIRCLE
  5
2EA
330
1F
100
AcDbEntity
  8
0
  6
Continuous
100
AcDbCircle
 10
310.9572996713964
 20
364.8015585446152
 30
0.0
 40
10.00000049999999
  0
ARC
  5
2EB
330
1F
100
AcDbEntity
  8
0
  6
Continuous
100
AcDbCircle
 10
310.9572996713964
 20
364.8015585446152
 30
0.0
 40
16.30000019999999
100
AcDbArc
 50
27.395053107649
 51
332.6050831076506
  0
LINE
  5
2EC
330
1F
100
AcDbEntity
  8
0
  6
Continuous
100
AcDbLine
 10
329.4834411357695
 20
357.3015674968219
 30
0.0
 11
329.4834661403514
 21
372.3015403522642
 31
0.0
  0
LINE
  5
2ED
330
1F
100
AcDbEntity
  8
0
  6
Continuous
100
AcDbLine
 10
329.4834536380605
 20
767.6818343543271
 30
0.0
 11
329.4834536380605
 21
752.6818614988085
 31
0.0
  0
ARC
  5
2EE
330
1F
100
AcDbEntity
  8
0
  6
Continuous
100
AcDbCircle
 10
297.8072993213972
 20
760.1818478940838
 30
0.0
 40
3.149999850000199
100
AcDbArc
 50
90.0
 51
270.0
  0
LINE
  5
2EF
330
1F
100
AcDbEntity
  8
0
  6
Continuous
100
AcDbLine
 10
297.8072993213972
 20
763.331847744084
 30
0.0
 11
323.193319199607
 21
763.331847744084
 31
0.0
  0
LINE
  5
2F0
330
1F
100
AcDbEntity
  8
0
  6
Continuous
100
AcDbLine
 10
297.8072993213972
 20
757.0318480440836
 30
0.0
 11
323.193319199607
 21
757.0318480440836
 31
0.0
  0
ELLIPSE
  5
2F1
330
1F
100
AcDbEntity
  8
0
  6
Continuous
100
AcDbEllipse
 10
323.193319199607
 20
760.1818478940838
 30
0.0
 11
0.0
 21
3.149999850000198
 31
0.0
210
0.0
220
0.0
230
1.0
 40
0.7098473443812015
 41
3.141592653589793
 42
6.283185307179586
  0
LINE
  5
2F2
330
1F
100
AcDbEntity
  8
0
  6
Continuous
100
AcDbLine
 10
327.95726535872
 20
767.6818392211357
 30
0.0
 11
327.9572687331573
 21
752.6818645195064
 31
0.0
  0
LINE
  5
2F3
330
1F
100
AcDbEntity
  8
0
  6
Continuous
100
AcDbLine
 10
322.9572555256014
 20
767.6818551654934
 30
0.0
 11
322.9572565041916
 21
763.3318477440838
 31
0.0
  0
LINE
  5
2F4
330
1F
100
AcDbEntity
  8
0
  6
Continuous
100
AcDbLine
 10
322.9572579214576
 20
757.0318480440836
 30
0.0
 11
322.9572589000389
 21
752.6818804638642
 31
0.0
  0
LINE
  5
2F5
330
1F
100
AcDbEntity
  8
0
  6
Continuous
100
AcDbLine
 10
329.4834536380605
 20
752.6818614988085
 30
0.0
 11
322.9572589000389
 21
752.6818804638642
 31
0.0
  0
LINE
  5
2F6
330
1F
100
AcDbEntity
  8
0
  6
Continuous
100
AcDbLine
 10
329.4834536380605
 20
767.6818343543271
 30
0.0
 11
322.9572555256014
 21
767.6818551654934
 31
0.0
  0
LINE
  5
2F7
330
1F
100
AcDbEntity
  8
0
  6
Continuous
100
AcDbLine
 10
321.7972556295253
 20
757.0318480440834
 30
0.0
 11
322.9572131030636
 21
752.6818363771649
 31
0.0
  0
LINE
  5
2F8
330
1F
100
AcDbEntity
  8
0
  6
Continuous
100
AcDbLine
 10
321.7972518175431
 20
763.331847744084
 30
0.0
 11
322.9572097286261
 21
767.681811078794
 31
0.0
  0
LINE
  5
2F9
330
1F
100
AcDbEntity
  8
0
  6
Continuous
100
AcDbLine
 10
517.0473961082306
 20
765.1817947090905
 30
0.0
 11
517.0474023089597
 21
755.1818311025519
 31
0.0
  0
LINE
  5
2FA
330
1F
100
AcDbEntity
  8
0
  6
Continuous
100
AcDbLine
 10
517.0474023089597
 20
755.1818311025519
 30
0.0
 11
504.547441850147
 21
755.18183480109
 31
0.0
  0
LINE
  5
2FB
330
1F
100
AcDbEntity
  8
0
  6
Continuous
100
AcDbLine
 10
517.0473961082306
 20
765.1817947090905
 30
0.0
 11
504.5474385770543
 21
765.18183058571
 31
0.0
  0
LINE
  5
2FC
330
1F
100
AcDbEntity
  8
0
  6
Continuous
100
AcDbLine
 10
504.5474385770543
 20
765.18183058571
 30
0.0
 11
504.547441850147
 21
755.18183480109
 31
0.0
  0
LINE
  5
2FD
330
1F
100
AcDbEntity
  8
0
  6
Continuous
100
AcDbLine
 10
504.5474325236674
 20
764.9318355006316
 30
0.0
 11
502.5474205464341
 21
764.9318427250786
 31
0.0
  0
LINE
  5
2FE
330
1F
100
AcDbEntity
  8
0
  6
Continuous
100
AcDbLine
 10
504.5474452305142
 20
755.4318312481398
 30
0.0
 11
502.5474196335657
 21
755.4318117423906
 31
0.0
  0
LINE
  5
2FF
330
1F
100
AcDbEntity
  8
0
  6
Continuous
100
AcDbLine
 10
502.5473884701993
 20
764.9318590687366
 30
0.0
 11
499.3619261703213
 21
764.8323220005011
 31
0.0
  0
LINE
  5
300
330
1F
100
AcDbEntity
  8
0
  6
Continuous
100
AcDbLine
 10
502.5488448631527
 20
755.4318599567489
 30
0.0
 11
499.3619291502042
 21
755.5314307386345
 31
0.0
  0
LINE
  5
301
330
1F
100
AcDbEntity
  8
0
  6
Continuous
100
AcDbLine
 10
501.4834795989408
 20
764.8986320619122
 30
0.0
 11
501.483465407508
 21
755.4650720047829
 31
0.0
  0
LINE
  5
35B
330
1F
100
AcDbEntity
  8
0
  6
CENTER
100
AcDbLine
 10
902.8459015129051
 20
158.0513068424073
 30
0.0
 11
626.2829845488027
 21
158.0513068424071
 31
0.0
  0
LINE
  5
35C
330
1F
100
AcDbEntity
  8
0
  6
CENTER
100
AcDbLine
 10
764.5644430308538
 20
133.7720022031144
 30
0.0
 11
764.5644430308538
 21
441.4398418999297
 31
0.0
  0
LINE
  5
35D
330
1F
100
AcDbEntity
  8
0
  6
CENTER
100
AcDbLine
 10
473.3892095398776
 20
158.0514098375376
 30
0.0
 11
347.5777410504759
 21
158.0514098375374
 31
0.0
  0
LINE
  5
35E
330
1F
100
AcDbEntity
  8
0
  6
CENTER
100
AcDbLine
 10
410.4834752951768
 20
97.08724607884143
 30
0.0
 11
410.4834752951768
 21
441.43994489506
 31
0.0
  0
LINE
  5
35F
330
1F
100
AcDbEntity
  8
0
  6
CENTER
100
AcDbLine
 10
526.17695789505
 20
760.1818478940839
 30
0.0
 11
281.6239987308404
 21
760.1818478940836
 31
0.0
  0
LINE
  5
360
330
1F
100
AcDbEntity
  8
0
  6
CENTER
100
AcDbLine
 10
410.4835104136654
 20
619.6214816075998
 30
0.0
 11
410.4835104136654
 21
900.7422141805678
 31
0.0
  0
LINE
  5
4D2
330
1F
100
AcDbEntity
  8
Visible (ISO)
100
AcDbLine
 10
1929.328845938574
 20
279.7126748825566
 30
0.0
 11
1937.046684434145
 21
264.565563971354
 31
0.0
  0
LINE
  5
4D3
330
1F
100
AcDbEntity
  8
Visible (ISO)
100
AcDbLine
 10
1936.391160397471
 20
262.5480684354623
 30
0.0
 11
1927.311350402682
 21
280.3681989192294
 31
0.0
  0
LINE
  5
4D4
330
1F
100
AcDbEntity
  8
Visible (ISO)
100
AcDbLine
 10
1937.046684434145
 20
264.565563971354
 30
0.0
 11
1936.391160397471
 21
262.5480684354628
 31
0.0
  0
LINE
  5
4D5
330
1F
100
AcDbEntity
  8
Visible (ISO)
100
AcDbLine
 10
1929.328845938574
 20
279.7126748825566
 30
0.0
 11
1927.311350402682
 21
280.3681989192299
 31
0.0
  0
LINE
  5
4D6
330
1F
100
AcDbEntity
  8
Visible (ISO)
100
AcDbLine
 10
1866.284576153522
 20
319.7418290203612
 30
0.0
 11
1932.374458380881
 21
190.0331318533438
 31
0.0
  0
ARC
  5
4D7
330
1F
100
AcDbEntity
  8
Visible (ISO)
100
AcDbCircle
 10
1860.938537008392
 20
317.0178860219242
 30
0.0
 40
5.999999999999968
100
AcDbArc
 50
26.9999999999872
 51
97.00000000003228
  0
ARC
  5
4D8
330
1F
100
AcDbEntity
  8
Visible (ISO)
100
AcDbCircle
 10
1927.028419235751
 20
187.3091888549069
 30
0.0
 40
5.999999999999967
100
AcDbArc
 50
317.0000000000181
 51
26.9999999999872
  0
LINE
  5
4D9
330
1F
100
AcDbEntity
  8
Visible (ISO)
100
AcDbLine
 10
1829.521147492166
 20
319.2053745982119
 30
0.0
 11
1910.331456445804
 21
160.6062132926834
 31
0.0
  0
LINE
  5
4DA
330
1F
100
AcDbEntity
  8
Visible (ISO)
100
AcDbLine
 10
1892.434787394654
 20
279.4325960402592
 30
0.0
 11
1915.134312381631
 21
234.8822698308412
 31
0.0
  0
LINE
  5
4DB
330
1F
100
AcDbEntity
  8
Visible (ISO)
100
AcDbLine
 10
1780.070285399711
 20
294.0089018626671
 30
0.0
 11
1860.880594353351
 21
135.4097405571386
 31
0.0
  0
LINE
  5
4DC
330
1F
100
AcDbEntity
  8
Visible (ISO)
100
AcDbLine
 10
1767.292813672396
 20
298.1605540949307
 30
0.0
 11
1856.728942121085
 21
122.632268829824
 31
0.0
  0
LINE
  5
4DD
330
1F
100
AcDbEntity
  8
Visible (ISO)
100
AcDbLine
 10
1744.126644043498
 20
286.3568011017026
 30
0.0
 11
1833.562772492188
 21
110.828515836596
 31
0.0
  0
LINE
  5
4DE
330
1F
100
AcDbEntity
  8
Visible (ISO)
100
AcDbLine
 10
1936.391160397471
 20
262.5480684354623
 30
0.0
 11
1908.324454885537
 21
248.2473676936664
 31
0.0
  0
LINE
  5
4DF
330
1F
100
AcDbEntity
  8
Visible (ISO)
100
AcDbLine
 10
1927.311350402682
 20
280.3681989192294
 30
0.0
 11
1899.244644890748
 21
266.067498177434
 31
0.0
  0
LINE
  5
4E0
330
1F
100
AcDbEntity
  8
Visible (ISO)
100
AcDbLine
 10
1931.416541445467
 20
183.2171986945317
 30
0.0
 11
1910.331456445804
 21
160.6062132926834
 31
0.0
  0
LINE
  5
4E1
330
1F
100
AcDbEntity
  8
Visible (ISO)
100
AcDbLine
 10
1860.207320947959
 20
322.9731629317719
 30
0.0
 11
1829.521147492166
 21
319.2053745982119
 31
0.0
  0
LINE
  5
4E2
330
1F
100
AcDbEntity
  8
Visible (ISO)
100
AcDbLine
 10
1915.134312381631
 20
234.8822698308412
 30
0.0
 11
1910.67927976069
 21
232.6123173321438
 31
0.0
  0
LINE
  5
4E3
330
1F
100
AcDbEntity
  8
Visible (ISO)
100
AcDbLine
 10
1892.434787394654
 20
279.4325960402596
 30
0.0
 11
1887.979754773712
 21
277.1626435415618
 31
0.0
  0
LINE
  5
4E4
330
1F
100
AcDbEntity
  8
Visible (ISO)
100
AcDbLine
 10
1910.331456445804
 20
160.6062132926834
 30
0.0
 11
1860.880594353351
 21
135.4097405571386
 31
0.0
  0
LINE
  5
4E5
330
1F
100
AcDbEntity
  8
Visible (ISO)
100
AcDbLine
 10
1829.521147492166
 20
319.2053745982119
 30
0.0
 11
1780.070285399711
 21
294.0089018626675
 31
0.0
  0
LINE
  5
4E6
330
1F
100
AcDbEntity
  8
Visible (ISO)
100
AcDbLine
 10
1860.880594353351
 20
135.4097405571386
 30
0.0
 11
1856.728942121085
 21
122.6322688298236
 31
0.0
  0
LINE
  5
4E7
330
1F
100
AcDbEntity
  8
Visible (ISO)
100
AcDbLine
 10
1780.070285399711
 20
294.0089018626671
 30
0.0
 11
1767.292813672396
 21
298.1605540949307
 31
0.0
  0
LINE
  5
4E8
330
1F
100
AcDbEntity
  8
Visible (ISO)
100
AcDbLine
 10
1856.728942121085
 20
122.6322688298236
 30
0.0
 11
1833.562772492188
 21
110.828515836596
 31
0.0
  0
LINE
  5
4E9
330
1F
100
AcDbEntity
  8
Visible (ISO)
100
AcDbLine
 10
1767.292813672396
 20
298.1605540949307
 30
0.0
 11
1744.126644043498
 21
286.3568011017026
 31
0.0
  0
LINE
  5
4EA
330
1F
100
AcDbEntity
  8
Visible (ISO)
100
AcDbLine
 10
1812.633810454197
 20
151.903916601679
 30
0.0
 11
1782.384138958002
 21
136.4909391355216
 31
0.0
  0
LINE
  5
4EB
330
1F
100
AcDbEntity
  8
Visible (ISO)
100
AcDbLine
 10
1765.055606081493
 20
245.2814003366196
 30
0.0
 11
1734.805934585297
 21
229.8684228704618
 31
0.0
  0
LINE
  5
4EC
330
1F
100
AcDbEntity
  8
Visible (ISO)
100
AcDbLine
 10
1700.765588281928
 20
203.5026082445332
 30
0.0
 11
1693.436884744851
 21
193.4155131956075
 31
0.0
  0
LINE
  5
4ED
330
1F
100
AcDbEntity
  8
Visible (ISO)
100
AcDbLine
 10
1728.576998139063
 20
124.4491574834845
 30
0.0
 11
1741.045333315037
 21
124.4491574834845
 31
0.0
  0
LINE
  5
4EE
330
1F
100
AcDbEntity
  8
Visible (ISO)
100
AcDbLine
 10
1718.820669382821
 20
200.0065107346575
 30
0.0
 11
1712.298657980654
 21
196.6833799433605
 31
0.0
  0
LINE
  5
4EF
330
1F
100
AcDbEntity
  8
Visible (ISO)
100
AcDbLine
 10
1742.307430013437
 20
137.7878486945095
 30
0.0
 11
1748.829441415606
 21
141.1109794858069
 31
0.0
  0
LINE
  5
4F0
330
1F
100
AcDbEntity
  8
Visible (ISO)
100
AcDbLine
 10
1716.242078950935
 20
205.0672794056694
 30
0.0
 11
1718.820669382821
 21
200.0065107346575
 31
0.0
  0
LINE
  5
4F1
330
1F
100
AcDbEntity
  8
Visible (ISO)
100
AcDbLine
 10
1716.242078950935
 20
205.0672794056694
 30
0.0
 11
1702.045720417444
 21
232.9292018034178
 31
0.0
  0
LINE
  5
4F2
330
1F
100
AcDbEntity
  8
Visible (ISO)
100
AcDbLine
 10
1765.604390380982
 20
108.1882884170471
 30
0.0
 11
1751.408031847489
 21
136.0502108147956
 31
0.0
  0
LINE
  5
4F3
330
1F
100
AcDbEntity
  8
Visible (ISO)
100
AcDbLine
 10
1748.829441415606
 20
141.1109794858069
 30
0.0
 11
1751.408031847489
 21
136.0502108147956
 31
0.0
  0
LINE
  5
4F4
330
1F
100
AcDbEntity
  8
Visible (ISO)
100
AcDbLine
 10
1766.287840801434
 20
143.6318521604456
 30
0.0
 11
1751.408031847489
 21
136.0502108147956
 31
0.0
  0
LINE
  5
4F5
330
1F
100
AcDbEntity
  8
Visible (ISO)
100
AcDbLine
 10
1766.287840801434
 20
143.6318521604456
 30
0.0
 11
1731.121887904882
 21
212.6489207513194
 31
0.0
  0
LINE
  5
4F6
330
1F
100
AcDbEntity
  8
Visible (ISO)
100
AcDbLine
 10
1731.121887904882
 20
212.6489207513194
 30
0.0
 11
1716.242078950935
 21
205.0672794056689
 31
0.0
  0
LINE
  5
4F7
330
1F
100
AcDbEntity
  8
Visible (ISO)
100
AcDbLine
 10
1716.925529371391
 20
240.5108431490678
 30
0.0
 11
1731.121887904882
 21
212.6489207513194
 31
0.0
  0
LINE
  5
4F8
330
1F
100
AcDbEntity
  8
Visible (ISO)
100
AcDbLine
 10
1766.287840801434
 20
143.6318521604456
 30
0.0
 11
1780.484199334926
 21
115.7699297626971
 31
0.0
  0
LINE
  5
4F9
330
1F
100
AcDbEntity
  8
Visible (ISO)
100
AcDbLine
 10
1716.925529371391
 20
240.5108431490678
 30
0.0
 11
1702.045720417444
 21
232.9292018034178
 31
0.0
  0
LINE
  5
4FA
330
1F
100
AcDbEntity
  8
Visible (ISO)
100
AcDbLine
 10
1780.484199334926
 20
115.7699297626976
 30
0.0
 11
1765.604390380982
 21
108.1882884170471
 31
0.0
  0
LINE
  5
4FB
330
1F
100
AcDbEntity
  8
Visible (ISO)
100
AcDbLine
 10
1692.82294023158
 20
219.0909327496746
 30
0.0
 11
1700.994769226892
 21
203.0528153142839
 31
0.0
  0
LINE
  5
4FC
330
1F
100
AcDbEntity
  8
Visible (ISO)
100
AcDbLine
 10
1692.82294023158
 20
219.0909327496741
 30
0.0
 11
1705.742534832311
 21
225.6737949958977
 31
0.0
  0
LINE
  5
4FD
330
1F
100
AcDbEntity
  8
Visible (ISO)
100
AcDbLine
 10
1700.994769226892
 20
203.0528153142839
 30
0.0
 11
1713.914363827623
 21
209.6356775605071
 31
0.0
  0
ARC
  5
4FE
330
1F
100
AcDbEntity
  8
Visible (ISO)
100
AcDbCircle
 10
1673.399882319894
 20
160.7330404673492
 30
0.0
 40
2.999999999999891
100
AcDbArc
 50
152.3453586643337
 51
199.1052759044946
  0
ARC
  5
4FF
330
1F
100
AcDbEntity
  8
Visible (ISO)
100
AcDbCircle
 10
1690.35886775817
 20
127.4491574834841
 30
0.0
 40
2.999999999999845
100
AcDbArc
 50
214.8947240955191
 51
261.6546413356075
  0
LINE
  5
500
330
1F
100
AcDbEntity
  8
Visible (ISO)
100
AcDbLine
 10
1748.987981365384
 20
108.8608329783431
 30
0.0
 11
1740.81615237007
 21
124.8989504137342
 31
0.0
  0
LINE
  5
501
330
1F
100
AcDbEntity
  8
Visible (ISO)
100
AcDbLine
 10
1761.907575966115
 20
115.4436952245672
 30
0.0
 11
1748.987981365384
 21
108.8608329783436
 31
0.0
  0
LINE
  5
502
330
1F
100
AcDbEntity
  8
Visible (ISO)
100
AcDbLine
 10
1753.735746970803
 20
131.4818126599574
 30
0.0
 11
1740.81615237007
 21
124.8989504137342
 31
0.0
  0
CIRCLE
  5
503
330
1F
100
AcDbEntity
  8
Visible (ISO)
100
AcDbCircle
 10
1709.277825657823
 20
158.0513068424078
 30
0.0
 40
38.74999999999976
  0
CIRCLE
  5
504
330
1F
100
AcDbEntity
  8
Visible (ISO)
100
AcDbCircle
 10
1709.277825657823
 20
158.0513068424078
 30
0.0
 40
29.74999999999982
  0
LINE
  5
505
330
1F
100
AcDbEntity
  8
Visible (ISO)
100
AcDbLine
 10
1789.483365229228
 20
120.3552338100665
 30
0.0
 11
1775.287006695738
 21
148.2171562078154
 31
0.0
  0
SPLINE
  5
506
330
1F
100
AcDbEntity
  8
Visible (ISO)
100
AcDbSpline
210
0.0
220
0.0
230
1.0
 70
    24
 71
     3
 72
     8
 73
     4
 74
     0
 42
0.0000000001
 43
0.0000000001
 40
-0.1437727769617015
 40
-0.1437727769617015
 40
-0.1437727769617015
 40
-0.1437727769617015
 40
0.0
 40
0.0
 40
0.0
 40
0.0
 10
1789.48336522923
 20
120.3552338100665
 30
0.0
 10
1789.629051135483
 20
120.8036089253417
 30
0.0
 10
1789.774727087003
 20
121.2519534030974
 30
0.0
 10
1789.920381253677
 20
121.7002308339946
 30
0.0
  0
LINE
  5
507
330
1F
100
AcDbEntity
  8
Visible (ISO)
100
AcDbLine
 10
1776.060400017331
 20
148.9019756145556
 30
0.0
 11
1789.920381253677
 21
121.700230833995
 31
0.0
  0
SPLINE
  5
508
330
1F
100
AcDbEntity
  8
Visible (ISO)
100
AcDbSpline
210
0.0
220
0.0
230
1.0
 70
     8
 71
     3
 72
     8
 73
     4
 74
     0
 42
0.0000000001
 43
0.0000000001
 40
-0.1437727769618707
 40
-0.1437727769618707
 40
-0.1437727769618707
 40
-0.1437727769618707
 40
0.0
 40
0.0
 40
0.0
 40
0.0
 10
1775.287006695738
 20
148.2171562078154
 30
0.0
 10
1775.544960197648
 20
148.4451937604257
 30
0.0
 10
1775.802765804444
 20
148.6734713987574
 30
0.0
 10
1776.060400017331
 20
148.9019756145556
 30
0.0
  0
SPLINE
  5
509
330
1F
100
AcDbEntity
  8
Visible (ISO)
100
AcDbSpline
210
0.0
220
0.0
230
1.0
 70
    24
 71
     3
 72
     8
 73
     4
 74
     0
 42
0.0000000001
 43
0.0000000001
 40
-0.1437727769618833
 40
-0.1437727769618833
 40
-0.1437727769618833
 40
-0.1437727769618833
 40
0.0
 40
0.0
 40
0.0
 40
0.0
 10
1725.924695265693
 20
245.0961471964377
 30
0.0
 10
1726.373070380966
 20
244.9504612901845
 30
0.0
 10
1726.821414858722
 20
244.8047853386641
 30
0.0
 10
1727.269692289622
 20
244.6591311719888
 30
0.0
  0
LINE
  5
50A
330
1F
100
AcDbEntity
  8
Visible (ISO)
100
AcDbLine
 10
1740.121053799184
 20
217.2342247986888
 30
0.0
 11
1725.924695265693
 21
245.0961471964377
 31
0.0
  0
SPLINE
  5
50B
330
1F
100
AcDbEntity
  8
Visible (ISO)
100
AcDbSpline
210
0.0
220
0.0
230
1.0
 70
     8
 71
     3
 72
     8
 73
     4
 74
     0
 42
0.0000000001
 43
0.0000000001
 40
-0.143772776961513
 40
-0.143772776961513
 40
-0.143772776961513
 40
-0.143772776961513
 40
0.0
 40
0.0
 40
0.0
 40
0.0
 10
1740.121053799184
 20
217.2342247986888
 30
0.0
 10
1740.457161318803
 20
217.3088764550997
 30
0.0
 10
1740.793376141283
 20
217.3832673430037
 30
0.0
 10
1741.129673525969
 20
217.4573863914277
 30
0.0
  0
LINE
  5
50C
330
1F
100
AcDbEntity
  8
Visible (ISO)
100
AcDbLine
 10
1727.269692289622
 20
244.6591311719888
 30
0.0
 11
1741.129673525969
 21
217.4573863914277
 31
0.0
  0
LINE
  5
50D
330
1F
100
AcDbEntity
  8
Visible (ISO)
100
AcDbLine
 10
1740.121053799184
 20
217.2342247986888
 30
0.0
 11
1775.287006695738
 21
148.2171562078154
 31
0.0
  0
LINE
  5
50E
330
1F
100
AcDbEntity
  8
Visible (ISO)
100
AcDbLine
 10
1776.060400017331
 20
148.9019756145556
 30
0.0
 11
1741.129673525969
 21
217.4573863914277
 31
0.0
  0
LINE
  5
50F
330
1F
100
AcDbEntity
  8
Visible (ISO)
100
AcDbLine
 10
1717.816535895579
 20
240.9648336488074
 30
0.0
 11
1732.012894429071
 21
213.102911251059
 31
0.0
  0
SPLINE
  5
510
330
1F
100
AcDbEntity
  8
Visible (ISO)
100
AcDbSpline
210
0.0
220
0.0
230
1.0
 70
    24
 71
     3
 72
     8
 73
     4
 74
     0
 42
0.0000000001
 43
0.0000000001
 40
-0.1437727732804941
 40
-0.1437727732804941
 40
-0.1437727732804941
 40
-0.1437727732804941
 40
0.0
 40
0.0
 40
0.0
 40
0.0
 10
1780.030208835187
 20
116.6609362868856
 30
0.0
 10
1780.478486266086
 20
116.5152821202103
 30
0.0
 10
1780.926830743841
 20
116.3696061686899
 30
0.0
 10
1781.375205859114
 20
116.2239202624367
 30
0.0
  0
SPLINE
  5
511
330
1F
100
AcDbEntity
  8
Visible (ISO)
100
AcDbSpline
210
0.0
220
0.0
230
1.0
 70
    24
 71
     3
 72
     8
 73
     4
 74
     0
 42
0.0000000001
 43
0.0000000001
 40
-0.1437727732801563
 40
-0.1437727732801563
 40
-0.1437727732801563
 40
-0.1437727732801563
 40
0.0
 40
0.0
 40
0.0
 40
0.0
 10
1717.37951987113
 20
239.6198366248794
 30
0.0
 10
1717.525174037805
 20
240.0681140557784
 30
0.0
 10
1717.670849989326
 20
240.5164585335354
 30
0.0
 10
1717.816535895579
 20
240.9648336488074
 30
0.0
  0
SPLINE
  5
512
330
1F
100
AcDbEntity
  8
Visible (ISO)
100
AcDbSpline
210
0.0
220
0.0
230
1.0
 70
     8
 71
     3
 72
     8
 73
     4
 74
     0
 42
0.0000000001
 43
0.0000000001
 40
-0.1437727732809381
 40
-0.1437727732809381
 40
-0.1437727732809381
 40
-0.1437727732809381
 40
0.0
 40
0.0
 40
0.0
 40
0.0
 10
1731.239501107478
 20
212.4180918443188
 30
0.0
 10
1731.497135320363
 20
212.646596060117
 30
0.0
 10
1731.754940927161
 20
212.8748736984483
 30
0.0
 10
1732.012894429071
 20
213.102911251059
 30
0.0
  0
SPLINE
  5
513
330
1F
100
AcDbEntity
  8
Visible (ISO)
100
AcDbSpline
210
0.0
220
0.0
230
1.0
 70
     8
 71
     3
 72
     8
 73
     4
 74
     0
 42
0.0000000001
 43
0.0000000001
 40
-0.1437727732817682
 40
-0.1437727732817682
 40
-0.1437727732817682
 40
-0.1437727732817682
 40
0.0
 40
0.0
 40
0.0
 40
0.0
 10
1766.17022759884
 20
143.8626810674467
 30
0.0
 10
1766.506524983525
 20
143.9368001158708
 30
0.0
 10
1766.842739806002
 20
144.0111910037748
 30
0.0
 10
1767.178847325623
 20
144.0858426601856
 30
0.0
  0
LINE
  5
514
330
1F
100
AcDbEntity
  8
Visible (ISO)
100
AcDbLine
 10
1767.178847325623
 20
144.0858426601852
 30
0.0
 11
1732.012894429071
 21
213.102911251059
 31
0.0
  0
LINE
  5
515
330
1F
100
AcDbEntity
  8
Visible (ISO)
100
AcDbLine
 10
1767.178847325623
 20
144.0858426601856
 30
0.0
 11
1781.375205859114
 21
116.2239202624367
 31
0.0
  0
LINE
  5
516
330
1F
100
AcDbEntity
  8
Visible (ISO)
100
AcDbLine
 10
1725.924695265693
 20
245.0961471964377
 30
0.0
 11
1717.816535895579
 21
240.9648336488079
 31
0.0
  0
LINE
  5
517
330
1F
100
AcDbEntity
  8
Visible (ISO)
100
AcDbLine
 10
1740.121053799184
 20
217.2342247986888
 30
0.0
 11
1732.012894429071
 21
213.102911251059
 31
0.0
  0
LINE
  5
518
330
1F
100
AcDbEntity
  8
Visible (ISO)
100
AcDbLine
 10
1775.287006695738
 20
148.2171562078154
 30
0.0
 11
1767.178847325623
 21
144.0858426601856
 31
0.0
  0
LINE
  5
519
330
1F
100
AcDbEntity
  8
Visible (ISO)
100
AcDbLine
 10
1789.48336522923
 20
120.3552338100665
 30
0.0
 11
1781.375205859114
 21
116.2239202624367
 31
0.0
  0
ELLIPSE
  5
51A
330
1F
100
AcDbEntity
  8
Visible (ISO)
100
AcDbEllipse
 10
1933.187765186359
 20
760.181847894118
 30
0.0
 11
-0.0000000000000065
 21
8.499999999999957
 31
0.0
210
0.0
220
0.0
230
1.0
 40
0.4539904997395454
 41
0.0
 42
6.283185307179585
  0
ELLIPSE
  5
51B
330
1F
100
AcDbEntity
  8
Visible (ISO)
100
AcDbEllipse
 10
1931.851255400077
 20
760.181847894118
 30
0.0
 11
-0.0000000000015255
 21
9.999999999999957
 31
0.0
210
0.0
220
0.0
230
1.0
 40
0.4539904997395454
 41
5.748552117767348
 42
9.959411150181072
  0
LINE
  5
51C
330
1F
100
AcDbEntity
  8
Visible (ISO)
100
AcDbLine
 10
1935.153982750651
 20
752.8679754089734
 30
0.0
 11
1934.164452534537
 21
751.5772920292419
 31
0.0
  0
LINE
  5
51D
330
1F
100
AcDbEntity
  8
Visible (ISO)
100
AcDbLine
 10
1935.153982750651
 20
767.4957203792604
 30
0.0
 11
1934.164452534537
 21
768.7864037589914
 31
0.0
  0
ELLIPSE
  5
51E
330
1F
100
AcDbEntity
  8
Visible (ISO)
100
AcDbEllipse
 10
1903.784549888144
 20
760.1818478941139
 30
0.0
 11
0.0000000000000084
 21
-9.999999999999959
 31
0.0
210
0.0
220
0.0
230
1.0
 40
0.4539904997395453
 41
3.14159265359233
 42
6.283185307182123
  0
ELLIPSE
  5
51F
330
1F
100
AcDbEntity
  8
Visible (ISO)
100
AcDbEllipse
 10
1899.329517267202
 20
760.181847894113
 30
0.0
 11
0.0000000000000204
 21
-24.99999999999991
 31
0.0
210
0.0
220
0.0
230
1.0
 40
0.4539904997395453
 41
3.141592653592393
 42
6.283185307182186
  0
ELLIPSE
  5
520
330
1F
100
AcDbEntity
  8
Visible (ISO)
100
AcDbEllipse
 10
1869.926301968985
 20
760.181847894108
 30
0.0
 11
0.0000000000135822
 21
-88.9999999999997
 31
0.0
210
0.0
220
0.0
230
1.0
 40
0.4539904997395454
 41
2.955060733164275
 42
6.469717227604431
  0
ELLIPSE
  5
521
330
1F
100
AcDbEntity
  8
Visible (ISO)
100
AcDbEllipse
 10
1903.784549888144
 20
760.1818478941139
 30
0.0
 11
0.000000000003815
 21
-24.99999999999992
 31
0.0
210
0.0
220
0.0
230
1.0
 40
0.4539904997395453
 41
1.982313172862049
 42
7.442464787906663
  0
ELLIPSE
  5
522
330
1F
100
AcDbEntity
  8
Visible (ISO)
100
AcDbEllipse
 10
1820.47543987653
 20
760.1818478941007
 30
0.0
 11
0.0000000000000727
 21
-88.99999999999971
 31
0.0
210
0.0
220
0.0
230
1.0
 40
0.4539904997395453
 41
3.141592653592362
 42
6.283185307182155
  0
ELLIPSE
  5
523
330
1F
100
AcDbEntity
  8
Visible (ISO)
100
AcDbEllipse
 10
1812.010877896742
 20
760.1818478940994
 30
0.0
 11
0.0000000000150296
 21
-98.49999999999965
 31
0.0
210
0.0
220
0.0
230
1.0
 40
0.4539904997395454
 41
2.698787546715757
 42
6.725990414052949
  0
ELLIPSE
  5
524
330
1F
100
AcDbEntity
  8
Visible (ISO)
100
AcDbEllipse
 10
1788.844708267844
 20
760.1818478940957
 30
0.0
 11
0.0000000000001797
 21
-98.49999999999965
 31
0.0
210
0.0
220
0.0
230
1.0
 40
0.4539904997395454
 41
3.141592653592339
 42
6.283185307182132
  0
ELLIPSE
  5
525
330
1F
100
AcDbEntity
  8
Visible (ISO)
100
AcDbEllipse
 10
1758.59503677165
 20
760.1818478940916
 30
0.0
 11
0.0000000000079908
 21
-52.3999999999998
 31
0.0
210
0.0
220
0.0
230
1.0
 40
0.4539904997395454
 41
3.510322513794307
 42
5.914455446974345
  0
LINE
  5
526
330
1F
100
AcDbEntity
  8
Visible (ISO)
100
AcDbLine
 10
1931.851255400077
 20
750.1818478941181
 30
0.0
 11
1903.784549888144
 21
750.1818478941134
 31
0.0
  0
LINE
  5
527
330
1F
100
AcDbEntity
  8
Visible (ISO)
100
AcDbLine
 10
1931.851255400077
 20
770.1818478941175
 30
0.0
 11
1903.784549888144
 21
770.181847894113
 31
0.0
  0
LINE
  5
528
330
1F
100
AcDbEntity
  8
Visible (ISO)
100
AcDbLine
 10
1902.41488083794
 20
683.1163850990845
 30
0.0
 11
1877.419522605092
 21
672.7257036671207
 31
0.0
  0
LINE
  5
529
330
1F
100
AcDbEntity
  8
Visible (ISO)
100
AcDbLine
 10
1902.41488083794
 20
837.2473106891323
 30
0.0
 11
1877.419522605092
 21
847.6379921210876
 31
0.0
  0
LINE
  5
52A
330
1F
100
AcDbEntity
  8
Visible (ISO)
100
AcDbLine
 10
1903.784549888144
 20
735.1818478941139
 30
0.0
 11
1899.329517267202
 21
735.181847894113
 31
0.0
  0
LINE
  5
52B
330
1F
100
AcDbEntity
  8
Visible (ISO)
100
AcDbLine
 10
1903.784549888144
 20
785.1818478941139
 30
0.0
 11
1899.329517267202
 21
785.181847894113
 31
0.0
  0
LINE
  5
52C
330
1F
100
AcDbEntity
  8
Visible (ISO)
100
AcDbLine
 10
1869.926301968985
 20
671.1818478941085
 30
0.0
 11
1820.47543987653
 21
671.1818478941016
 31
0.0
  0
LINE
  5
52D
330
1F
100
AcDbEntity
  8
Visible (ISO)
100
AcDbLine
 10
1869.926301968985
 20
849.181847894108
 30
0.0
 11
1820.47543987653
 21
849.1818478941011
 31
0.0
  0
LINE
  5
52E
330
1F
100
AcDbEntity
  8
Visible (ISO)
100
AcDbLine
 10
1812.010877896742
 20
661.6818478941003
 30
0.0
 11
1788.844708267844
 21
661.6818478940967
 31
0.0
  0
LINE
  5
52F
330
1F
100
AcDbEntity
  8
Visible (ISO)
100
AcDbLine
 10
1812.010877896742
 20
858.6818478940994
 30
0.0
 11
1788.844708267844
 21
858.6818478940957
 31
0.0
  0
ELLIPSE
  5
530
330
1F
100
AcDbEntity
  8
Visible (ISO)
100
AcDbEllipse
 10
1699.067085131269
 20
710.1548801666807
 30
0.0
 11
-12.94708265106165
 21
-0.0000000000052725
 31
0.0
210
0.0
220
0.0
230
1.0
 40
0.7723747711751863
 41
5.422967946097267
 42
6.28318530718058
  0
ELLIPSE
  5
531
330
1F
100
AcDbEntity
  8
Visible (ISO)
100
AcDbEllipse
 10
1699.067085131269
 20
810.2088156215135
 30
0.0
 11
-12.94708265106165
 21
-0.0000000000052725
 31
0.0
210
0.0
220
0.0
230
1.0
 40
0.7723747711751863
 41
0.0000000000009938
 42
0.8602173610834659
  0
ELLIPSE
  5
532
330
1F
100
AcDbEntity
  8
Visible (ISO)
100
AcDbEllipse
 10
1643.329894318446
 20
760.1818478940749
 30
0.0
 11
-72.50366284594526
 21
-0.000000000029526
 31
0.0
210
0.0
220
0.0
230
1.0
 40
0.7723747711751861
 41
2.281375292507466
 42
2.32895266337061
  0
ELLIPSE
  5
533
330
1F
100
AcDbEntity
  8
Visible (ISO)
100
AcDbEllipse
 10
1643.329894318446
 20
760.1818478940749
 30
0.0
 11
-72.50366284594526
 21
-0.000000000029526
 31
0.0
210
0.0
220
0.0
230
1.0
 40
0.7723747711751861
 41
2.458374804129794
 42
2.514662955250431
  0
ELLIPSE
  5
534
330
1F
100
AcDbEntity
  8
Visible (ISO)
100
AcDbEllipse
 10
1643.329894318446
 20
760.1818478940749
 30
0.0
 11
-72.50366284594526
 21
-0.000000000029526
 31
0.0
210
0.0
220
0.0
230
1.0
 40
0.7723747711751861
 41
3.768522351930702
 42
3.824810503051219
  0
ELLIPSE
  5
535
330
1F
100
AcDbEntity
  8
Visible (ISO)
100
AcDbEllipse
 10
1643.329894318446
 20
760.1818478940749
 30
0.0
 11
-72.50366284594526
 21
-0.000000000029526
 31
0.0
210
0.0
220
0.0
230
1.0
 40
0.7723747711751861
 41
3.954232643810217
 42
4.001810014673275
  0
LINE
  5
536
330
1F
100
AcDbEntity
  8
Visible (ISO)
100
AcDbLine
 10
1686.120002480206
 20
830.1818478940912
 30
0.0
 11
1716.242078950935
 21
830.1818478940962
 31
0.0
  0
LINE
  5
537
330
1F
100
AcDbEntity
  8
Visible (ISO)
100
AcDbLine
 10
1686.120002480206
 20
810.2088156215085
 30
0.0
 11
1686.120002480206
 21
830.1818478940912
 31
0.0
  0
LINE
  5
538
330
1F
100
AcDbEntity
  8
Visible (ISO)
100
AcDbLine
 10
1686.120002480206
 20
690.1818478940921
 30
0.0
 11
1686.120002480206
 21
710.1548801666758
 31
0.0
  0
LINE
  5
539
330
1F
100
AcDbEntity
  8
Visible (ISO)
100
AcDbLine
 10
1716.242078950935
 20
690.1818478940962
 30
0.0
 11
1686.120002480206
 21
690.1818478940921
 31
0.0
  0
ELLIPSE
  5
53A
330
1F
100
AcDbEntity
  8
Visible (ISO)
100
AcDbEllipse
 10
1733.825055399212
 20
760.181847894088
 30
0.0
 11
0.0000000000122014
 21
-79.9999999999998
 31
0.0
210
0.0
220
0.0
230
1.0
 40
0.4539904997395454
 41
5.217749490668505
 42
5.777824796895093
  0
LINE
  5
53B
330
1F
100
AcDbEntity
  8
Visible (ISO)
100
AcDbLine
 10
1702.045720417447
 20
798.9116813561803
 30
0.0
 11
1702.045720417447
 21
721.452014432033
 31
0.0
  0
ELLIPSE
  5
53C
330
1F
100
AcDbEntity
  8
Visible (ISO)
100
AcDbEllipse
 10
1733.825055399212
 20
760.181847894088
 30
0.0
 11
0.0000000000159595
 21
-79.99999999999959
 31
0.0
210
0.0
220
0.0
230
1.0
 40
0.4539904997395454
 41
3.646953163872932
 42
4.20702847009977
  0
LINE
  5
53D
330
1F
100
AcDbEntity
  8
Visible (ISO)
100
AcDbLine
 10
1732.012894429071
 20
690.1818478940998
 30
0.0
 11
1731.121887904884
 21
690.1818478941008
 31
0.0
  0
LINE
  5
53E
330
1F
100
AcDbEntity
  8
Visible (ISO)
100
AcDbLine
 10
1731.121887904884
 20
690.1818478941008
 30
0.0
 11
1716.242078950935
 21
690.1818478940985
 31
0.0
  0
LINE
  5
53F
330
1F
100
AcDbEntity
  8
Visible (ISO)
100
AcDbLine
 10
1731.121887904882
 20
830.1818478941003
 30
0.0
 11
1716.242078950935
 21
830.1818478940985
 31
0.0
  0
LINE
  5
540
330
1F
100
AcDbEntity
  8
Visible (ISO)
100
AcDbLine
 10
1731.121887904882
 20
830.1818478941003
 30
0.0
 11
1732.012894429071
 21
830.1818478940997
 31
0.0
  0
LINE
  5
541
330
1F
100
AcDbEntity
  8
Visible (ISO)
100
AcDbLine
 10
1716.925529371391
 20
721.4520144320348
 30
0.0
 11
1716.925529371391
 21
798.9116813561826
 31
0.0
  0
ELLIPSE
  5
542
330
1F
100
AcDbEntity
  8
Visible (ISO)
100
AcDbEllipse
 10
1748.704864353159
 20
760.1818478940903
 30
0.0
 11
-0.0000000000084488
 21
79.99999999999968
 31
0.0
210
0.0
220
0.0
230
1.0
 40
0.4539904997395455
 41
2.076156837079148
 42
2.63623214330596
  0
ELLIPSE
  5
543
330
1F
100
AcDbEntity
  8
Visible (ISO)
100
AcDbEllipse
 10
1748.704864353159
 20
760.1818478940903
 30
0.0
 11
-0.0000000000122152
 21
79.99999999999961
 31
0.0
210
0.0
220
0.0
230
1.0
 40
0.4539904997395454
 41
0.5053605102838202
 42
1.065435816510403
  0
ELLIPSE
  5
544
330
1F
100
AcDbEntity
  8
Visible (ISO)
100
AcDbEllipse
 10
1748.704864353159
 20
760.1818478940903
 30
0.0
 11
0.0000000000120542
 21
-78.99999999999966
 31
0.0
210
0.0
220
0.0
230
1.0
 40
0.4539904997395454
 41
5.221008240067667
 42
5.748552117767314
  0
LINE
  5
545
330
1F
100
AcDbEntity
  8
Visible (ISO)
100
AcDbLine
 10
1717.37951987113
 20
798.6526160174511
 30
0.0
 11
1717.37951987113
 21
721.7110797707658
 31
0.0
  0
ELLIPSE
  5
546
330
1F
100
AcDbEntity
  8
Visible (ISO)
100
AcDbEllipse
 10
1748.704864353159
 20
760.1818478940903
 30
0.0
 11
0.0000000000157707
 21
-78.99999999999997
 31
0.0
210
0.0
220
0.0
230
1.0
 40
0.4539904997395454
 41
3.676225843000754
 42
4.20376972070064
  0
LINE
  5
547
330
1F
100
AcDbEntity
  8
Visible (ISO)
100
AcDbLine
 10
1716.925529371391
 20
721.4520144320348
 30
0.0
 11
1702.045720417447
 21
721.452014432033
 31
0.0
  0
LINE
  5
548
330
1F
100
AcDbEntity
  8
Visible (ISO)
100
AcDbLine
 10
1716.925529371391
 20
798.9116813561826
 30
0.0
 11
1702.045720417447
 21
798.9116813561803
 31
0.0
  0
ELLIPSE
  5
549
330
1F
100
AcDbEntity
  8
Visible (ISO)
100
AcDbEllipse
 10
1696.908854729235
 20
804.5341929624708
 30
0.0
 11
0.0000000000000577
 21
8.999999999999973
 31
0.0
210
0.0
220
0.0
230
1.0
 40
0.4539904997395453
 41
0.0000000000027543
 42
3.141592653592547
  0
ELLIPSE
  5
54A
330
1F
100
AcDbEntity
  8
Visible (ISO)
100
AcDbEllipse
 10
1696.908854729235
 20
715.8295028257287
 30
0.0
 11
-0.0000000000000899
 21
-8.999999999999973
 31
0.0
210
0.0
220
0.0
230
1.0
 40
0.4539904997395453
 41
3.141592653592585
 42
6.283185307182378
  0
LINE
  5
54B
330
1F
100
AcDbEntity
  8
Visible (ISO)
100
AcDbLine
 10
1702.045720417444
 20
795.5341929624718
 30
0.0
 11
1696.908854729235
 21
795.5341929624713
 31
0.0
  0
LINE
  5
54C
330
1F
100
AcDbEntity
  8
Visible (ISO)
100
AcDbLine
 10
1706.762014647787
 20
813.5341929624727
 30
0.0
 11
1696.908854729235
 21
813.5341929624713
 31
0.0
  0
LINE
  5
54D
330
1F
100
AcDbEntity
  8
Visible (ISO)
100
AcDbLine
 10
1696.908854729235
 20
724.8295028257293
 30
0.0
 11
1702.045720417447
 21
724.8295028257301
 31
0.0
  0
LINE
  5
54E
330
1F
100
AcDbEntity
  8
Visible (ISO)
100
AcDbLine
 10
1696.908854729235
 20
706.8295028257288
 30
0.0
 11
1706.762014647787
 21
706.8295028257302
 31
0.0
  0
LINE
  5
54F
330
1F
100
AcDbEntity
  8
Visible (ISO)
100
AcDbLine
 10
1670.97283133677
 20
690.1818478940858
 30
0.0
 11
1686.120002480206
 21
690.1818478940921
 31
0.0
  0
LINE
  5
550
330
1F
100
AcDbEntity
  8
Visible (ISO)
100
AcDbLine
 10
1686.120002480206
 20
830.1818478940912
 30
0.0
 11
1670.97283133677
 21
830.1818478940857
 31
0.0
  0
LINE
  5
551
330
1F
100
AcDbEntity
  8
Visible (ISO)
100
AcDbLine
 10
1670.97283133677
 20
690.1818478940866
 30
0.0
 11
1670.399882319894
 21
690.1818478940858
 31
0.0
  0
LINE
  5
552
330
1F
100
AcDbEntity
  8
Visible (ISO)
100
AcDbLine
 10
1670.399882319894
 20
830.1818478940848
 30
0.0
 11
1670.97283133677
 21
830.1818478940857
 31
0.0
  0
LINE
  5
553
330
1F
100
AcDbEntity
  8
Visible (ISO)
100
AcDbLine
 10
1670.399882319894
 20
690.1818478940858
 30
0.0
 11
1670.399882319894
 21
726.9177462789474
 31
0.0
  0
SPLINE
  5
554
330
1F
100
AcDbEntity
  8
Visible (ISO)
100
AcDbSpline
210
0.0
220
0.0
230
1.0
 70
     8
 71
     3
 72
    16
 73
    12
 74
     0
 42
0.0000000001
 43
0.0000000001
 40
0.0
 40
0.0
 40
0.0
 40
0.0
 40
0.2094395102393194
 40
0.2094395102393194
 40
0.4188790204786388
 40
0.4188790204786388
 40
0.6283185307179582
 40
0.6283185307179582
 40
0.8377580409572775
 40
0.8377580409572775
 40
1.047197551196596
 40
1.047197551196596
 40
1.047197551196596
 40
1.047197551196596
 10
1670.399882319894
 20
726.9177462789474
 30
0.0
 10
1670.399882319894
 20
727.2653502717401
 30
0.0
 10
1670.423802429022
 20
727.6129552180909
 30
0.0
 10
1670.520586419319
 20
728.303181045639
 30
0.0
 10
1670.593422807347
 20
728.6458182654268
 30
0.0
 10
1670.791713809946
 20
729.3209399694268
 30
0.0
 10
1670.917126320753
 20
729.6534945488619
 30
0.0
 10
1671.227937143166
 20
730.3019756003071
 30
0.0
 10
1671.413346815451
 20
730.6180864153492
 30
0.0
 10
1671.85604701087
 20
731.2223262453357
 30
0.0
 10
1672.113623092769
 20
731.5107548467294
 30
0.0
 10
1672.413657788301
 20
731.7733417431344
 30
0.0
  0
LINE
  5
555
330
1F
100
AcDbEntity
  8
Visible (ISO)
100
AcDbLine
 10
1689.64145409838
 20
746.8509098788057
 30
0.0
 11
1672.413657788301
 21
731.7733417431344
 31
0.0
  0
SPLINE
  5
556
330
1F
100
AcDbEntity
  8
Visible (ISO)
100
AcDbSpline
210
0.0
220
0.0
230
1.0
 70
     8
 71
     3
 72
    22
 73
    18
 74
     0
 42
0.0000000001
 43
0.0000000001
 40
-1.047197551196596
 40
-1.047197551196596
 40
-1.047197551196596
 40
-1.047197551196596
 40
-0.7125450367037423
 40
-0.7125450367037423
 40
-0.418657417767115
 40
-0.418657417767115
 40
-0.1441072420349303
 40
-0.1441072420349303
 40
0.1206806122722388
 40
0.1206806122722388
 40
0.385057476666765
 40
0.385057476666765
 40
0.6579596560528414
 40
0.6579596560528414
 40
0.9475388462228293
 40
0.9475388462228293
 40
1.047197551196597
 40
1.047197551196597
 40
1.047197551196597
 40
1.047197551196597
 10
1689.64145409838
 20
773.512785909379
 30
0.0
 10
1690.500366083764
 20
772.761076070867
 30
0.0
 10
1691.337103891136
 20
771.7306108022174
 30
0.0
 10
1692.692904534758
 20
769.3517854457422
 30
0.0
 10
1693.237647703566
 20
768.0603638890159
 30
0.0
 10
1694.035836096141
 20
765.3411489934295
 30
0.0
 10
1694.30636133652
 20
763.9287370010054
 30
0.0
 10
1694.578628283728
 20
761.0846010980885
 30
0.0
 10
1694.589710617133
 20
759.6557162020229
 30
0.0
 10
1694.365625931373
 20
756.8546630518302
 30
0.0
 10
1694.130816785563
 20
755.4827321756978
 30
0.0
 10
1693.431508157934
 20
752.8671622656569
 30
0.0
 10
1692.959697806048
 20
751.6296611933461
 30
0.0
 10
1691.811931111549
 20
749.3784004354919
 30
0.0
 10
1691.125464395113
 20
748.3844895856049
 30
0.0
 10
1690.151115939135
 20
747.3227753387435
 30
0.0
 10
1689.897235998838
 20
747.0747672406299
 30
0.0
 10
1689.64145409838
 20
746.8509098788057
 30
0.0
  0
LINE
  5
557
330
1F
100
AcDbEntity
  8
Visible (ISO)
100
AcDbLine
 10
1672.413657788301
 20
788.5903540450361
 30
0.0
 11
1689.64145409838
 21
773.512785909379
 31
0.0
  0
SPLINE
  5
558
330
1F
100
AcDbEntity
  8
Visible (ISO)
100
AcDbSpline
210
0.0
220
0.0
230
1.0
 70
     8
 71
     3
 72
    16
 73
    12
 74
     0
 42
0.0000000001
 43
0.0000000001
 40
-1.047197551196598
 40
-1.047197551196598
 40
-1.047197551196598
 40
-1.047197551196598
 40
-0.8377580409572788
 40
-0.8377580409572788
 40
-0.6283185307179591
 40
-0.6283185307179591
 40
-0.4188790204786394
 40
-0.4188790204786394
 40
-0.2094395102393197
 40
-0.2094395102393197
 40
0.0
 40
0.0
 40
0.0
 40
0.0
 10
1672.413657788301
 20
788.5903540450361
 30
0.0
 10
1672.113623092767
 20
788.8529409414412
 30
0.0
 10
1671.856047010869
 20
789.1413695428345
 30
0.0
 10
1671.413346815451
 20
789.7456093728204
 30
0.0
 10
1671.227937143166
 20
790.0617201878634
 30
0.0
 10
1670.917126320753
 20
790.7102012393087
 30
0.0
 10
1670.791713809946
 20
791.0427558187437
 30
0.0
 10
1670.593422807347
 20
791.7178775227438
 30
0.0
 10
1670.520586419319
 20
792.0605147425316
 30
0.0
 10
1670.423802429022
 20
792.7507405700793
 30
0.0
 10
1670.399882319894
 20
793.0983455164299
 30
0.0
 10
1670.399882319894
 20
793.4459495092222
 30
0.0
  0
LINE
  5
559
330
1F
100
AcDbEntity
  8
Visible (ISO)
100
AcDbLine
 10
1670.399882319894
 20
793.4459495092222
 30
0.0
 11
1670.399882319894
 21
830.1818478940848
 31
0.0
  0
LINE
  5
55A
330
1F
100
AcDbEntity
  8
Visible (ISO)
100
AcDbLine
 10
1748.027825657823
 20
868.1818478940838
 30
0.0
 11
1670.527825657825
 21
868.1818478940838
 31
0.0
  0
LINE
  5
55B
330
1F
100
AcDbEntity
  8
Visible (ISO)
100
AcDbLine
 10
1748.027825657823
 20
865.3318478940835
 30
0.0
 11
1670.527825657825
 21
865.3318478940835
 31
0.0
  0
LINE
  5
55C
330
1F
100
AcDbEntity
  8
Visible (ISO)
100
AcDbLine
 10
1741.027825657823
 20
862.7840562542209
 30
0.0
 11
1677.527825657825
 21
862.7840562542209
 31
0.0
  0
LINE
  5
55D
330
1F
100
AcDbEntity
  8
Visible (ISO)
100
AcDbLine
 10
1670.527825657823
 20
865.3318478940835
 30
0.0
 11
1670.527825657823
 21
868.1818478940838
 31
0.0
  0
LINE
  5
55E
330
1F
100
AcDbEntity
  8
Visible (ISO)
100
AcDbLine
 10
1748.027825657823
 20
865.3318478940835
 30
0.0
 11
1748.027825657823
 21
868.1818478940838
 31
0.0
  0
LINE
  5
55F
330
1F
100
AcDbEntity
  8
Visible (ISO)
100
AcDbLine
 10
1677.527825657823
 20
862.7840562542209
 30
0.0
 11
1670.527825657823
 21
865.3318478940835
 31
0.0
  0
LINE
  5
560
330
1F
100
AcDbEntity
  8
Visible (ISO)
100
AcDbLine
 10
1741.027825657823
 20
862.7840562542209
 30
0.0
 11
1748.027825657823
 21
865.3318478940835
 31
0.0
  0
LINE
  5
561
330
1F
100
AcDbEntity
  8
Visible (ISO)
100
AcDbLine
 10
1677.527825657823
 20
830.1818478940843
 30
0.0
 11
1677.527825657823
 21
862.78405625422
 31
0.0
  0
LINE
  5
562
330
1F
100
AcDbEntity
  8
Visible (ISO)
100
AcDbLine
 10
1741.027825657823
 20
830.1818478940843
 30
0.0
 11
1741.027825657823
 21
862.78405625422
 31
0.0
  0
LINE
  5
563
330
1F
100
AcDbEntity
  8
Visible (ISO)
100
AcDbLine
 10
1748.027825657823
 20
652.1818478940848
 30
0.0
 11
1670.527825657825
 21
652.1818478940848
 31
0.0
  0
LINE
  5
564
330
1F
100
AcDbEntity
  8
Visible (ISO)
100
AcDbLine
 10
1748.027825657823
 20
655.0318478940847
 30
0.0
 11
1670.527825657825
 21
655.0318478940847
 31
0.0
  0
LINE
  5
565
330
1F
100
AcDbEntity
  8
Visible (ISO)
100
AcDbLine
 10
1741.027825657823
 20
657.5796395339483
 30
0.0
 11
1677.527825657825
 21
657.5796395339483
 31
0.0
  0
LINE
  5
566
330
1F
100
AcDbEntity
  8
Visible (ISO)
100
AcDbLine
 10
1670.527825657823
 20
652.1818478940848
 30
0.0
 11
1670.527825657823
 21
655.0318478940847
 31
0.0
  0
LINE
  5
567
330
1F
100
AcDbEntity
  8
Visible (ISO)
100
AcDbLine
 10
1748.027825657823
 20
652.1818478940848
 30
0.0
 11
1748.027825657823
 21
655.0318478940843
 31
0.0
  0
LINE
  5
568
330
1F
100
AcDbEntity
  8
Visible (ISO)
100
AcDbLine
 10
1741.027825657823
 20
657.5796395339478
 30
0.0
 11
1748.027825657823
 21
655.0318478940847
 31
0.0
  0
LINE
  5
569
330
1F
100
AcDbEntity
  8
Visible (ISO)
100
AcDbLine
 10
1677.527825657823
 20
657.5796395339478
 30
0.0
 11
1670.527825657823
 21
655.0318478940847
 31
0.0
  0
LINE
  5
56A
330
1F
100
AcDbEntity
  8
Visible (ISO)
100
AcDbLine
 10
1677.527825657823
 20
657.5796395339478
 30
0.0
 11
1677.527825657823
 21
690.1818478940843
 31
0.0
  0
LINE
  5
56B
330
1F
100
AcDbEntity
  8
Visible (ISO)
100
AcDbLine
 10
1741.027825657823
 20
657.5796395339478
 30
0.0
 11
1741.027825657823
 21
690.1818478940843
 31
0.0
  0
LINE
  5
56C
330
1F
100
AcDbEntity
  8
Visible (ISO)
100
AcDbLine
 10
1757.383952776451
 20
830.1818478940912
 30
0.0
 11
1740.121053799184
 21
830.181847894102
 31
0.0
  0
SPLINE
  5
56D
330
1F
100
AcDbEntity
  8
Visible (ISO)
100
AcDbSpline
210
0.0
220
0.0
230
1.0
 70
     8
 71
     3
 72
     8
 73
     4
 74
     0
 42
0.0000000001
 43
0.0000000001
 40
-0.1437727769618929
 40
-0.1437727769618929
 40
-0.1437727769618929
 40
-0.1437727769618929
 40
0.0
 40
0.0
 40
0.0
 40
0.0
 10
1740.121053799184
 20
830.181847894102
 30
0.0
 10
1740.457161318803
 20
829.8484827584937
 30
0.0
 10
1740.793376141282
 20
829.51514040176
 30
0.0
 10
1741.129673525969
 20
829.1818478941012
 30
0.0
  0
LINE
  5
56E
330
1F
100
AcDbEntity
  8
Visible (ISO)
100
AcDbLine
 10
1741.129673525969
 20
829.1818478941012
 30
0.0
 11
1756.931888570191
 21
829.1818478940921
 31
0.0
  0
ELLIPSE
  5
56F
330
1F
100
AcDbEntity
  8
Visible (ISO)
100
AcDbEllipse
 10
1757.704030247461
 20
760.1818478940916
 30
0.0
 11
0.0000000000159595
 21
-79.99999999999973
 31
0.0
210
0.0
220
0.0
230
1.0
 40
0.4539904997395453
 41
3.64695316387295
 42
4.20702847009978
  0
SPLINE
  5
570
330
1F
100
AcDbEntity
  8
Visible (ISO)
100
AcDbSpline
210
0.0
220
0.0
230
1.0
 70
     8
 71
     3
 72
     8
 73
     4
 74
     0
 42
0.0000000001
 43
0.0000000001
 40
-0.1437727769613472
 40
-0.1437727769613472
 40
-0.1437727769613472
 40
-0.1437727769613472
 40
0.0
 40
0.0
 40
0.0
 40
0.0
 10
1725.924695265693
 20
798.911681356184
 30
0.0
 10
1726.37307038097
 20
798.8256068482895
 30
0.0
 10
1726.821414858724
 20
798.7392512794753
 30
0.0
 10
1727.269692289622
 20
798.6526160174524
 30
0.0
  0
ELLIPSE
  5
571
330
1F
100
AcDbEntity
  8
Visible (ISO)
100
AcDbEllipse
 10
1758.59503677165
 20
760.1818478940916
 30
0.0
 11
-0.0000000000120542
 21
79.00000000000009
 31
0.0
210
0.0
220
0.0
230
1.0
 40
0.4539904997395452
 41
0.5086192596829644
 42
1.062177067111245
  0
LINE
  5
572
330
1F
100
AcDbEntity
  8
Visible (ISO)
100
AcDbLine
 10
1725.924695265693
 20
798.911681356184
 30
0.0
 11
1725.924695265693
 21
721.4520144320366
 31
0.0
  0
SPLINE
  5
573
330
1F
100
AcDbEntity
  8
Visible (ISO)
100
AcDbSpline
210
0.0
220
0.0
230
1.0
 70
     8
 71
     3
 72
     8
 73
     4
 74
     0
 42
0.0000000001
 43
0.0000000001
 40
-0.1437727769618833
 40
-0.1437727769618833
 40
-0.1437727769618833
 40
-0.1437727769618833
 40
0.0
 40
0.0
 40
0.0
 40
0.0
 10
1725.924695265693
 20
721.4520144320366
 30
0.0
 10
1726.373070380966
 20
721.5380889399301
 30
0.0
 10
1726.821414858722
 20
721.6244445087444
 30
0.0
 10
1727.269692289622
 20
721.7110797707672
 30
0.0
  0
LINE
  5
574
330
1F
100
AcDbEntity
  8
Visible (ISO)
100
AcDbLine
 10
1727.269692289622
 20
721.7110797707672
 30
0.0
 11
1727.269692289622
 21
798.6526160174524
 31
0.0
  0
ELLIPSE
  5
575
330
1F
100
AcDbEntity
  8
Visible (ISO)
100
AcDbEllipse
 10
1757.704030247461
 20
760.1818478940916
 30
0.0
 11
0.0000000000122014
 21
-79.99999999999963
 31
0.0
210
0.0
220
0.0
230
1.0
 40
0.4539904997395454
 41
5.217749490668513
 42
5.777824796895094
  0
SPLINE
  5
576
330
1F
100
AcDbEntity
  8
Visible (ISO)
100
AcDbSpline
210
0.0
220
0.0
230
1.0
 70
     8
 71
     3
 72
     8
 73
     4
 74
     0
 42
0.0000000001
 43
0.0000000001
 40
-0.143772776961513
 40
-0.143772776961513
 40
-0.143772776961513
 40
-0.143772776961513
 40
0.0
 40
0.0
 40
0.0
 40
0.0
 10
1740.121053799184
 20
690.1818478941021
 30
0.0
 10
1740.457161318803
 20
690.5152130297113
 30
0.0
 10
1740.793376141283
 20
690.8485553864446
 30
0.0
 10
1741.129673525969
 20
691.1818478941021
 30
0.0
  0
ELLIPSE
  5
577
330
1F
100
AcDbEntity
  8
Visible (ISO)
100
AcDbEllipse
 10
1758.59503677165
 20
760.1818478940916
 30
0.0
 11
-0.0000000000083461
 21
78.99999999999979
 31
0.0
210
0.0
220
0.0
230
1.0
 40
0.4539904997395452
 41
2.079415586478296
 42
2.632973393906816
  0
LINE
  5
578
330
1F
100
AcDbEntity
  8
Visible (ISO)
100
AcDbLine
 10
1740.121053799184
 20
690.1818478941021
 30
0.0
 11
1757.383952776451
 21
690.1818478940921
 31
0.0
  0
LINE
  5
579
330
1F
100
AcDbEntity
  8
Visible (ISO)
100
AcDbLine
 10
1756.931888570191
 20
691.1818478940926
 30
0.0
 11
1741.129673525969
 21
691.1818478941021
 31
0.0
  0
ELLIPSE
  5
57A
330
1F
100
AcDbEntity
  8
Visible (ISO)
100
AcDbEllipse
 10
1749.595870877348
 20
760.1818478940903
 30
0.0
 11
-0.0000000000084571
 21
79.9999999999998
 31
0.0
210
0.0
220
0.0
230
1.0
 40
0.4539904997395452
 41
2.076156837079146
 42
2.636232143305958
  0
LINE
  5
57B
330
1F
100
AcDbEntity
  8
Visible (ISO)
100
AcDbLine
 10
1717.816535895579
 20
721.4520144320348
 30
0.0
 11
1717.816535895579
 21
798.9116813561826
 31
0.0
  0
ELLIPSE
  5
57C
330
1F
100
AcDbEntity
  8
Visible (ISO)
100
AcDbEllipse
 10
1749.595870877348
 20
760.1818478940903
 30
0.0
 11
-0.0000000000122014
 21
79.99999999999973
 31
0.0
210
0.0
220
0.0
230
1.0
 40
0.4539904997395453
 41
0.5053605102838255
 42
1.065435816510403
  0
SPLINE
  5
57D
330
1F
100
AcDbEntity
  8
Visible (ISO)
100
AcDbSpline
210
0.0
220
0.0
230
1.0
 70
     8
 71
     3
 72
     8
 73
     4
 74
     0
 42
0.0000000001
 43
0.0000000001
 40
-0.1437727732812069
 40
-0.1437727732812069
 40
-0.1437727732812069
 40
-0.1437727732812069
 40
0.0
 40
0.0
 40
0.0
 40
0.0
 10
1717.37951987113
 20
798.6526160174511
 30
0.0
 10
1717.525174037805
 20
798.7392512794739
 30
0.0
 10
1717.670849989326
 20
798.8256068482882
 30
0.0
 10
1717.816535895579
 20
798.911681356183
 30
0.0
  0
SPLINE
  5
57E
330
1F
100
AcDbEntity
  8
Visible (ISO)
100
AcDbSpline
210
0.0
220
0.0
230
1.0
 70
     8
 71
     3
 72
     8
 73
     4
 74
     0
 42
0.0000000001
 43
0.0000000001
 40
-0.1437727732801563
 40
-0.1437727732801563
 40
-0.1437727732801563
 40
-0.1437727732801563
 40
0.0
 40
0.0
 40
0.0
 40
0.0
 10
1717.37951987113
 20
721.7110797707658
 30
0.0
 10
1717.525174037805
 20
721.624444508743
 30
0.0
 10
1717.670849989326
 20
721.5380889399288
 30
0.0
 10
1717.816535895579
 20
721.4520144320348
 30
0.0
  0
LINE
  5
57F
330
1F
100
AcDbEntity
  8
Visible (ISO)
100
AcDbLine
 10
1730.430606990926
 20
828.1578392266109
 30
0.0
 11
1731.090293801667
 21
829.0182948130986
 31
0.0
  0
LINE
  5
580
330
1F
100
AcDbEntity
  8
Visible (ISO)
100
AcDbLine
 10
1730.430606990925
 20
692.2058565615911
 30
0.0
 11
1731.090293801667
 21
691.3454009751038
 31
0.0
  0
LINE
  5
581
330
1F
100
AcDbEntity
  8
Visible (ISO)
100
AcDbLine
 10
1725.924695265693
 20
721.4520144320366
 30
0.0
 11
1717.816535895579
 21
721.4520144320348
 31
0.0
  0
LINE
  5
582
330
1F
100
AcDbEntity
  8
Visible (ISO)
100
AcDbLine
 10
1740.121053799184
 20
690.1818478941021
 30
0.0
 11
1732.012894429071
 21
690.1818478941008
 31
0.0
  0
LINE
  5
583
330
1F
100
AcDbEntity
  8
Visible (ISO)
100
AcDbLine
 10
1725.924695265693
 20
798.911681356184
 30
0.0
 11
1717.816535895579
 21
798.9116813561826
 31
0.0
  0
LINE
  5
584
330
1F
100
AcDbEntity
  8
Visible (ISO)
100
AcDbLine
 10
1740.121053799184
 20
830.181847894102
 30
0.0
 11
1732.012894429071
 21
830.1818478941003
 31
0.0
  0
SPLINE
  5
585
330
1F
100
AcDbEntity
  8
Visible (ISO)
100
AcDbSpline
210
0.0
220
0.0
230
1.0
 70
     8
 71
     3
 72
    14
 73
    10
 74
     0
 42
0.0000000001
 43
0.0000000001
 40
3.328124574014987
 40
3.328124574014987
 40
3.328124574014987
 40
3.328124574014987
 40
3.603144645174734
 40
3.603144645174734
 40
3.935904947400173
 40
3.935904947400173
 40
4.275000025911031
 40
4.275000025911031
 40
4.582174350411509
 40
4.582174350411509
 40
4.582174350411509
 40
4.582174350411509
 10
1902.41488083794
 20
837.2473106891314
 30
0.0
 10
1906.379555199569
 20
835.5991779482682
 30
0.0
 10
1909.955789016084
 20
832.8770935110609
 30
0.0
 10
1916.973278896684
 20
825.1888672396146
 30
0.0
 10
1920.266622020133
 20
819.8453578884436
 30
0.0
 10
1925.859927420509
 20
807.3034128417019
 30
0.0
 10
1928.130140310052
 20
800.0629114631705
 30
0.0
 10
1931.287516928676
 20
785.1895185853726
 30
0.0
 10
1932.281969679193
 20
777.6611410420922
 30
0.0
 10
1932.738086523853
 20
769.9892010591906
 30
0.0
  0
SPLINE
  5
586
330
1F
100
AcDbEntity
  8
Visible (ISO)
100
AcDbSpline
210
0.0
220
0.0
230
1.0
 70
     8
 71
     3
 72
    16
 73
    12
 74
     0
 42
0.0000000001
 43
0.0000000001
 40
4.842603610357871
 40
4.842603610357871
 40
4.842603610357871
 40
4.842603610357871
 40
4.936948022790212
 40
4.936948022790212
 40
5.267098237391072
 40
5.267098237391072
 40
5.601443572417768
 40
5.601443572417768
 40
5.942359572075339
 40
5.942359572075339
 40
6.096653386754391
 40
6.096653386754391
 40
6.096653386754391
 40
6.096653386754391
 10
1932.738086523853
 20
750.374494728995
 30
0.0
 10
1932.597996443798
 20
748.0181627957189
 30
0.0
 10
1932.407342206302
 20
745.6751325300305
 30
0.0
 10
1931.324767437786
 20
735.2353023158501
 30
0.0
 10
1929.868770489659
 20
727.3993693352407
 30
0.0
 10
1925.804146252486
 20
712.9496374535436
 30
0.0
 10
1923.186869013961
 20
706.3545869879643
 30
0.0
 10
1916.837289558182
 20
695.0041803364282
 30
0.0
 10
1913.089634735806
 20
690.2639929541213
 30
0.0
 10
1906.746772417581
 20
685.3088255376368
 30
0.0
 10
1904.639172063801
 20
684.0410328406568
 30
0.0
 10
1902.41488083794
 20
683.116385099085
 30
0.0
  0
ELLIPSE
  5
587
330
1F
100
AcDbEntity
  8
Visible (ISO)
100
AcDbEllipse
 10
2203.496063780531
 20
272.1391194269553
 30
0.0
 11
8.499999999999957
 21
0.0
 31
0.0
210
0.0
220
0.0
230
1.0
 40
0.891006524188365
 41
0.0
 42
6.283185307179586
  0
ELLIPSE
  5
588
330
1F
100
AcDbEntity
  8
Visible (ISO)
100
AcDbEllipse
 10
2203.496063780531
 20
271.4581336773461
 30
0.0
 11
-9.999999999999955
 21
0.0
 31
0.0
210
0.0
220
0.0
230
1.0
 40
0.891006524188365
 41
0.0
 42
6.283185307179586
  0
ELLIPSE
  5
589
330
1F
100
AcDbEntity
  8
Visible (ISO)
100
AcDbEllipse
 10
2203.496063780524
 20
257.1574329355502
 30
0.0
 11
9.999999999999959
 21
0.0000000000000005
 31
0.0
210
0.0
220
0.0
230
1.0
 40
0.891006524188365
 41
3.141592653589464
 42
6.283185307179258
  0
ELLIPSE
  5
58A
330
1F
100
AcDbEntity
  8
Visible (ISO)
100
AcDbEllipse
 10
2203.496063780522
 20
254.8874804368527
 30
0.0
 11
24.99999999999991
 21
0.0
 31
0.0
210
0.0
220
0.0
230
1.0
 40
0.891006524188365
 41
3.141592653589448
 42
6.283185307179242
  0
ELLIPSE
  5
58B
330
1F
100
AcDbEntity
  8
Visible (ISO)
100
AcDbEllipse
 10
2203.496063780514
 20
239.9057939454481
 30
0.0
 11
88.99999999999968
 21
-0.0000000000514644
 31
0.0
210
0.0
220
0.0
230
1.0
 40
0.891006524188365
 41
2.345923839638579
 42
7.078854121132109
  0
ELLIPSE
  5
58C
330
1F
100
AcDbEntity
  8
Visible (ISO)
100
AcDbEllipse
 10
2203.496063780524
 20
257.1574329355502
 30
0.0
 11
24.99999999999991
 21
-0.000000000014462
 31
0.0
210
0.0
220
0.0
230
1.0
 40
0.8910065241883648
 41
1.793949266059334
 42
7.630828694711338
  0
ELLIPSE
  5
58D
330
1F
100
AcDbEntity
  8
Visible (ISO)
100
AcDbEllipse
 10
2203.496063780499
 20
214.7093212099028
 30
0.0
 11
88.99999999999971
 21
0.0
 31
0.0
210
0.0
220
0.0
230
1.0
 40
0.8910065241883652
 41
3.141592653589453
 42
6.283185307179247
  0
ELLIPSE
  5
58E
330
1F
100
AcDbEntity
  8
Visible (ISO)
100
AcDbEllipse
 10
2203.496063780495
 20
210.3964114623776
 30
0.0
 11
98.49999999999965
 21
-0.0000000000569489
 31
0.0
210
0.0
220
0.0
230
1.0
 40
0.891006524188365
 41
2.684737382819657
 42
6.740040577951025
  0
ELLIPSE
  5
58F
330
1F
100
AcDbEntity
  8
Visible (ISO)
100
AcDbEllipse
 10
2203.49606378049
 20
198.5926584691495
 30
0.0
 11
98.49999999999965
 21
0.0
 31
0.0
210
0.0
220
0.0
230
1.0
 40
0.891006524188365
 41
3.141592653589455
 42
6.283185307179247
  0
LINE
  5
590
330
1F
100
AcDbEntity
  8
Visible (ISO)
100
AcDbLine
 10
2213.496063780532
 20
271.4581336773461
 30
0.0
 11
2213.496063780524
 21
257.1574329355502
 31
0.0
  0
LINE
  5
591
330
1F
100
AcDbEntity
  8
Visible (ISO)
100
AcDbLine
 10
2193.496063780532
 20
271.4581336773461
 30
0.0
 11
2193.496063780524
 21
257.1574329355502
 31
0.0
  0
LINE
  5
592
330
1F
100
AcDbEntity
  8
Visible (ISO)
100
AcDbLine
 10
2258.379065655995
 20
303.0112459419886
 30
0.0
 11
2265.778901689341
 21
296.5520065655176
 31
0.0
  0
LINE
  5
593
330
1F
100
AcDbEntity
  8
Visible (ISO)
100
AcDbLine
 10
2148.613061905034
 20
303.0112459419886
 30
0.0
 11
2141.213225871671
 21
296.5520065655181
 31
0.0
  0
LINE
  5
594
330
1F
100
AcDbEntity
  8
Visible (ISO)
100
AcDbLine
 10
2228.496063780525
 20
257.1574329355506
 30
0.0
 11
2228.496063780521
 21
254.8874804368527
 31
0.0
  0
LINE
  5
595
330
1F
100
AcDbEntity
  8
Visible (ISO)
100
AcDbLine
 10
2178.496063780524
 20
257.1574329355506
 30
0.0
 11
2178.496063780523
 21
254.8874804368532
 31
0.0
  0
LINE
  5
596
330
1F
100
AcDbEntity
  8
Visible (ISO)
100
AcDbLine
 10
2292.496063780514
 20
239.9057939454477
 30
0.0
 11
2292.496063780499
 21
214.7093212099028
 31
0.0
  0
LINE
  5
597
330
1F
100
AcDbEntity
  8
Visible (ISO)
100
AcDbLine
 10
2114.496063780513
 20
239.9057939454481
 30
0.0
 11
2114.496063780499
 21
214.7093212099033
 31
0.0
  0
LINE
  5
598
330
1F
100
AcDbEntity
  8
Visible (ISO)
100
AcDbLine
 10
2301.996063780495
 20
210.3964114623776
 30
0.0
 11
2301.996063780488
 21
198.5926584691491
 31
0.0
  0
LINE
  5
599
330
1F
100
AcDbEntity
  8
Visible (ISO)
100
AcDbLine
 10
2104.996063780497
 20
210.3964114623776
 30
0.0
 11
2104.99606378049
 21
198.5926584691495
 31
0.0
  0
ELLIPSE
  5
59A
330
1F
100
AcDbEntity
  8
Visible (ISO)
100
AcDbEllipse
 10
2203.496063780474
 20
170.5587451102322
 30
0.0
 11
79.99999999999971
 21
-0.0000000000461797
 31
0.0
210
0.0
220
0.0
230
1.0
 40
0.891006524188365
 41
5.217749490669499
 42
5.77782479689608
  0
LINE
  5
59B
330
1F
100
AcDbEntity
  8
Visible (ISO)
100
AcDbLine
 10
2164.766230318409
 20
108.1882884170471
 30
0.0
 11
2242.225897242556
 21
108.1882884170471
 31
0.0
  0
ELLIPSE
  5
59C
330
1F
100
AcDbEntity
  8
Visible (ISO)
100
AcDbEllipse
 10
2203.496063780474
 20
170.5587451102322
 30
0.0
 11
79.99999999999959
 21
-0.00000000003893
 31
0.0
210
0.0
220
0.0
230
1.0
 40
0.8910065241883652
 41
3.646953163874465
 42
4.207028470101068
  0
LINE
  5
59D
330
1F
100
AcDbEntity
  8
Visible (ISO)
100
AcDbLine
 10
2133.496063780479
 20
136.8474492306126
 30
0.0
 11
2133.496063780479
 21
136.0502108147956
 31
0.0
  0
LINE
  5
59E
330
1F
100
AcDbEntity
  8
Visible (ISO)
100
AcDbLine
 10
2273.496063780479
 20
136.8474492306121
 30
0.0
 11
2273.496063780477
 21
136.0502108147956
 31
0.0
  0
ELLIPSE
  5
59F
330
1F
100
AcDbEntity
  8
Visible (ISO)
100
AcDbEllipse
 10
2203.496063780477
 20
178.1403864558832
 30
0.0
 11
-80.00000000000026
 21
0.0000000000462852
 31
0.0
210
0.0
220
0.0
230
1.0
 40
0.891006524188365
 41
0.8566930157365009
 42
1.065435816511383
  0
LINE
  5
5A0
330
1F
100
AcDbEntity
  8
Visible (ISO)
100
AcDbLine
 10
2242.22589724256
 20
115.7699297626976
 30
0.0
 11
2236.08104952875
 21
115.7699297626976
 31
0.0
  0
LINE
  5
5A1
330
1F
100
AcDbEntity
  8
Visible (ISO)
100
AcDbLine
 10
2170.911078032224
 20
115.7699297626976
 30
0.0
 11
2164.766230318412
 21
115.7699297626976
 31
0.0
  0
ELLIPSE
  5
5A2
330
1F
100
AcDbEntity
  8
Visible (ISO)
100
AcDbEllipse
 10
2203.496063780477
 20
178.1403864558832
 30
0.0
 11
-80.0000000000004
 21
0.0000000000536404
 31
0.0
210
0.0
220
0.0
230
1.0
 40
0.8910065241883648
 41
2.076156837079794
 42
2.284899637854694
  0
LINE
  5
5A3
330
1F
100
AcDbEntity
  8
Visible (ISO)
100
AcDbLine
 10
2164.766230318412
 20
115.7699297626976
 30
0.0
 11
2164.766230318409
 21
108.1882884170471
 31
0.0
  0
LINE
  5
5A4
330
1F
100
AcDbEntity
  8
Visible (ISO)
100
AcDbLine
 10
2242.22589724256
 20
115.7699297626976
 30
0.0
 11
2242.225897242556
 21
108.1882884170471
 31
0.0
  0
LINE
  5
5A5
330
1F
100
AcDbEntity
  8
Visible (ISO)
100
AcDbLine
 10
2133.496063780468
 20
124.449157483485
 30
0.0
 11
2133.496063780475
 21
136.050210814796
 31
0.0
  0
LINE
  5
5A6
330
1F
100
AcDbEntity
  8
Visible (ISO)
100
AcDbLine
 10
2273.496063780468
 20
124.449157483485
 30
0.0
 11
2264.503747722739
 21
124.449157483485
 31
0.0
  0
LINE
  5
5A7
330
1F
100
AcDbEntity
  8
Visible (ISO)
100
AcDbLine
 10
2273.496063780473
 20
136.0502108147956
 30
0.0
 11
2273.496063780468
 21
124.4491574834845
 31
0.0
  0
LINE
  5
5A8
330
1F
100
AcDbEntity
  8
Visible (ISO)
100
AcDbLine
 10
2142.488379838197
 20
124.449157483485
 30
0.0
 11
2133.496063780468
 21
124.449157483485
 31
0.0
  0
ELLIPSE
  5
5A9
330
1F
100
AcDbEntity
  8
Visible (ISO)
100
AcDbEllipse
 10
2247.848408848848
 20
116.8798916960389
 30
0.0
 11
8.999999999999973
 21
0.0
 31
0.0
210
0.0
220
0.0
230
1.0
 40
0.891006524188365
 41
4.342434519012392
 42
6.28318530717924
  0
LINE
  5
5AA
330
1F
100
AcDbEntity
  8
Visible (ISO)
100
AcDbLine
 10
2256.848408848849
 20
116.8798916960389
 30
0.0
 11
2256.848408848849
 21
117.4445370205693
 31
0.0
  0
ELLIPSE
  5
5AB
330
1F
100
AcDbEntity
  8
Visible (ISO)
100
AcDbEllipse
 10
2159.143718712106
 20
116.8798916960389
 30
0.0
 11
-8.999999999999973
 21
0.0000000000002453
 31
0.0
210
0.0
220
0.0
230
1.0
 40
0.891006524188365
 41
0.0
 42
1.940750788167143
  0
LINE
  5
5AC
330
1F
100
AcDbEntity
  8
Visible (ISO)
100
AcDbLine
 10
2150.143718712106
 20
117.4445370205697
 30
0.0
 11
2150.143718712106
 21
116.8798916960389
 31
0.0
  0
LINE
  5
5AD
330
1F
100
AcDbEntity
  8
Visible (ISO)
100
AcDbLine
 10
2311.496063780466
 20
119.3013068424082
 30
0.0
 11
2311.496063780466
 21
196.8013068424073
 31
0.0
  0
LINE
  5
5AE
330
1F
100
AcDbEntity
  8
Visible (ISO)
100
AcDbLine
 10
2308.646063780466
 20
119.3013068424082
 30
0.0
 11
2308.646063780466
 21
196.8013068424073
 31
0.0
  0
LINE
  5
5AF
330
1F
100
AcDbEntity
  8
Visible (ISO)
100
AcDbLine
 10
2306.098272140603
 20
126.3013068424078
 30
0.0
 11
2306.098272140603
 21
189.8013068424078
 31
0.0
  0
LINE
  5
5B0
330
1F
100
AcDbEntity
  8
Visible (ISO)
100
AcDbLine
 10
2308.646063780466
 20
196.8013068424078
 30
0.0
 11
2311.496063780466
 21
196.8013068424078
 31
0.0
  0
LINE
  5
5B1
330
1F
100
AcDbEntity
  8
Visible (ISO)
100
AcDbLine
 10
2308.646063780466
 20
119.3013068424082
 30
0.0
 11
2311.496063780466
 21
119.3013068424082
 31
0.0
  0
LINE
  5
5B2
330
1F
100
AcDbEntity
  8
Visible (ISO)
100
AcDbLine
 10
2306.098272140603
 20
189.8013068424078
 30
0.0
 11
2308.646063780466
 21
196.8013068424078
 31
0.0
  0
LINE
  5
5B3
330
1F
100
AcDbEntity
  8
Visible (ISO)
100
AcDbLine
 10
2306.098272140603
 20
126.3013068424082
 30
0.0
 11
2308.646063780466
 21
119.3013068424082
 31
0.0
  0
LINE
  5
5B4
330
1F
100
AcDbEntity
  8
Visible (ISO)
100
AcDbLine
 10
2301.500639981926
 20
189.8013068424078
 30
0.0
 11
2306.098272140603
 21
189.8013068424078
 31
0.0
  0
LINE
  5
5B5
330
1F
100
AcDbEntity
  8
Visible (ISO)
100
AcDbLine
 10
2273.496063780466
 20
126.3013068424082
 30
0.0
 11
2306.098272140601
 21
126.3013068424082
 31
0.0
  0
LINE
  5
5B6
330
1F
100
AcDbEntity
  8
Visible (ISO)
100
AcDbLine
 10
2095.496063780466
 20
119.3013068424082
 30
0.0
 11
2095.496063780466
 21
196.8013068424073
 31
0.0
  0
LINE
  5
5B7
330
1F
100
AcDbEntity
  8
Visible (ISO)
100
AcDbLine
 10
2098.346063780466
 20
119.3013068424082
 30
0.0
 11
2098.346063780466
 21
196.8013068424073
 31
0.0
  0
LINE
  5
5B8
330
1F
100
AcDbEntity
  8
Visible (ISO)
100
AcDbLine
 10
2100.89385542033
 20
126.3013068424078
 30
0.0
 11
2100.89385542033
 21
189.8013068424078
 31
0.0
  0
LINE
  5
5B9
330
1F
100
AcDbEntity
  8
Visible (ISO)
100
AcDbLine
 10
2095.496063780466
 20
196.8013068424078
 30
0.0
 11
2098.346063780465
 21
196.8013068424078
 31
0.0
  0
LINE
  5
5BA
330
1F
100
AcDbEntity
  8
Visible (ISO)
100
AcDbLine
 10
2095.496063780466
 20
119.3013068424082
 30
0.0
 11
2098.346063780465
 21
119.3013068424082
 31
0.0
  0
LINE
  5
5BB
330
1F
100
AcDbEntity
  8
Visible (ISO)
100
AcDbLine
 10
2100.89385542033
 20
126.3013068424082
 30
0.0
 11
2098.346063780466
 21
119.3013068424082
 31
0.0
  0
LINE
  5
5BC
330
1F
100
AcDbEntity
  8
Visible (ISO)
100
AcDbLine
 10
2100.89385542033
 20
189.8013068424078
 30
0.0
 11
2098.346063780466
 21
196.8013068424078
 31
0.0
  0
LINE
  5
5BD
330
1F
100
AcDbEntity
  8
Visible (ISO)
100
AcDbLine
 10
2100.89385542033
 20
189.8013068424078
 30
0.0
 11
2105.491487579006
 21
189.8013068424078
 31
0.0
  0
LINE
  5
5BE
330
1F
100
AcDbEntity
  8
Visible (ISO)
100
AcDbLine
 10
2100.89385542033
 20
126.3013068424082
 30
0.0
 11
2133.496063780466
 21
126.3013068424082
 31
0.0
  0
LINE
  5
5BF
330
1F
100
AcDbEntity
  8
Visible (ISO)
100
AcDbLine
 10
2242.225897242561
 20
116.2239202624372
 30
0.0
 11
2237.499690956274
 21
116.2239202624372
 31
0.0
  0
LINE
  5
5C0
330
1F
100
AcDbEntity
  8
Visible (ISO)
100
AcDbLine
 10
2169.492436604701
 20
116.2239202624372
 30
0.0
 11
2164.766230318412
 21
116.2239202624372
 31
0.0
  0
ELLIPSE
  5
5C1
330
1F
100
AcDbEntity
  8
Visible (ISO)
100
AcDbEllipse
 10
2203.496063780477
 20
178.5943769556232
 30
0.0
 11
-80.00000000000126
 21
0.0000000000536626
 31
0.0
210
0.0
220
0.0
230
1.0
 40
0.891006524188365
 41
2.0761568370798
 42
2.248080959687117
  0
ELLIPSE
  5
5C2
330
1F
100
AcDbEntity
  8
Visible (ISO)
100
AcDbEllipse
 10
2203.496063780477
 20
178.5943769556223
 30
0.0
 11
-79.99999999999976
 21
0.0000000000462685
 31
0.0
210
0.0
220
0.0
230
1.0
 40
0.891006524188365
 41
0.8935116939040739
 42
1.065435816511389
  0
LINE
  5
5C3
330
1F
100
AcDbEntity
  8
Visible (ISO)
100
AcDbLine
 10
2164.766230318414
 20
117.8975173960469
 30
0.0
 11
2164.766230318412
 21
116.2239202624372
 31
0.0
  0
LINE
  5
5C4
330
1F
100
AcDbEntity
  8
Visible (ISO)
100
AcDbLine
 10
2242.225897242563
 20
117.8975173960469
 30
0.0
 11
2242.225897242561
 21
116.2239202624372
 31
0.0
  0
SPLINE
  5
5C5
330
1F
100
AcDbEntity
  8
Visible (ISO)
100
AcDbSpline
210
0.0
220
0.0
230
1.0
 70
     8
 71
     3
 72
    16
 73
    12
 74
     0
 42
0.0000000001
 43
0.0000000001
 40
0.7956688139519248
 40
0.7956688139519248
 40
0.7956688139519248
 40
0.7956688139519248
 40
1.105719819089114
 40
1.105719819089114
 40
1.415770824226304
 40
1.415770824226304
 40
1.725821829363493
 40
1.725821829363493
 40
2.035872834500683
 40
2.035872834500683
 40
2.345923839637872
 40
2.345923839637872
 40
2.345923839637872
 40
2.345923839637872
 10
2148.613061905036
 20
303.0112459419914
 30
0.0
 10
2154.449697133662
 20
308.1059837071123
 30
0.0
 10
2161.152603720032
 20
312.3656159859941
 30
0.0
 10
2175.652302518121
 20
318.8483711243697
 30
0.0
 10
2183.447399478272
 20
321.0712785353197
 30
0.0
 10
2199.412119249196
 20
323.2943022410344
 30
0.0
 10
2207.580008311827
 20
323.2943022410344
 30
0.0
 10
2223.544728082751
 20
321.0712785353197
 30
0.0
 10
2231.339825042903
 20
318.8483711243697
 30
0.0
 10
2245.839523840993
 20
312.3656159859941
 30
0.0
 10
2252.542430427365
 20
308.1059837071119
 30
0.0
 10
2258.379065655991
 20
303.011245941991
 30
0.0
  0
ELLIPSE
  5
5C6
330
1F
100
AcDbEntity
  8
Visible (ISO)
100
AcDbEllipse
 10
1351.676623318174
 20
239.9057939454472
 30
0.0
 11
88.99999999999971
 21
-0.0000000000521402
 31
0.0
210
0.0
220
0.0
230
1.0
 40
0.8910065241883648
 41
0.1163517959614245
 42
3.025240857629683
  0
ELLIPSE
  5
5C7
330
1F
100
AcDbEntity
  8
Visible (ISO)
100
AcDbEllipse
 10
1351.676623318158
 20
210.3964114623771
 30
0.0
 11
98.49999999999965
 21
-0.0000000000000028
 31
0.0
210
0.0
220
0.0
230
1.0
 40
0.891006524188365
 41
0.0
 42
3.141592653589452
  0
ELLIPSE
  5
5C8
330
1F
100
AcDbEntity
  8
Visible (ISO)
100
AcDbEllipse
 10
1351.676623318151
 20
198.5926584691491
 30
0.0
 11
98.49999999999965
 21
-0.0000000000577136
 31
0.0
210
0.0
220
0.0
230
1.0
 40
0.891006524188365
 41
6.182846828183037
 42
9.525116439767243
  0
ELLIPSE
  5
5C9
330
1F
100
AcDbEntity
  8
Visible (ISO)
100
AcDbEllipse
 10
1351.676623318151
 20
198.5926584691491
 30
0.0
 11
-52.39999999999975
 21
0.0000000000306935
 31
0.0
210
0.0
220
0.0
230
1.0
 40
0.8910065241883652
 41
4.623277141297146
 42
4.801500819473542
  0
LINE
  5
5CA
330
1F
100
AcDbEntity
  8
Visible (ISO)
100
AcDbLine
 10
1406.559625193656
 20
303.0112459419882
 30
0.0
 11
1413.959461227002
 21
296.5520065655176
 31
0.0
  0
LINE
  5
5CB
330
1F
100
AcDbEntity
  8
Visible (ISO)
100
AcDbLine
 10
1296.793621442695
 20
303.0112459419882
 30
0.0
 11
1289.393785409332
 21
296.5520065655172
 31
0.0
  0
LINE
  5
5CC
330
1F
100
AcDbEntity
  8
Visible (ISO)
100
AcDbLine
 10
1450.176623318156
 20
210.3964114623771
 30
0.0
 11
1450.176623318149
 21
198.5926584691491
 31
0.0
  0
LINE
  5
5CD
330
1F
100
AcDbEntity
  8
Visible (ISO)
100
AcDbLine
 10
1253.176623318158
 20
210.3964114623771
 30
0.0
 11
1253.176623318151
 21
198.5926584691486
 31
0.0
  0
ELLIPSE
  5
5CE
330
1F
100
AcDbEntity
  8
Visible (ISO)
100
AcDbEllipse
 10
1401.703591045546
 20
208.9165759765409
 30
0.0
 11
9.999999999999946
 21
-0.0000000000049398
 31
0.0
210
0.0
220
0.0
230
1.0
 40
0.891006524188365
 41
3.852171619302289
 42
4.712388980385236
  0
ELLIPSE
  5
5CF
330
1F
100
AcDbEntity
  8
Visible (ISO)
100
AcDbEllipse
 10
1401.703591045541
 20
201.1648192161022
 30
0.0
 11
-0.0000000000038539
 21
-17.82013048376723
 31
0.0
210
0.0
220
0.0
230
1.0
 40
0.5611631188171824
 41
5.422967946096196
 42
6.283185307178804
  0
ELLIPSE
  5
5D0
330
1F
100
AcDbEntity
  8
Visible (ISO)
100
AcDbEllipse
 10
1301.649655590711
 20
208.9165759765409
 30
0.0
 11
9.999999999999955
 21
0.0000000000000079
 31
0.0
210
0.0
220
0.0
230
1.0
 40
0.891006524188365
 41
4.712388980384973
 42
5.572606341467704
  0
ELLIPSE
  5
5D1
330
1F
100
AcDbEntity
  8
Visible (ISO)
100
AcDbEllipse
 10
1301.649655590708
 20
201.1648192161022
 30
0.0
 11
-0.0000000000038539
 21
-17.82013048376723
 31
0.0
210
0.0
220
0.0
230
1.0
 40
0.5611631188171824
 41
0.0
 42
0.8602173610824257
  0
ELLIPSE
  5
5D2
330
1F
100
AcDbEntity
  8
Visible (ISO)
100
AcDbEllipse
 10
1351.676623318267
 20
170.5587451103327
 30
0.0
 11
-55.99999999982546
 21
0.0000000000276612
 31
0.0
210
0.0
220
0.0
230
1.0
 40
0.8910065241883652
 41
3.852171619302325
 42
3.856443329744485
  0
ELLIPSE
  5
5D3
330
1F
100
AcDbEntity
  8
Visible (ISO)
100
AcDbEllipse
 10
1351.676623318134
 20
170.5587451102318
 30
0.0
 11
-56.00000000000038
 21
0.0000000000276029
 31
0.0
210
0.0
220
0.0
230
1.0
 40
0.891006524188365
 41
4.022399780663949
 42
4.320285100854736
  0
ELLIPSE
  5
5D4
330
1F
100
AcDbEntity
  8
Visible (ISO)
100
AcDbEllipse
 10
1351.676623318107
 20
124.4491574834841
 30
0.0
 11
-0.0000000000215819
 21
-99.79273070909652
 31
0.0
210
0.0
220
0.0
230
1.0
 40
0.5611631188171823
 41
2.281375292506403
 42
2.749488774058572
  0
LINE
  5
5D5
330
1F
100
AcDbEntity
  8
Visible (ISO)
100
AcDbLine
 10
1421.676623318131
 20
200.0065107346575
 30
0.0
 11
1401.703591045546
 21
200.0065107346575
 31
0.0
  0
LINE
  5
5D6
330
1F
100
AcDbEntity
  8
Visible (ISO)
100
AcDbLine
 10
1281.676623318131
 20
200.0065107346575
 30
0.0
 11
1301.649655590713
 21
200.0065107346575
 31
0.0
  0
ELLIPSE
  5
5D7
330
1F
100
AcDbEntity
  8
Visible (ISO)
100
AcDbEllipse
 10
1351.676623320741
 20
170.5587451082254
 30
0.0
 11
56.00000000344429
 21
-0.0000000000379835
 31
0.0
210
0.0
220
0.0
230
1.0
 40
0.8910065241883648
 41
2.426741977436527
 42
2.431013687878451
  0
ELLIPSE
  5
5D8
330
1F
100
AcDbEntity
  8
Visible (ISO)
100
AcDbEllipse
 10
1351.676623318134
 20
170.5587451102318
 30
0.0
 11
55.99999999999963
 21
-0.0000000000380695
 31
0.0
210
0.0
220
0.0
230
1.0
 40
0.891006524188365
 41
1.962900206326164
 42
2.260785526516961
  0
ELLIPSE
  5
5D9
330
1F
100
AcDbEntity
  8
Visible (ISO)
100
AcDbEllipse
 10
1351.676623318107
 20
124.4491574834841
 30
0.0
 11
-0.0000000000215819
 21
-99.79273070909652
 31
0.0
210
0.0
220
0.0
230
1.0
 40
0.5611631188171823
 41
3.533696533119616
 42
4.001810014672217
  0
LINE
  5
5DA
330
1F
100
AcDbEntity
  8
Visible (ISO)
100
AcDbLine
 10
1281.67662331812
 20
183.3446887323351
 30
0.0
 11
1281.676623318131
 21
200.0065107346575
 31
0.0
  0
LINE
  5
5DB
330
1F
100
AcDbEntity
  8
Visible (ISO)
100
AcDbLine
 10
1301.649655590704
 20
183.3446887323351
 30
0.0
 11
1281.67662331812
 21
183.3446887323351
 31
0.0
  0
LINE
  5
5DC
330
1F
100
AcDbEntity
  8
Visible (ISO)
100
AcDbLine
 10
1421.67662331812
 20
183.3446887323347
 30
0.0
 11
1401.703591045535
 21
183.3446887323351
 31
0.0
  0
LINE
  5
5DD
330
1F
100
AcDbEntity
  8
Visible (ISO)
100
AcDbLine
 10
1421.676623318131
 20
200.0065107346575
 30
0.0
 11
1421.67662331812
 21
183.3446887323351
 31
0.0
  0
LINE
  5
5DE
330
1F
100
AcDbEntity
  8
Visible (ISO)
100
AcDbLine
 10
1421.676623318129
 20
205.0672794056689
 30
0.0
 11
1421.676623318131
 21
200.0065107346575
 31
0.0
  0
ELLIPSE
  5
5DF
330
1F
100
AcDbEntity
  8
Visible (ISO)
100
AcDbEllipse
 10
1351.676623318134
 20
170.5587451102318
 30
0.0
 11
79.9999999999998
 21
-0.0000000000468292
 31
0.0
210
0.0
220
0.0
230
1.0
 40
0.891006524188365
 41
0.5053605102848158
 42
1.065435816511396
  0
LINE
  5
5E0
330
1F
100
AcDbEntity
  8
Visible (ISO)
100
AcDbLine
 10
1312.946789856052
 20
232.9292018034174
 30
0.0
 11
1390.406456780199
 21
232.9292018034174
 31
0.0
  0
ELLIPSE
  5
5E1
330
1F
100
AcDbEntity
  8
Visible (ISO)
100
AcDbEllipse
 10
1351.676623318134
 20
170.5587451102318
 30
0.0
 11
79.99999999999961
 21
-0.00000000005419
 31
0.0
210
0.0
220
0.0
230
1.0
 40
0.891006524188365
 41
2.076156837079818
 42
2.636232143306431
  0
LINE
  5
5E2
330
1F
100
AcDbEntity
  8
Visible (ISO)
100
AcDbLine
 10
1281.676623318131
 20
200.0065107346575
 30
0.0
 11
1281.676623318129
 21
205.0672794056689
 31
0.0
  0
ELLIPSE
  5
5E3
330
1F
100
AcDbEntity
  8
Visible (ISO)
100
AcDbEllipse
 10
1351.676623318142
 20
170.5587451102418
 30
0.0
 11
-80.00000000001262
 21
0.0000000000468348
 31
0.0
210
0.0
220
0.0
230
1.0
 40
0.891006524188365
 41
1.031272688572625
 42
1.065435816511391
  0
ELLIPSE
  5
5E4
330
1F
100
AcDbEntity
  8
Visible (ISO)
100
AcDbEllipse
 10
1351.676623318134
 20
170.5587451102322
 30
0.0
 11
-80.00000000000014
 21
0.0000000000468459
 31
0.0
210
0.0
220
0.0
230
1.0
 40
0.8910065241883652
 41
0.7034794337581874
 42
0.8407497885985844
  0
LINE
  5
5E5
330
1F
100
AcDbEntity
  8
Visible (ISO)
100
AcDbLine
 10
1390.406456780217
 20
108.1882884170466
 30
0.0
 11
1312.94678985607
 21
108.1882884170466
 31
0.0
  0
ELLIPSE
  5
5E6
330
1F
100
AcDbEntity
  8
Visible (ISO)
100
AcDbEllipse
 10
1351.676623318134
 20
170.5587451102313
 30
0.0
 11
-79.99999999999873
 21
0.0000000000542177
 31
0.0
210
0.0
220
0.0
230
1.0
 40
0.891006524188365
 41
2.300842864992628
 42
2.438113219833041
  0
ELLIPSE
  5
5E7
330
1F
100
AcDbEntity
  8
Visible (ISO)
100
AcDbEllipse
 10
1351.676623318122
 20
170.5587451102522
 30
0.0
 11
-80.00000000002581
 21
0.0000000000542455
 31
0.0
210
0.0
220
0.0
230
1.0
 40
0.8910065241883652
 41
2.076156837079805
 42
2.11031996501857
  0
LINE
  5
5E8
330
1F
100
AcDbEntity
  8
Visible (ISO)
100
AcDbLine
 10
1421.676623318133
 20
212.648920751319
 30
0.0
 11
1421.676623318129
 21
205.0672794056684
 31
0.0
  0
LINE
  5
5E9
330
1F
100
AcDbEntity
  8
Visible (ISO)
100
AcDbLine
 10
1281.676623318134
 20
212.648920751319
 30
0.0
 11
1281.676623318129
 21
205.0672794056684
 31
0.0
  0
LINE
  5
5EA
330
1F
100
AcDbEntity
  8
Visible (ISO)
100
AcDbLine
 10
1390.406456780203
 20
240.5108431490678
 30
0.0
 11
1312.946789856055
 21
240.5108431490678
 31
0.0
  0
ELLIPSE
  5
5EB
330
1F
100
AcDbEntity
  8
Visible (ISO)
100
AcDbEllipse
 10
1351.676623318138
 20
178.1403864558823
 30
0.0
 11
-79.99999999999968
 21
0.0000000000395073
 31
0.0
210
0.0
220
0.0
230
1.0
 40
0.8910065241883653
 41
3.646953163874472
 42
4.207028470101079
  0
ELLIPSE
  5
5EC
330
1F
100
AcDbEntity
  8
Visible (ISO)
100
AcDbEllipse
 10
1351.676623318138
 20
178.1403864558823
 30
0.0
 11
-79.99999999999959
 21
0.0000000000469014
 31
0.0
210
0.0
220
0.0
230
1.0
 40
0.8910065241883652
 41
5.217749490669503
 42
5.777824796896084
  0
LINE
  5
5ED
330
1F
100
AcDbEntity
  8
Visible (ISO)
100
AcDbLine
 10
1390.406456780203
 20
240.5108431490678
 30
0.0
 11
1390.406456780199
 21
232.9292018034174
 31
0.0
  0
LINE
  5
5EE
330
1F
100
AcDbEntity
  8
Visible (ISO)
100
AcDbLine
 10
1312.946789856055
 20
240.5108431490678
 30
0.0
 11
1312.946789856052
 21
232.9292018034174
 31
0.0
  0
LINE
  5
5EF
330
1F
100
AcDbEntity
  8
Visible (ISO)
100
AcDbLine
 10
1330.277149025519
 20
216.6683327369795
 30
0.0
 11
1373.076097610735
 21
216.6683327369795
 31
0.0
  0
LINE
  5
5F0
330
1F
100
AcDbEntity
  8
Visible (ISO)
100
AcDbLine
 10
1421.676623318116
 20
162.4963962242262
 30
0.0
 11
1421.67662331812
 21
183.3446887323347
 31
0.0
  0
LINE
  5
5F1
330
1F
100
AcDbEntity
  8
Visible (ISO)
100
AcDbLine
 10
1421.67662331812
 20
126.0871859842653
 30
0.0
 11
1421.676623318116
 21
159.37106896813
 31
0.0
  0
LINE
  5
5F2
330
1F
100
AcDbEntity
  8
Visible (ISO)
100
AcDbLine
 10
1281.67662331812
 20
183.3446887323351
 30
0.0
 11
1281.676623318116
 21
162.4963962242262
 31
0.0
  0
LINE
  5
5F3
330
1F
100
AcDbEntity
  8
Visible (ISO)
100
AcDbLine
 10
1281.676623318116
 20
159.37106896813
 30
0.0
 11
1281.67662331812
 21
126.0871859842653
 31
0.0
  0
ELLIPSE
  5
5F4
330
1F
100
AcDbEntity
  8
Visible (ISO)
100
AcDbEllipse
 10
1396.028968386499
 20
217.6547362782024
 30
0.0
 11
-8.999999999999968
 21
0.0
 31
0.0
210
0.0
220
0.0
230
1.0
 40
0.891006524188365
 41
3.141592653589444
 42
6.283185307179238
  0
ELLIPSE
  5
5F5
330
1F
100
AcDbEntity
  8
Visible (ISO)
100
AcDbEllipse
 10
1307.324278249756
 20
217.6547362782024
 30
0.0
 11
-8.999999999999973
 21
0.0000000000000633
 31
0.0
210
0.0
220
0.0
230
1.0
 40
0.891006524188365
 41
3.141592653589455
 42
6.283185307179247
  0
ELLIPSE
  5
5F6
330
1F
100
AcDbEntity
  8
Visible (ISO)
100
AcDbEllipse
 10
1307.324278249752
 20
211.0718740319788
 30
0.0
 11
8.999999999999969
 21
0.0
 31
0.0
210
0.0
220
0.0
230
1.0
 40
0.891006524188365
 41
0.0
 42
6.283185307179586
  0
ELLIPSE
  5
5F7
330
1F
100
AcDbEntity
  8
Visible (ISO)
100
AcDbEllipse
 10
1396.028968386495
 20
211.0718740319788
 30
0.0
 11
-8.999999999999969
 21
0.0
 31
0.0
210
0.0
220
0.0
230
1.0
 40
0.891006524188365
 41
0.0
 42
6.283185307179586
  0
LINE
  5
5F8
330
1F
100
AcDbEntity
  8
Visible (ISO)
100
AcDbLine
 10
1316.324278249756
 20
217.6547362782024
 30
0.0
 11
1316.324278249752
 21
211.0718740319788
 31
0.0
  0
LINE
  5
5F9
330
1F
100
AcDbEntity
  8
Visible (ISO)
100
AcDbLine
 10
1298.324278249755
 20
217.6547362782024
 30
0.0
 11
1298.324278249752
 21
211.0718740319788
 31
0.0
  0
LINE
  5
5FA
330
1F
100
AcDbEntity
  8
Visible (ISO)
100
AcDbLine
 10
1387.028968386495
 20
211.0718740319788
 30
0.0
 11
1387.028968386498
 21
217.6547362782024
 31
0.0
  0
LINE
  5
5FB
330
1F
100
AcDbEntity
  8
Visible (ISO)
100
AcDbLine
 10
1405.028968386495
 20
211.0718740319788
 30
0.0
 11
1405.028968386498
 21
217.6547362782024
 31
0.0
  0
ELLIPSE
  5
5FC
330
1F
100
AcDbEntity
  8
Visible (ISO)
100
AcDbEllipse
 10
1396.028968386511
 20
123.4627539422616
 30
0.0
 11
-8.999999999998635
 21
-0.0000000000000712
 31
0.0
210
0.0
220
0.0
230
1.0
 40
0.891006524188365
 41
6.159865578138902
 42
6.283185307179227
  0
ELLIPSE
  5
5FD
330
1F
100
AcDbEntity
  8
Visible (ISO)
100
AcDbEllipse
 10
1396.028968386509
 20
123.4627539422616
 30
0.0
 11
9.000000000002732
 21
-0.0000000000052711
 31
0.0
210
0.0
220
0.0
230
1.0
 40
0.891006524188365
 41
0.0
 42
0.1233197290409693
  0
ELLIPSE
  5
5FE
330
1F
100
AcDbEntity
  8
Visible (ISO)
100
AcDbEllipse
 10
1396.028968386509
 20
116.8798916960384
 30
0.0
 11
8.999999999999969
 21
-0.000000000005267
 31
0.0
210
0.0
220
0.0
230
1.0
 40
0.891006524188365
 41
1.907316264362764
 42
7.517461696407949
  0
LINE
  5
5FF
330
1F
100
AcDbEntity
  8
Visible (ISO)
100
AcDbLine
 10
1405.028968386513
 20
123.4627539422616
 30
0.0
 11
1405.02896838651
 21
116.8798916960384
 31
0.0
  0
LINE
  5
600
330
1F
100
AcDbEntity
  8
Visible (ISO)
100
AcDbLine
 10
1387.028968386513
 20
123.4627539422616
 30
0.0
 11
1387.02896838651
 21
116.8798916960384
 31
0.0
  0
ELLIPSE
  5
601
330
1F
100
AcDbEntity
  8
Visible (ISO)
100
AcDbEllipse
 10
1307.32427824977
 20
123.4627539422616
 30
0.0
 11
-9.000000000000389
 21
0.0000000000001662
 31
0.0
210
0.0
220
0.0
230
1.0
 40
0.891006524188365
 41
6.159865578139012
 42
6.283185307179309
  0
ELLIPSE
  5
602
330
1F
100
AcDbEntity
  8
Visible (ISO)
100
AcDbEllipse
 10
1307.324278249772
 20
123.4627539422616
 30
0.0
 11
8.999999999998625
 21
-0.000000000005272
 31
0.0
210
0.0
220
0.0
230
1.0
 40
0.8910065241883652
 41
0.0
 42
0.1233197290409835
  0
ELLIPSE
  5
603
330
1F
100
AcDbEntity
  8
Visible (ISO)
100
AcDbEllipse
 10
1307.324278249766
 20
116.8798916960384
 30
0.0
 11
-8.999999999999969
 21
0.0000000000052753
 31
0.0
210
0.0
220
0.0
230
1.0
 40
0.891006524188365
 41
5.048908917952557
 42
10.65905434999772
  0
LINE
  5
604
330
1F
100
AcDbEntity
  8
Visible (ISO)
100
AcDbLine
 10
1298.324278249767
 20
116.8798916960384
 30
0.0
 11
1298.32427824977
 21
123.4627539422616
 31
0.0
  0
LINE
  5
605
330
1F
100
AcDbEntity
  8
Visible (ISO)
100
AcDbLine
 10
1316.324278249767
 20
116.8798916960384
 30
0.0
 11
1316.32427824977
 21
123.4627539422616
 31
0.0
  0
LINE
  5
606
330
1F
100
AcDbEntity
  8
Visible (ISO)
100
AcDbLine
 10
1421.676623318116
 20
162.4963962242262
 30
0.0
 11
1421.676623318116
 21
159.3710689681305
 31
0.0
  0
LINE
  5
607
330
1F
100
AcDbEntity
  8
Visible (ISO)
100
AcDbLine
 10
1421.67662331812
 20
126.0871859842658
 30
0.0
 11
1421.67662331812
 21
124.4491574834845
 31
0.0
  0
LINE
  5
608
330
1F
100
AcDbEntity
  8
Visible (ISO)
100
AcDbLine
 10
1281.676623318122
 20
124.4491574834845
 30
0.0
 11
1281.67662331812
 21
126.0871859842658
 31
0.0
  0
LINE
  5
609
330
1F
100
AcDbEntity
  8
Visible (ISO)
100
AcDbLine
 10
1281.676623318116
 20
159.37106896813
 30
0.0
 11
1281.676623318116
 21
162.4963962242262
 31
0.0
  0
LINE
  5
60A
330
1F
100
AcDbEntity
  8
Visible (ISO)
100
AcDbLine
 10
1384.940724933259
 20
124.4491574834841
 30
0.0
 11
1421.67662331812
 21
124.4491574834841
 31
0.0
  0
LINE
  5
60B
330
1F
100
AcDbEntity
  8
Visible (ISO)
100
AcDbLine
 10
1384.940724933259
 20
124.4491574834841
 30
0.0
 11
1382.342648721905
 21
124.4491574834841
 31
0.0
  0
LINE
  5
60C
330
1F
100
AcDbEntity
  8
Visible (ISO)
100
AcDbLine
 10
1367.265080586251
 20
124.4491574834841
 30
0.0
 11
1382.342648721905
 21
124.4491574834841
 31
0.0
  0
LINE
  5
60D
330
1F
100
AcDbEntity
  8
Visible (ISO)
100
AcDbLine
 10
1336.08816605001
 20
124.4491574834841
 30
0.0
 11
1367.265080586251
 21
124.4491574834841
 31
0.0
  0
LINE
  5
60E
330
1F
100
AcDbEntity
  8
Visible (ISO)
100
AcDbLine
 10
1321.010597914338
 20
124.4491574834841
 30
0.0
 11
1336.08816605001
 21
124.4491574834841
 31
0.0
  0
LINE
  5
60F
330
1F
100
AcDbEntity
  8
Visible (ISO)
100
AcDbLine
 10
1321.010597914338
 20
124.4491574834841
 30
0.0
 11
1318.412521702984
 21
124.4491574834841
 31
0.0
  0
LINE
  5
610
330
1F
100
AcDbEntity
  8
Visible (ISO)
100
AcDbLine
 10
1281.676623318122
 20
124.4491574834841
 30
0.0
 11
1318.412521702984
 21
124.4491574834841
 31
0.0
  0
LINE
  5
611
330
1F
100
AcDbEntity
  8
Visible (ISO)
100
AcDbLine
 10
1243.676623318127
 20
196.8013068424069
 30
0.0
 11
1243.676623318127
 21
119.3013068424078
 31
0.0
  0
LINE
  5
612
330
1F
100
AcDbEntity
  8
Visible (ISO)
100
AcDbLine
 10
1246.526623318128
 20
196.8013068424069
 30
0.0
 11
1246.526623318128
 21
119.3013068424078
 31
0.0
  0
LINE
  5
613
330
1F
100
AcDbEntity
  8
Visible (ISO)
100
AcDbLine
 10
1249.074414957991
 20
189.8013068424073
 30
0.0
 11
1249.074414957991
 21
126.3013068424073
 31
0.0
  0
LINE
  5
614
330
1F
100
AcDbEntity
  8
Visible (ISO)
100
AcDbLine
 10
1246.526623318128
 20
119.3013068424078
 30
0.0
 11
1243.676623318127
 21
119.3013068424078
 31
0.0
  0
LINE
  5
615
330
1F
100
AcDbEntity
  8
Visible (ISO)
100
AcDbLine
 10
1246.526623318128
 20
196.8013068424073
 30
0.0
 11
1243.676623318127
 21
196.8013068424073
 31
0.0
  0
LINE
  5
616
330
1F
100
AcDbEntity
  8
Visible (ISO)
100
AcDbLine
 10
1249.074414957991
 20
126.3013068424078
 30
0.0
 11
1246.526623318128
 21
119.3013068424078
 31
0.0
  0
LINE
  5
617
330
1F
100
AcDbEntity
  8
Visible (ISO)
100
AcDbLine
 10
1249.074414957991
 20
189.8013068424073
 30
0.0
 11
1246.526623318128
 21
196.8013068424073
 31
0.0
  0
LINE
  5
618
330
1F
100
AcDbEntity
  8
Visible (ISO)
100
AcDbLine
 10
1281.676623318127
 20
126.3013068424078
 30
0.0
 11
1249.074414957991
 21
126.3013068424078
 31
0.0
  0
LINE
  5
619
330
1F
100
AcDbEntity
  8
Visible (ISO)
100
AcDbLine
 10
1281.676623318127
 20
189.8013068424073
 30
0.0
 11
1249.074414957991
 21
189.8013068424073
 31
0.0
  0
LINE
  5
61A
330
1F
100
AcDbEntity
  8
Visible (ISO)
100
AcDbLine
 10
1459.676623318127
 20
196.8013068424069
 30
0.0
 11
1459.676623318127
 21
119.3013068424078
 31
0.0
  0
LINE
  5
61B
330
1F
100
AcDbEntity
  8
Visible (ISO)
100
AcDbLine
 10
1456.826623318127
 20
196.8013068424069
 30
0.0
 11
1456.826623318127
 21
119.3013068424078
 31
0.0
  0
LINE
  5
61C
330
1F
100
AcDbEntity
  8
Visible (ISO)
100
AcDbLine
 10
1454.278831678263
 20
189.8013068424073
 30
0.0
 11
1454.278831678263
 21
126.3013068424073
 31
0.0
  0
LINE
  5
61D
330
1F
100
AcDbEntity
  8
Visible (ISO)
100
AcDbLine
 10
1459.676623318127
 20
119.3013068424078
 30
0.0
 11
1456.826623318127
 21
119.3013068424078
 31
0.0
  0
LINE
  5
61E
330
1F
100
AcDbEntity
  8
Visible (ISO)
100
AcDbLine
 10
1459.676623318127
 20
196.8013068424073
 30
0.0
 11
1456.826623318127
 21
196.8013068424073
 31
0.0
  0
LINE
  5
61F
330
1F
100
AcDbEntity
  8
Visible (ISO)
100
AcDbLine
 10
1454.278831678263
 20
189.8013068424073
 30
0.0
 11
1456.826623318127
 21
196.8013068424073
 31
0.0
  0
LINE
  5
620
330
1F
100
AcDbEntity
  8
Visible (ISO)
100
AcDbLine
 10
1454.278831678263
 20
126.3013068424078
 30
0.0
 11
1456.826623318127
 21
119.3013068424078
 31
0.0
  0
LINE
  5
621
330
1F
100
AcDbEntity
  8
Visible (ISO)
100
AcDbLine
 10
1454.278831678263
 20
126.3013068424078
 30
0.0
 11
1421.676623318127
 21
126.3013068424078
 31
0.0
  0
LINE
  5
622
330
1F
100
AcDbEntity
  8
Visible (ISO)
100
AcDbLine
 10
1454.278831678263
 20
189.8013068424073
 30
0.0
 11
1421.676623318127
 21
189.8013068424073
 31
0.0
  0
ELLIPSE
  5
623
330
1F
100
AcDbEntity
  8
Visible (ISO)
100
AcDbEllipse
 10
1351.676623318142
 20
182.7256905032521
 30
0.0
 11
79.99999999999971
 21
-0.0000000000542788
 31
0.0
210
0.0
220
0.0
230
1.0
 40
0.891006524188365
 41
2.076156837079818
 42
2.636232143306427
  0
LINE
  5
624
330
1F
100
AcDbEntity
  8
Visible (ISO)
100
AcDbLine
 10
1312.946789856059
 20
245.0961471964372
 30
0.0
 11
1390.406456780206
 21
245.0961471964372
 31
0.0
  0
ELLIPSE
  5
625
330
1F
100
AcDbEntity
  8
Visible (ISO)
100
AcDbEllipse
 10
1351.676623318142
 20
182.7256905032521
 30
0.0
 11
79.99999999999963
 21
-0.0000000000468736
 31
0.0
210
0.0
220
0.0
230
1.0
 40
0.891006524188365
 41
0.5053605102848167
 42
1.065435816511396
  0
ELLIPSE
  5
626
330
1F
100
AcDbEntity
  8
Visible (ISO)
100
AcDbEllipse
 10
1351.676623318138
 20
178.5943769556219
 30
0.0
 11
-79.99999999999978
 21
0.0000000000394684
 31
0.0
210
0.0
220
0.0
230
1.0
 40
0.8910065241883648
 41
3.646953163874472
 42
4.207028470101081
  0
LINE
  5
627
330
1F
100
AcDbEntity
  8
Visible (ISO)
100
AcDbLine
 10
1390.406456780203
 20
240.964833648807
 30
0.0
 11
1312.946789856055
 21
240.964833648807
 31
0.0
  0
ELLIPSE
  5
628
330
1F
100
AcDbEntity
  8
Visible (ISO)
100
AcDbEllipse
 10
1351.676623318138
 20
178.5943769556219
 30
0.0
 11
-79.99999999999971
 21
0.0000000000468625
 31
0.0
210
0.0
220
0.0
230
1.0
 40
0.8910065241883653
 41
5.217749490669505
 42
5.777824796896089
  0
LINE
  5
629
330
1F
100
AcDbEntity
  8
Visible (ISO)
100
AcDbLine
 10
1281.676623318134
 20
213.102911251059
 30
0.0
 11
1281.676623318134
 21
212.648920751319
 31
0.0
  0
SPLINE
  5
62A
330
1F
100
AcDbEntity
  8
Visible (ISO)
100
AcDbSpline
210
0.0
220
0.0
230
1.0
 70
     8
 71
     3
 72
     8
 73
     4
 74
     0
 42
0.0000000001
 43
0.0000000001
 40
-0.0285636874409854
 40
-0.0285636874409854
 40
-0.0285636874409854
 40
-0.0285636874409854
 40
0.0
 40
0.0
 40
0.0
 40
0.0
 10
1281.875311801649
 20
212.9669685980451
 30
0.0
 10
1281.809083347763
 20
213.0122922214576
 30
0.0
 10
1281.742853782497
 20
213.0576064744385
 30
0.0
 10
1281.676623318134
 20
213.102911251059
 30
0.0
  0
SPLINE
  5
62B
330
1F
100
AcDbEntity
  8
Visible (ISO)
100
AcDbSpline
210
0.0
220
0.0
230
1.0
 70
     8
 71
     3
 72
     8
 73
     4
 74
     0
 42
0.0000000001
 43
0.0000000001
 40
-0.0485257229211079
 40
-0.0485257229211079
 40
-0.0485257229211079
 40
-0.0485257229211079
 40
0.0
 40
0.0
 40
0.0
 40
0.0
 10
1313.034040628017
 20
240.5108431490678
 30
0.0
 10
1313.004925054643
 20
240.6621688922249
 30
0.0
 10
1312.97584144646
 20
240.8134995254398
 30
0.0
 10
1312.946789856055
 20
240.964833648807
 30
0.0
  0
SPLINE
  5
62C
330
1F
100
AcDbEntity
  8
Visible (ISO)
100
AcDbSpline
210
0.0
220
0.0
230
1.0
 70
     8
 71
     3
 72
     8
 73
     4
 74
     0
 42
0.0000000001
 43
0.0000000001
 40
-0.0485257229209437
 40
-0.0485257229209437
 40
-0.0485257229209437
 40
-0.0485257229209437
 40
0.0
 40
0.0
 40
0.0
 40
0.0
 10
1390.319206008243
 20
240.5108431490678
 30
0.0
 10
1390.348321581617
 20
240.6621688922253
 30
0.0
 10
1390.377405189799
 20
240.8134995254407
 30
0.0
 10
1390.406456780203
 20
240.964833648807
 30
0.0
  0
SPLINE
  5
62D
330
1F
100
AcDbEntity
  8
Visible (ISO)
100
AcDbSpline
210
0.0
220
0.0
230
1.0
 70
     8
 71
     3
 72
     8
 73
     4
 74
     0
 42
0.0000000001
 43
0.0000000001
 40
-0.0285636874408127
 40
-0.0285636874408127
 40
-0.0285636874408127
 40
-0.0285636874408127
 40
0.0
 40
0.0
 40
0.0
 40
0.0
 10
1421.477934834618
 20
212.9669685980451
 30
0.0
 10
1421.544163288506
 20
213.0122922214581
 30
0.0
 10
1421.61039285377
 20
213.057606474439
 30
0.0
 10
1421.676623318134
 20
213.102911251059
 30
0.0
  0
LINE
  5
62E
330
1F
100
AcDbEntity
  8
Visible (ISO)
100
AcDbLine
 10
1421.676623318134
 20
212.648920751319
 30
0.0
 11
1421.676623318134
 21
213.102911251059
 31
0.0
  0
LINE
  5
62F
330
1F
100
AcDbEntity
  8
Visible (ISO)
100
AcDbLine
 10
1390.406456780206
 20
245.0961471964372
 30
0.0
 11
1390.406456780203
 21
240.9648336488074
 31
0.0
  0
LINE
  5
630
330
1F
100
AcDbEntity
  8
Visible (ISO)
100
AcDbLine
 10
1421.676623318136
 20
217.2342247986883
 30
0.0
 11
1421.676623318134
 21
213.102911251059
 31
0.0
  0
LINE
  5
631
330
1F
100
AcDbEntity
  8
Visible (ISO)
100
AcDbLine
 10
1312.946789856059
 20
245.0961471964372
 30
0.0
 11
1312.946789856055
 21
240.9648336488074
 31
0.0
  0
LINE
  5
632
330
1F
100
AcDbEntity
  8
Visible (ISO)
100
AcDbLine
 10
1281.676623318136
 20
217.2342247986883
 30
0.0
 11
1281.676623318134
 21
213.102911251059
 31
0.0
  0
SPLINE
  5
633
330
1F
100
AcDbEntity
  8
Visible (ISO)
100
AcDbSpline
210
0.0
220
0.0
230
1.0
 70
     8
 71
     3
 72
    16
 73
    12
 74
     0
 42
0.0000000001
 43
0.0000000001
 40
0.7956688139519248
 40
0.7956688139519248
 40
0.7956688139519248
 40
0.7956688139519248
 40
1.105719819089114
 40
1.105719819089114
 40
1.415770824226304
 40
1.415770824226304
 40
1.725821829363493
 40
1.725821829363493
 40
2.035872834500683
 40
2.035872834500683
 40
2.345923839637872
 40
2.345923839637872
 40
2.345923839637872
 40
2.345923839637872
 10
1406.559625193652
 20
303.011245941991
 30
0.0
 10
1400.722989965026
 20
308.1059837071119
 30
0.0
 10
1394.020083378654
 20
312.3656159859937
 30
0.0
 10
1379.520384580564
 20
318.8483711243692
 30
0.0
 10
1371.725287620412
 20
321.0712785353192
 30
0.0
 10
1355.760567849488
 20
323.2943022410339
 30
0.0
 10
1347.592678786857
 20
323.2943022410339
 30
0.0
 10
1331.627959015933
 20
321.0712785353192
 30
0.0
 10
1323.832862055781
 20
318.8483711243692
 30
0.0
 10
1309.333163257693
 20
312.3656159859937
 30
0.0
 10
1302.630256671323
 20
308.1059837071114
 30
0.0
 10
1296.793621442696
 20
303.0112459419905
 30
0.0
  0
LINE
  5
634
330
1F
100
AcDbEntity
  8
0
  6
CENTER
100
AcDbLine
 10
2067.967307624714
 20
158.0513068424078
 30
0.0
 11
2339.024819936321
 21
158.0513068424078
 31
0.0
  0
LINE
  5
635
330
1F
100
AcDbEntity
  8
0
  6
CENTER
100
AcDbLine
 10
2203.496063780517
 20
287.0712352541376
 30
0.0
 11
2203.496063780517
 21
98.53534631594072
 31
0.0
  0
LINE
  5
636
330
1F
100
AcDbEntity
  8
0
  6
CENTER
100
AcDbLine
 10
1658.470393086846
 20
132.1636269240233
 30
0.0
 11
1945.493223711483
 21
278.4090637132047
 31
0.0
  0
LINE
  5
637
330
1F
100
AcDbEntity
  8
0
  6
CENTER
100
AcDbLine
 10
1709.277825657732
 20
103.1779786142677
 30
0.0
 11
1709.277825657732
 21
212.9246350705478
 31
0.0
  0
LINE
  5
638
330
1F
100
AcDbEntity
  8
0
  6
CENTER
100
AcDbLine
 10
1654.404497429593
 20
158.0513068424078
 30
0.0
 11
1764.151153885872
 21
158.0513068424078
 31
0.0
  0
LINE
  5
639
330
1F
100
AcDbEntity
  8
0
  6
CENTER
100
AcDbLine
 10
1669.326229114876
 20
760.1818478940785
 30
0.0
 11
1914.436015861843
 21
760.1818478941112
 31
0.0
  0
LINE
  5
63A
330
1F
100
AcDbEntity
  8
0
  6
CENTER
100
AcDbLine
 10
1709.277825657825
 20
617.7647678608726
 30
0.0
 11
1709.277825657832
 21
902.5989279272952
 31
0.0
  0
LINE
  5
63B
330
1F
100
AcDbEntity
  8
0
  6
CENTER
100
AcDbLine
 10
1482.227711012701
 20
158.0513068424073
 30
0.0
 11
1221.125535623539
 21
158.0513068424073
 31
0.0
  0
LINE
  5
63C
330
1F
100
AcDbEntity
  8
0
  6
CENTER
100
AcDbLine
 10
1351.67662331812
 20
97.14450585388329
 30
0.0
 11
1351.67662331812
 21
337.4644648726574
 31
0.0
  0
VIEWPORT
  5
71
330
55
100
AcDbEntity
 67
     1
  8
0
100
AcDbViewport
 10
133.3499908447265
 20
101.5999970436096
 30
0.0
 40
381.3957395593834
 41
218.2856291881582
 68
     1
 69
     1
 12
133.3499908447265
 22
101.5999970436096
 13
0.0
 23
0.0
 14
10.0
 24
10.0
 15
10.0
 25
10.0
 16
0.0
 26
0.0
 36
1.0
 17
0.0
 27
0.0
 37
0.0
 42
50.0
 43
0.0
 44
0.0
 45
218.2856291881582
 50
0.0
 51
0.0
 72
   100
 90
    32800
  1

281
     0
 71
     1
 74
     0
110
0.0
120
0.0
130
0.0
111
1.0
121
0.0
131
0.0
112
0.0
122
1.0
132
0.0
 79
     0
146
0.0
  0
VIEWPORT
  5
73
330
55
100
AcDbEntity
 67
     1
  8
0
100
AcDbViewport
 10
133.349993944168
 20
101.599993944168
 30
0.0
 40
213.3599903106689
 41
162.5599903106689
 68
     2
 69
     2
 12
210.0
 22
148.5
 13
0.0
 23
0.0
 14
10.0
 24
10.0
 15
10.0
 25
10.0
 16
0.0
 26
0.0
 36
1.0
 17
0.0
 27
0.0
 37
0.0
 42
50.0
 43
0.0
 44
0.0
 45
324.0677920111345
 50
0.0
 51
0.0
 72
   100
 90
    32864
  1

281
     0
 71
     1
 74
     0
110
0.0
120
0.0
130
0.0
111
1.0
121
0.0
131
0.0
112
0.0
122
1.0
132
0.0
 79
     0
146
0.0
  0
ENDSEC
  0
SECTION
  2
OBJECTS
  0
DICTIONARY
  5
C
330
0
100
AcDbDictionary
281
     1
  3
ACAD_GROUP
350
D
  3
ACAD_LAYOUT
350
1A
  3
ACAD_MLINESTYLE
350
17
  3
ACAD_PLOTSETTINGS
350
19
  3
ACAD_PLOTSTYLENAME
350
E
  3
AcDbVariableDictionary
350
5E
  0
DICTIONARY
  5
34F
330
2
100
AcDbDictionary
280
     1
281
     1
  3
ACAD_LAYERSTATES
360
350
  0
DICTIONARY
  5
307
330
1F
100
AcDbDictionary
280
     1
281
     1
  3
ACAD_LAYOUTSELFREF
360
33E
  0
DICTIONARY
  5
309
330
55
100
AcDbDictionary
280
     1
281
     1
  3
ACAD_LAYOUTSELFREF
360
342
  0
DICTIONARY
  5
30B
330
50
100
AcDbDictionary
280
     1
281
     1
  3
ACAD_LAYOUTSELFREF
360
341
  0
DICTIONARY
  5
D
102
{ACAD_REACTORS
330
C
102
}
330
C
100
AcDbDictionary
281
     1
  0
DICTIONARY
  5
1A
102
{ACAD_REACTORS
330
C
102
}
330
C
100
AcDbDictionary
281
     1
  3
Model
350
22
  3
ﾚｲｱｳﾄ1
350
51
  3
ﾚｲｱｳﾄ2
350
56
  0
DICTIONARY
  5
17
102
{ACAD_REACTORS
330
C
102
}
330
C
100
AcDbDictionary
281
     1
  3
Standard
350
18
  0
DICTIONARY
  5
19
102
{ACAD_REACTORS
330
C
102
}
330
C
100
AcDbDictionary
281
     1
  0
ACDBDICTIONARYWDFLT
  5
E
102
{ACAD_REACTORS
330
C
102
}
330
C
100
AcDbDictionary
281
     1
  3
Normal
350
F
100
AcDbDictionaryWithDefault
340
F
  0
DICTIONARY
  5
5E
102
{ACAD_REACTORS
330
C
102
}
330
C
100
AcDbDictionary
281
     1
  3
DIMASSOC
350
5F
  3
HIDETEXT
350
63
  0
DICTIONARY
  5
350
102
{ACAD_REACTORS
330
34F
102
}
330
34F
100
AcDbDictionary
281
     1
  0
XRECORD
  5
33E
102
{ACAD_REACTORS
330
307
102
}
330
307
100
AcDbXrecord
280
     1
340
1F
  0
XRECORD
  5
342
102
{ACAD_REACTORS
330
309
102
}
330
309
100
AcDbXrecord
280
     1
340
55
  0
XRECORD
  5
341
102
{ACAD_REACTORS
330
30B
102
}
330
30B
100
AcDbXrecord
280
     1
340
50
  0
LAYOUT
  5
22
102
{ACAD_REACTORS
330
1A
102
}
330
1A
100
AcDbPlotSettings
  1

  2
none_device
  4
ANSI_A_(8.50_x_11.00_Inches)
  6

 40
6.349999904632568
 41
19.04999923706054
 42
6.350006103515625
 43
19.04998779296875
 44
215.8999938964843
 45
279.3999938964843
 46
0.0
 47
0.0
 48
0.0
 49
0.0
140
0.0
141
0.0
142
1.0
143
78.436453180766
 70
 11952
 72
     0
 73
     1
 74
     0
  7

 75
     0
147
0.0127491741332998
148
0.0
149
0.0
100
AcDbLayout
  1
Model
 70
     1
 71
     0
 10
0.0
 20
0.0
 11
12.0
 21
9.0
 12
0.0
 22
0.0
 32
0.0
 14
0.0
 24
0.0
 34
0.0
 15
0.0
 25
0.0
 35
0.0
146
0.0
 13
0.0
 23
0.0
 33
0.0
 16
1.0
 26
0.0
 36
0.0
 17
0.0
 27
1.0
 37
0.0
 76
     0
330
1F
  0
LAYOUT
  5
51
102
{ACAD_REACTORS
330
1A
102
}
330
1A
100
AcDbPlotSettings
  1

  2
none_device
  4
Letter_(8.50_x_11.00_Inches)
  6

 40
6.349999904632568
 41
6.349999904632568
 42
6.350006103515625
 43
6.350006103515625
 44
215.8999938964843
 45
279.3999938964843
 46
0.0
 47
0.0
 48
0.0
 49
0.0
140
0.0
141
0.0
142
1.0
143
1.0
 70
   688
 72
     1
 73
     1
 74
     5
  7

 75
    16
147
1.0
148
0.0
149
0.0
100
AcDbLayout
  1
ﾚｲｱｳﾄ1
 70
     1
 71
     1
 10
-6.350006103515625
 20
-6.349999904632568
 11
273.0499877929687
 21
209.5499939918517
 12
0.0
 22
0.0
 32
0.0
 14
26.66076962115562
 24
20.31135699206657
 34
-0.0015258207003583
 15
240.039213369355
 25
182.8886381005154
 35
0.0000000349246037
146
0.0
 13
0.0
 23
0.0
 33
0.0
 16
1.0
 26
0.0
 36
0.0
 17
0.0
 27
1.0
 37
0.0
 76
     0
330
50
331
6B
  0
LAYOUT
  5
56
102
{ACAD_REACTORS
330
1A
102
}
330
1A
100
AcDbPlotSettings
  1

  2
none_device
  4
Letter_(8.50_x_11.00_Inches)
  6

 40
6.349999904632568
 41
6.349999904632568
 42
6.350006103515625
 43
6.350006103515625
 44
215.8999938964843
 45
279.3999938964843
 46
0.0
 47
0.0
 48
0.0
 49
0.0
140
0.0
141
0.0
142
1.0
143
1.0
 70
   688
 72
     1
 73
     1
 74
     5
  7

 75
    16
147
1.0
148
0.0
149
0.0
100
AcDbLayout
  1
ﾚｲｱｳﾄ2
 70
     1
 71
     2
 10
-6.350006103515625
 20
-6.349999904632568
 11
273.0499877929687
 21
209.5499939918517
 12
0.0
 22
0.0
 32
0.0
 14
26.66076962115562
 24
20.31135699206657
 34
-0.0015258207003583
 15
240.039213369355
 25
182.8886381005154
 35
0.0000000349246037
146
0.0
 13
0.0
 23
0.0
 33
0.0
 16
1.0
 26
0.0
 36
0.0
 17
0.0
 27
1.0
 37
0.0
 76
     0
330
55
331
71
  0
MLINESTYLE
  5
18
102
{ACAD_REACTORS
330
17
102
}
330
17
100
AcDbMlineStyle
  2
STANDARD
 70
     0
  3

 62
   256
 51
90.0
 52
90.0
 71
     2
 49
0.5
 62
   256
  6
BYLAYER
 49
-0.5
 62
   256
  6
BYLAYER
  0
ACDBPLACEHOLDER
  5
F
102
{ACAD_REACTORS
330
E
102
}
330
E
  0
DICTIONARYVAR
  5
5F
102
{ACAD_REACTORS
330
5E
102
}
330
5E
100
DictionaryVariables
280
     0
  1
2
  0
DICTIONARYVAR
  5
63
102
{ACAD_REACTORS
330
5E
102
}
330
5E
100
DictionaryVariables
280
     0
  1
1
  0
ENDSEC
  0
EOF
