  0
SECTION
  2
HEADER
  9
$ACADVER
  1
AC1015
  9
$ACADMAINTVER
 70
    14
  9
$DWGCODEPAGE
  3
ANSI_932
  9
$INSBASE
 10
0.0
 20
0.0
 30
0.0
  9
$EXTMIN
 10
125.4011875799333
 20
97.06662377846805
 30
-0.0000000000112498
  9
$EXTMAX
 10
2356.233566986337
 20
1073.054470267346
 30
0.0000000000002956
  9
$LIMMIN
 10
0.0
 20
0.0
  9
$LIMMAX
 10
420.0
 20
297.0
  9
$ORTHOMODE
 70
     0
  9
$REGENMODE
 70
     1
  9
$FILLMODE
 70
     1
  9
$QTEXTMODE
 70
     0
  9
$MIRRTEXT
 70
     1
  9
$LTSCALE
 40
1.0
  9
$ATTMODE
 70
     1
  9
$TEXTSIZE
 40
2.5
  9
$TRACEWID
 40
1.0
  9
$TEXTSTYLE
  7
Standard
  9
$CLAYER
  8
0
  9
$CELTYPE
  6
ByLayer
  9
$CECOLOR
 62
   256
  9
$CELTSCALE
 40
1.0
  9
$DISPSILH
 70
     0
  9
$DIMSCALE
 40
1.0
  9
$DIMASZ
 40
2.5
  9
$DIMEXO
 40
0.625
  9
$DIMDLI
 40
3.75
  9
$DIMRND
 40
0.0
  9
$DIMDLE
 40
0.0
  9
$DIMEXE
 40
1.25
  9
$DIMTP
 40
0.0
  9
$DIMTM
 40
0.0
  9
$DIMTXT
 40
2.5
  9
$DIMCEN
 40
2.5
  9
$DIMTSZ
 40
0.0
  9
$DIMTOL
 70
     0
  9
$DIMLIM
 70
     0
  9
$DIMTIH
 70
     0
  9
$DIMTOH
 70
     0
  9
$DIMSE1
 70
     0
  9
$DIMSE2
 70
     0
  9
$DIMTAD
 70
     1
  9
$DIMZIN
 70
     8
  9
$DIMBLK
  1

  9
$DIMASO
 70
     1
  9
$DIMSHO
 70
     1
  9
$DIMPOST
  1

  9
$DIMAPOST
  1

  9
$DIMALT
 70
     0
  9
$DIMALTD
 70
     3
  9
$DIMALTF
 40
0.03937007874016
  9
$DIMLFAC
 40
1.0
  9
$DIMTOFL
 70
     1
  9
$DIMTVP
 40
0.0
  9
$DIMTIX
 70
     0
  9
$DIMSOXD
 70
     0
  9
$DIMSAH
 70
     0
  9
$DIMBLK1
  1

  9
$DIMBLK2
  1

  9
$DIMSTYLE
  2
ISO-25
  9
$DIMCLRD
 70
     0
  9
$DIMCLRE
 70
     0
  9
$DIMCLRT
 70
     0
  9
$DIMTFAC
 40
1.0
  9
$DIMGAP
 40
0.625
  9
$DIMJUST
 70
     0
  9
$DIMSD1
 70
     0
  9
$DIMSD2
 70
     0
  9
$DIMTOLJ
 70
     0
  9
$DIMTZIN
 70
     8
  9
$DIMALTZ
 70
     0
  9
$DIMALTTZ
 70
     0
  9
$DIMUPT
 70
     0
  9
$DIMDEC
 70
     2
  9
$DIMTDEC
 70
     2
  9
$DIMALTU
 70
     2
  9
$DIMALTTD
 70
     3
  9
$DIMTXSTY
  7
Standard
  9
$DIMAUNIT
 70
     0
  9
$DIMADEC
 70
     0
  9
$DIMALTRND
 40
0.0
  9
$DIMAZIN
 70
     0
  9
$DIMDSEP
 70
    44
  9
$DIMATFIT
 70
     3
  9
$DIMFRAC
 70
     0
  9
$DIMLDRBLK
  1

  9
$DIMLUNIT
 70
     2
  9
$DIMLWD
 70
    -2
  9
$DIMLWE
 70
    -2
  9
$DIMTMOVE
 70
     0
  9
$LUNITS
 70
     2
  9
$LUPREC
 70
     4
  9
$SKETCHINC
 40
1.0
  9
$FILLETRAD
 40
10.0
  9
$AUNITS
 70
     0
  9
$AUPREC
 70
     0
  9
$MENU
  1
.
  9
$ELEVATION
 40
0.0
  9
$PELEVATION
 40
0.0
  9
$THICKNESS
 40
0.0
  9
$LIMCHECK
 70
     0
  9
$CHAMFERA
 40
10.0
  9
$CHAMFERB
 40
10.0
  9
$CHAMFERC
 40
20.0
  9
$CHAMFERD
 40
0.0
  9
$SKPOLY
 70
     0
  9
$TDCREATE
 40
2454278.667813576
  9
$TDUCREATE
 40
2454278.292813576
  9
$TDUPDATE
 40
2456899.672531250
  9
$TDUUPDATE
 40
2456899.297531250
  9
$TDINDWG
 40
0.0032658912
  9
$TDUSRTIMER
 40
0.0032658912
  9
$USRTIMER
 70
     1
  9
$ANGBASE
 50
0.0
  9
$ANGDIR
 70
     0
  9
$PDMODE
 70
     0
  9
$PDSIZE
 40
0.0
  9
$PLINEWID
 40
0.0
  9
$SPLFRAME
 70
     0
  9
$SPLINETYPE
 70
     6
  9
$SPLINESEGS
 70
     8
  9
$HANDSEED
  5
89A
  9
$SURFTAB1
 70
     6
  9
$SURFTAB2
 70
     6
  9
$SURFTYPE
 70
     6
  9
$SURFU
 70
     6
  9
$SURFV
 70
     6
  9
$UCSBASE
  2

  9
$UCSNAME
  2

  9
$UCSORG
 10
0.0
 20
0.0
 30
0.0
  9
$UCSXDIR
 10
1.0
 20
0.0
 30
0.0
  9
$UCSYDIR
 10
0.0
 20
1.0
 30
0.0
  9
$UCSORTHOREF
  2

  9
$UCSORTHOVIEW
 70
     0
  9
$UCSORGTOP
 10
0.0
 20
0.0
 30
0.0
  9
$UCSORGBOTTOM
 10
0.0
 20
0.0
 30
0.0
  9
$UCSORGLEFT
 10
0.0
 20
0.0
 30
0.0
  9
$UCSORGRIGHT
 10
0.0
 20
0.0
 30
0.0
  9
$UCSORGFRONT
 10
0.0
 20
0.0
 30
0.0
  9
$UCSORGBACK
 10
0.0
 20
0.0
 30
0.0
  9
$PUCSBASE
  2

  9
$PUCSNAME
  2

  9
$PUCSORG
 10
0.0
 20
0.0
 30
0.0
  9
$PUCSXDIR
 10
1.0
 20
0.0
 30
0.0
  9
$PUCSYDIR
 10
0.0
 20
1.0
 30
0.0
  9
$PUCSORTHOREF
  2

  9
$PUCSORTHOVIEW
 70
     0
  9
$PUCSORGTOP
 10
0.0
 20
0.0
 30
0.0
  9
$PUCSORGBOTTOM
 10
0.0
 20
0.0
 30
0.0
  9
$PUCSORGLEFT
 10
0.0
 20
0.0
 30
0.0
  9
$PUCSORGRIGHT
 10
0.0
 20
0.0
 30
0.0
  9
$PUCSORGFRONT
 10
0.0
 20
0.0
 30
0.0
  9
$PUCSORGBACK
 10
0.0
 20
0.0
 30
0.0
  9
$USERI1
 70
     0
  9
$USERI2
 70
     0
  9
$USERI3
 70
     0
  9
$USERI4
 70
     0
  9
$USERI5
 70
     0
  9
$USERR1
 40
0.0
  9
$USERR2
 40
0.0
  9
$USERR3
 40
0.0
  9
$USERR4
 40
0.0
  9
$USERR5
 40
0.0
  9
$WORLDVIEW
 70
     1
  9
$SHADEDGE
 70
     3
  9
$SHADEDIF
 70
    70
  9
$TILEMODE
 70
     1
  9
$MAXACTVP
 70
    48
  9
$PINSBASE
 10
0.0
 20
0.0
 30
0.0
  9
$PLIMCHECK
 70
     0
  9
$PEXTMIN
 10
26.66076962115562
 20
20.31135699206657
 30
-0.0015258207003583
  9
$PEXTMAX
 10
240.039213369355
 20
182.8886381005154
 30
0.0000000349246037
  9
$PLIMMIN
 10
-6.350006103515625
 20
-6.349999904632568
  9
$PLIMMAX
 10
273.0499877929687
 20
209.5499939918517
  9
$UNITMODE
 70
     0
  9
$VISRETAIN
 70
     1
  9
$PLINEGEN
 70
     0
  9
$PSLTSCALE
 70
     1
  9
$TREEDEPTH
 70
  3020
  9
$CMLSTYLE
  2
Standard
  9
$CMLJUST
 70
     0
  9
$CMLSCALE
 40
20.0
  9
$PROXYGRAPHICS
 70
     1
  9
$MEASUREMENT
 70
     1
  9
$CELWEIGHT
370
    -1
  9
$ENDCAPS
280
     0
  9
$JOINSTYLE
280
     0
  9
$LWDISPLAY
290
     0
  9
$INSUNITS
 70
     4
  9
$HYPERLINKBASE
  1

  9
$STYLESHEET
  1

  9
$XEDIT
290
     1
  9
$CEPSNTYPE
380
     0
  9
$PSTYLEMODE
290
     1
  9
$FINGERPRINTGUID
  2
{FDEAD578-A652-11D2-9A35-0060089B3A3F}
  9
$VERSIONGUID
  2
{F8BAA458-C087-44C7-BF3E-3373F23747C6}
  9
$EXTNAMES
290
     1
  9
$PSVPSCALE
 40
0.0
  9
$OLESTARTUP
290
     0
  0
ENDSEC
  0
SECTION
  2
CLASSES
  0
CLASS
  1
ACDBDICTIONARYWDFLT
  2
AcDbDictionaryWithDefault
  3
AutoCAD 2000
 90
        0
280
     0
281
     0
  0
CLASS
  1
ACDBPLACEHOLDER
  2
AcDbPlaceHolder
  3
AutoCAD 2000
 90
        0
280
     0
281
     0
  0
CLASS
  1
LAYOUT
  2
AcDbLayout
  3
AutoCAD 2000
 90
        0
280
     0
281
     0
  0
CLASS
  1
DICTIONARYVAR
  2
AcDbDictionaryVar
  3
AutoCAD 2000
 90
        0
280
     0
281
     0
  0
CLASS
  1
LONG_TRANSACTION
  2
AcDbLongTransaction
  3
AutoCAD 2000
 90
    32768
280
     0
281
     0
  0
CLASS
  1
LWPOLYLINE
  2
AcDbPolyline
  3
AutoCAD 2000
 90
    32768
280
     0
281
     1
  0
CLASS
  1
HATCH
  2
AcDbHatch
  3
AutoCAD 2000
 90
    32768
280
     0
281
     1
  0
CLASS
  1
XRECORD
  2
AcDbXrecord
  3
AutoCAD 2000
 90
    32768
280
     0
281
     0
  0
ENDSEC
  0
SECTION
  2
TABLES
  0
TABLE
  2
VPORT
  5
8
330
0
100
AcDbSymbolTable
 70
     2
  0
VPORT
  5
899
330
8
100
AcDbSymbolTableRecord
100
AcDbViewportTableRecord
  2
*Active
 70
     0
 10
0.0
 20
0.0
 11
1.0
 21
1.0
 12
1240.817377283135
 22
585.060547022907
 13
0.0
 23
0.0
 14
10.0
 24
10.0
 15
10.0
 25
10.0
 16
0.0
 26
0.0
 36
1.0
 17
0.0
 27
0.0
 37
0.0
 40
1406.72234165718
 41
1.592161016949152
 42
50.0
 43
0.0
 44
0.0
 50
0.0
 51
0.0
 71
     0
 72
   100
 73
     1
 74
     3
 75
     0
 76
     0
 77
     0
 78
     0
281
     0
 65
     1
110
0.0
120
0.0
130
0.0
111
1.0
121
0.0
131
0.0
112
0.0
122
1.0
132
0.0
 79
     0
146
0.0
  0
ENDTAB
  0
TABLE
  2
LTYPE
  5
5
330
0
100
AcDbSymbolTable
 70
     3
  0
LTYPE
  5
14
330
5
100
AcDbSymbolTableRecord
100
AcDbLinetypeTableRecord
  2
ByBlock
 70
     0
  3

 72
    65
 73
     0
 40
0.0
  0
LTYPE
  5
15
330
5
100
AcDbSymbolTableRecord
100
AcDbLinetypeTableRecord
  2
ByLayer
 70
     0
  3

 72
    65
 73
     0
 40
0.0
  0
LTYPE
  5
16
330
5
100
AcDbSymbolTableRecord
100
AcDbLinetypeTableRecord
  2
Continuous
 70
     0
  3
Solid line
 72
    65
 73
     0
 40
0.0
  0
LTYPE
  5
86
330
5
100
AcDbSymbolTableRecord
100
AcDbLinetypeTableRecord
  2
HIDDEN
 70
     0
  3
Hidden __ __ __ __ __ __ __ __ __ __ __ __ __ _
 72
    65
 73
     2
 40
0.375
 49
0.25
 74
     0
 49
-0.125
 74
     0
  0
LTYPE
  5
46A
330
5
100
AcDbSymbolTableRecord
100
AcDbLinetypeTableRecord
  2
CENTER
 70
     0
  3
Center ____ _ ____ _ ____ _ ____ _ ____ _ ____
 72
    65
 73
     4
 40
50.8
 49
31.75
 74
     0
 49
-6.349999999999999
 74
     0
 49
6.349999999999999
 74
     0
 49
-6.349999999999999
 74
     0
  0
ENDTAB
  0
TABLE
  2
LAYER
  5
2
102
{ACAD_XDICTIONARY
360
46B
102
}
330
0
100
AcDbSymbolTable
 70
     1
  0
LAYER
  5
10
330
2
100
AcDbSymbolTableRecord
100
AcDbLayerTableRecord
  2
0
 70
     0
 62
     7
  6
Continuous
370
    -3
390
F
  0
ENDTAB
  0
TABLE
  2
STYLE
  5
3
330
0
100
AcDbSymbolTable
 70
     1
  0
STYLE
  5
11
330
3
100
AcDbSymbolTableRecord
100
AcDbTextStyleTableRecord
  2
Standard
 70
     0
 40
0.0
 41
1.0
 50
0.0
 71
     0
 42
2.5
  3
txt
  4

  0
ENDTAB
  0
TABLE
  2
VIEW
  5
6
330
0
100
AcDbSymbolTable
 70
     0
  0
ENDTAB
  0
TABLE
  2
UCS
  5
7
330
0
100
AcDbSymbolTable
 70
     0
  0
ENDTAB
  0
TABLE
  2
APPID
  5
9
330
0
100
AcDbSymbolTable
 70
     1
  0
APPID
  5
12
330
9
100
AcDbSymbolTableRecord
100
AcDbRegAppTableRecord
  2
ACAD
 70
     0
  0
ENDTAB
  0
TABLE
  2
DIMSTYLE
  5
A
330
0
100
AcDbSymbolTable
 70
     1
100
AcDbDimStyleTable
 71
     0
  0
DIMSTYLE
105
27
330
A
100
AcDbSymbolTableRecord
100
AcDbDimStyleTableRecord
  2
ISO-25
 70
     0
 41
2.5
 42
0.625
 43
3.75
 44
1.25
 73
     0
 74
     0
 77
     1
 78
     8
140
2.5
141
2.5
143
0.03937007874016
147
0.625
171
     3
172
     1
271
     2
272
     2
274
     3
278
    44
283
     0
284
     8
340
11
  0
ENDTAB
  0
TABLE
  2
BLOCK_RECORD
  5
1
330
0
100
AcDbSymbolTable
 70
     1
  0
BLOCK_RECORD
  5
1F
102
{ACAD_XDICTIONARY
360
423
102
}
330
1
100
AcDbSymbolTableRecord
100
AcDbBlockTableRecord
  2
*Model_Space
340
22
  0
BLOCK_RECORD
  5
55
102
{ACAD_XDICTIONARY
360
425
102
}
330
1
100
AcDbSymbolTableRecord
100
AcDbBlockTableRecord
  2
*Paper_Space
340
56
  0
BLOCK_RECORD
  5
50
102
{ACAD_XDICTIONARY
360
427
102
}
330
1
100
AcDbSymbolTableRecord
100
AcDbBlockTableRecord
  2
*Paper_Space0
340
51
  0
ENDTAB
  0
ENDSEC
  0
SECTION
  2
BLOCKS
  0
BLOCK
  5
20
330
1F
100
AcDbEntity
  8
0
100
AcDbBlockBegin
  2
*Model_Space
 70
     0
 10
0.0
 20
0.0
 30
0.0
  3
*Model_Space
  1

  0
ENDBLK
  5
21
330
1F
100
AcDbEntity
  8
0
100
AcDbBlockEnd
  0
BLOCK
  5
57
330
55
100
AcDbEntity
 67
     1
  8
0
100
AcDbBlockBegin
  2
*Paper_Space
 70
     0
 10
0.0
 20
0.0
 30
0.0
  3
*Paper_Space
  1

  0
ENDBLK
  5
58
330
55
100
AcDbEntity
 67
     1
  8
0
100
AcDbBlockEnd
  0
BLOCK
  5
52
330
50
100
AcDbEntity
  8
0
100
AcDbBlockBegin
  2
*Paper_Space0
 70
     0
 10
0.0
 20
0.0
 30
0.0
  3
*Paper_Space0
  1

  0
VIEWPORT
  5
6B
330
50
100
AcDbEntity
  8
0
100
AcDbViewport
 10
133.3499908447265
 20
101.5999970436096
 30
0.0
 40
381.3957395593834
 41
218.2856291881582
 69
     0
 12
133.3499908447265
 22
101.5999970436096
 13
0.0
 23
0.0
 14
10.0
 24
10.0
 15
10.0
 25
10.0
 16
0.0
 26
0.0
 36
1.0
 17
0.0
 27
0.0
 37
0.0
 42
50.0
 43
0.0
 44
0.0
 45
218.2856291881582
 50
0.0
 51
0.0
 72
   100
 90
    32800
  1

281
     0
 71
     1
 74
     0
110
0.0
120
0.0
130
0.0
111
1.0
121
0.0
131
0.0
112
0.0
122
1.0
132
0.0
 79
     0
146
0.0
  0
VIEWPORT
  5
6D
330
50
100
AcDbEntity
  8
0
100
AcDbViewport
 10
133.349993944168
 20
101.599993944168
 30
0.0
 40
213.3599903106689
 41
162.5599903106689
 69
     0
 12
210.0
 22
148.5
 13
0.0
 23
0.0
 14
10.0
 24
10.0
 15
10.0
 25
10.0
 16
0.0
 26
0.0
 36
1.0
 17
0.0
 27
0.0
 37
0.0
 42
50.0
 43
0.0
 44
0.0
 45
324.0677920111345
 50
0.0
 51
0.0
 72
   100
 90
    32864
  1

281
     0
 71
     1
 74
     0
110
0.0
120
0.0
130
0.0
111
1.0
121
0.0
131
0.0
112
0.0
122
1.0
132
0.0
 79
     0
146
0.0
  0
ENDBLK
  5
53
330
50
100
AcDbEntity
  8
0
100
AcDbBlockEnd
  0
ENDSEC
  0
SECTION
  2
ENTITIES
  0
CIRCLE
  5
255
330
1F
100
AcDbEntity
  8
0
  6
Continuous
100
AcDbCircle
 10
410.4834752951768
 20
158.0514098375375
 30
0.0
 40
38.75000095367441
  0
CIRCLE
  5
256
330
1F
100
AcDbEntity
  8
0
  6
Continuous
100
AcDbCircle
 10
410.4834752951768
 20
158.0514098375375
 30
0.0
 40
29.75000095367432
  0
LINE
  5
257
330
1F
100
AcDbEntity
  8
0
  6
Continuous
100
AcDbLine
 10
358.7537581886385
 20
185.6014051939936
 30
0.0
 11
371.7742003193865
 21
159.8273876710802
 31
0.0
  0
LINE
  5
258
330
1F
100
AcDbEntity
  8
0
  6
Continuous
100
AcDbLine
 10
462.2132014741208
 20
185.60140600886
 30
0.0
 11
449.1927443874678
 21
159.8273602632081
 31
0.0
  0
LINE
  5
259
330
1F
100
AcDbEntity
  8
0
  6
Continuous
100
AcDbLine
 10
480.4834952423028
 20
202.301448877369
 30
0.0
 11
340.4834799835139
 21
202.3014477747031
 31
0.0
  0
LINE
  5
25A
330
1F
100
AcDbEntity
  8
0
  6
Continuous
100
AcDbLine
 10
340.4834801150459
 20
185.6014050500936
 30
0.0
 11
383.2335153108879
 21
185.601405386801
 31
0.0
  0
LINE
  5
25B
330
1F
100
AcDbEntity
  8
0
  6
Continuous
100
AcDbLine
 10
340.4834798496177
 20
219.3014751904568
 30
0.0
 11
340.4834801150459
 21
185.6014050500936
 31
0.0
  0
LINE
  5
25C
330
1F
100
AcDbEntity
  8
0
  6
Continuous
100
AcDbLine
 10
371.7536824863393
 20
219.3014518102666
 30
0.0
 11
371.7536827517659
 21
185.6014052963838
 31
0.0
  0
LINE
  5
25D
330
1F
100
AcDbEntity
  8
0
  6
Continuous
100
AcDbLine
 10
437.7334348454878
 20
185.6014058160528
 30
0.0
 11
480.4834953738359
 21
185.6014061527602
 31
0.0
  0
LINE
  5
25E
330
1F
100
AcDbEntity
  8
0
  6
Continuous
100
AcDbLine
 10
449.2133382480559
 20
219.3014349785496
 30
0.0
 11
449.2133385134843
 21
185.6014059064703
 31
0.0
  0
LINE
  5
25F
330
1F
100
AcDbEntity
  8
0
  6
Continuous
100
AcDbLine
 10
480.4834951084073
 20
219.3014115983275
 30
0.0
 11
480.4834953738359
 21
185.6014061527602
 31
0.0
  0
LINE
  5
260
330
1F
100
AcDbEntity
  8
0
  6
Continuous
100
AcDbLine
 10
872.5644430308539
 20
196.8014250963264
 30
0.0
 11
872.5644430308539
 21
119.3013945787483
 31
0.0
  0
LINE
  5
261
330
1F
100
AcDbEntity
  8
0
  6
Continuous
100
AcDbLine
 10
867.1665899001677
 20
189.8013945787493
 30
0.0
 11
867.1666956268536
 21
126.3014250963264
 31
0.0
  0
LINE
  5
262
330
1F
100
AcDbEntity
  8
0
  6
Continuous
100
AcDbLine
 10
834.5644277720648
 20
124.301409837537
 30
0.0
 11
834.5644277720648
 21
219.3014048375374
 31
0.0
  0
LINE
  5
263
330
1F
100
AcDbEntity
  8
0
  6
Continuous
100
AcDbLine
 10
694.5644125132749
 20
124.301409837537
 30
0.0
 11
694.5644125132749
 21
219.3014048375374
 31
0.0
  0
LINE
  5
264
330
1F
100
AcDbEntity
  8
0
  6
Continuous
100
AcDbLine
 10
656.5644430308537
 20
196.8014250963264
 30
0.0
 11
656.5644430308537
 21
119.3013945787483
 31
0.0
  0
LINE
  5
265
330
1F
100
AcDbEntity
  8
0
  6
Continuous
100
AcDbLine
 10
661.9622591147499
 20
189.8013945787471
 30
0.0
 11
661.9622021022543
 21
126.3014250963264
 31
0.0
  0
ARC
  5
266
330
1F
100
AcDbEntity
  8
0
  6
Continuous
100
AcDbCircle
 10
762.8945211558539
 20
143.1013976305061
 30
0.0
 40
15.0
100
AcDbArc
 50
90.00000865142791
 51
149.9999966606829
  0
LINE
  5
267
330
1F
100
AcDbEntity
  8
0
  6
Continuous
100
AcDbLine
 10
694.5644125132749
 20
124.301409837537
 30
0.0
 11
727.7916463999938
 21
124.301409837537
 31
0.0
  0
LINE
  5
268
330
1F
100
AcDbEntity
  8
0
  6
Continuous
100
AcDbLine
 10
656.5644430308537
 20
119.3013945787483
 30
0.0
 11
659.4143992636682
 21
119.3013945787483
 31
0.0
  0
LINE
  5
269
330
1F
100
AcDbEntity
  8
0
  6
Continuous
100
AcDbLine
 10
659.4143992636682
 20
119.3013945787483
 30
0.0
 11
661.9622021022543
 21
126.3014250963264
 31
0.0
  0
LINE
  5
26A
330
1F
100
AcDbEntity
  8
0
  6
Continuous
100
AcDbLine
 10
661.9622021022543
 20
126.3014250963264
 30
0.0
 11
694.5644125132749
 21
126.3014250963274
 31
0.0
  0
ARC
  5
26B
330
1F
100
AcDbEntity
  8
0
  6
Continuous
100
AcDbCircle
 10
727.7916463999938
 20
136.3014098375375
 30
0.0
 40
12.0
100
AcDbArc
 50
269.9999974955182
 51
330.0000016696448
  0
LINE
  5
26C
330
1F
100
AcDbEntity
  8
0
  6
Continuous
100
AcDbLine
 10
749.9041631926396
 20
150.6014469931819
 30
0.0
 11
738.1839481911232
 21
130.3014394992709
 31
0.0
  0
LINE
  5
26D
330
1F
100
AcDbEntity
  8
0
  6
Continuous
100
AcDbLine
 10
801.3371938853456
 20
124.301409837537
 30
0.0
 11
834.5644277720648
 21
124.301409837537
 31
0.0
  0
LINE
  5
26E
330
1F
100
AcDbEntity
  8
0
  6
Continuous
100
AcDbLine
 10
762.8945211558539
 20
158.1013976305071
 30
0.0
 11
766.2343191294865
 21
158.1013976305071
 31
0.0
  0
ARC
  5
26F
330
1F
100
AcDbEntity
  8
0
  6
Continuous
100
AcDbCircle
 10
801.3371938853456
 20
136.3014098375375
 30
0.0
 40
12.0
100
AcDbArc
 50
210.0000051605362
 51
269.9999974955182
  0
LINE
  5
270
330
1F
100
AcDbEntity
  8
0
  6
Continuous
100
AcDbLine
 10
779.2246575590188
 20
150.6014185588959
 30
0.0
 11
790.9448725605369
 21
130.301411064985
 31
0.0
  0
ARC
  5
271
330
1F
100
AcDbEntity
  8
0
  6
Continuous
100
AcDbCircle
 10
766.2343191294865
 20
143.1013976305061
 30
0.0
 40
15.0
100
AcDbArc
 50
30.00000333931701
 51
90.00000500895042
  0
LINE
  5
272
330
1F
100
AcDbEntity
  8
0
  6
Continuous
100
AcDbLine
 10
872.5644430308539
 20
119.3013945787483
 30
0.0
 11
869.7144984654411
 21
119.3013945787483
 31
0.0
  0
LINE
  5
273
330
1F
100
AcDbEntity
  8
0
  6
Continuous
100
AcDbLine
 10
869.7144984654411
 20
119.3013945787483
 30
0.0
 11
867.1666956268536
 21
126.3014250963264
 31
0.0
  0
LINE
  5
274
330
1F
100
AcDbEntity
  8
0
  6
Continuous
100
AcDbLine
 10
867.1666956268536
 20
126.3014250963264
 30
0.0
 11
834.5644277720648
 21
126.3014250963264
 31
0.0
  0
LINE
  5
275
330
1F
100
AcDbEntity
  8
0
  6
Continuous
100
AcDbLine
 10
694.5644125132749
 20
185.6014128892952
 30
0.0
 11
834.5644277720648
 21
185.6014128892952
 31
0.0
  0
LINE
  5
276
330
1F
100
AcDbEntity
  8
0
  6
Continuous
100
AcDbLine
 10
695.5644430308539
 20
202.3013182848029
 30
0.0
 11
834.5644277720648
 21
202.3013182848029
 31
0.0
  0
LINE
  5
277
330
1F
100
AcDbEntity
  8
0
  6
Continuous
100
AcDbLine
 10
656.5644430308537
 20
196.8014250963264
 30
0.0
 11
659.414456276164
 21
196.8014250963264
 31
0.0
  0
LINE
  5
278
330
1F
100
AcDbEntity
  8
0
  6
Continuous
100
AcDbLine
 10
659.414456276164
 20
196.8014250963264
 30
0.0
 11
661.9622591147499
 21
189.8013945787471
 31
0.0
  0
LINE
  5
279
330
1F
100
AcDbEntity
  8
0
  6
Continuous
100
AcDbLine
 10
661.9622591147499
 20
189.8013945787471
 30
0.0
 11
694.5644125132765
 21
189.8013945787481
 31
0.0
  0
LINE
  5
27A
330
1F
100
AcDbEntity
  8
0
  6
Continuous
100
AcDbLine
 10
725.834615149994
 20
219.3014048375374
 30
0.0
 11
725.8346151499938
 21
185.6014128892952
 31
0.0
  0
LINE
  5
27B
330
1F
100
AcDbEntity
  8
0
  6
Continuous
100
AcDbLine
 10
803.294155868779
 20
219.3013989041194
 30
0.0
 11
803.2942251355597
 21
185.6013486168014
 31
0.0
  0
LINE
  5
27C
330
1F
100
AcDbEntity
  8
0
  6
Continuous
100
AcDbLine
 10
872.5644430308539
 20
196.8014250963264
 30
0.0
 11
869.714392738752
 21
196.8014250963264
 31
0.0
  0
LINE
  5
27D
330
1F
100
AcDbEntity
  8
0
  6
Continuous
100
AcDbLine
 10
869.714392738752
 20
196.8014250963264
 30
0.0
 11
867.1665899001677
 21
189.8013945787493
 31
0.0
  0
LINE
  5
27E
330
1F
100
AcDbEntity
  8
0
  6
Continuous
100
AcDbLine
 10
867.1665899001677
 20
189.8013945787493
 30
0.0
 11
834.5644277720648
 21
189.8013945787481
 31
0.0
  0
LINE
  5
27F
330
1F
100
AcDbEntity
  8
0
  6
Continuous
100
AcDbLine
 10
449.2335256724536
 20
868.1818478940838
 30
0.0
 11
449.2335256724536
 21
865.3318821007628
 31
0.0
  0
LINE
  5
280
330
1F
100
AcDbEntity
  8
0
  6
Continuous
100
AcDbLine
 10
371.7334951548759
 20
868.1818478940838
 30
0.0
 11
371.7334951548767
 21
865.3318431869859
 31
0.0
  0
LINE
  5
281
330
1F
100
AcDbEntity
  8
0
  6
Continuous
100
AcDbLine
 10
371.7334951548759
 20
652.1818478940838
 30
0.0
 11
449.2335256724536
 21
652.1818478940838
 31
0.0
  0
LINE
  5
282
330
1F
100
AcDbEntity
  8
0
  6
Continuous
100
AcDbLine
 10
371.7334951548759
 20
655.0318886256778
 30
0.0
 11
378.7335256724535
 21
657.5796914642649
 31
0.0
  0
LINE
  5
283
330
1F
100
AcDbEntity
  8
0
  6
Continuous
100
AcDbLine
 10
378.7335256724535
 20
657.5796914642649
 30
0.0
 11
378.7335256724535
 21
663.3156198458337
 31
0.0
  0
LINE
  5
284
330
1F
100
AcDbEntity
  8
0
  6
HIDDEN
 48
10.0
100
AcDbLine
 10
378.7335256724535
 20
663.3156198458337
 30
0.0
 11
378.7335256724535
 21
690.1818578940837
 31
0.0
  0
LINE
  5
285
330
1F
100
AcDbEntity
  8
0
  6
Continuous
100
AcDbLine
 10
371.7334951548759
 20
652.1818478940838
 30
0.0
 11
371.7334951548759
 21
655.0318886256778
 31
0.0
  0
LINE
  5
286
330
1F
100
AcDbEntity
  8
0
  6
Continuous
100
AcDbLine
 10
371.7334951548767
 20
865.3318431869859
 30
0.0
 11
378.7335256724535
 21
862.7840403483999
 31
0.0
  0
LINE
  5
287
330
1F
100
AcDbEntity
  8
0
  6
Continuous
100
AcDbLine
 10
378.7335256724535
 20
862.7840403483999
 30
0.0
 11
378.7335256724535
 21
857.0481009077788
 31
0.0
  0
LINE
  5
288
330
1F
100
AcDbEntity
  8
0
  6
HIDDEN
 48
10.0
100
AcDbLine
 10
378.7335256724536
 20
857.0481009077788
 30
0.0
 11
378.7335256724535
 21
830.1818378940838
 31
0.0
  0
LINE
  5
289
330
1F
100
AcDbEntity
  8
0
  6
Continuous
100
AcDbLine
 10
449.233525672455
 20
655.0318497119018
 30
0.0
 11
442.2334951548759
 21
657.5796525504879
 31
0.0
  0
LINE
  5
28A
330
1F
100
AcDbEntity
  8
0
  6
Continuous
100
AcDbLine
 10
442.2334951548759
 20
657.5796525504879
 30
0.0
 11
442.2334951548759
 21
663.3155893462907
 31
0.0
  0
LINE
  5
28B
330
1F
100
AcDbEntity
  8
0
  6
HIDDEN
 48
10.0
100
AcDbLine
 10
442.2334951548759
 20
663.3155893462907
 30
0.0
 11
442.2334951548759
 21
690.1818578940837
 31
0.0
  0
LINE
  5
28C
330
1F
100
AcDbEntity
  8
0
  6
Continuous
100
AcDbLine
 10
449.2335256724536
 20
652.1818478940838
 30
0.0
 11
449.233525672455
 21
655.0318497119018
 31
0.0
  0
LINE
  5
28D
330
1F
100
AcDbEntity
  8
0
  6
Continuous
100
AcDbLine
 10
449.2335256724536
 20
865.3318821007628
 30
0.0
 11
442.2334951548759
 21
862.7840792621766
 31
0.0
  0
LINE
  5
28E
330
1F
100
AcDbEntity
  8
0
  6
Continuous
100
AcDbLine
 10
442.2334951548759
 20
862.7840792621766
 30
0.0
 11
442.2334951548759
 21
857.048092025661
 31
0.0
  0
LINE
  5
28F
330
1F
100
AcDbEntity
  8
0
  6
HIDDEN
 48
10.0
100
AcDbLine
 10
442.2334951548757
 20
857.0480920256608
 30
0.0
 11
442.2334951548759
 21
830.1818378940838
 31
0.0
  0
LINE
  5
290
330
1F
100
AcDbEntity
  8
0
  6
Continuous
100
AcDbLine
 10
371.7334951548759
 20
868.1818478940838
 30
0.0
 11
449.2335256724536
 21
868.1818478940838
 31
0.0
  0
TEXT
  5
291
330
1F
100
AcDbEntity
  8
0
100
AcDbText
 10
125.4043750918645
 20
1025.038089509007
 30
0.0
 40
48.000002
  1
DHC2S17AD000 2.5S
 41
1.32095
100
AcDbText
  0
LINE
  5
292
330
1F
100
AcDbEntity
  8
0
  6
HIDDEN
 48
10.0
100
AcDbLine
 10
449.213349295177
 20
830.1818378940838
 30
0.0
 11
371.7536552951768
 21
830.1818378940838
 31
0.0
  0
LINE
  5
293
330
1F
100
AcDbEntity
  8
0
  6
HIDDEN
 48
10.0
100
AcDbLine
 10
449.213349295177
 20
690.1818578940837
 30
0.0
 11
371.7536552951768
 21
690.1818578940837
 31
0.0
  0
LINE
  5
294
330
1F
100
AcDbEntity
  8
0
  6
HIDDEN
 48
10.0
100
AcDbLine
 10
340.4834852951768
 20
721.4520278940839
 30
0.0
 11
340.4834852951768
 21
798.9116678940837
 31
0.0
  0
LINE
  5
295
330
1F
100
AcDbEntity
  8
0
  6
HIDDEN
 48
10.0
100
AcDbLine
 10
480.4834832951768
 20
721.4520278940839
 30
0.0
 11
480.4834832951768
 21
798.9116678940837
 31
0.0
  0
ARC
  5
296
330
1F
100
AcDbEntity
  8
0
  6
HIDDEN
 48
10.0
100
AcDbCircle
 10
410.4834752951768
 20
760.1818478940838
 30
0.0
 40
80.00000399999999
100
AcDbArc
 50
298.9550300000016
 51
331.044980000003
  0
ARC
  5
297
330
1F
100
AcDbEntity
  8
0
  6
HIDDEN
 48
10.0
100
AcDbCircle
 10
410.4834752951768
 20
760.1818478940838
 30
0.0
 40
80.00000399999999
100
AcDbArc
 50
28.95501799999512
 51
61.04497399999374
  0
ARC
  5
298
330
1F
100
AcDbEntity
  8
0
  6
HIDDEN
 48
10.0
100
AcDbCircle
 10
410.4834752951768
 20
760.1818478940838
 30
0.0
 40
80.00000399999999
100
AcDbArc
 50
118.9550300000016
 51
151.0449800000029
  0
ARC
  5
299
330
1F
100
AcDbEntity
  8
0
  6
HIDDEN
 48
10.0
100
AcDbCircle
 10
410.4834752951768
 20
760.1818478940838
 30
0.0
 40
80.00000399999999
100
AcDbArc
 50
208.9550199999969
 51
241.0449699999984
  0
CIRCLE
  5
29A
330
1F
100
AcDbEntity
  8
0
  6
Continuous
100
AcDbCircle
 10
410.4835104136654
 20
760.1818478940838
 30
0.0
 40
10.00004238406432
  0
CIRCLE
  5
29B
330
1F
100
AcDbEntity
  8
0
  6
Continuous
100
AcDbCircle
 10
410.4834752951768
 20
760.1818478940838
 30
0.0
 40
24.99999745505022
  0
LINE
  5
29C
330
1F
100
AcDbEntity
  8
0
  6
Continuous
100
AcDbLine
 10
325.4834799109458
 20
767.6818343543271
 30
0.0
 11
325.4834799109458
 21
752.6818614988085
 31
0.0
  0
ARC
  5
29D
330
1F
100
AcDbEntity
  8
0
  6
Continuous
100
AcDbCircle
 10
293.8073255942826
 20
760.1818478940838
 30
0.0
 40
3.149999850000199
100
AcDbArc
 50
90.0
 51
270.0
  0
LINE
  5
29E
330
1F
100
AcDbEntity
  8
0
  6
Continuous
100
AcDbLine
 10
293.8073255942826
 20
763.331847744084
 30
0.0
 11
319.1933454724923
 21
763.331847744084
 31
0.0
  0
LINE
  5
29F
330
1F
100
AcDbEntity
  8
0
  6
Continuous
100
AcDbLine
 10
293.8073255942826
 20
757.0318480440836
 30
0.0
 11
319.1933454724923
 21
757.0318480440836
 31
0.0
  0
ELLIPSE
  5
2A0
330
1F
100
AcDbEntity
  8
0
  6
Continuous
100
AcDbEllipse
 10
319.1933454724923
 20
760.1818478940838
 30
0.0
 11
0.0
 21
3.149999850000198
 31
0.0
210
0.0
220
0.0
230
1.0
 40
0.7098473443812015
 41
3.141592653589793
 42
6.283185307179586
  0
LINE
  5
2A1
330
1F
100
AcDbEntity
  8
0
  6
Continuous
100
AcDbLine
 10
323.9572916316053
 20
767.6818392211357
 30
0.0
 11
323.9572950060426
 21
752.6818645195064
 31
0.0
  0
LINE
  5
2A2
330
1F
100
AcDbEntity
  8
0
  6
Continuous
100
AcDbLine
 10
318.9572817984867
 20
767.6818551654934
 30
0.0
 11
318.957282777077
 21
763.3318477440838
 31
0.0
  0
LINE
  5
2A3
330
1F
100
AcDbEntity
  8
0
  6
Continuous
100
AcDbLine
 10
318.957284194343
 20
757.0318480440836
 30
0.0
 11
318.9572851729242
 21
752.6818804638642
 31
0.0
  0
LINE
  5
2A4
330
1F
100
AcDbEntity
  8
0
  6
Continuous
100
AcDbLine
 10
325.4834799109458
 20
752.6818614988085
 30
0.0
 11
318.9572851729242
 21
752.6818804638642
 31
0.0
  0
LINE
  5
2A5
330
1F
100
AcDbEntity
  8
0
  6
Continuous
100
AcDbLine
 10
325.4834799109458
 20
767.6818343543271
 30
0.0
 11
318.9572817984867
 21
767.6818551654934
 31
0.0
  0
LINE
  5
2A6
330
1F
100
AcDbEntity
  8
0
  6
Continuous
100
AcDbLine
 10
317.7972819024107
 20
757.0318480440834
 30
0.0
 11
318.9572393759489
 21
752.6818363771649
 31
0.0
  0
LINE
  5
2A7
330
1F
100
AcDbEntity
  8
0
  6
Continuous
100
AcDbLine
 10
317.7972780904285
 20
763.331847744084
 30
0.0
 11
318.9572360015115
 21
767.681811078794
 31
0.0
  0
LINE
  5
2A8
330
1F
100
AcDbEntity
  8
0
  6
Continuous
100
AcDbLine
 10
764.5644430308538
 20
386.3014148375373
 30
0.0
 11
740.5644430308539
 21
386.3014148375373
 31
0.0
  0
LINE
  5
2A9
330
1F
100
AcDbEntity
  8
0
  6
Continuous
100
AcDbLine
 10
789.5644330308536
 20
381.3014648375375
 30
0.0
 11
789.5644330308536
 21
385.3013948375374
 31
0.0
  0
LINE
  5
2AA
330
1F
100
AcDbEntity
  8
0
  6
Continuous
100
AcDbLine
 10
739.5644530308536
 20
381.3014648375375
 30
0.0
 11
739.5644530308536
 21
385.3013948375374
 31
0.0
  0
LINE
  5
2AB
330
1F
100
AcDbEntity
  8
0
  6
Continuous
100
AcDbLine
 10
764.5644430308538
 20
386.3014148375373
 30
0.0
 11
788.5644430308539
 21
386.3014148375373
 31
0.0
  0
LINE
  5
2AC
330
1F
100
AcDbEntity
  8
0
  6
Continuous
100
AcDbLine
 10
753.5642040581023
 20
386.3014148375373
 30
0.0
 11
754.5643330308539
 21
390.0336548375374
 31
0.0
  0
LINE
  5
2AD
330
1F
100
AcDbEntity
  8
0
  6
Continuous
100
AcDbLine
 10
754.5644530308536
 20
390.0335648375374
 30
0.0
 11
754.5644530308536
 21
416.3014148375373
 31
0.0
  0
LINE
  5
2AE
330
1F
100
AcDbEntity
  8
0
  6
Continuous
100
AcDbLine
 10
774.5644630308539
 20
390.0335648375374
 30
0.0
 11
754.5644530308536
 21
390.0335648375374
 31
0.0
  0
LINE
  5
2AF
330
1F
100
AcDbEntity
  8
0
  6
Continuous
100
AcDbLine
 10
775.5645028003609
 20
386.3014148375373
 30
0.0
 11
774.5644330308537
 21
390.0337448375374
 31
0.0
  0
LINE
  5
2B0
330
1F
100
AcDbEntity
  8
0
  6
Continuous
100
AcDbLine
 10
774.5644630308539
 20
390.0335648375374
 30
0.0
 11
774.5644630308539
 21
416.3014148375373
 31
0.0
  0
LINE
  5
2B1
330
1F
100
AcDbEntity
  8
0
  6
Continuous
100
AcDbLine
 10
755.5644430308537
 20
339.3014648375374
 30
0.0
 11
754.5646930308537
 21
274.8323948375373
 31
0.0
  0
LINE
  5
2B2
330
1F
100
AcDbEntity
  8
0
  6
Continuous
100
AcDbLine
 10
856.0644430308537
 20
246.3014048375371
 30
0.0
 11
851.5644430308537
 21
246.3014048375371
 31
0.0
  0
LINE
  5
2B3
330
1F
100
AcDbEntity
  8
0
  6
Continuous
100
AcDbLine
 10
665.9481430308537
 20
246.3014048375374
 30
0.0
 11
764.5644430308537
 21
246.3014048375374
 31
0.0
  0
LINE
  5
2B4
330
1F
100
AcDbEntity
  8
0
  6
Continuous
100
AcDbLine
 10
665.9481430308537
 20
258.3014048375374
 30
0.0
 11
764.5644430308537
 21
258.3014048375374
 31
0.0
  0
LINE
  5
2B5
330
1F
100
AcDbEntity
  8
0
  6
Continuous
100
AcDbLine
 10
857.0644630308535
 20
258.3014048375371
 30
0.0
 11
851.5635730308536
 21
258.3014048375371
 31
0.0
  0
LINE
  5
2B6
330
1F
100
AcDbEntity
  8
0
  6
Continuous
100
AcDbLine
 10
681.880818144925
 20
373.3805704211655
 30
0.0
 11
678.3795430308536
 21
356.9084348375373
 31
0.0
  0
LINE
  5
2B7
330
1F
100
AcDbEntity
  8
0
  6
Continuous
100
AcDbLine
 10
863.1808030308539
 20
258.3014048375371
 30
0.0
 11
764.5644430308537
 21
258.3014048375374
 31
0.0
  0
LINE
  5
2B8
330
1F
100
AcDbEntity
  8
0
  6
Continuous
100
AcDbLine
 10
863.1808030308539
 20
246.3014048375371
 30
0.0
 11
764.5644430308537
 21
246.3014048375374
 31
0.0
  0
LINE
  5
2B9
330
1F
100
AcDbEntity
  8
0
  6
Continuous
100
AcDbLine
 10
776.5644430308537
 20
258.3014048375374
 30
0.0
 11
752.5644430308537
 21
258.3014048375374
 31
0.0
  0
LINE
  5
2BA
330
1F
100
AcDbEntity
  8
0
  6
Continuous
100
AcDbLine
 10
773.5644430308536
 20
258.8014148375374
 30
0.0
 11
755.5644430308537
 21
258.8014148375374
 31
0.0
  0
LINE
  5
2BB
330
1F
100
AcDbEntity
  8
0
  6
Continuous
100
AcDbLine
 10
858.1807630308535
 20
293.0457548375373
 30
0.0
 11
848.1548830308536
 21
293.0457548375373
 31
0.0
  0
LINE
  5
2BC
330
1F
100
AcDbEntity
  8
0
  6
Continuous
100
AcDbLine
 10
672.9545230308538
 20
309.2935748375373
 30
0.0
 11
672.7202830308538
 21
295.8741848375373
 31
0.0
  0
LINE
  5
2BD
330
1F
100
AcDbEntity
  8
0
  6
Continuous
100
AcDbLine
 10
764.5644430308538
 20
381.3014648375375
 30
0.0
 11
837.4666030308537
 21
381.3014648375372
 31
0.0
  0
LINE
  5
2BE
330
1F
100
AcDbEntity
  8
0
  6
Continuous
100
AcDbLine
 10
843.1548730308536
 20
288.0457448375371
 30
0.0
 11
843.1548730308536
 21
246.3014048375371
 31
0.0
  0
LINE
  5
2BF
330
1F
100
AcDbEntity
  8
0
  6
Continuous
100
AcDbLine
 10
754.5644530308536
 20
275.8013948375374
 30
0.0
 11
754.5644530308536
 21
259.8014048375373
 31
0.0
  0
LINE
  5
2C0
330
1F
100
AcDbEntity
  8
0
  6
Continuous
100
AcDbLine
 10
774.5644330308537
 20
275.8013948375374
 30
0.0
 11
774.5644330308537
 21
259.8014048375373
 31
0.0
  0
LINE
  5
2C1
330
1F
100
AcDbEntity
  8
0
  6
Continuous
100
AcDbLine
 10
665.9481430308537
 20
258.3014048375374
 30
0.0
 11
764.5644430308537
 21
258.3014048375374
 31
0.0
  0
LINE
  5
2C2
330
1F
100
AcDbEntity
  8
0
  6
Continuous
100
AcDbLine
 10
773.5644430308536
 20
339.3014648375374
 30
0.0
 11
774.5641930308536
 21
274.8323948375373
 31
0.0
  0
LINE
  5
2C3
330
1F
100
AcDbEntity
  8
0
  6
Continuous
100
AcDbLine
 10
764.5644430308538
 20
381.3014648375375
 30
0.0
 11
691.6622830308538
 21
381.3014648375375
 31
0.0
  0
LINE
  5
2C4
330
1F
100
AcDbEntity
  8
0
  6
Continuous
100
AcDbLine
 10
808.3476730308536
 20
293.0457548375373
 30
0.0
 11
790.6413130308537
 21
293.0457548375375
 31
0.0
  0
LINE
  5
2C5
330
1F
100
AcDbEntity
  8
0
  6
Continuous
100
AcDbLine
 10
785.6413030308535
 20
288.0457448375373
 30
0.0
 11
785.6413030308535
 21
246.3014048375374
 31
0.0
  0
LINE
  5
2C6
330
1F
100
AcDbEntity
  8
0
  6
Continuous
100
AcDbLine
 10
847.2480430308538
 20
373.3806848375373
 30
0.0
 11
850.7493430308537
 21
356.9083148375371
 31
0.0
  0
LINE
  5
2C7
330
1F
100
AcDbEntity
  8
0
  6
Continuous
100
AcDbLine
 10
856.1744530308537
 20
309.2935748375371
 30
0.0
 11
856.4086930308535
 21
295.8741848375371
 31
0.0
  0
LINE
  5
2C8
330
1F
100
AcDbEntity
  8
0
  6
Continuous
100
AcDbLine
 10
857.0644630308535
 20
258.3014048375371
 30
0.0
 11
764.5644430308537
 21
258.3014048375374
 31
0.0
  0
LINE
  5
2C9
330
1F
100
AcDbEntity
  8
0
  6
Continuous
100
AcDbLine
 10
773.5644430308536
 20
276.8014148375373
 30
0.0
 11
755.5644430308537
 21
276.8014148375373
 31
0.0
  0
LINE
  5
2CA
330
1F
100
AcDbEntity
  8
0
  6
Continuous
100
AcDbLine
 10
685.9740730308537
 20
288.0457448375373
 30
0.0
 11
685.9740730308537
 21
246.3014048375374
 31
0.0
  0
LINE
  5
2CB
330
1F
100
AcDbEntity
  8
0
  6
Continuous
100
AcDbLine
 10
743.4875830308538
 20
288.0457448375373
 30
0.0
 11
743.4875830308538
 21
246.3014048375374
 31
0.0
  0
LINE
  5
2CC
330
1F
100
AcDbEntity
  8
0
  6
Continuous
100
AcDbLine
 10
715.7812630308535
 20
288.0457448375373
 30
0.0
 11
715.7812630308535
 21
246.3014048375374
 31
0.0
  0
LINE
  5
2CD
330
1F
100
AcDbEntity
  8
0
  6
Continuous
100
AcDbLine
 10
720.7812730308537
 20
293.0457548375375
 30
0.0
 11
738.4876030308537
 21
293.0457548375375
 31
0.0
  0
LINE
  5
2CE
330
1F
100
AcDbEntity
  8
0
  6
Continuous
100
AcDbLine
 10
670.9481230308538
 20
293.0457548375375
 30
0.0
 11
680.9740630308538
 21
293.0457548375375
 31
0.0
  0
LINE
  5
2CF
330
1F
100
AcDbEntity
  8
0
  6
Continuous
100
AcDbLine
 10
665.9481430308537
 20
288.0457448375373
 30
0.0
 11
665.9481430308537
 21
246.3014048375374
 31
0.0
  0
LINE
  5
2D0
330
1F
100
AcDbEntity
  8
0
  6
Continuous
100
AcDbLine
 10
813.3476830308536
 20
288.0457448375371
 30
0.0
 11
813.3476830308536
 21
246.3014048375371
 31
0.0
  0
LINE
  5
2D1
330
1F
100
AcDbEntity
  8
0
  6
Continuous
100
AcDbLine
 10
863.1808030308539
 20
288.0457448375371
 30
0.0
 11
863.1808030308539
 21
246.3014048375371
 31
0.0
  0
LINE
  5
2D2
330
1F
100
AcDbEntity
  8
0
  6
Continuous
100
AcDbLine
 10
669.5740330308538
 20
286.1783048375373
 30
0.0
 11
681.7271530308537
 21
291.2574248375374
 31
0.0
  0
LINE
  5
2D3
330
1F
100
AcDbEntity
  8
0
  6
Continuous
100
AcDbLine
 10
718.3039930308536
 20
290.5458248375376
 30
0.0
 11
721.6304530308536
 21
287.2494548375375
 31
0.0
  0
LINE
  5
2D4
330
1F
100
AcDbEntity
  8
0
  6
Continuous
100
AcDbLine
 10
859.5549430308537
 20
286.1783048375371
 30
0.0
 11
847.4017630308535
 21
291.2573648375371
 31
0.0
  0
LINE
  5
2D5
330
1F
100
AcDbEntity
  8
0
  6
Continuous
100
AcDbLine
 10
802.0509730308535
 20
286.1876948375373
 30
0.0
 11
789.8978530308536
 21
291.2668148375374
 31
0.0
  0
LINE
  5
2D6
330
1F
100
AcDbEntity
  8
0
  6
Continuous
100
AcDbLine
 10
810.8249530308535
 20
290.5458848375372
 30
0.0
 11
807.4984630308536
 21
287.2495148375372
 31
0.0
  0
LINE
  5
2D7
330
1F
100
AcDbEntity
  8
0
  6
Continuous
100
AcDbLine
 10
727.0779130308538
 20
286.1876948375375
 30
0.0
 11
739.2310330308537
 21
291.2668148375374
 31
0.0
  0
LINE
  5
2D8
330
1F
100
AcDbEntity
  8
0
  6
Continuous
100
AcDbLine
 10
678.3244630308536
 20
240.3014048375374
 30
0.0
 11
671.5644430308536
 21
240.3014048375374
 31
0.0
  0
LINE
  5
2D9
330
1F
100
AcDbEntity
  8
0
  6
Continuous
100
AcDbLine
 10
667.4444830308536
 20
246.3014048375374
 30
0.0
 11
667.4444830308536
 21
244.7013848375373
 31
0.0
  0
LINE
  5
2DA
330
1F
100
AcDbEntity
  8
0
  6
Continuous
100
AcDbLine
 10
682.4444830308537
 20
246.3014048375374
 30
0.0
 11
682.4444830308537
 21
244.7013848375373
 31
0.0
  0
LINE
  5
2DB
330
1F
100
AcDbEntity
  8
0
  6
Continuous
100
AcDbLine
 10
682.4444830308537
 20
244.7013848375373
 30
0.0
 11
667.4444830308536
 21
244.7013848375373
 31
0.0
  0
LINE
  5
2DC
330
1F
100
AcDbEntity
  8
0
  6
Continuous
100
AcDbLine
 10
730.8244630308536
 20
240.3014048375374
 30
0.0
 11
724.0644430308536
 21
240.3014048375374
 31
0.0
  0
LINE
  5
2DD
330
1F
100
AcDbEntity
  8
0
  6
Continuous
100
AcDbLine
 10
719.9444830308537
 20
246.3014048375374
 30
0.0
 11
719.9444830308537
 21
244.7013848375373
 31
0.0
  0
LINE
  5
2DE
330
1F
100
AcDbEntity
  8
0
  6
Continuous
100
AcDbLine
 10
734.9444830308536
 20
246.3014048375374
 30
0.0
 11
734.9444830308536
 21
244.7013848375373
 31
0.0
  0
LINE
  5
2DF
330
1F
100
AcDbEntity
  8
0
  6
Continuous
100
AcDbLine
 10
734.9444830308536
 20
244.7013848375373
 30
0.0
 11
719.9444830308537
 21
244.7013848375373
 31
0.0
  0
LINE
  5
2E0
330
1F
100
AcDbEntity
  8
0
  6
Continuous
100
AcDbLine
 10
850.8044530308538
 20
240.3014048375371
 30
0.0
 11
857.5644430308537
 21
240.3014048375371
 31
0.0
  0
LINE
  5
2E1
330
1F
100
AcDbEntity
  8
0
  6
Continuous
100
AcDbLine
 10
861.6844630308538
 20
246.3014048375371
 30
0.0
 11
861.6844630308538
 21
244.701384837537
 31
0.0
  0
LINE
  5
2E2
330
1F
100
AcDbEntity
  8
0
  6
Continuous
100
AcDbLine
 10
846.6844630308537
 20
246.3014048375371
 30
0.0
 11
846.6844630308537
 21
244.701384837537
 31
0.0
  0
LINE
  5
2E3
330
1F
100
AcDbEntity
  8
0
  6
Continuous
100
AcDbLine
 10
846.6844630308537
 20
244.701384837537
 30
0.0
 11
861.6844630308538
 21
244.701384837537
 31
0.0
  0
LINE
  5
2E4
330
1F
100
AcDbEntity
  8
0
  6
Continuous
100
AcDbLine
 10
798.3044530308537
 20
240.3014048375371
 30
0.0
 11
805.0644430308537
 21
240.3014048375371
 31
0.0
  0
LINE
  5
2E5
330
1F
100
AcDbEntity
  8
0
  6
Continuous
100
AcDbLine
 10
809.1844630308537
 20
246.3014048375371
 30
0.0
 11
809.1844630308537
 21
244.701384837537
 31
0.0
  0
LINE
  5
2E6
330
1F
100
AcDbEntity
  8
0
  6
Continuous
100
AcDbLine
 10
794.1844630308537
 20
246.3014048375374
 30
0.0
 11
794.1844630308537
 21
244.7013848375373
 31
0.0
  0
LINE
  5
2E7
330
1F
100
AcDbEntity
  8
0
  6
Continuous
100
AcDbLine
 10
794.1844630308537
 20
244.7013848375373
 30
0.0
 11
809.1844630308537
 21
244.701384837537
 31
0.0
  0
LINE
  5
2E8
330
1F
100
AcDbEntity
  8
0
  6
Continuous
100
AcDbLine
 10
739.5644530308536
 20
381.3014648375375
 30
0.0
 11
691.6622830308538
 21
381.3014648375375
 31
0.0
  0
LINE
  5
2E9
330
1F
100
AcDbEntity
  8
0
  6
Continuous
100
AcDbLine
 10
683.5645330308537
 20
238.3013948375374
 30
0.0
 11
845.5643530308536
 21
238.3013948375372
 31
0.0
  0
LINE
  5
2EA
330
1F
100
AcDbEntity
  8
0
  6
Continuous
100
AcDbLine
 10
694.5644530308536
 20
235.3013948375374
 30
0.0
 11
694.5644530308536
 21
219.3014048375374
 31
0.0
  0
LINE
  5
2EB
330
1F
100
AcDbEntity
  8
0
  6
Continuous
100
AcDbLine
 10
694.5644125132749
 20
219.3014048375374
 30
0.0
 11
759.0644530308536
 21
219.3014048375373
 31
0.0
  0
LINE
  5
2EC
330
1F
100
AcDbEntity
  8
0
  6
Continuous
100
AcDbLine
 10
770.0644330308541
 20
219.3014048375373
 30
0.0
 11
834.5644330308536
 21
219.3014048375373
 31
0.0
  0
LINE
  5
2ED
330
1F
100
AcDbEntity
  8
0
  6
Continuous
100
AcDbLine
 10
710.0641030308536
 20
233.3013848375374
 30
0.0
 11
710.0641030308536
 21
222.3016448375374
 31
0.0
  0
LINE
  5
2EE
330
1F
100
AcDbEntity
  8
0
  6
Continuous
100
AcDbLine
 10
819.0647830308536
 20
233.3013848375372
 30
0.0
 11
819.0647830308536
 21
222.3016448375372
 31
0.0
  0
LINE
  5
2EF
330
1F
100
AcDbEntity
  8
0
  6
Continuous
100
AcDbLine
 10
834.5644330308537
 20
235.3013948375372
 30
0.0
 11
834.5644330308536
 21
219.3014048375373
 31
0.0
  0
LINE
  5
2F0
330
1F
100
AcDbEntity
  8
0
  6
Continuous
100
AcDbLine
 10
762.0644530308537
 20
235.3013948375374
 30
0.0
 11
762.0644530308537
 21
222.3014048375373
 31
0.0
  0
LINE
  5
2F1
330
1F
100
AcDbEntity
  8
0
  6
Continuous
100
AcDbLine
 10
767.0644330308537
 20
235.3013948375374
 30
0.0
 11
767.0644330308537
 21
222.3014048375373
 31
0.0
  0
ARC
  5
2F2
330
1F
100
AcDbEntity
  8
0
  6
Continuous
100
AcDbCircle
 10
788.5644430308539
 20
385.3013948375374
 30
0.0
 40
1.000000019999999
100
AcDbArc
 50
0.0
 51
90.0
  0
ARC
  5
2F3
330
1F
100
AcDbEntity
  8
0
  6
Continuous
100
AcDbCircle
 10
788.5644430308539
 20
385.3013948375374
 30
0.0
 40
1.000000019999999
100
AcDbArc
 50
0.0
 51
90.0
  0
ARC
  5
2F4
330
1F
100
AcDbEntity
  8
0
  6
Continuous
100
AcDbCircle
 10
740.5644430308539
 20
385.3013948375374
 30
0.0
 40
1.000000019999999
100
AcDbArc
 50
90.0
 51
180.0
  0
ARC
  5
2F5
330
1F
100
AcDbEntity
  8
0
  6
Continuous
100
AcDbCircle
 10
771.5644630308538
 20
416.3014148375373
 30
0.0
 40
3.0
100
AcDbArc
 50
0.0
 51
90.0
  0
ARC
  5
2F6
330
1F
100
AcDbEntity
  8
0
  6
Continuous
100
AcDbCircle
 10
757.5644530308537
 20
416.3014148375373
 30
0.0
 40
3.0
100
AcDbArc
 50
90.0
 51
180.0
  0
ARC
  5
2F7
330
1F
100
AcDbEntity
  8
0
  6
Continuous
100
AcDbCircle
 10
845.5643530308536
 20
243.3014048375371
 30
0.0
 40
5.0000001
100
AcDbArc
 50
270.0
 51
330.5968990000032
  0
ARC
  5
2F8
330
1F
100
AcDbEntity
  8
0
  6
Continuous
100
AcDbCircle
 10
683.5645330308537
 20
243.3014048375373
 30
0.0
 40
5.0000001
100
AcDbArc
 50
209.4031000000022
 51
270.0
  0
ARC
  5
2F9
330
1F
100
AcDbEntity
  8
0
  6
Continuous
100
AcDbCircle
 10
858.1807630308535
 20
288.0457448375371
 30
0.0
 40
4.9999998
100
AcDbArc
 50
0.0
 51
90.0
  0
ARC
  5
2FA
330
1F
100
AcDbEntity
  8
0
  6
Continuous
100
AcDbCircle
 10
755.5644430308537
 20
275.8013948375374
 30
0.0
 40
1.000000019999999
100
AcDbArc
 50
90.0
 51
180.0
  0
CIRCLE
  5
2FB
330
1F
100
AcDbEntity
  8
0
  6
Continuous
100
AcDbCircle
 10
764.5644430308537
 20
267.8014148375373
 30
0.0
 40
1.5
  0
CIRCLE
  5
2FC
330
1F
100
AcDbEntity
  8
0
  6
Continuous
100
AcDbCircle
 10
764.5644430308537
 20
267.8014148375373
 30
0.0
 40
4.212704699999999
  0
ARC
  5
2FD
330
1F
100
AcDbEntity
  8
0
  6
Continuous
100
AcDbCircle
 10
837.4666030308537
 20
371.3014148375371
 30
0.0
 40
9.9999999
100
AcDbArc
 50
12.00023000000018
 51
90.0
  0
ARC
  5
2FE
330
1F
100
AcDbEntity
  8
0
  6
Continuous
100
AcDbCircle
 10
773.5644430308536
 20
259.8014048375373
 30
0.0
 40
1.000000019999999
100
AcDbArc
 50
270.0
 51
0.0
  0
CIRCLE
  5
2FF
330
1F
100
AcDbEntity
  8
0
  6
Continuous
100
AcDbCircle
 10
764.5644430308537
 20
267.8014148375373
 30
0.0
 40
4.793684999999999
  0
ARC
  5
300
330
1F
100
AcDbEntity
  8
0
  6
Continuous
100
AcDbCircle
 10
861.4078630308537
 20
295.9614548375373
 30
0.0
 40
4.9999998
100
AcDbArc
 50
180.999859999981
 51
215.6713999999943
  0
ARC
  5
301
330
1F
100
AcDbEntity
  8
0
  6
Continuous
100
AcDbCircle
 10
790.6413130308537
 20
288.0457448375373
 30
0.0
 40
4.9999998
100
AcDbArc
 50
90.0
 51
180.0
  0
ARC
  5
302
330
1F
100
AcDbEntity
  8
0
  6
Continuous
100
AcDbCircle
 10
922.9164430308538
 20
304.9304648375371
 30
0.0
 40
250.0000079999999
100
AcDbArc
 50
168.0000099999843
 51
178.9999999999982
  0
ARC
  5
303
330
1F
100
AcDbEntity
  8
0
  6
Continuous
100
AcDbCircle
 10
606.2125030308536
 20
304.9304648375374
 30
0.0
 40
250.0000079999999
100
AcDbArc
 50
0.9999959999862102
 51
10.37229999998761
  0
ARC
  5
304
330
1F
100
AcDbEntity
  8
0
  6
Continuous
100
AcDbCircle
 10
606.2125030308536
 20
304.9304648375374
 30
0.0
 40
250.0000079999999
100
AcDbArc
 50
10.37229999998761
 51
11.99999000001561
  0
ARC
  5
305
330
1F
100
AcDbEntity
  8
0
  6
Continuous
100
AcDbCircle
 10
667.7210530308537
 20
295.9614548375375
 30
0.0
 40
4.9999998
100
AcDbArc
 50
324.3285959999944
 51
359.0001399999928
  0
ARC
  5
306
330
1F
100
AcDbEntity
  8
0
  6
Continuous
100
AcDbCircle
 10
764.5644430308537
 20
339.3014648375374
 30
0.0
 40
9.0
100
AcDbArc
 50
0.0
 51
180.0
  0
ARC
  5
307
330
1F
100
AcDbEntity
  8
0
  6
Continuous
100
AcDbCircle
 10
773.5644430308536
 20
275.8013948375374
 30
0.0
 40
1.000000019999999
100
AcDbArc
 50
0.0
 51
90.0
  0
ARC
  5
308
330
1F
100
AcDbEntity
  8
0
  6
Continuous
100
AcDbCircle
 10
691.5644530308536
 20
235.3013948375374
 30
0.0
 40
3.0
100
AcDbArc
 50
0.0
 51
90.0
  0
ARC
  5
309
330
1F
100
AcDbEntity
  8
0
  6
Continuous
100
AcDbCircle
 10
755.5644430308537
 20
259.8014048375373
 30
0.0
 40
1.000000019999999
100
AcDbArc
 50
180.0
 51
270.0
  0
ARC
  5
30A
330
1F
100
AcDbEntity
  8
0
  6
Continuous
100
AcDbCircle
 10
705.0640930308536
 20
233.3013848375374
 30
0.0
 40
5.0000001
100
AcDbArc
 50
0.0
 51
90.0
  0
ARC
  5
30B
330
1F
100
AcDbEntity
  8
0
  6
Continuous
100
AcDbCircle
 10
824.0647930308536
 20
233.3013848375372
 30
0.0
 40
5.0000001
100
AcDbArc
 50
90.0
 51
180.0
  0
ARC
  5
30C
330
1F
100
AcDbEntity
  8
0
  6
Continuous
100
AcDbCircle
 10
707.0641030308536
 20
222.3016448375374
 30
0.0
 40
3.0
100
AcDbArc
 50
270.0
 51
0.0
  0
ARC
  5
30D
330
1F
100
AcDbEntity
  8
0
  6
Continuous
100
AcDbCircle
 10
822.0647830308537
 20
222.3016448375372
 30
0.0
 40
3.0
100
AcDbArc
 50
180.0
 51
270.0
  0
ARC
  5
30E
330
1F
100
AcDbEntity
  8
0
  6
Continuous
100
AcDbCircle
 10
837.5644330308537
 20
235.3013948375372
 30
0.0
 40
3.0
100
AcDbArc
 50
90.0
 51
180.0
  0
ARC
  5
30F
330
1F
100
AcDbEntity
  8
0
  6
Continuous
100
AcDbCircle
 10
670.9481230308538
 20
288.0457448375373
 30
0.0
 40
4.9999998
100
AcDbArc
 50
90.0
 51
180.0
  0
ARC
  5
310
330
1F
100
AcDbEntity
  8
0
  6
Continuous
100
AcDbCircle
 10
738.4876030308537
 20
288.0457448375373
 30
0.0
 40
4.9999998
100
AcDbArc
 50
0.0
 51
90.0
  0
ARC
  5
311
330
1F
100
AcDbEntity
  8
0
  6
Continuous
100
AcDbCircle
 10
720.7812730308537
 20
288.0457448375373
 30
0.0
 40
4.9999998
100
AcDbArc
 50
90.0
 51
180.0
  0
ARC
  5
312
330
1F
100
AcDbEntity
  8
0
  6
Continuous
100
AcDbCircle
 10
680.9740630308538
 20
288.0457448375373
 30
0.0
 40
4.9999998
100
AcDbArc
 50
0.0
 51
90.0
  0
ARC
  5
313
330
1F
100
AcDbEntity
  8
0
  6
Continuous
100
AcDbCircle
 10
808.3476730308536
 20
288.0457448375371
 30
0.0
 40
4.9999998
100
AcDbArc
 50
0.0
 51
90.0
  0
ARC
  5
314
330
1F
100
AcDbEntity
  8
0
  6
Continuous
100
AcDbCircle
 10
848.1548830308536
 20
288.0457448375371
 30
0.0
 40
4.9999998
100
AcDbArc
 50
90.0
 51
180.0
  0
ARC
  5
315
330
1F
100
AcDbEntity
  8
0
  6
Continuous
100
AcDbCircle
 10
667.6459930308538
 20
290.7916448375372
 30
0.0
 40
4.9999998
100
AcDbArc
 50
253.1007900000016
 51
292.6810359999948
  0
ARC
  5
316
330
1F
100
AcDbEntity
  8
0
  6
Continuous
100
AcDbCircle
 10
861.4829530308536
 20
290.791644837537
 30
0.0
 40
4.9999998
100
AcDbArc
 50
247.3189600000003
 51
286.8992139999944
  0
ARC
  5
317
330
1F
100
AcDbEntity
  8
0
  6
Continuous
100
AcDbCircle
 10
803.9790430308537
 20
290.8010648375371
 30
0.0
 40
4.9999998
100
AcDbArc
 50
247.3189600000003
 51
314.7396140000091
  0
ARC
  5
318
330
1F
100
AcDbEntity
  8
0
  6
Continuous
100
AcDbCircle
 10
725.1499030308536
 20
290.8010648375373
 30
0.0
 40
4.9999998
100
AcDbArc
 50
225.2603899999897
 51
292.6810359999948
  0
ARC
  5
319
330
1F
100
AcDbEntity
  8
0
  6
Continuous
100
AcDbCircle
 10
674.9444830308537
 20
246.7712948375374
 30
0.0
 40
7.299638399999999
100
AcDbArc
 50
196.4734499999884
 51
242.4167900000016
  0
ARC
  5
31A
330
1F
100
AcDbEntity
  8
0
  6
Continuous
100
AcDbCircle
 10
674.9444830308537
 20
246.7712948375374
 30
0.0
 40
7.299638399999999
100
AcDbArc
 50
297.5832129999935
 51
343.5265539999944
  0
ARC
  5
31B
330
1F
100
AcDbEntity
  8
0
  6
Continuous
100
AcDbCircle
 10
727.4444830308537
 20
246.7712948375374
 30
0.0
 40
7.299638399999999
100
AcDbArc
 50
196.4734499999884
 51
242.4167900000016
  0
ARC
  5
31C
330
1F
100
AcDbEntity
  8
0
  6
Continuous
100
AcDbCircle
 10
727.4444830308537
 20
246.7712948375374
 30
0.0
 40
7.299638399999999
100
AcDbArc
 50
297.5832129999935
 51
343.5265539999944
  0
ARC
  5
31D
330
1F
100
AcDbEntity
  8
0
  6
Continuous
100
AcDbCircle
 10
854.1844630308537
 20
246.7712948375372
 30
0.0
 40
7.299638399999999
100
AcDbArc
 50
297.5832129999935
 51
343.5265539999944
  0
ARC
  5
31E
330
1F
100
AcDbEntity
  8
0
  6
Continuous
100
AcDbCircle
 10
854.1844630308537
 20
246.7712948375372
 30
0.0
 40
7.299638399999999
100
AcDbArc
 50
196.4734499999884
 51
242.4167900000016
  0
ARC
  5
31F
330
1F
100
AcDbEntity
  8
0
  6
Continuous
100
AcDbCircle
 10
801.6844630308536
 20
246.7712948375372
 30
0.0
 40
7.299638399999999
100
AcDbArc
 50
297.5832129999935
 51
343.5265539999944
  0
ARC
  5
320
330
1F
100
AcDbEntity
  8
0
  6
Continuous
100
AcDbCircle
 10
801.6844630308536
 20
246.7712948375372
 30
0.0
 40
7.299638399999999
100
AcDbArc
 50
196.4734499999884
 51
242.4167900000016
  0
ARC
  5
321
330
1F
100
AcDbEntity
  8
0
  6
Continuous
100
AcDbCircle
 10
691.6622830308538
 20
371.3014148375374
 30
0.0
 40
9.9999999
100
AcDbArc
 50
90.0
 51
167.9997699999998
  0
CIRCLE
  5
322
330
1F
100
AcDbEntity
  8
0
  6
Continuous
100
AcDbCircle
 10
764.5644430308537
 20
339.3014648375374
 30
0.0
 40
5.0000001
  0
ARC
  5
323
330
1F
100
AcDbEntity
  8
0
  6
Continuous
100
AcDbCircle
 10
759.0644530308536
 20
222.3014048375373
 30
0.0
 40
3.0
100
AcDbArc
 50
270.0
 51
0.0
  0
ARC
  5
324
330
1F
100
AcDbEntity
  8
0
  6
Continuous
100
AcDbCircle
 10
759.0644530308536
 20
235.3013948375374
 30
0.0
 40
3.0
100
AcDbArc
 50
0.0
 51
90.0
  0
ARC
  5
325
330
1F
100
AcDbEntity
  8
0
  6
Continuous
100
AcDbCircle
 10
770.0644330308537
 20
235.3013948375374
 30
0.0
 40
3.0
100
AcDbArc
 50
90.0
 51
180.0
  0
CIRCLE
  5
326
330
1F
100
AcDbEntity
  8
0
  6
Continuous
100
AcDbCircle
 10
764.5644430308537
 20
210.8013848375374
 30
0.0
 40
3.500000099999999
  0
ARC
  5
327
330
1F
100
AcDbEntity
  8
0
  6
Continuous
100
AcDbCircle
 10
770.0644330308541
 20
222.3014048375373
 30
0.0
 40
3.0
100
AcDbArc
 50
180.0
 51
270.0
  0
LINE
  5
328
330
1F
100
AcDbEntity
  8
0
  6
Continuous
100
AcDbLine
 10
757.5644530308537
 20
419.3014148375374
 30
0.0
 11
771.5644630308538
 21
419.3014148375374
 31
0.0
  0
LINE
  5
329
330
1F
100
AcDbEntity
  8
0
  6
Continuous
100
AcDbLine
 10
492.6034679401486
 20
246.3014970881643
 30
0.0
 11
492.6034748944227
 21
244.7015389302003
 31
0.0
  0
LINE
  5
32A
330
1F
100
AcDbEntity
  8
0
  6
Continuous
100
AcDbLine
 10
412.9834439862361
 20
235.3014479641511
 30
0.0
 11
412.9834411895587
 21
222.3014435692492
 31
0.0
  0
LINE
  5
32B
330
1F
100
AcDbEntity
  8
0
  6
Continuous
100
AcDbLine
 10
480.4834413779399
 20
235.3014282692584
 30
0.0
 11
480.4834283281295
 21
219.3014115983759
 31
0.0
  0
LINE
  5
32C
330
1F
100
AcDbEntity
  8
0
  6
Continuous
100
AcDbLine
 10
480.4834951084073
 20
219.3014115983275
 30
0.0
 11
415.9834520037459
 21
219.3014583433365
 31
0.0
  0
LINE
  5
32D
330
1F
100
AcDbEntity
  8
0
  6
Continuous
100
AcDbLine
 10
410.483393135441
 20
381.3015678326618
 30
0.0
 11
491.4834121876362
 21
381.3015737039235
 31
0.0
  0
LINE
  5
32E
330
1F
100
AcDbEntity
  8
0
  6
Continuous
100
AcDbLine
 10
385.4834617803537
 20
381.301614217676
 30
0.0
 11
385.4834888814171
 21
385.3015374501361
 31
0.0
  0
LINE
  5
32F
330
1F
100
AcDbEntity
  8
0
  6
Continuous
100
AcDbLine
 10
410.4833939172972
 20
386.3015308229472
 30
0.0
 11
434.483401574716
 21
386.3015471301851
 31
0.0
  0
LINE
  5
330
330
1F
100
AcDbEntity
  8
0
  6
Continuous
100
AcDbLine
 10
489.0738827574214
 20
288.0458806939531
 30
0.0
 11
489.0739013431836
 21
246.3015304248677
 31
0.0
  0
LINE
  5
331
330
1F
100
AcDbEntity
  8
0
  6
Continuous
100
AcDbLine
 10
435.48347545271
 20
381.3016128775094
 30
0.0
 11
435.4835025537736
 21
385.3015361099697
 31
0.0
  0
LINE
  5
332
330
1F
100
AcDbEntity
  8
0
  6
Continuous
100
AcDbLine
 10
464.9837855032442
 20
233.3013941109459
 30
0.0
 11
464.9838096226567
 21
222.3016980549472
 31
0.0
  0
LINE
  5
333
330
1F
100
AcDbEntity
  8
0
  6
Continuous
100
AcDbLine
 10
410.4833939172972
 20
386.3015308229472
 30
0.0
 11
386.4834134993082
 21
386.3015679761007
 31
0.0
  0
LINE
  5
334
330
1F
100
AcDbEntity
  8
0
  6
Continuous
100
AcDbLine
 10
311.8671283382937
 20
258.301477836546
 30
0.0
 11
410.483419978274
 21
258.3014783706656
 31
0.0
  0
LINE
  5
335
330
1F
100
AcDbEntity
  8
0
  6
Continuous
100
AcDbLine
 10
325.4834752163856
 20
379.3015891749365
 30
0.0
 11
325.483462877163
 21
362.4830982378499
 31
0.0
  0
LINE
  5
336
330
1F
100
AcDbEntity
  8
0
  6
Continuous
100
AcDbLine
 10
502.9834347709258
 20
258.3014357877774
 30
0.0
 11
410.483419978274
 21
258.3014783706656
 31
0.0
  0
LINE
  5
337
330
1F
100
AcDbEntity
  8
0
  6
Continuous
100
AcDbLine
 10
389.4065277000413
 20
264.3986378311984
 30
0.0
 11
410.4834158243495
 21
264.3986748988182
 31
0.0
  0
LINE
  5
338
330
1F
100
AcDbEntity
  8
0
  6
Continuous
100
AcDbLine
 10
410.483393135441
 20
381.3015678326618
 30
0.0
 11
327.4723657122867
 21
381.3015766134402
 31
0.0
  0
LINE
  5
339
330
1F
100
AcDbEntity
  8
0
  6
Continuous
100
AcDbLine
 10
502.0933699055294
 20
309.2936336669444
 30
0.0
 11
502.3275856032362
 21
295.8742575153045
 31
0.0
  0
LINE
  5
33A
330
1F
100
AcDbEntity
  8
0
  6
Continuous
100
AcDbLine
 10
493.1670381936879
 20
373.3807174811903
 30
0.0
 11
496.6683265811698
 21
356.9084119858574
 31
0.0
  0
LINE
  5
33B
330
1F
100
AcDbEntity
  8
0
  6
Continuous
100
AcDbLine
 10
431.5603165343466
 20
288.0458724688925
 30
0.0
 11
431.5602903289427
 21
264.3986852362417
 31
0.0
  0
LINE
  5
33C
330
1F
100
AcDbEntity
  8
0
  6
Continuous
100
AcDbLine
 10
454.2666292291771
 20
293.045835579701
 30
0.0
 11
436.5602734966308
 21
293.0458213122236
 31
0.0
  0
LINE
  5
33D
330
1F
100
AcDbEntity
  8
0
  6
Continuous
100
AcDbLine
 10
318.8734745256228
 20
309.2936245376634
 30
0.0
 11
318.6392241394823
 21
295.8742586570114
 31
0.0
  0
LINE
  5
33E
330
1F
100
AcDbEntity
  8
0
  6
Continuous
100
AcDbLine
 10
327.7997896950923
 20
373.3806947949714
 30
0.0
 11
325.4834441660259
 21
362.4831077716506
 31
0.0
  0
LINE
  5
33F
330
1F
100
AcDbEntity
  8
0
  6
Continuous
100
AcDbLine
 10
325.4834441660259
 20
362.4831077716506
 30
0.0
 11
324.2985210401919
 21
356.9084839915675
 31
0.0
  0
LINE
  5
340
330
1F
100
AcDbEntity
  8
0
  6
Continuous
100
AcDbLine
 10
504.0997325752121
 20
293.0458294162903
 30
0.0
 11
494.0738022974314
 21
293.0458486048854
 31
0.0
  0
LINE
  5
341
330
1F
100
AcDbEntity
  8
0
  6
Continuous
100
AcDbLine
 10
422.4833897576961
 20
258.3014196987954
 30
0.0
 11
398.4833983930118
 21
258.3014287597819
 31
0.0
  0
LINE
  5
342
330
1F
100
AcDbEntity
  8
0
  6
Continuous
100
AcDbLine
 10
509.0997461456054
 20
246.3014145002867
 30
0.0
 11
410.4834200109876
 21
246.3014652118493
 31
0.0
  0
LINE
  5
343
330
1F
100
AcDbEntity
  8
0
  6
Continuous
100
AcDbLine
 10
509.0997514589312
 20
258.30142493516
 30
0.0
 11
410.483419978274
 21
258.3014783706656
 31
0.0
  0
LINE
  5
344
330
1F
100
AcDbEntity
  8
0
  6
Continuous
100
AcDbLine
 10
502.9834347709258
 20
258.3014357877774
 30
0.0
 11
497.4825356791359
 21
258.301442440589
 31
0.0
  0
LINE
  5
345
330
1F
100
AcDbEntity
  8
0
  6
Continuous
100
AcDbLine
 10
311.8671283382937
 20
258.301477836546
 30
0.0
 11
410.483419978274
 21
258.3014783706656
 31
0.0
  0
LINE
  5
346
330
1F
100
AcDbEntity
  8
0
  6
Continuous
100
AcDbLine
 10
311.867128371007
 20
246.3014646777295
 30
0.0
 11
410.4834200109876
 21
246.3014652118493
 31
0.0
  0
LINE
  5
347
330
1F
100
AcDbEntity
  8
0
  6
Continuous
100
AcDbLine
 10
501.9833924746412
 20
246.3014110877467
 30
0.0
 11
497.483402407194
 21
246.3014253856703
 31
0.0
  0
LINE
  5
348
330
1F
100
AcDbEntity
  8
0
  6
Continuous
100
AcDbLine
 10
520.5473206769602
 20
334.3014995604138
 30
0.0
 11
508.0473495260687
 21
334.3015087068373
 31
0.0
  0
LINE
  5
349
330
1F
100
AcDbEntity
  8
0
  6
Continuous
100
AcDbLine
 10
331.8930902755823
 20
288.0458992440848
 30
0.0
 11
331.893051709465
 21
246.3014434161876
 31
0.0
  0
LINE
  5
34A
330
1F
100
AcDbEntity
  8
0
  6
Continuous
100
AcDbLine
 10
389.406599856012
 20
288.0458689904404
 30
0.0
 11
389.4065872703231
 21
264.3987084879851
 31
0.0
  0
LINE
  5
34B
330
1F
100
AcDbEntity
  8
0
  6
Continuous
100
AcDbLine
 10
361.7002510627883
 20
288.04585679591
 30
0.0
 11
361.7002560288353
 21
246.3014797966289
 31
0.0
  0
LINE
  5
34C
330
1F
100
AcDbEntity
  8
0
  6
Continuous
100
AcDbLine
 10
366.7002515572369
 20
293.045884467857
 30
0.0
 11
384.4065207346884
 21
293.045808158209
 31
0.0
  0
LINE
  5
34D
330
1F
100
AcDbEntity
  8
0
  6
Continuous
100
AcDbLine
 10
316.8671025152521
 20
293.0458802447295
 30
0.0
 11
326.8930084812393
 21
293.0458397738247
 31
0.0
  0
LINE
  5
34E
330
1F
100
AcDbEntity
  8
0
  6
Continuous
100
AcDbLine
 10
311.8671669371244
 20
288.045920505626
 30
0.0
 11
311.867128371007
 21
246.3014646777295
 31
0.0
  0
LINE
  5
34F
330
1F
100
AcDbEntity
  8
0
  6
Continuous
100
AcDbLine
 10
420.4879662676214
 20
390.0336799248015
 30
0.0
 11
400.4880124771184
 21
390.0337012670896
 31
0.0
  0
LINE
  5
350
330
1F
100
AcDbEntity
  8
0
  6
Continuous
100
AcDbLine
 10
399.4877758864202
 20
386.3015938132638
 30
0.0
 11
400.4877820882011
 21
390.0337513165323
 31
0.0
  0
LINE
  5
351
330
1F
100
AcDbEntity
  8
0
  6
Continuous
100
AcDbLine
 10
400.4880474809901
 20
390.0337171015136
 30
0.0
 11
400.4880553324096
 21
416.3016015671745
 31
0.0
  0
LINE
  5
352
330
1F
100
AcDbEntity
  8
0
  6
Continuous
100
AcDbLine
 10
403.4880077691595
 20
419.3015348128707
 30
0.0
 11
417.4879902896663
 21
419.3015695367133
 31
0.0
  0
LINE
  5
353
330
1F
100
AcDbEntity
  8
0
  6
Continuous
100
AcDbLine
 10
420.488014891208
 20
390.0337224894209
 30
0.0
 11
420.4880227426274
 21
416.3016069550819
 31
0.0
  0
LINE
  5
354
330
1F
100
AcDbEntity
  8
0
  6
Continuous
100
AcDbLine
 10
459.2666410157772
 20
288.045863381113
 30
0.0
 11
459.2666433088047
 21
246.3014877438036
 31
0.0
  0
LINE
  5
355
330
1F
100
AcDbEntity
  8
0
  6
Continuous
100
AcDbLine
 10
509.0997980768206
 20
288.0458635183259
 30
0.0
 11
509.0998003698482
 21
246.3014878810164
 31
0.0
  0
LINE
  5
356
330
1F
100
AcDbEntity
  8
0
  6
Continuous
100
AcDbLine
 10
501.9833924746412
 20
246.3014110877467
 30
0.0
 11
497.483402407194
 21
246.3014253856703
 31
0.0
  0
LINE
  5
357
330
1F
100
AcDbEntity
  8
0
  6
Continuous
100
AcDbLine
 10
502.9834396569756
 20
293.0458926928259
 30
0.0
 11
502.98343341462
 21
347.3015928719081
 31
0.0
  0
LINE
  5
358
330
1F
100
AcDbEntity
  8
0
  6
Continuous
100
AcDbLine
 10
510.4834812249054
 20
259.8014811028273
 30
0.0
 11
510.48349034597
 21
275.8015276480642
 31
0.0
  0
LINE
  5
359
330
1F
100
AcDbEntity
  8
0
  6
Continuous
100
AcDbLine
 10
500.0134217334539
 20
348.3015261644012
 30
0.0
 11
501.9833559835044
 21
348.3015245542734
 31
0.0
  0
LINE
  5
35A
330
1F
100
AcDbEntity
  8
0
  6
Continuous
100
AcDbLine
 10
509.0997596344139
 20
276.801453656525
 30
0.0
 11
509.4834129148543
 21
276.8014593304298
 31
0.0
  0
LINE
  5
35B
330
1F
100
AcDbEntity
  8
0
  6
Continuous
100
AcDbLine
 10
509.4834202830161
 20
258.8015200374094
 30
0.0
 11
509.0997616565366
 21
258.8015170874478
 31
0.0
  0
LINE
  5
35C
330
1F
100
AcDbEntity
  8
0
  6
Continuous
100
AcDbLine
 10
491.4834121876362
 20
381.3015737039235
 30
0.0
 11
496.6683265811698
 21
356.9084119858574
 31
0.0
  0
LINE
  5
35D
330
1F
100
AcDbEntity
  8
0
  6
Continuous
100
AcDbLine
 10
378.2135860594864
 20
263.3015068848911
 30
0.0
 11
410.48340497663
 21
263.3014830728333
 31
0.0
  0
LINE
  5
35E
330
1F
100
AcDbEntity
  8
0
  6
Continuous
100
AcDbLine
 10
315.4929015737962
 20
286.1783819024257
 30
0.0
 11
327.6460573636402
 21
291.2575060240793
 31
0.0
  0
LINE
  5
35F
330
1F
100
AcDbEntity
  8
0
  6
Continuous
100
AcDbLine
 10
389.4065284638925
 20
264.3987384513581
 30
0.0
 11
378.2135673483496
 21
263.3015164186916
 31
0.0
  0
LINE
  5
360
330
1F
100
AcDbEntity
  8
0
  6
Continuous
100
AcDbLine
 10
364.2228520237292
 20
290.5458868951599
 30
0.0
 11
367.5493730277887
 21
287.2495710396698
 31
0.0
  0
LINE
  5
361
330
1F
100
AcDbEntity
  8
0
  6
Continuous
100
AcDbLine
 10
431.560280400716
 20
264.3987913042875
 30
0.0
 11
442.753243368762
 21
263.3015503471352
 31
0.0
  0
LINE
  5
362
330
1F
100
AcDbEntity
  8
0
  6
Continuous
100
AcDbLine
 10
442.7532105286757
 20
263.3014660706336
 30
0.0
 11
410.48340497663
 21
263.3014830728333
 31
0.0
  0
LINE
  5
363
330
1F
100
AcDbEntity
  8
0
  6
Continuous
100
AcDbLine
 10
505.473849445161
 20
286.17835332226
 30
0.0
 11
493.320732592894
 21
291.2574851471098
 31
0.0
  0
LINE
  5
364
330
1F
100
AcDbEntity
  8
0
  6
Continuous
100
AcDbLine
 10
431.560282309884
 20
264.3986893221561
 30
0.0
 11
410.4834158243495
 21
264.3986748988182
 31
0.0
  0
LINE
  5
365
330
1F
100
AcDbEntity
  8
0
  6
Continuous
100
AcDbLine
 10
447.96994557017
 20
286.1878325538402
 30
0.0
 11
435.816815098188
 21
291.2669376484942
 31
0.0
  0
LINE
  5
366
330
1F
100
AcDbEntity
  8
0
  6
Continuous
100
AcDbLine
 10
456.7438729456934
 20
290.5459491564596
 30
0.0
 11
453.417399746254
 21
287.2495953250537
 31
0.0
  0
LINE
  5
367
330
1F
100
AcDbEntity
  8
0
  6
Continuous
100
AcDbLine
 10
372.9968579155654
 20
286.1878320278402
 30
0.0
 11
385.1500273251247
 21
291.2669828796898
 31
0.0
  0
LINE
  5
368
330
1F
100
AcDbEntity
  8
0
  6
Continuous
100
AcDbLine
 10
520.5473796471692
 20
344.3015646398492
 30
0.0
 11
520.5473829202617
 21
334.3015688552292
 31
0.0
  0
LINE
  5
369
330
1F
100
AcDbEntity
  8
0
  6
Continuous
100
AcDbLine
 10
508.0473892759066
 20
344.3015162399668
 30
0.0
 11
508.0473954766357
 21
334.3015526334283
 31
0.0
  0
LINE
  5
36A
330
1F
100
AcDbEntity
  8
0
  6
Continuous
100
AcDbLine
 10
355.9831286067292
 20
233.3014195836977
 30
0.0
 11
355.9831284143483
 21
222.3017022453887
 31
0.0
  0
LINE
  5
36B
330
1F
100
AcDbEntity
  8
0
  6
Continuous
100
AcDbLine
 10
340.4834602185156
 20
219.301475190471
 30
0.0
 11
404.9834567093641
 21
219.301428445496
 31
0.0
  0
LINE
  5
36C
330
1F
100
AcDbEntity
  8
0
  6
Continuous
100
AcDbLine
 10
506.0487632311531
 20
334.5515284146105
 30
0.0
 11
502.9834227944261
 21
334.6473138375277
 31
0.0
  0
LINE
  5
36D
330
1F
100
AcDbEntity
  8
0
  6
Continuous
100
AcDbLine
 10
506.0473389144342
 20
344.0515111829403
 30
0.0
 11
502.9834346591323
 21
343.9557918209985
 31
0.0
  0
LINE
  5
36E
330
1F
100
AcDbEntity
  8
0
  6
Continuous
100
AcDbLine
 10
508.0473529064361
 20
334.5515051538874
 30
0.0
 11
506.047351621281
 21
334.551506930448
 31
0.0
  0
LINE
  5
36F
330
1F
100
AcDbEntity
  8
0
  6
Continuous
100
AcDbLine
 10
508.0473508916677
 20
344.0515039584935
 30
0.0
 11
506.0473389144342
 21
344.0515111829403
 31
0.0
  0
LINE
  5
370
330
1F
100
AcDbEntity
  8
0
  6
Continuous
100
AcDbLine
 10
520.5473174038677
 20
344.3014953450343
 30
0.0
 11
508.0473569450545
 21
344.3014990435719
 31
0.0
  0
LINE
  5
371
330
1F
100
AcDbEntity
  8
0
  6
Continuous
100
AcDbLine
 10
504.9834495181642
 20
344.0183752624747
 30
0.0
 11
504.9834596385251
 21
334.5848364876557
 31
0.0
  0
LINE
  5
372
330
1F
100
AcDbEntity
  8
0
  6
Continuous
100
AcDbLine
 10
376.7434163946609
 20
240.3014093740096
 30
0.0
 11
369.9834184737685
 21
240.3014484695084
 31
0.0
  0
LINE
  5
373
330
1F
100
AcDbEntity
  8
0
  6
Continuous
100
AcDbLine
 10
365.8634282230061
 20
246.3014678719872
 30
0.0
 11
365.8634405233194
 21
244.7015069900802
 31
0.0
  0
LINE
  5
374
330
1F
100
AcDbEntity
  8
0
  6
Continuous
100
AcDbLine
 10
380.8634474718548
 20
246.3014833209341
 30
0.0
 11
380.8634517531093
 21
244.7015265249416
 31
0.0
  0
LINE
  5
375
330
1F
100
AcDbEntity
  8
0
  6
Continuous
100
AcDbLine
 10
380.8633895098076
 20
244.7014572301262
 30
0.0
 11
365.8633809530374
 21
244.7014363332933
 31
0.0
  0
LINE
  5
376
330
1F
100
AcDbEntity
  8
0
  6
Continuous
100
AcDbLine
 10
324.2434275597275
 20
240.301449965735
 30
0.0
 11
317.483440330913
 21
240.3014836133478
 31
0.0
  0
LINE
  5
377
330
1F
100
AcDbEntity
  8
0
  6
Continuous
100
AcDbLine
 10
313.3634500801508
 20
246.3015030158265
 30
0.0
 11
313.3634623804641
 21
244.7015421339198
 31
0.0
  0
LINE
  5
378
330
1F
100
AcDbEntity
  8
0
  6
Continuous
100
AcDbLine
 10
328.3634450172062
 20
246.3014971824637
 30
0.0
 11
328.3634573175195
 21
244.7015363005569
 31
0.0
  0
LINE
  5
379
330
1F
100
AcDbEntity
  8
0
  6
Continuous
100
AcDbLine
 10
328.3633977472375
 20
244.7014656437703
 30
0.0
 11
313.3634001371626
 21
244.7014728391046
 31
0.0
  0
LINE
  5
37A
330
1F
100
AcDbEntity
  8
0
  6
Continuous
100
AcDbLine
 10
440.1034761775786
 20
246.3015055018082
 30
0.0
 11
440.1034369266683
 21
244.7014698771996
 31
0.0
  0
LINE
  5
37B
330
1F
100
AcDbEntity
  8
0
  6
Continuous
100
AcDbLine
 10
496.7234474988329
 20
240.3014831335713
 30
0.0
 11
503.4834160165098
 21
240.3014590197591
 31
0.0
  0
LINE
  5
37C
330
1F
100
AcDbEntity
  8
0
  6
Continuous
100
AcDbLine
 10
440.1034289076096
 20
244.7014739631141
 30
0.0
 11
455.10343746438
 21
244.701494859947
 31
0.0
  0
LINE
  5
37D
330
1F
100
AcDbEntity
  8
0
  6
Continuous
100
AcDbLine
 10
444.2234148771174
 20
240.3014113566276
 30
0.0
 11
450.9834215809201
 21
240.3014687953744
 31
0.0
  0
LINE
  5
37E
330
1F
100
AcDbEntity
  8
0
  6
Continuous
100
AcDbLine
 10
492.6034206701799
 20
244.7014655494707
 30
0.0
 11
507.6034156072351
 21
244.7014597161076
 31
0.0
  0
LINE
  5
37F
330
1F
100
AcDbEntity
  8
0
  6
Continuous
100
AcDbLine
 10
507.603462877204
 20
246.3014912548013
 30
0.0
 11
507.6034588847826
 21
244.70150500467
 31
0.0
  0
LINE
  5
380
330
1F
100
AcDbEntity
  8
0
  6
Continuous
100
AcDbLine
 10
455.1034847343487
 20
246.3015263986411
 30
0.0
 11
455.1034481564581
 21
244.701489412061
 31
0.0
  0
LINE
  5
381
330
1F
100
AcDbEntity
  8
0
  6
Continuous
100
AcDbLine
 10
340.4834605016546
 20
235.3014297075777
 30
0.0
 11
340.4834602185156
 21
219.301475190471
 31
0.0
  0
LINE
  5
382
330
1F
100
AcDbEntity
  8
0
  6
Continuous
100
AcDbLine
 10
329.4835437031886
 20
238.3014051868413
 30
0.0
 11
491.4833647152898
 21
238.3014391944476
 31
0.0
  0
LINE
  5
383
330
1F
100
AcDbEntity
  8
0
  6
Continuous
100
AcDbLine
 10
407.9834578933584
 20
235.301410012685
 30
0.0
 11
407.9834606973374
 21
222.3014364338933
 31
0.0
  0
ARC
  5
384
330
1F
100
AcDbEntity
  8
0
  6
Continuous
100
AcDbCircle
 10
415.983449545223
 20
222.3014039594257
 30
0.0
 40
3.0
100
AcDbArc
 50
179.9994400000087
 51
269.9996300000018
  0
ARC
  5
385
330
1F
100
AcDbEntity
  8
0
  6
Continuous
100
AcDbCircle
 10
415.9834496688809
 20
235.3014097162991
 30
0.0
 40
3.0
100
AcDbArc
 50
89.99962699999112
 51
179.9994400000087
  0
ARC
  5
386
330
1F
100
AcDbEntity
  8
0
  6
Continuous
100
AcDbCircle
 10
483.4834363685063
 20
235.3013954692929
 30
0.0
 40
3.0
100
AcDbArc
 50
89.99962699999112
 51
179.9994400000087
  0
ARC
  5
387
330
1F
100
AcDbEntity
  8
0
  6
Continuous
100
AcDbCircle
 10
469.9838116914151
 20
233.3014116328393
 30
0.0
 40
5.0000001
100
AcDbArc
 50
89.99986599999433
 51
180.000040000004
  0
ARC
  5
388
330
1F
100
AcDbEntity
  8
0
  6
Continuous
100
AcDbCircle
 10
467.9837939211449
 20
222.3016707028674
 30
0.0
 40
3.0
100
AcDbArc
 50
179.9994400000087
 51
269.9996300000018
  0
ARC
  5
389
330
1F
100
AcDbEntity
  8
0
  6
Continuous
100
AcDbCircle
 10
491.4833686793997
 20
243.3014679028679
 30
0.0
 40
5.0000001
100
AcDbArc
 50
269.9999199999919
 51
330.5978700000023
  0
ARC
  5
38A
330
1F
100
AcDbEntity
  8
0
  6
Continuous
100
AcDbCircle
 10
504.0997368847781
 20
288.0458301620088
 30
0.0
 40
4.9999998
100
AcDbArc
 50
0.0000699999940175
 51
89.99986599999433
  0
ARC
  5
38B
330
1F
100
AcDbEntity
  8
0
  6
Continuous
100
AcDbCircle
 10
434.483406509767
 20
385.3015182681318
 30
0.0
 40
1.000000019999999
100
AcDbArc
 50
0.0007999999893474
 51
90.00022599999148
  0
ARC
  5
38C
330
1F
100
AcDbEntity
  8
0
  6
Continuous
100
AcDbCircle
 10
483.3855587388634
 20
371.3015506021378
 30
0.0
 40
9.9999999
100
AcDbArc
 50
11.99995000000075
 51
90.0000439999966
  0
ARC
  5
38D
330
1F
100
AcDbEntity
  8
0
  6
Continuous
100
AcDbCircle
 10
386.4834152521052
 20
385.3014733959124
 30
0.0
 40
1.000000019999999
100
AcDbArc
 50
90.00022599999148
 51
180.0007999999893
  0
ARC
  5
38E
330
1F
100
AcDbEntity
  8
0
  6
Continuous
100
AcDbCircle
 10
386.4834152521052
 20
385.3014733959124
 30
0.0
 40
1.000000019999999
100
AcDbArc
 50
90.00022599999148
 51
180.0007999999893
  0
ARC
  5
38F
330
1F
100
AcDbEntity
  8
0
  6
Continuous
100
AcDbCircle
 10
327.4834100691657
 20
379.3015867315235
 30
0.0
 40
2.00000007
100
AcDbArc
 50
89.99963099999673
 51
179.9999300000059
  0
ARC
  5
390
330
1F
100
AcDbEntity
  8
0
  6
Continuous
100
AcDbCircle
 10
507.3268172539733
 20
295.9615479250341
 30
0.0
 40
4.9999998
100
AcDbArc
 50
181.0000700000013
 51
209.693509999991
  0
ARC
  5
391
330
1F
100
AcDbEntity
  8
0
  6
Continuous
100
AcDbCircle
 10
436.5602454753445
 20
288.045804861547
 30
0.0
 40
4.9999998
100
AcDbArc
 50
89.99986599999433
 51
180.000040000004
  0
ARC
  5
392
330
1F
100
AcDbEntity
  8
0
  6
Continuous
100
AcDbCircle
 10
337.581250370938
 20
371.3016188621692
 30
0.0
 40
9.9999999
100
AcDbArc
 50
89.99998499999849
 51
168.0000399999958
  0
ARC
  5
393
330
1F
100
AcDbEntity
  8
0
  6
Continuous
100
AcDbCircle
 10
568.8353951015703
 20
304.9305619420528
 30
0.0
 40
250.0000079999999
100
AcDbArc
 50
167.999999999997
 51
178.9999899999983
  0
ARC
  5
394
330
1F
100
AcDbEntity
  8
0
  6
Continuous
100
AcDbCircle
 10
252.131376870825
 20
304.9305344519047
 30
0.0
 40
250.0000079999999
100
AcDbArc
 50
0.9999900000019527
 51
10.37229999999992
  0
ARC
  5
395
330
1F
100
AcDbEntity
  8
0
  6
Continuous
100
AcDbCircle
 10
252.131376870825
 20
304.9305344519047
 30
0.0
 40
250.0000079999999
100
AcDbArc
 50
10.37229999999992
 51
11.99999000000139
  0
ARC
  5
396
330
1F
100
AcDbEntity
  8
0
  6
Continuous
100
AcDbCircle
 10
313.6399759141577
 20
295.961520868933
 30
0.0
 40
4.9999998
100
AcDbArc
 50
324.3285000000022
 51
359.0000299999975
  0
ARC
  5
397
330
1F
100
AcDbEntity
  8
0
  6
Continuous
100
AcDbCircle
 10
352.9831032567151
 20
222.3016494068814
 30
0.0
 40
3.0
100
AcDbArc
 50
269.9994299999947
 51
359.9994400000088
  0
ARC
  5
398
330
1F
100
AcDbEntity
  8
0
  6
Continuous
100
AcDbCircle
 10
316.8670744939658
 20
288.0458637940527
 30
0.0
 40
4.9999998
100
AcDbArc
 50
89.99998299999568
 51
180.000099999997
  0
ARC
  5
399
330
1F
100
AcDbEntity
  8
0
  6
Continuous
100
AcDbCircle
 10
384.4065114245393
 20
288.0457821737314
 30
0.0
 40
4.9999998
100
AcDbArc
 50
0.0000999999970368
 51
89.99998299999568
  0
ARC
  5
39A
330
1F
100
AcDbEntity
  8
0
  6
Continuous
100
AcDbCircle
 10
366.7002021517942
 20
288.0458789129521
 30
0.0
 40
4.9999998
100
AcDbArc
 50
89.99998299999568
 51
180.000099999997
  0
ARC
  5
39B
330
1F
100
AcDbEntity
  8
0
  6
Continuous
100
AcDbCircle
 10
326.8930239921178
 20
288.0459021517639
 30
0.0
 40
4.9999998
100
AcDbArc
 50
0.0000999999970368
 51
89.99998299999568
  0
ARC
  5
39C
330
1F
100
AcDbEntity
  8
0
  6
Continuous
100
AcDbCircle
 10
417.4879574897006
 20
416.3015745461467
 30
0.0
 40
3.0
100
AcDbArc
 50
0.0002200000091144
 51
89.999828999988
  0
ARC
  5
39D
330
1F
100
AcDbEntity
  8
0
  6
Continuous
100
AcDbCircle
 10
403.488002208624
 20
416.3015932826957
 30
0.0
 40
3.0
100
AcDbArc
 50
89.999828999988
 51
180.0002200000091
  0
ARC
  5
39E
330
1F
100
AcDbEntity
  8
0
  6
Continuous
100
AcDbCircle
 10
454.2666041355277
 20
288.0458513071056
 30
0.0
 40
4.9999998
100
AcDbArc
 50
0.0000400000040257
 51
89.99986599999433
  0
ARC
  5
39F
330
1F
100
AcDbEntity
  8
0
  6
Continuous
100
AcDbCircle
 10
494.0737929872825
 20
288.0458226204081
 30
0.0
 40
4.9999998
100
AcDbArc
 50
89.99986599999433
 51
180.000040000004
  0
ARC
  5
3A0
330
1F
100
AcDbEntity
  8
0
  6
Continuous
100
AcDbCircle
 10
500.0134035896764
 20
350.3015544343696
 30
0.0
 40
2.00000007
100
AcDbArc
 50
190.3724999999925
 51
269.9999199999919
  0
ARC
  5
3A1
330
1F
100
AcDbEntity
  8
0
  6
Continuous
100
AcDbCircle
 10
252.131376870825
 20
304.9305344519047
 30
0.0
 40
250.0000079999999
100
AcDbArc
 50
10.37229999999992
 51
11.99999000000139
  0
ARC
  5
3A2
330
1F
100
AcDbEntity
  8
0
  6
Continuous
100
AcDbCircle
 10
501.98333151534
 20
347.3015106739065
 30
0.0
 40
1.000000019999999
100
AcDbArc
 50
0.0010999999935268
 51
90.00022599999148
  0
ARC
  5
3A3
330
1F
100
AcDbEntity
  8
0
  6
Continuous
100
AcDbCircle
 10
509.4833664697619
 20
259.8014727947903
 30
0.0
 40
1.000000019999999
100
AcDbArc
 50
270.0005200000002
 51
0.0009499999914338
  0
ARC
  5
3A4
330
1F
100
AcDbEntity
  8
0
  6
Continuous
100
AcDbCircle
 10
350.9830837074209
 20
233.3014115956046
 30
0.0
 40
5.0000001
100
AcDbArc
 50
0.0000999999970368
 51
89.99998299999568
  0
ARC
  5
3A5
330
1F
100
AcDbEntity
  8
0
  6
Continuous
100
AcDbCircle
 10
509.483356370455
 20
275.8014617937206
 30
0.0
 40
1.000000019999999
100
AcDbArc
 50
0.0009499999914338
 51
90.00051799999742
  0
ARC
  5
3A6
330
1F
100
AcDbEntity
  8
0
  6
Continuous
100
AcDbCircle
 10
313.5649475298221
 20
290.791774406642
 30
0.0
 40
4.9999998
100
AcDbArc
 50
253.1006599999926
 51
292.6812000000004
  0
ARC
  5
3A7
330
1F
100
AcDbEntity
  8
0
  6
Continuous
100
AcDbCircle
 10
507.4018846187152
 20
290.791720605723
 30
0.0
 40
4.9999998
100
AcDbArc
 50
247.3186900000002
 51
286.8994600000023
  0
ARC
  5
3A8
330
1F
100
AcDbEntity
  8
0
  6
Continuous
100
AcDbCircle
 10
337.4834735301469
 20
235.3014584216287
 30
0.0
 40
3.0
100
AcDbArc
 50
359.9994400000088
 51
89.99943199999755
  0
ARC
  5
3A9
330
1F
100
AcDbEntity
  8
0
  6
Continuous
100
AcDbCircle
 10
449.8979615233529
 20
290.8011422909972
 30
0.0
 40
4.9999998
100
AcDbArc
 50
247.3186900000002
 51
314.7394300000097
  0
ARC
  5
3AA
330
1F
100
AcDbEntity
  8
0
  6
Continuous
100
AcDbCircle
 10
371.0688416282901
 20
290.8011552372416
 30
0.0
 40
4.9999998
100
AcDbArc
 50
225.2607599999985
 51
292.6812000000004
  0
ARC
  5
3AB
330
1F
100
AcDbEntity
  8
0
  6
Continuous
100
AcDbCircle
 10
329.483550340318
 20
243.3014325332904
 30
0.0
 40
5.0000001
100
AcDbArc
 50
209.4021699999986
 51
269.999979999998
  0
ARC
  5
3AC
330
1F
100
AcDbEntity
  8
0
  6
Continuous
100
AcDbCircle
 10
404.9834629027921
 20
235.3014428126508
 30
0.0
 40
3.0
100
AcDbArc
 50
359.9994400000088
 51
89.99962699999112
  0
ARC
  5
3AD
330
1F
100
AcDbEntity
  8
0
  6
Continuous
100
AcDbCircle
 10
404.9834355397043
 20
222.301383595386
 30
0.0
 40
3.0
100
AcDbArc
 50
269.9996300000018
 51
359.9994400000088
  0
ARC
  5
3AE
330
1F
100
AcDbEntity
  8
0
  6
Continuous
100
AcDbCircle
 10
373.3634422779469
 20
246.771469897534
 30
0.0
 40
7.299638399999999
100
AcDbArc
 50
196.4735200000052
 51
242.4168399999965
  0
ARC
  5
3AF
330
1F
100
AcDbEntity
  8
0
  6
Continuous
100
AcDbCircle
 10
373.3634422779469
 20
246.771469897534
 30
0.0
 40
7.299638399999999
100
AcDbArc
 50
297.5832299999984
 51
343.5263800000013
  0
ARC
  5
3B0
330
1F
100
AcDbEntity
  8
0
  6
Continuous
100
AcDbCircle
 10
320.8633882720751
 20
246.7714090163625
 30
0.0
 40
7.299638399999999
100
AcDbArc
 50
196.4735200000052
 51
242.4168399999965
  0
ARC
  5
3B1
330
1F
100
AcDbEntity
  8
0
  6
Continuous
100
AcDbCircle
 10
320.8633882720751
 20
246.7714090163625
 30
0.0
 40
7.299638399999999
100
AcDbArc
 50
297.583179999996
 51
343.5263700000056
  0
ARC
  5
3B2
330
1F
100
AcDbEntity
  8
0
  6
Continuous
100
AcDbCircle
 10
500.1034061320729
 20
246.7714030887001
 30
0.0
 40
7.299638399999999
100
AcDbArc
 50
196.473549999991
 51
242.4167499999968
  0
ARC
  5
3B3
330
1F
100
AcDbEntity
  8
0
  6
Continuous
100
AcDbCircle
 10
500.1034061320729
 20
246.7714030887001
 30
0.0
 40
7.299638399999999
100
AcDbArc
 50
297.5832299999984
 51
343.5267399999897
  0
ARC
  5
3B4
330
1F
100
AcDbEntity
  8
0
  6
Continuous
100
AcDbCircle
 10
447.6033764379942
 20
246.7713634898383
 30
0.0
 40
7.299638399999999
100
AcDbArc
 50
196.4735200000052
 51
242.4167499999968
  0
ARC
  5
3B5
330
1F
100
AcDbEntity
  8
0
  6
Continuous
100
AcDbCircle
 10
447.6033764379942
 20
246.7713634898383
 30
0.0
 40
7.299638399999999
100
AcDbArc
 50
297.5832299999984
 51
343.5263800000013
  0
LINE
  5
3B6
330
1F
100
AcDbEntity
  8
0
  6
Continuous
100
AcDbLine
 10
421.4790115375004
 20
386.2985249635605
 30
0.0
 11
420.4800470105633
 21
390.0309614207189
 31
0.0
  0
LINE
  5
3B7
330
1F
100
AcDbEntity
  8
0
  6
Continuous
100
AcDbLine
 10
325.4834590455523
 20
366.801389764752
 30
0.0
 11
321.5076496095778
 21
366.8013894423157
 31
0.0
  0
LINE
  5
3B8
330
1F
100
AcDbEntity
  8
0
  6
Continuous
100
AcDbLine
 10
325.4834787658432
 20
378.6313748348343
 30
0.0
 11
325.4834590455523
 21
366.801389764752
 31
0.0
  0
LINE
  5
3B9
330
1F
100
AcDbEntity
  8
0
  6
Continuous
100
AcDbLine
 10
323.957283268567
 20
381.8014061321071
 30
0.0
 11
323.9572866430044
 21
366.8014314304777
 31
0.0
  0
LINE
  5
3BA
330
1F
100
AcDbEntity
  8
0
  6
Continuous
100
AcDbLine
 10
318.9572734354485
 20
381.8014220764646
 30
0.0
 11
318.957276809886
 21
366.8014473748355
 31
0.0
  0
LINE
  5
3BB
330
1F
100
AcDbEntity
  8
0
  6
Continuous
100
AcDbLine
 10
325.4834590456166
 20
366.8014284098162
 30
0.0
 11
318.957276809886
 21
366.8014473748355
 31
0.0
  0
LINE
  5
3BC
330
1F
100
AcDbEntity
  8
0
  6
Continuous
100
AcDbLine
 10
325.4834840501985
 20
381.8014012652584
 30
0.0
 11
318.9572734354485
 21
381.8014220764646
 31
0.0
  0
LINE
  5
3BD
330
1F
100
AcDbEntity
  8
0
  6
Continuous
100
AcDbLine
 10
316.9572998964397
 20
374.301440046506
 30
0.0
 11
318.9572310129107
 21
366.8014032881362
 31
0.0
  0
LINE
  5
3BE
330
1F
100
AcDbEntity
  8
0
  6
Continuous
100
AcDbLine
 10
316.9572998964397
 20
374.301440046506
 30
0.0
 11
318.9572276384732
 21
381.8013779897652
 31
0.0
  0
CIRCLE
  5
3BF
330
1F
100
AcDbEntity
  8
0
  6
Continuous
100
AcDbCircle
 10
306.9573175812434
 20
374.3014194576094
 30
0.0
 40
10.00000049999999
  0
ARC
  5
3C0
330
1F
100
AcDbEntity
  8
0
  6
Continuous
100
AcDbCircle
 10
306.9573175812434
 20
374.3014194576094
 30
0.0
 40
16.30000019999999
100
AcDbArc
 50
27.395053107649
 51
332.6050831076524
  0
LINE
  5
3C1
330
1F
100
AcDbEntity
  8
0
  6
Continuous
100
AcDbLine
 10
325.4834590456166
 20
366.8014284098162
 30
0.0
 11
325.4834840501985
 21
381.8014012652584
 31
0.0
  0
LINE
  5
3C2
330
1F
100
AcDbEntity
  8
0
  6
Continuous
100
AcDbLine
 10
318.919252532154
 20
806.0888078940839
 30
0.0
 11
329.8760535321538
 21
808.5178778940839
 31
0.0
  0
LINE
  5
3C3
330
1F
100
AcDbEntity
  8
0
  6
Continuous
100
AcDbLine
 10
313.2767205321541
 20
792.4664078940838
 30
0.0
 11
319.302994532154
 21
783.0070478940839
 31
0.0
  0
LINE
  5
3C4
330
1F
100
AcDbEntity
  8
0
  6
Continuous
100
AcDbLine
 10
313.276651532154
 20
727.8972278940839
 30
0.0
 11
319.3029495321542
 21
737.3566178940839
 31
0.0
  0
LINE
  5
3C5
330
1F
100
AcDbEntity
  8
0
  6
Continuous
100
AcDbLine
 10
318.9192765321539
 20
714.2749178940839
 30
0.0
 11
329.869258532154
 21
711.8473478940838
 31
0.0
  0
ARC
  5
3C6
330
1F
100
AcDbEntity
  8
0
  6
Continuous
100
AcDbCircle
 10
320.8672425321537
 20
797.302137894084
 30
0.0
 40
9.0
100
AcDbArc
 50
102.5000399999931
 51
212.4999019999991
  0
ARC
  5
3C7
330
1F
100
AcDbEntity
  8
0
  6
Continuous
100
AcDbCircle
 10
315.086032532154
 20
780.3206078940839
 30
0.0
 40
4.9999998
100
AcDbArc
 50
348.0796500000011
 51
32.4997599999912
  0
ARC
  5
3C8
330
1F
100
AcDbEntity
  8
0
  6
Continuous
100
AcDbCircle
 10
315.086032532154
 20
740.0430278940839
 30
0.0
 40
4.9999998
100
AcDbArc
 50
327.5002400000092
 51
11.92034999999887
  0
ARC
  5
3C9
330
1F
100
AcDbEntity
  8
0
  6
Continuous
100
AcDbCircle
 10
320.8672425321537
 20
723.0615278940839
 30
0.0
 40
9.0
100
AcDbArc
 50
147.5000999999949
 51
257.4999559999997
  0
ARC
  5
3CA
330
1F
100
AcDbEntity
  8
0
  6
Continuous
100
AcDbCircle
 10
410.4835052951771
 20
760.1818478940838
 30
0.0
 40
92.500014
100
AcDbArc
 50
6.206260577317506
 51
353.7937207307192
  0
ARC
  5
3CB
330
1F
100
AcDbEntity
  8
0
  6
Continuous
100
AcDbCircle
 10
328.7870595321536
 20
813.3978278940841
 30
0.0
 40
4.9999998
100
AcDbArc
 50
282.499959999996
 51
326.9205499999995
  0
ARC
  5
3CC
330
1F
100
AcDbEntity
  8
0
  6
Continuous
100
AcDbCircle
 10
328.7870595321536
 20
706.9658678940839
 30
0.0
 40
4.9999998
100
AcDbArc
 50
33.0794500000004
 51
77.50004000000394
  0
LINE
  5
3CD
330
1F
100
AcDbEntity
  8
0
  6
Continuous
100
AcDbLine
 10
313.276651532154
 20
727.8972278940839
 30
0.0
 11
319.3029495321542
 21
737.3566178940839
 31
0.0
  0
LINE
  5
3CE
330
1F
100
AcDbEntity
  8
0
  6
Continuous
100
AcDbLine
 10
318.9192765321539
 20
714.2749178940839
 30
0.0
 11
329.869258532154
 21
711.8473478940838
 31
0.0
  0
ARC
  5
3CF
330
1F
100
AcDbEntity
  8
0
  6
Continuous
100
AcDbCircle
 10
315.086032532154
 20
740.0430278940839
 30
0.0
 40
4.9999998
100
AcDbArc
 50
327.5002400000092
 51
11.92034999999887
  0
ARC
  5
3D0
330
1F
100
AcDbEntity
  8
0
  6
Continuous
100
AcDbCircle
 10
320.8672425321537
 20
723.0615278940839
 30
0.0
 40
9.0
100
AcDbArc
 50
147.5000999999949
 51
257.4999559999997
  0
ARC
  5
3D1
330
1F
100
AcDbEntity
  8
0
  6
Continuous
100
AcDbCircle
 10
328.7870595321536
 20
706.9658678940839
 30
0.0
 40
4.9999998
100
AcDbArc
 50
33.0794500000004
 51
77.50004000000394
  0
LINE
  5
3D2
330
1F
100
AcDbEntity
  8
0
  6
Continuous
100
AcDbLine
 10
364.5765504136654
 20
668.6175900125723
 30
0.0
 11
362.1474804136655
 21
679.5743910125722
 31
0.0
  0
LINE
  5
3D3
330
1F
100
AcDbEntity
  8
0
  6
Continuous
100
AcDbLine
 10
378.1989504136654
 20
662.9750580125724
 30
0.0
 11
387.6583104136654
 21
669.0013320125723
 31
0.0
  0
LINE
  5
3D4
330
1F
100
AcDbEntity
  8
0
  6
Continuous
100
AcDbLine
 10
378.1988655811439
 20
857.3887170615623
 30
0.0
 11
387.6582555811438
 21
851.3624190615621
 31
0.0
  0
LINE
  5
3D5
330
1F
100
AcDbEntity
  8
0
  6
Continuous
100
AcDbLine
 10
364.5765555811439
 20
851.7460920615624
 30
0.0
 11
362.1489855811439
 21
840.7961100615622
 31
0.0
  0
ARC
  5
3D6
330
1F
100
AcDbEntity
  8
0
  6
Continuous
100
AcDbCircle
 10
373.3632204136653
 20
670.565580012572
 30
0.0
 40
9.0
100
AcDbArc
 50
192.5000399999931
 51
302.4999019999991
  0
ARC
  5
3D7
330
1F
100
AcDbEntity
  8
0
  6
Continuous
100
AcDbCircle
 10
390.3447504136654
 20
664.7843700125723
 30
0.0
 40
4.9999998
100
AcDbArc
 50
78.07965000000288
 51
122.4997599999936
  0
ARC
  5
3D8
330
1F
100
AcDbEntity
  8
0
  6
Continuous
100
AcDbCircle
 10
390.3446655811439
 20
855.5793360615624
 30
0.0
 40
4.9999998
100
AcDbArc
 50
237.5002400000022
 51
281.9203499999978
  0
ARC
  5
3D9
330
1F
100
AcDbEntity
  8
0
  6
Continuous
100
AcDbCircle
 10
373.3631655811438
 20
849.7981260615626
 30
0.0
 40
9.0
100
AcDbArc
 50
57.50009999999132
 51
167.4999559999998
  0
ARC
  5
3DA
330
1F
100
AcDbEntity
  8
0
  6
Continuous
100
AcDbCircle
 10
357.2675304136653
 20
678.485397012572
 30
0.0
 40
4.9999998
100
AcDbArc
 50
12.49995999999527
 51
56.92055000000255
  0
ARC
  5
3DB
330
1F
100
AcDbEntity
  8
0
  6
Continuous
100
AcDbCircle
 10
357.267505581144
 20
841.8783090615626
 30
0.0
 40
4.9999998
100
AcDbArc
 50
303.0794500000021
 51
347.5000400000057
  0
LINE
  5
3DC
330
1F
100
AcDbEntity
  8
0
  6
Continuous
100
AcDbLine
 10
378.1988655811439
 20
857.3887170615623
 30
0.0
 11
387.6582555811438
 21
851.3624190615621
 31
0.0
  0
LINE
  5
3DD
330
1F
100
AcDbEntity
  8
0
  6
Continuous
100
AcDbLine
 10
364.5765555811439
 20
851.7460920615624
 30
0.0
 11
362.1489855811439
 21
840.7961100615622
 31
0.0
  0
ARC
  5
3DE
330
1F
100
AcDbEntity
  8
0
  6
Continuous
100
AcDbCircle
 10
390.3446655811439
 20
855.5793360615624
 30
0.0
 40
4.9999998
100
AcDbArc
 50
237.5002400000022
 51
281.9203499999978
  0
ARC
  5
3DF
330
1F
100
AcDbEntity
  8
0
  6
Continuous
100
AcDbCircle
 10
373.3631655811438
 20
849.7981260615626
 30
0.0
 40
9.0
100
AcDbArc
 50
57.50009999999132
 51
167.4999559999998
  0
ARC
  5
3E0
330
1F
100
AcDbEntity
  8
0
  6
Continuous
100
AcDbCircle
 10
357.267505581144
 20
841.8783090615626
 30
0.0
 40
4.9999998
100
AcDbArc
 50
303.0794500000021
 51
347.5000400000057
  0
LINE
  5
3E1
330
1F
100
AcDbEntity
  8
0
  6
Continuous
100
AcDbLine
 10
442.7681304136654
 20
662.9749890125722
 30
0.0
 11
433.3087404136654
 21
669.0012870125724
 31
0.0
  0
LINE
  5
3E2
330
1F
100
AcDbEntity
  8
0
  6
Continuous
100
AcDbLine
 10
456.3904404136654
 20
668.6176140125722
 30
0.0
 11
458.8180104136655
 21
679.5675960125723
 31
0.0
  0
ARC
  5
3E3
330
1F
100
AcDbEntity
  8
0
  6
Continuous
100
AcDbCircle
 10
430.6223304136654
 20
664.7843700125722
 30
0.0
 40
4.9999998
100
AcDbArc
 50
57.5002400000063
 51
101.9203499999971
  0
ARC
  5
3E4
330
1F
100
AcDbEntity
  8
0
  6
Continuous
100
AcDbCircle
 10
447.6038304136654
 20
670.5655800125718
 30
0.0
 40
9.0
100
AcDbArc
 50
237.5000999999894
 51
347.4999559999989
  0
ARC
  5
3E5
330
1F
100
AcDbEntity
  8
0
  6
Continuous
100
AcDbCircle
 10
463.6994904136654
 20
678.4853970125718
 30
0.0
 40
4.9999998
100
AcDbArc
 50
123.0794499999974
 51
167.5000400000047
  0
LINE
  5
3E6
330
1F
100
AcDbEntity
  8
0
  6
Continuous
100
AcDbLine
 10
442.7681304136654
 20
662.9749890125722
 30
0.0
 11
433.3087404136654
 21
669.0012870125724
 31
0.0
  0
LINE
  5
3E7
330
1F
100
AcDbEntity
  8
0
  6
Continuous
100
AcDbLine
 10
456.3904404136654
 20
668.6176140125722
 30
0.0
 11
458.8180104136655
 21
679.5675960125723
 31
0.0
  0
ARC
  5
3E8
330
1F
100
AcDbEntity
  8
0
  6
Continuous
100
AcDbCircle
 10
430.6223304136654
 20
664.7843700125722
 30
0.0
 40
4.9999998
100
AcDbArc
 50
57.5002400000063
 51
101.9203499999971
  0
ARC
  5
3E9
330
1F
100
AcDbEntity
  8
0
  6
Continuous
100
AcDbCircle
 10
447.6038304136654
 20
670.5655800125718
 30
0.0
 40
9.0
100
AcDbArc
 50
237.5000999999894
 51
347.4999559999989
  0
ARC
  5
3EA
330
1F
100
AcDbEntity
  8
0
  6
Continuous
100
AcDbCircle
 10
463.6994904136654
 20
678.4853970125718
 30
0.0
 40
4.9999998
100
AcDbArc
 50
123.0794499999974
 51
167.5000400000047
  0
LINE
  5
3EB
330
1F
100
AcDbEntity
  8
0
  6
Continuous
100
AcDbLine
 10
456.3904554906279
 20
851.7461755495967
 30
0.0
 11
458.8180181242649
 21
840.7961405534573
 31
0.0
  0
LINE
  5
3EC
330
1F
100
AcDbEntity
  8
0
  6
Continuous
100
AcDbLine
 10
442.7680893130099
 20
857.3886649248292
 30
0.0
 11
433.3087315781341
 21
851.3624096075636
 31
0.0
  0
ARC
  5
3ED
330
1F
100
AcDbEntity
  8
0
  6
Continuous
100
AcDbCircle
 10
463.6994074587133
 20
841.8783724318108
 30
0.0
 40
4.9999998
100
AcDbArc
 50
192.5002400000036
 51
236.9203499999975
  0
ARC
  5
3EE
330
1F
100
AcDbEntity
  8
0
  6
Continuous
100
AcDbCircle
 10
447.6037408595307
 20
849.7981734420671
 30
0.0
 40
9.0
100
AcDbArc
 50
12.50009999999279
 51
122.4999559999991
  0
ARC
  5
3EF
330
1F
100
AcDbEntity
  8
0
  6
Continuous
100
AcDbCircle
 10
430.6222342194012
 20
855.5793674692836
 30
0.0
 40
4.9999998
100
AcDbArc
 50
258.0794500000002
 51
302.5000400000061
  0
LINE
  5
3F0
330
1F
100
AcDbEntity
  8
0
  6
Continuous
100
AcDbLine
 10
456.3904554906279
 20
851.7461755495967
 30
0.0
 11
458.8180181242649
 21
840.7961405534573
 31
0.0
  0
LINE
  5
3F1
330
1F
100
AcDbEntity
  8
0
  6
Continuous
100
AcDbLine
 10
442.7680893130099
 20
857.3886649248292
 30
0.0
 11
433.3087315781341
 21
851.3624096075636
 31
0.0
  0
ARC
  5
3F2
330
1F
100
AcDbEntity
  8
0
  6
Continuous
100
AcDbCircle
 10
463.6994074587133
 20
841.8783724318108
 30
0.0
 40
4.9999998
100
AcDbArc
 50
192.5002400000036
 51
236.9203499999975
  0
ARC
  5
3F3
330
1F
100
AcDbEntity
  8
0
  6
Continuous
100
AcDbCircle
 10
447.6037408595307
 20
849.7981734420671
 30
0.0
 40
9.0
100
AcDbArc
 50
12.50009999999279
 51
122.4999559999991
  0
ARC
  5
3F4
330
1F
100
AcDbEntity
  8
0
  6
Continuous
100
AcDbCircle
 10
430.6222342194012
 20
855.5793674692836
 30
0.0
 40
4.9999998
100
AcDbArc
 50
258.0794500000002
 51
302.5000400000061
  0
LINE
  5
3F5
330
1F
100
AcDbEntity
  8
0
  6
Continuous
100
AcDbLine
 10
502.0477682951768
 20
714.2748878940838
 30
0.0
 11
491.090967295177
 21
711.8458178940839
 31
0.0
  0
LINE
  5
3F6
330
1F
100
AcDbEntity
  8
0
  6
Continuous
100
AcDbLine
 10
507.6903002951767
 20
727.8972878940838
 30
0.0
 11
501.6640262951768
 21
737.3566478940838
 31
0.0
  0
ARC
  5
3F7
330
1F
100
AcDbEntity
  8
0
  6
Continuous
100
AcDbCircle
 10
500.0997782951771
 20
723.0615578940837
 30
0.0
 40
9.0
100
AcDbArc
 50
282.5000399999931
 51
32.49990199999912
  0
ARC
  5
3F8
330
1F
100
AcDbEntity
  8
0
  6
Continuous
100
AcDbCircle
 10
505.8809882951768
 20
740.0430878940838
 30
0.0
 40
4.9999998
100
AcDbArc
 50
168.0796500000028
 51
212.4997599999955
  0
ARC
  5
3F9
330
1F
100
AcDbEntity
  8
0
  6
Continuous
100
AcDbCircle
 10
492.1799612951772
 20
706.9658678940838
 30
0.0
 40
4.9999998
100
AcDbArc
 50
102.4999599999952
 51
146.9205500000007
  0
LINE
  5
3FA
330
1F
100
AcDbEntity
  8
0
  6
Continuous
100
AcDbLine
 10
507.6903692951768
 20
792.4664678940838
 30
0.0
 11
501.6640712951766
 21
783.0070778940839
 31
0.0
  0
LINE
  5
3FB
330
1F
100
AcDbEntity
  8
0
  6
Continuous
100
AcDbLine
 10
502.0477442951769
 20
806.0887778940838
 30
0.0
 11
491.0977622951768
 21
808.5163478940838
 31
0.0
  0
ARC
  5
3FC
330
1F
100
AcDbEntity
  8
0
  6
Continuous
100
AcDbCircle
 10
505.8809882951768
 20
780.3206678940838
 30
0.0
 40
4.9999998
100
AcDbArc
 50
147.5002400000045
 51
191.9203499999971
  0
ARC
  5
3FD
330
1F
100
AcDbEntity
  8
0
  6
Continuous
100
AcDbCircle
 10
500.0997782951771
 20
797.3021678940838
 30
0.0
 40
9.0
100
AcDbArc
 50
327.500099999992
 51
77.49995599999898
  0
ARC
  5
3FE
330
1F
100
AcDbEntity
  8
0
  6
Continuous
100
AcDbCircle
 10
492.1799612951772
 20
813.3978278940839
 30
0.0
 40
4.9999998
100
AcDbArc
 50
213.0794499999992
 51
257.5000400000046
  0
LINE
  5
3FF
330
1F
100
AcDbEntity
  8
0
  6
Continuous
100
AcDbLine
 10
507.6903692951768
 20
792.4664678940838
 30
0.0
 11
501.6640712951766
 21
783.0070778940839
 31
0.0
  0
LINE
  5
400
330
1F
100
AcDbEntity
  8
0
  6
Continuous
100
AcDbLine
 10
502.0477442951769
 20
806.0887778940838
 30
0.0
 11
491.0977622951768
 21
808.5163478940838
 31
0.0
  0
ARC
  5
401
330
1F
100
AcDbEntity
  8
0
  6
Continuous
100
AcDbCircle
 10
505.8809882951768
 20
780.3206678940838
 30
0.0
 40
4.9999998
100
AcDbArc
 50
147.5002400000045
 51
191.9203499999971
  0
ARC
  5
402
330
1F
100
AcDbEntity
  8
0
  6
Continuous
100
AcDbCircle
 10
500.0997782951771
 20
797.3021678940838
 30
0.0
 40
9.0
100
AcDbArc
 50
327.500099999992
 51
77.49995599999898
  0
ARC
  5
403
330
1F
100
AcDbEntity
  8
0
  6
Continuous
100
AcDbCircle
 10
492.1799612951772
 20
813.3978278940839
 30
0.0
 40
4.9999998
100
AcDbArc
 50
213.0794499999992
 51
257.5000400000046
  0
ARC
  5
404
330
1F
100
AcDbEntity
  8
0
  6
Continuous
100
AcDbCircle
 10
410.4834752951768
 20
760.1818478940838
 30
0.0
 40
80.99993689245939
100
AcDbArc
 50
184.9577897227103
 51
175.0422102772896
  0
LINE
  5
405
330
1F
100
AcDbEntity
  8
0
  6
Continuous
100
AcDbLine
 10
502.9833315351558
 20
770.1818378940838
 30
0.0
 11
502.9833315351558
 21
750.1818278940838
 31
0.0
  0
LINE
  5
406
330
1F
100
AcDbEntity
  8
0
  6
Continuous
100
AcDbLine
 10
510.4835004136654
 20
769.1818478940838
 30
0.0
 11
510.4835004136654
 21
765.1817644692703
 31
0.0
  0
LINE
  5
407
330
1F
100
AcDbEntity
  8
0
  6
Continuous
100
AcDbLine
 10
504.2185104136655
 20
770.1818378940838
 30
0.0
 11
509.4890004136654
 21
770.1818378940838
 31
0.0
  0
LINE
  5
408
330
1F
100
AcDbEntity
  8
0
  6
Continuous
100
AcDbLine
 10
504.2185104136655
 20
750.1818278940838
 30
0.0
 11
509.4890004136654
 21
750.1818278940838
 31
0.0
  0
LINE
  5
409
330
1F
100
AcDbEntity
  8
0
  6
Continuous
100
AcDbLine
 10
510.4835004136654
 20
751.1818478940838
 30
0.0
 11
510.4835004136654
 21
755.1817730707372
 31
0.0
  0
ARC
  5
40A
330
1F
100
AcDbEntity
  8
0
  6
Continuous
100
AcDbCircle
 10
504.2185104136655
 20
748.1818478940838
 30
0.0
 40
2.00000007
100
AcDbArc
 50
90.0
 51
172.7046799999955
  0
ARC
  5
40B
330
1F
100
AcDbEntity
  8
0
  6
Continuous
100
AcDbCircle
 10
504.2185104136655
 20
772.1818478940838
 30
0.0
 40
2.00000007
100
AcDbArc
 50
187.295320200007
 51
270.0
  0
ARC
  5
40C
330
1F
100
AcDbEntity
  8
0
  6
Continuous
100
AcDbCircle
 10
509.4834504136652
 20
769.1818478940838
 30
0.0
 40
1.000000019999999
100
AcDbArc
 50
0.0
 51
90.0
  0
ARC
  5
40D
330
1F
100
AcDbEntity
  8
0
  6
Continuous
100
AcDbCircle
 10
509.4834504136652
 20
751.1818478940838
 30
0.0
 40
1.000000019999999
100
AcDbArc
 50
270.0
 51
0.0
  0
LINE
  5
40E
330
1F
100
AcDbEntity
  8
0
  6
Continuous
100
AcDbLine
 10
502.9833315351558
 20
770.1818378940838
 30
0.0
 11
497.7695982172057
 21
770.1818378940838
 31
0.0
  0
LINE
  5
40F
330
1F
100
AcDbEntity
  8
0
  6
Continuous
100
AcDbLine
 10
502.9833315351558
 20
750.1818278940838
 30
0.0
 11
497.7695947802315
 21
750.1818278940838
 31
0.0
  0
ARC
  5
410
330
1F
100
AcDbEntity
  8
0
  6
Continuous
100
AcDbCircle
 10
410.4834752951768
 20
760.1818478940838
 30
0.0
 40
87.85708312230509
100
AcDbArc
 50
353.464347623775
 51
6.535632683822989
  0
LINE
  5
411
330
1F
100
AcDbEntity
  8
0
  6
Continuous
100
AcDbLine
 10
329.7865879068003
 20
767.1820094576767
 30
0.0
 11
327.472374075325
 21
767.1820097024707
 31
0.0
  0
ARC
  5
412
330
1F
100
AcDbEntity
  8
0
  6
Continuous
100
AcDbCircle
 10
327.483418432204
 20
765.182019820554
 30
0.0
 40
2.00000007
100
AcDbArc
 50
89.99963099999673
 51
179.9999300000059
  0
LINE
  5
413
330
1F
100
AcDbEntity
  8
0
  6
Continuous
100
AcDbLine
 10
329.7865879068003
 20
753.1816863304909
 30
0.0
 11
327.472374075325
 21
753.1816860856969
 31
0.0
  0
ARC
  5
414
330
1F
100
AcDbEntity
  8
0
  6
Continuous
100
AcDbCircle
 10
327.483418432204
 20
755.1816759676135
 30
0.0
 40
2.00000007
100
AcDbArc
 50
180.000069999994
 51
270.0003690000032
  0
LINE
  5
415
330
1F
100
AcDbEntity
  8
0
  6
Continuous
100
AcDbLine
 10
520.5472178770579
 20
755.1817657069584
 30
0.0
 11
508.0472467261664
 21
755.1817748533819
 31
0.0
  0
LINE
  5
416
330
1F
100
AcDbEntity
  8
0
  6
Continuous
100
AcDbLine
 10
520.5472768472669
 20
765.1818307863939
 30
0.0
 11
520.5472801203594
 21
755.1818350017738
 31
0.0
  0
LINE
  5
417
330
1F
100
AcDbEntity
  8
0
  6
Continuous
100
AcDbLine
 10
508.0472864760044
 20
765.1817823865115
 30
0.0
 11
508.0472926767335
 21
755.1818187799729
 31
0.0
  0
LINE
  5
418
330
1F
100
AcDbEntity
  8
0
  6
Continuous
100
AcDbLine
 10
506.0486604312508
 20
755.4317945611551
 30
0.0
 11
502.9833199945239
 21
755.5275799840724
 31
0.0
  0
LINE
  5
419
330
1F
100
AcDbEntity
  8
0
  6
Continuous
100
AcDbLine
 10
506.0472361145319
 20
764.9317773294849
 30
0.0
 11
502.9833318592301
 21
764.8360579675432
 31
0.0
  0
LINE
  5
41A
330
1F
100
AcDbEntity
  8
0
  6
Continuous
100
AcDbLine
 10
508.0472501065338
 20
755.431771300432
 30
0.0
 11
506.0472488213787
 21
755.4317730769926
 31
0.0
  0
LINE
  5
41B
330
1F
100
AcDbEntity
  8
0
  6
Continuous
100
AcDbLine
 10
508.0472480917655
 20
764.9317701050381
 30
0.0
 11
506.0472361145319
 21
764.9317773294849
 31
0.0
  0
LINE
  5
41C
330
1F
100
AcDbEntity
  8
0
  6
Continuous
100
AcDbLine
 10
520.5472146039654
 20
765.1817614915789
 30
0.0
 11
508.0472541451523
 21
765.1817651901165
 31
0.0
  0
LINE
  5
41D
330
1F
100
AcDbEntity
  8
0
  6
Continuous
100
AcDbLine
 10
504.9833467182619
 20
764.8986414090193
 30
0.0
 11
504.9833568386228
 21
755.4651026342003
 31
0.0
  0
LINE
  5
473
330
1F
100
AcDbEntity
  8
0
  6
CENTER
100
AcDbLine
 10
526.17695789505
 20
760.1818478940839
 30
0.0
 11
281.6239987308404
 21
760.1818478940836
 31
0.0
  0
LINE
  5
474
330
1F
100
AcDbEntity
  8
0
  6
CENTER
100
AcDbLine
 10
410.4835104136654
 20
619.6214816075998
 30
0.0
 11
410.4835104136654
 21
900.7422141805678
 31
0.0
  0
LINE
  5
475
330
1F
100
AcDbEntity
  8
0
  6
CENTER
100
AcDbLine
 10
473.3892095398776
 20
158.0514098375376
 30
0.0
 11
347.5777410504759
 21
158.0514098375374
 31
0.0
  0
LINE
  5
476
330
1F
100
AcDbEntity
  8
0
  6
CENTER
100
AcDbLine
 10
410.4834752951768
 20
97.08724607884143
 30
0.0
 11
410.4834752951768
 21
441.43994489506
 31
0.0
  0
LINE
  5
477
330
1F
100
AcDbEntity
  8
0
  6
CENTER
100
AcDbLine
 10
764.5644430308538
 20
133.7720022031144
 30
0.0
 11
764.5644430308538
 21
441.4398418999297
 31
0.0
  0
LINE
  5
478
330
1F
100
AcDbEntity
  8
0
  6
CENTER
100
AcDbLine
 10
902.8459015129051
 20
158.0513068424073
 30
0.0
 11
626.2829845488027
 21
158.0513068424071
 31
0.0
  0
LINE
  5
687
330
1F
100
AcDbEntity
  8
0
  6
CENTER
100
AcDbLine
 10
1366.537393630946
 20
97.14460884901363
 30
0.0
 11
1366.537393630946
 21
337.4645678677877
 31
0.0
  0
LINE
  5
688
330
1F
100
AcDbEntity
  8
0
  6
CENTER
100
AcDbLine
 10
1497.088481325527
 20
158.0514098375377
 30
0.0
 11
1235.986305936365
 21
158.0514098375377
 31
0.0
  0
LINE
  5
689
330
1F
100
AcDbEntity
  8
0
  6
CENTER
100
AcDbLine
 10
1710.077854164637
 20
617.7647678608726
 30
0.0
 11
1710.077854164645
 21
902.5989279272952
 31
0.0
  0
LINE
  5
68A
330
1F
100
AcDbEntity
  8
0
  6
CENTER
100
AcDbLine
 10
1670.126257621688
 20
760.1818478940785
 30
0.0
 11
1971.843188417065
 21
760.1818478941189
 31
0.0
  0
LINE
  5
68B
330
1F
100
AcDbEntity
  8
0
  6
CENTER
100
AcDbLine
 10
2220.544043521246
 20
344.0324697596186
 30
0.0
 11
2220.544043521246
 21
98.53544931107061
 31
0.0
  0
LINE
  5
68C
330
1F
100
AcDbEntity
  8
0
  6
CENTER
100
AcDbLine
 10
2085.015287365442
 20
158.0514098375377
 30
0.0
 11
2356.072799677049
 21
158.0514098375377
 31
0.0
  0
LINE
  5
68D
330
1F
100
AcDbEntity
  8
0
  6
CENTER
100
AcDbLine
 10
1655.204525935616
 20
158.0514098375381
 30
0.0
 11
1764.951182391894
 21
158.0514098375381
 31
0.0
  0
LINE
  5
68E
330
1F
100
AcDbEntity
  8
0
  6
CENTER
100
AcDbLine
 10
1710.077854163755
 20
103.1780816093971
 30
0.0
 11
1710.077854163755
 21
212.9247380656773
 31
0.0
  0
LINE
  5
68F
330
1F
100
AcDbEntity
  8
0
  6
CENTER
100
AcDbLine
 10
1659.27042159287
 20
132.1637299191527
 30
0.0
 11
1946.293252217507
 21
278.409166708335
 31
0.0
  0
SPLINE
  5
690
330
1F
100
AcDbEntity
  8
0
  6
Continuous
100
AcDbSpline
210
0.0
220
0.0
230
1.0
 70
     8
 71
     3
 72
    22
 73
    18
 74
     0
 42
0.0000000001
 43
0.0000000001
 40
0.4312022978056251
 40
0.4312022978056251
 40
0.4312022978056251
 40
0.4312022978056251
 40
0.7482031996387981
 40
0.7482031996387981
 40
1.068637778532325
 40
1.068637778532325
 40
1.391581820122847
 40
1.391581820122847
 40
1.715693471258775
 40
1.715693471258775
 40
2.039860002349183
 40
2.039860002349183
 40
2.36298316156602
 40
2.36298316156602
 40
2.683713548770137
 40
2.683713548770137
 40
2.710390355784172
 40
2.710390355784172
 40
2.710390355784172
 40
2.710390355784172
 10
1441.041995240915
 20
287.8127126329721
 30
0.0
 10
1437.366835514078
 20
294.9301978299702
 30
0.0
 10
1432.430668985464
 20
301.4939818217574
 30
0.0
 10
1420.502353023719
 20
312.9437578637259
 30
0.0
 10
1413.490987958995
 20
317.8100991602548
 30
0.0
 10
1398.095816790331
 20
325.3423300082988
 30
0.0
 10
1389.703810209206
 20
327.9902307239156
 30
0.0
 10
1372.398038610232
 20
330.7836087238863
 30
0.0
 10
1363.484760766899
 20
330.9197510188626
 30
0.0
 10
1346.052646470159
 20
328.6533063682406
 30
0.0
 10
1337.536176478375
 20
326.2504393043739
 30
0.0
 10
1321.784227330546
 20
319.1376169047078
 30
0.0
 10
1314.54690201612
 20
314.4354904506779
 30
0.0
 10
1302.119505188873
 20
303.2112284246725
 30
0.0
 10
1296.917194958614
 20
296.7034389585244
 30
0.0
 10
1292.66021663627
 20
289.0067703738375
 30
0.0
 10
1292.342070405517
 20
288.4116755315869
 30
0.0
 10
1292.032792021096
 20
287.8127126329716
 30
0.0
  0
LINE
  5
691
330
1F
100
AcDbEntity
  8
0
  6
Continuous
100
AcDbLine
 10
1296.537393630962
 20
217.2343277938187
 30
0.0
 11
1296.53739363096
 21
213.1030142461893
 31
0.0
  0
LINE
  5
692
330
1F
100
AcDbEntity
  8
0
  6
Continuous
100
AcDbLine
 10
1327.807560168885
 20
245.0962501915676
 30
0.0
 11
1327.807560168881
 21
240.9649366439378
 31
0.0
  0
LINE
  5
693
330
1F
100
AcDbEntity
  8
0
  6
Continuous
100
AcDbLine
 10
1436.537393630962
 20
217.2343277938187
 30
0.0
 11
1436.53739363096
 21
213.1030142461893
 31
0.0
  0
LINE
  5
694
330
1F
100
AcDbEntity
  8
0
  6
Continuous
100
AcDbLine
 10
1405.267227093032
 20
245.0962501915676
 30
0.0
 11
1405.267227093029
 21
240.9649366439378
 31
0.0
  0
LINE
  5
695
330
1F
100
AcDbEntity
  8
0
  6
Continuous
100
AcDbLine
 10
1436.53739363096
 20
212.6490237464493
 30
0.0
 11
1436.53739363096
 21
213.1030142461893
 31
0.0
  0
SPLINE
  5
696
330
1F
100
AcDbEntity
  8
0
  6
Continuous
100
AcDbSpline
210
0.0
220
0.0
230
1.0
 70
     8
 71
     3
 72
     8
 73
     4
 74
     0
 42
0.0000000001
 43
0.0000000001
 40
-0.0285636874407891
 40
-0.0285636874407891
 40
-0.0285636874407891
 40
-0.0285636874407891
 40
0.0
 40
0.0
 40
0.0
 40
0.0
 10
1436.338705147443
 20
212.9670715931754
 30
0.0
 10
1436.404933601332
 20
213.0123952165884
 30
0.0
 10
1436.471163166597
 20
213.0577094695693
 30
0.0
 10
1436.53739363096
 20
213.1030142461893
 30
0.0
  0
SPLINE
  5
697
330
1F
100
AcDbEntity
  8
0
  6
Continuous
100
AcDbSpline
210
0.0
220
0.0
230
1.0
 70
     8
 71
     3
 72
     8
 73
     4
 74
     0
 42
0.0000000001
 43
0.0000000001
 40
-0.0485257229213577
 40
-0.0485257229213577
 40
-0.0485257229213577
 40
-0.0485257229213577
 40
0.0
 40
0.0
 40
0.0
 40
0.0
 10
1405.179976321069
 20
240.5109461441982
 30
0.0
 10
1405.209091894443
 20
240.6622718873543
 30
0.0
 10
1405.238175502625
 20
240.8136025205697
 30
0.0
 10
1405.267227093029
 20
240.9649366439373
 30
0.0
  0
SPLINE
  5
698
330
1F
100
AcDbEntity
  8
0
  6
Continuous
100
AcDbSpline
210
0.0
220
0.0
230
1.0
 70
     8
 71
     3
 72
     8
 73
     4
 74
     0
 42
0.0000000001
 43
0.0000000001
 40
-0.0485257229215411
 40
-0.0485257229215411
 40
-0.0485257229215411
 40
-0.0485257229215411
 40
0.0
 40
0.0
 40
0.0
 40
0.0
 10
1327.894810940843
 20
240.5109461441982
 30
0.0
 10
1327.865695367469
 20
240.6622718873543
 30
0.0
 10
1327.836611759287
 20
240.8136025205692
 30
0.0
 10
1327.807560168881
 20
240.9649366439373
 30
0.0
  0
SPLINE
  5
699
330
1F
100
AcDbEntity
  8
0
  6
Continuous
100
AcDbSpline
210
0.0
220
0.0
230
1.0
 70
     8
 71
     3
 72
     8
 73
     4
 74
     0
 42
0.0000000001
 43
0.0000000001
 40
-0.0285636874409008
 40
-0.0285636874409008
 40
-0.0285636874409008
 40
-0.0285636874409008
 40
0.0
 40
0.0
 40
0.0
 40
0.0
 10
1296.736082114473
 20
212.9670715931754
 30
0.0
 10
1296.669853660587
 20
213.0123952165884
 30
0.0
 10
1296.603624095323
 20
213.0577094695688
 30
0.0
 10
1296.53739363096
 20
213.1030142461893
 30
0.0
  0
LINE
  5
69A
330
1F
100
AcDbEntity
  8
0
  6
Continuous
100
AcDbLine
 10
1296.53739363096
 20
213.1030142461893
 30
0.0
 11
1296.53739363096
 21
212.6490237464493
 31
0.0
  0
ELLIPSE
  5
69B
330
1F
100
AcDbEntity
  8
0
  6
Continuous
100
AcDbEllipse
 10
1366.537393630964
 20
178.5944799507522
 30
0.0
 11
-79.99999999999966
 21
0.0000000000469069
 31
0.0
210
0.0
220
0.0
230
1.0
 40
0.8910065241883652
 41
5.217749490669505
 42
5.777824796896084
  0
LINE
  5
69C
330
1F
100
AcDbEntity
  8
0
  6
Continuous
100
AcDbLine
 10
1405.267227093029
 20
240.9649366439373
 30
0.0
 11
1327.807560168881
 21
240.9649366439373
 31
0.0
  0
ELLIPSE
  5
69D
330
1F
100
AcDbEntity
  8
0
  6
Continuous
100
AcDbEllipse
 10
1366.537393630964
 20
178.5944799507526
 30
0.0
 11
-79.99999999999949
 21
0.0000000000394906
 31
0.0
210
0.0
220
0.0
230
1.0
 40
0.891006524188365
 41
3.646953163874474
 42
4.207028470101083
  0
ELLIPSE
  5
69E
330
1F
100
AcDbEntity
  8
0
  6
Continuous
100
AcDbEllipse
 10
1366.537393630967
 20
182.7257934983824
 30
0.0
 11
79.99999999999949
 21
-0.0000000000468736
 31
0.0
210
0.0
220
0.0
230
1.0
 40
0.891006524188365
 41
0.505360510284814
 42
1.065435816511394
  0
LINE
  5
69F
330
1F
100
AcDbEntity
  8
0
  6
Continuous
100
AcDbLine
 10
1327.807560168885
 20
245.0962501915676
 30
0.0
 11
1405.267227093032
 21
245.0962501915676
 31
0.0
  0
ELLIPSE
  5
6A0
330
1F
100
AcDbEntity
  8
0
  6
Continuous
100
AcDbEllipse
 10
1366.537393630967
 20
182.7257934983824
 30
0.0
 11
79.99999999999964
 21
-0.0000000000542455
 31
0.0
210
0.0
220
0.0
230
1.0
 40
0.891006524188365
 41
2.076156837079821
 42
2.636232143306427
  0
LINE
  5
6A1
330
1F
100
AcDbEntity
  8
0
  6
Continuous
100
AcDbLine
 10
1469.13960199109
 20
189.8014098375377
 30
0.0
 11
1436.537393630953
 21
189.8014098375377
 31
0.0
  0
LINE
  5
6A2
330
1F
100
AcDbEntity
  8
0
  6
Continuous
100
AcDbLine
 10
1469.13960199109
 20
126.3014098375381
 30
0.0
 11
1436.537393630953
 21
126.3014098375381
 31
0.0
  0
LINE
  5
6A3
330
1F
100
AcDbEntity
  8
0
  6
Continuous
100
AcDbLine
 10
1469.13960199109
 20
126.3014098375381
 30
0.0
 11
1471.687393630953
 21
119.3014098375381
 31
0.0
  0
LINE
  5
6A4
330
1F
100
AcDbEntity
  8
0
  6
Continuous
100
AcDbLine
 10
1469.13960199109
 20
189.8014098375377
 30
0.0
 11
1471.687393630953
 21
196.8014098375377
 31
0.0
  0
LINE
  5
6A5
330
1F
100
AcDbEntity
  8
0
  6
Continuous
100
AcDbLine
 10
1474.537393630953
 20
196.8014098375377
 30
0.0
 11
1471.687393630953
 21
196.8014098375377
 31
0.0
  0
LINE
  5
6A6
330
1F
100
AcDbEntity
  8
0
  6
Continuous
100
AcDbLine
 10
1474.537393630953
 20
119.3014098375381
 30
0.0
 11
1471.687393630953
 21
119.3014098375381
 31
0.0
  0
LINE
  5
6A7
330
1F
100
AcDbEntity
  8
0
  6
Continuous
100
AcDbLine
 10
1469.13960199109
 20
189.8014098375377
 30
0.0
 11
1469.13960199109
 21
126.3014098375377
 31
0.0
  0
LINE
  5
6A8
330
1F
100
AcDbEntity
  8
0
  6
Continuous
100
AcDbLine
 10
1471.687393630953
 20
196.8014098375372
 30
0.0
 11
1471.687393630953
 21
119.3014098375381
 31
0.0
  0
LINE
  5
6A9
330
1F
100
AcDbEntity
  8
0
  6
Continuous
100
AcDbLine
 10
1474.537393630953
 20
196.8014098375372
 30
0.0
 11
1474.537393630953
 21
119.3014098375381
 31
0.0
  0
LINE
  5
6AA
330
1F
100
AcDbEntity
  8
0
  6
Continuous
100
AcDbLine
 10
1296.537393630953
 20
189.8014098375377
 30
0.0
 11
1263.935185270816
 21
189.8014098375377
 31
0.0
  0
LINE
  5
6AB
330
1F
100
AcDbEntity
  8
0
  6
Continuous
100
AcDbLine
 10
1296.537393630953
 20
126.3014098375381
 30
0.0
 11
1263.935185270816
 21
126.3014098375381
 31
0.0
  0
LINE
  5
6AC
330
1F
100
AcDbEntity
  8
0
  6
Continuous
100
AcDbLine
 10
1263.935185270816
 20
189.8014098375377
 30
0.0
 11
1261.387393630953
 21
196.8014098375377
 31
0.0
  0
LINE
  5
6AD
330
1F
100
AcDbEntity
  8
0
  6
Continuous
100
AcDbLine
 10
1263.935185270816
 20
126.3014098375381
 30
0.0
 11
1261.387393630953
 21
119.3014098375381
 31
0.0
  0
LINE
  5
6AE
330
1F
100
AcDbEntity
  8
0
  6
Continuous
100
AcDbLine
 10
1261.387393630953
 20
196.8014098375377
 30
0.0
 11
1258.537393630953
 21
196.8014098375377
 31
0.0
  0
LINE
  5
6AF
330
1F
100
AcDbEntity
  8
0
  6
Continuous
100
AcDbLine
 10
1261.387393630953
 20
119.3014098375381
 30
0.0
 11
1258.537393630953
 21
119.3014098375381
 31
0.0
  0
LINE
  5
6B0
330
1F
100
AcDbEntity
  8
0
  6
Continuous
100
AcDbLine
 10
1263.935185270816
 20
189.8014098375377
 30
0.0
 11
1263.935185270816
 21
126.3014098375377
 31
0.0
  0
LINE
  5
6B1
330
1F
100
AcDbEntity
  8
0
  6
Continuous
100
AcDbLine
 10
1261.387393630953
 20
196.8014098375372
 30
0.0
 11
1261.387393630953
 21
119.3014098375381
 31
0.0
  0
LINE
  5
6B2
330
1F
100
AcDbEntity
  8
0
  6
Continuous
100
AcDbLine
 10
1258.537393630953
 20
196.8014098375372
 30
0.0
 11
1258.537393630953
 21
119.3014098375381
 31
0.0
  0
LINE
  5
6B3
330
1F
100
AcDbEntity
  8
0
  6
Continuous
100
AcDbLine
 10
1296.537393630948
 20
124.4492604786144
 30
0.0
 11
1333.27329201581
 21
124.4492604786144
 31
0.0
  0
LINE
  5
6B4
330
1F
100
AcDbEntity
  8
0
  6
Continuous
100
AcDbLine
 10
1335.871368227164
 20
124.4492604786144
 30
0.0
 11
1333.27329201581
 21
124.4492604786144
 31
0.0
  0
LINE
  5
6B5
330
1F
100
AcDbEntity
  8
0
  6
Continuous
100
AcDbLine
 10
1335.871368227164
 20
124.4492604786144
 30
0.0
 11
1350.948936362836
 21
124.4492604786144
 31
0.0
  0
LINE
  5
6B6
330
1F
100
AcDbEntity
  8
0
  6
Continuous
100
AcDbLine
 10
1350.948936362836
 20
124.4492604786144
 30
0.0
 11
1382.125850899077
 21
124.4492604786144
 31
0.0
  0
LINE
  5
6B7
330
1F
100
AcDbEntity
  8
0
  6
Continuous
100
AcDbLine
 10
1382.125850899077
 20
124.4492604786144
 30
0.0
 11
1397.203419034731
 21
124.4492604786144
 31
0.0
  0
LINE
  5
6B8
330
1F
100
AcDbEntity
  8
0
  6
Continuous
100
AcDbLine
 10
1399.801495246085
 20
124.4492604786144
 30
0.0
 11
1397.203419034731
 21
124.4492604786144
 31
0.0
  0
LINE
  5
6B9
330
1F
100
AcDbEntity
  8
0
  6
Continuous
100
AcDbLine
 10
1399.801495246085
 20
124.4492604786144
 30
0.0
 11
1436.537393630946
 21
124.4492604786144
 31
0.0
  0
LINE
  5
6BA
330
1F
100
AcDbEntity
  8
0
  6
Continuous
100
AcDbLine
 10
1296.537393630942
 20
159.3711719632604
 30
0.0
 11
1296.537393630942
 21
162.4964992193566
 31
0.0
  0
LINE
  5
6BB
330
1F
100
AcDbEntity
  8
0
  6
Continuous
100
AcDbLine
 10
1296.537393630948
 20
124.4492604786144
 30
0.0
 11
1296.537393630946
 21
126.0872889793961
 31
0.0
  0
LINE
  5
6BC
330
1F
100
AcDbEntity
  8
0
  6
Continuous
100
AcDbLine
 10
1436.537393630946
 20
126.0872889793961
 30
0.0
 11
1436.537393630946
 21
124.4492604786144
 31
0.0
  0
LINE
  5
6BD
330
1F
100
AcDbEntity
  8
0
  6
Continuous
100
AcDbLine
 10
1436.537393630942
 20
162.4964992193566
 30
0.0
 11
1436.537393630942
 21
159.3711719632608
 31
0.0
  0
LINE
  5
6BE
330
1F
100
AcDbEntity
  8
0
  6
Continuous
100
AcDbLine
 10
1331.185048562592
 20
116.8799946911688
 30
0.0
 11
1331.185048562596
 21
123.4628569373919
 31
0.0
  0
LINE
  5
6BF
330
1F
100
AcDbEntity
  8
0
  6
Continuous
100
AcDbLine
 10
1313.185048562592
 20
116.8799946911688
 30
0.0
 11
1313.185048562596
 21
123.4628569373919
 31
0.0
  0
ELLIPSE
  5
6C0
330
1F
100
AcDbEntity
  8
0
  6
Continuous
100
AcDbEllipse
 10
1322.185048562593
 20
116.8799946911688
 30
0.0
 11
-8.999999999999969
 21
0.0000000000052753
 31
0.0
210
0.0
220
0.0
230
1.0
 40
0.891006524188365
 41
5.048908917952557
 42
10.65905434999772
  0
ELLIPSE
  5
6C1
330
1F
100
AcDbEntity
  8
0
  6
Continuous
100
AcDbEllipse
 10
1322.185048562598
 20
123.4628569373919
 30
0.0
 11
8.999999999998625
 21
-0.000000000005272
 31
0.0
210
0.0
220
0.0
230
1.0
 40
0.8910065241883652
 41
0.0
 42
0.1233197290409835
  0
ELLIPSE
  5
6C2
330
1F
100
AcDbEntity
  8
0
  6
Continuous
100
AcDbEllipse
 10
1322.185048562596
 20
123.4628569373919
 30
0.0
 11
-9.000000000000389
 21
0.0000000000001662
 31
0.0
210
0.0
220
0.0
230
1.0
 40
0.891006524188365
 41
6.159865578139012
 42
6.283185307179309
  0
LINE
  5
6C3
330
1F
100
AcDbEntity
  8
0
  6
Continuous
100
AcDbLine
 10
1401.889738699339
 20
123.4628569373919
 30
0.0
 11
1401.889738699336
 21
116.8799946911688
 31
0.0
  0
LINE
  5
6C4
330
1F
100
AcDbEntity
  8
0
  6
Continuous
100
AcDbLine
 10
1419.889738699339
 20
123.4628569373919
 30
0.0
 11
1419.889738699335
 21
116.8799946911688
 31
0.0
  0
ELLIPSE
  5
6C5
330
1F
100
AcDbEntity
  8
0
  6
Continuous
100
AcDbEllipse
 10
1410.889738699335
 20
116.8799946911688
 30
0.0
 11
8.999999999999969
 21
-0.000000000005267
 31
0.0
210
0.0
220
0.0
230
1.0
 40
0.891006524188365
 41
1.907316264362764
 42
7.517461696407949
  0
ELLIPSE
  5
6C6
330
1F
100
AcDbEntity
  8
0
  6
Continuous
100
AcDbEllipse
 10
1410.889738699335
 20
123.4628569373919
 30
0.0
 11
9.000000000002732
 21
-0.0000000000052711
 31
0.0
210
0.0
220
0.0
230
1.0
 40
0.891006524188365
 41
0.0
 42
0.1233197290409693
  0
ELLIPSE
  5
6C7
330
1F
100
AcDbEntity
  8
0
  6
Continuous
100
AcDbEllipse
 10
1410.889738699337
 20
123.4628569373919
 30
0.0
 11
-8.999999999998635
 21
-0.0000000000000712
 31
0.0
210
0.0
220
0.0
230
1.0
 40
0.891006524188365
 41
6.159865578138902
 42
6.283185307179227
  0
LINE
  5
6C8
330
1F
100
AcDbEntity
  8
0
  6
Continuous
100
AcDbLine
 10
1419.889738699321
 20
211.0719770271091
 30
0.0
 11
1419.889738699325
 21
217.6548392733328
 31
0.0
  0
LINE
  5
6C9
330
1F
100
AcDbEntity
  8
0
  6
Continuous
100
AcDbLine
 10
1401.889738699321
 20
211.0719770271091
 30
0.0
 11
1401.889738699324
 21
217.6548392733328
 31
0.0
  0
LINE
  5
6CA
330
1F
100
AcDbEntity
  8
0
  6
Continuous
100
AcDbLine
 10
1313.185048562582
 20
217.6548392733328
 30
0.0
 11
1313.185048562578
 21
211.0719770271091
 31
0.0
  0
LINE
  5
6CB
330
1F
100
AcDbEntity
  8
0
  6
Continuous
100
AcDbLine
 10
1331.185048562582
 20
217.6548392733328
 30
0.0
 11
1331.185048562578
 21
211.0719770271091
 31
0.0
  0
ELLIPSE
  5
6CC
330
1F
100
AcDbEntity
  8
0
  6
Continuous
100
AcDbEllipse
 10
1410.889738699321
 20
211.0719770271091
 30
0.0
 11
-8.999999999999969
 21
0.0
 31
0.0
210
0.0
220
0.0
230
1.0
 40
0.891006524188365
 41
0.0
 42
6.283185307179586
  0
ELLIPSE
  5
6CD
330
1F
100
AcDbEntity
  8
0
  6
Continuous
100
AcDbEllipse
 10
1322.185048562578
 20
211.0719770271091
 30
0.0
 11
8.999999999999969
 21
0.0
 31
0.0
210
0.0
220
0.0
230
1.0
 40
0.891006524188365
 41
0.0
 42
6.283185307179586
  0
ELLIPSE
  5
6CE
330
1F
100
AcDbEntity
  8
0
  6
Continuous
100
AcDbEllipse
 10
1322.185048562581
 20
217.6548392733328
 30
0.0
 11
-8.999999999999973
 21
0.0000000000000633
 31
0.0
210
0.0
220
0.0
230
1.0
 40
0.891006524188365
 41
3.141592653589455
 42
6.283185307179247
  0
ELLIPSE
  5
6CF
330
1F
100
AcDbEntity
  8
0
  6
Continuous
100
AcDbEllipse
 10
1410.889738699324
 20
217.6548392733328
 30
0.0
 11
-8.999999999999968
 21
0.0
 31
0.0
210
0.0
220
0.0
230
1.0
 40
0.891006524188365
 41
3.141592653589444
 42
6.283185307179238
  0
LINE
  5
6D0
330
1F
100
AcDbEntity
  8
0
  6
Continuous
100
AcDbLine
 10
1296.537393630942
 20
159.3711719632604
 30
0.0
 11
1296.537393630946
 21
126.0872889793957
 31
0.0
  0
LINE
  5
6D1
330
1F
100
AcDbEntity
  8
0
  6
Continuous
100
AcDbLine
 10
1296.537393630946
 20
183.3447917274654
 30
0.0
 11
1296.537393630942
 21
162.4964992193566
 31
0.0
  0
LINE
  5
6D2
330
1F
100
AcDbEntity
  8
0
  6
Continuous
100
AcDbLine
 10
1436.537393630946
 20
126.0872889793957
 30
0.0
 11
1436.537393630942
 21
159.3711719632604
 31
0.0
  0
LINE
  5
6D3
330
1F
100
AcDbEntity
  8
0
  6
Continuous
100
AcDbLine
 10
1436.537393630942
 20
162.4964992193566
 30
0.0
 11
1436.537393630946
 21
183.3447917274654
 31
0.0
  0
LINE
  5
6D4
330
1F
100
AcDbEntity
  8
0
  6
Continuous
100
AcDbLine
 10
1345.137919338345
 20
216.6684357321098
 30
0.0
 11
1387.936867923561
 21
216.6684357321098
 31
0.0
  0
LINE
  5
6D5
330
1F
100
AcDbEntity
  8
0
  6
Continuous
100
AcDbLine
 10
1327.807560168881
 20
240.5109461441982
 30
0.0
 11
1327.807560168878
 21
232.9293047985477
 31
0.0
  0
LINE
  5
6D6
330
1F
100
AcDbEntity
  8
0
  6
Continuous
100
AcDbLine
 10
1405.267227093029
 20
240.5109461441982
 30
0.0
 11
1405.267227093025
 21
232.9293047985477
 31
0.0
  0
ELLIPSE
  5
6D7
330
1F
100
AcDbEntity
  8
0
  6
Continuous
100
AcDbEllipse
 10
1366.537393630964
 20
178.1404894510126
 30
0.0
 11
-79.99999999999973
 21
0.0000000000468681
 31
0.0
210
0.0
220
0.0
230
1.0
 40
0.891006524188365
 41
5.217749490669505
 42
5.777824796896087
  0
ELLIPSE
  5
6D8
330
1F
100
AcDbEntity
  8
0
  6
Continuous
100
AcDbEllipse
 10
1366.537393630964
 20
178.1404894510126
 30
0.0
 11
-79.99999999999968
 21
0.0000000000394906
 31
0.0
210
0.0
220
0.0
230
1.0
 40
0.8910065241883648
 41
3.646953163874467
 42
4.207028470101079
  0
LINE
  5
6D9
330
1F
100
AcDbEntity
  8
0
  6
Continuous
100
AcDbLine
 10
1405.267227093029
 20
240.5109461441982
 30
0.0
 11
1327.807560168881
 21
240.5109461441982
 31
0.0
  0
LINE
  5
6DA
330
1F
100
AcDbEntity
  8
0
  6
Continuous
100
AcDbLine
 10
1296.53739363096
 20
212.6490237464497
 30
0.0
 11
1296.537393630955
 21
205.0673824007993
 31
0.0
  0
LINE
  5
6DB
330
1F
100
AcDbEntity
  8
0
  6
Continuous
100
AcDbLine
 10
1436.537393630958
 20
212.6490237464497
 30
0.0
 11
1436.537393630955
 21
205.0673824007993
 31
0.0
  0
ELLIPSE
  5
6DC
330
1F
100
AcDbEntity
  8
0
  6
Continuous
100
AcDbEllipse
 10
1366.537393630938
 20
170.5588481053949
 30
0.0
 11
-80.00000000004174
 21
0.0000000000542622
 31
0.0
210
0.0
220
0.0
230
1.0
 40
0.8910065241883652
 41
2.076156837079807
 42
2.110319965018566
  0
ELLIPSE
  5
6DD
330
1F
100
AcDbEntity
  8
0
  6
Continuous
100
AcDbEllipse
 10
1366.537393630957
 20
170.5588481053649
 30
0.0
 11
-80.0000000000039
 21
0.0000000000542844
 31
0.0
210
0.0
220
0.0
230
1.0
 40
0.891006524188365
 41
2.300842864992635
 42
2.438113219833033
  0
LINE
  5
6DE
330
1F
100
AcDbEntity
  8
0
  6
Continuous
100
AcDbLine
 10
1405.267227093043
 20
108.188391412177
 30
0.0
 11
1327.807560168896
 21
108.188391412177
 31
0.0
  0
ELLIPSE
  5
6DF
330
1F
100
AcDbEntity
  8
0
  6
Continuous
100
AcDbEllipse
 10
1366.537393630962
 20
170.5588481053635
 30
0.0
 11
-80.00000000000142
 21
0.0000000000468736
 31
0.0
210
0.0
220
0.0
230
1.0
 40
0.8910065241883652
 41
0.7034794337581865
 42
0.8407497885985835
  0
ELLIPSE
  5
6E0
330
1F
100
AcDbEntity
  8
0
  6
Continuous
100
AcDbEllipse
 10
1366.537393630977
 20
170.5588481053867
 30
0.0
 11
-80.00000000003142
 21
0.0000000000468459
 31
0.0
210
0.0
220
0.0
230
1.0
 40
0.891006524188365
 41
1.031272688572627
 42
1.065435816511385
  0
LINE
  5
6E1
330
1F
100
AcDbEntity
  8
0
  6
Continuous
100
AcDbLine
 10
1296.537393630956
 20
200.0066137297879
 30
0.0
 11
1296.537393630955
 21
205.0673824007993
 31
0.0
  0
ELLIPSE
  5
6E2
330
1F
100
AcDbEntity
  8
0
  6
Continuous
100
AcDbEllipse
 10
1366.53739363096
 20
170.5588481053621
 30
0.0
 11
79.99999999999973
 21
-0.0000000000542455
 31
0.0
210
0.0
220
0.0
230
1.0
 40
0.891006524188365
 41
2.076156837079819
 42
2.636232143306422
  0
LINE
  5
6E3
330
1F
100
AcDbEntity
  8
0
  6
Continuous
100
AcDbLine
 10
1327.807560168878
 20
232.9293047985477
 30
0.0
 11
1405.267227093025
 21
232.9293047985477
 31
0.0
  0
ELLIPSE
  5
6E4
330
1F
100
AcDbEntity
  8
0
  6
Continuous
100
AcDbEllipse
 10
1366.53739363096
 20
170.5588481053621
 30
0.0
 11
79.99999999999968
 21
-0.0000000000468625
 31
0.0
210
0.0
220
0.0
230
1.0
 40
0.8910065241883648
 41
0.5053605102848167
 42
1.065435816511396
  0
LINE
  5
6E5
330
1F
100
AcDbEntity
  8
0
  6
Continuous
100
AcDbLine
 10
1436.537393630955
 20
205.0673824007993
 30
0.0
 11
1436.537393630957
 21
200.0066137297879
 31
0.0
  0
LINE
  5
6E6
330
1F
100
AcDbEntity
  8
0
  6
Continuous
100
AcDbLine
 10
1436.537393630957
 20
200.0066137297879
 30
0.0
 11
1436.537393630946
 21
183.3447917274654
 31
0.0
  0
LINE
  5
6E7
330
1F
100
AcDbEntity
  8
0
  6
Continuous
100
AcDbLine
 10
1436.537393630946
 20
183.344791727465
 30
0.0
 11
1416.564361358361
 21
183.344791727465
 31
0.0
  0
LINE
  5
6E8
330
1F
100
AcDbEntity
  8
0
  6
Continuous
100
AcDbLine
 10
1316.51042590353
 20
183.3447917274654
 30
0.0
 11
1296.537393630946
 21
183.3447917274654
 31
0.0
  0
LINE
  5
6E9
330
1F
100
AcDbEntity
  8
0
  6
Continuous
100
AcDbLine
 10
1296.537393630946
 20
183.3447917274654
 30
0.0
 11
1296.537393630956
 21
200.0066137297879
 31
0.0
  0
ELLIPSE
  5
6EA
330
1F
100
AcDbEntity
  8
0
  6
Continuous
100
AcDbEllipse
 10
1366.537393630933
 20
124.4492604786144
 30
0.0
 11
-0.0000000000215819
 21
-99.79273070909655
 31
0.0
210
0.0
220
0.0
230
1.0
 40
0.5611631188171821
 41
3.53369653311962
 42
4.001810014672217
  0
ELLIPSE
  5
6EB
330
1F
100
AcDbEntity
  8
0
  6
Continuous
100
AcDbEllipse
 10
1366.53739363096
 20
170.5588481053626
 30
0.0
 11
55.99999999999946
 21
-0.0000000000379419
 31
0.0
210
0.0
220
0.0
230
1.0
 40
0.891006524188365
 41
1.962900206326162
 42
2.260785526516956
  0
ELLIPSE
  5
6EC
330
1F
100
AcDbEntity
  8
0
  6
Continuous
100
AcDbEllipse
 10
1366.537393630373
 20
170.5588481058155
 30
0.0
 11
55.99999999922274
 21
-0.0000000000379724
 31
0.0
210
0.0
220
0.0
230
1.0
 40
0.8910065241883652
 41
2.426741977436375
 42
2.431013687878611
  0
LINE
  5
6ED
330
1F
100
AcDbEntity
  8
0
  6
Continuous
100
AcDbLine
 10
1296.537393630956
 20
200.0066137297879
 30
0.0
 11
1316.510425903539
 21
200.0066137297879
 31
0.0
  0
LINE
  5
6EE
330
1F
100
AcDbEntity
  8
0
  6
Continuous
100
AcDbLine
 10
1436.537393630957
 20
200.0066137297879
 30
0.0
 11
1416.564361358372
 21
200.0066137297879
 31
0.0
  0
ELLIPSE
  5
6EF
330
1F
100
AcDbEntity
  8
0
  6
Continuous
100
AcDbEllipse
 10
1366.537393630933
 20
124.4492604786144
 30
0.0
 11
-0.0000000000215819
 21
-99.79273070909655
 31
0.0
210
0.0
220
0.0
230
1.0
 40
0.5611631188171821
 41
2.281375292506403
 42
2.749488774058572
  0
ELLIPSE
  5
6F0
330
1F
100
AcDbEntity
  8
0
  6
Continuous
100
AcDbEllipse
 10
1366.53739363096
 20
170.5588481053621
 30
0.0
 11
-56.00000000000007
 21
0.0000000000276446
 31
0.0
210
0.0
220
0.0
230
1.0
 40
0.891006524188365
 41
4.022399780663942
 42
4.320285100854734
  0
ELLIPSE
  5
6F1
330
1F
100
AcDbEntity
  8
0
  6
Continuous
100
AcDbEllipse
 10
1366.537393633019
 20
170.5588481069469
 30
0.0
 11
-55.99999999727955
 21
0.0000000000276251
 31
0.0
210
0.0
220
0.0
230
1.0
 40
0.8910065241883648
 41
3.852171619302227
 42
3.856443329744569
  0
ELLIPSE
  5
6F2
330
1F
100
AcDbEntity
  8
0
  6
Continuous
100
AcDbEllipse
 10
1316.510425903534
 20
201.1649222112326
 30
0.0
 11
-0.0000000000038539
 21
-17.82013048376724
 31
0.0
210
0.0
220
0.0
230
1.0
 40
0.5611631188171821
 41
0.0
 42
0.8602173610824266
  0
ELLIPSE
  5
6F3
330
1F
100
AcDbEntity
  8
0
  6
Continuous
100
AcDbEllipse
 10
1316.510425903538
 20
208.9166789716712
 30
0.0
 11
9.999999999999955
 21
-0.0000000000000079
 31
0.0
210
0.0
220
0.0
230
1.0
 40
0.891006524188365
 41
4.712388980384974
 42
5.572606341467706
  0
ELLIPSE
  5
6F4
330
1F
100
AcDbEntity
  8
0
  6
Continuous
100
AcDbEllipse
 10
1416.564361358367
 20
201.1649222112326
 30
0.0
 11
-0.0000000000038539
 21
-17.82013048376724
 31
0.0
210
0.0
220
0.0
230
1.0
 40
0.5611631188171821
 41
5.422967946096196
 42
6.283185307178804
  0
ELLIPSE
  5
6F5
330
1F
100
AcDbEntity
  8
0
  6
Continuous
100
AcDbEllipse
 10
1416.564361358372
 20
208.9166789716712
 30
0.0
 11
9.999999999999946
 21
-0.0000000000049398
 31
0.0
210
0.0
220
0.0
230
1.0
 40
0.891006524188365
 41
3.852171619302289
 42
4.712388980385236
  0
LINE
  5
6F6
330
1F
100
AcDbEntity
  8
0
  6
Continuous
100
AcDbLine
 10
1274.037393630989
 20
219.3166099425573
 30
0.0
 11
1274.037393630977
 21
198.1387709645394
 31
0.0
  0
LINE
  5
6F7
330
1F
100
AcDbEntity
  8
0
  6
Continuous
100
AcDbLine
 10
1459.037393630989
 20
219.3166099425568
 30
0.0
 11
1459.037393630975
 21
198.1387709645394
 31
0.0
  0
LINE
  5
6F8
330
1F
100
AcDbEntity
  8
0
  6
Continuous
100
AcDbLine
 10
1292.032792021096
 20
287.8127126329707
 30
0.0
 11
1282.504483807783
 21
269.3597479453799
 31
0.0
  0
LINE
  5
6F9
330
1F
100
AcDbEntity
  8
0
  6
Continuous
100
AcDbLine
 10
1441.041995240917
 20
287.8127126329707
 30
0.0
 11
1450.570303454202
 21
269.3597479453803
 31
0.0
  0
ELLIPSE
  5
6FA
330
1F
100
AcDbEntity
  8
0
  6
Continuous
100
AcDbEllipse
 10
1366.537393630977
 20
198.1387709645394
 30
0.0
 11
-54.49999999999969
 21
0.0000000000319383
 31
0.0
210
0.0
220
0.0
230
1.0
 40
0.8910065241883648
 41
4.454780536678194
 42
4.969997424092505
  0
ELLIPSE
  5
6FB
330
1F
100
AcDbEntity
  8
0
  6
Continuous
100
AcDbEllipse
 10
1366.537393630977
 20
198.1387709645394
 30
0.0
 11
-92.49999999999962
 21
0.0000000000541872
 31
0.0
210
0.0
220
0.0
230
1.0
 40
0.891006524188365
 41
4.502974954982015
 42
4.921803005788678
  0
ELLIPSE
  5
6FC
330
1F
100
AcDbEntity
  8
0
  6
Continuous
100
AcDbEllipse
 10
1366.537393630977
 20
198.1387709645394
 30
0.0
 11
-92.49999999999962
 21
0.000000000054251
 31
0.0
210
0.0
220
0.0
230
1.0
 40
0.891006524188365
 41
5.288373118379462
 42
5.707201169186129
  0
ELLIPSE
  5
6FD
330
1F
100
AcDbEntity
  8
0
  6
Continuous
100
AcDbEllipse
 10
1366.537393630975
 20
198.1387709645394
 30
0.0
 11
-92.49999999999912
 21
0.0000000000542011
 31
0.0
210
0.0
220
0.0
230
1.0
 40
0.891006524188365
 41
6.073771281776909
 42
6.38451797950257
  0
ELLIPSE
  5
6FE
330
1F
100
AcDbEntity
  8
0
  6
Continuous
100
AcDbEllipse
 10
1366.537393630977
 20
198.1387709645394
 30
0.0
 11
92.49999999999898
 21
-0.0000000000542025
 31
0.0
210
0.0
220
0.0
230
1.0
 40
0.891006524188365
 41
6.181852634857913
 42
6.492599332583578
  0
ELLIPSE
  5
6FF
330
1F
100
AcDbEntity
  8
0
  6
Continuous
100
AcDbEllipse
 10
1366.537393630977
 20
198.1387709645394
 30
0.0
 11
-92.49999999999989
 21
0.000000000045719
 31
0.0
210
0.0
220
0.0
230
1.0
 40
0.8910065241883648
 41
3.717576791584438
 42
4.136404842391121
  0
ELLIPSE
  5
700
330
1F
100
AcDbEntity
  8
0
  6
Continuous
100
AcDbEllipse
 10
1366.537393630997
 20
234.9120014434427
 30
0.0
 11
92.49999999999968
 21
-0.0000000000541955
 31
0.0
210
0.0
220
0.0
230
1.0
 40
0.8910065241883652
 41
0.2924168510165408
 42
2.849175802574563
  0
LINE
  5
701
330
1F
100
AcDbEntity
  8
0
  6
Continuous
100
AcDbLine
 10
1464.925346882099
 20
232.2361144581489
 30
0.0
 11
1464.925346882109
 21
250.1483288110232
 31
0.0
  0
LINE
  5
702
330
1F
100
AcDbEntity
  8
0
  6
Continuous
100
AcDbLine
 10
1268.149440379844
 20
232.2361144581489
 30
0.0
 11
1268.149440379853
 21
250.1483288110237
 31
0.0
  0
ELLIPSE
  5
703
330
1F
100
AcDbEntity
  8
0
  6
Continuous
100
AcDbEllipse
 10
1458.925346882098
 20
232.2361144581484
 30
0.0
 11
6.000000000000003
 21
-0.0000000000035093
 31
0.0
210
0.0
220
0.0
230
1.0
 40
0.8910065241883653
 41
5.864306286701593
 42
7.487462491056351
  0
LINE
  5
704
330
1F
100
AcDbEntity
  8
0
  6
Continuous
100
AcDbLine
 10
1457.016536789537
 20
215.272403696227
 30
0.0
 11
1464.406619627956
 21
230.0616844425069
 31
0.0
  0
ELLIPSE
  5
705
330
1F
100
AcDbEntity
  8
0
  6
Continuous
100
AcDbEllipse
 10
1404.805736867472
 20
280.4570400677046
 30
0.0
 11
5.999999999999995
 21
-0.0000000000035163
 31
0.0
210
0.0
220
0.0
230
1.0
 40
0.8910065241883653
 41
0.3665191429194862
 42
1.989675347274203
  0
LINE
  5
706
330
1F
100
AcDbEntity
  8
0
  6
Continuous
100
AcDbLine
 10
1416.918481391332
 20
288.5968181243508
 30
0.0
 11
1416.918481391317
 21
267.2592646365921
 31
0.0
  0
LINE
  5
707
330
1F
100
AcDbEntity
  8
0
  6
Continuous
100
AcDbLine
 10
1416.918481391317
 20
267.2592646365921
 30
0.0
 11
1410.407219426455
 21
282.3728891543335
 31
0.0
  0
LINE
  5
708
330
1F
100
AcDbEntity
  8
0
  6
Continuous
100
AcDbLine
 10
1347.307868070212
 20
300.0938313095514
 30
0.0
 11
1347.3078680702
 21
278.7562778217932
 31
0.0
  0
LINE
  5
709
330
1F
100
AcDbEntity
  8
0
  6
Continuous
100
AcDbLine
 10
1347.3078680702
 20
278.7562778217927
 30
0.0
 11
1330.709470252908
 21
285.3408898451177
 31
0.0
  0
LINE
  5
70A
330
1F
100
AcDbEntity
  8
0
  6
Continuous
100
AcDbLine
 10
1288.961650024597
 20
264.3662023424792
 30
0.0
 11
1288.961650024584
 21
243.0286488547206
 31
0.0
  0
LINE
  5
70B
330
1F
100
AcDbEntity
  8
0
  6
Continuous
100
AcDbLine
 10
1288.961650024584
 20
243.0286488547206
 30
0.0
 11
1271.99923268257
 21
237.22707196333
 31
0.0
  0
LINE
  5
70C
330
1F
100
AcDbEntity
  8
0
  6
Continuous
100
AcDbLine
 10
1268.668167633988
 20
230.0616844425069
 30
0.0
 11
1276.058250472409
 21
215.272403696227
 31
0.0
  0
ELLIPSE
  5
70D
330
1F
100
AcDbEntity
  8
0
  6
Continuous
100
AcDbEllipse
 10
1274.149440379844
 20
232.2361144581489
 30
0.0
 11
-5.999999999999996
 21
0.0000000000035156
 31
0.0
210
0.0
220
0.0
230
1.0
 40
0.8910065241883652
 41
5.078908123304151
 42
6.702064327658884
  0
LINE
  5
70E
330
1F
100
AcDbEntity
  8
0
  6
Continuous
100
AcDbLine
 10
1461.07555457937
 20
237.22707196333
 30
0.0
 11
1444.113137237354
 21
243.0286488547206
 31
0.0
  0
LINE
  5
70F
330
1F
100
AcDbEntity
  8
0
  6
Continuous
100
AcDbLine
 10
1444.113137237354
 20
243.0286488547206
 30
0.0
 11
1444.113137237367
 21
264.3662023424792
 31
0.0
  0
LINE
  5
710
330
1F
100
AcDbEntity
  8
0
  6
Continuous
100
AcDbLine
 10
1322.667567835471
 20
282.3728891543339
 30
0.0
 11
1316.156305870614
 21
267.2592646365926
 31
0.0
  0
LINE
  5
711
330
1F
100
AcDbEntity
  8
0
  6
Continuous
100
AcDbLine
 10
1316.156305870614
 20
267.2592646365926
 30
0.0
 11
1316.156305870625
 21
288.5968181243513
 31
0.0
  0
ELLIPSE
  5
712
330
1F
100
AcDbEntity
  8
0
  6
Continuous
100
AcDbEllipse
 10
1328.269050394456
 20
280.4570400677046
 30
0.0
 11
-6.000000000000005
 21
0.0000000000029584
 31
0.0
210
0.0
220
0.0
230
1.0
 40
0.891006524188365
 41
4.293509959906652
 42
5.916666164261308
  0
LINE
  5
713
330
1F
100
AcDbEntity
  8
0
  6
Continuous
100
AcDbLine
 10
1402.365317009016
 20
285.3408898451177
 30
0.0
 11
1385.766919191728
 21
278.7562778217927
 31
0.0
  0
LINE
  5
714
330
1F
100
AcDbEntity
  8
0
  6
Continuous
100
AcDbLine
 10
1385.766919191728
 20
278.7562778217927
 30
0.0
 11
1385.766919191741
 21
300.0938313095514
 31
0.0
  0
SPLINE
  5
715
330
1F
100
AcDbEntity
  8
0
  6
Continuous
100
AcDbSpline
210
0.0
220
0.0
230
1.0
 70
    12
 71
     2
 72
     6
 73
     3
 74
     0
 42
0.0000000001
 43
0.0000000001
 40
0.0
 40
0.0
 40
0.0
 40
2.028228737672966
 40
2.028228737672966
 40
2.028228737672966
 10
1416.918481391332
 20
288.5968181243508
 30
0.0
 41
1.0
 10
1413.856827553138
 20
294.3871963572826
 30
0.0
 41
1.006852855008648
 10
1410.407219426466
 20
300.6382224371861
 30
0.0
 41
1.005104936193844
  0
SPLINE
  5
716
330
1F
100
AcDbEntity
  8
0
  6
Continuous
100
AcDbSpline
210
0.0
220
0.0
230
1.0
 70
     8
 71
     3
 72
    14
 73
    10
 74
     0
 42
0.0000000001
 43
0.0000000001
 40
0.5302283687096694
 40
0.5302283687096694
 40
0.5302283687096694
 40
0.5302283687096694
 40
0.7705741176297888
 40
0.7705741176297888
 40
1.013400618476665
 40
1.013400618476665
 40
1.256227119323543
 40
1.256227119323543
 40
1.496572868243663
 40
1.496572868243663
 40
1.496572868243663
 40
1.496572868243663
 10
1402.365317009027
 20
303.60622312797
 30
0.0
 10
1403.045370303974
 20
303.7401995399975
 30
0.0
 10
1403.849371773319
 20
303.7930981043098
 30
0.0
 10
1405.503434203021
 20
303.6602293638673
 30
0.0
 10
1406.35402934806
 20
303.4711752359496
 30
0.0
 10
1407.849645575284
 20
302.9191926620344
 30
0.0
 10
1408.567069142836
 20
302.5295428489496
 30
0.0
 10
1409.710622264359
 20
301.6299040485671
 30
0.0
 10
1410.140446379922
 20
301.1216411937887
 30
0.0
 10
1410.407219426466
 20
300.6382224371861
 30
0.0
  0
SPLINE
  5
717
330
1F
100
AcDbEntity
  8
0
  6
Continuous
100
AcDbSpline
210
0.0
220
0.0
230
1.0
 70
    12
 71
     2
 72
     6
 73
     3
 74
     0
 42
0.0000000001
 43
0.0000000001
 40
1.203842643101294
 40
1.203842643101294
 40
1.203842643101294
 40
3.232071380774219
 40
3.232071380774219
 40
3.232071380774219
 10
1402.365317009027
 20
303.60622312797
 30
0.0
 41
1.005104936193834
 10
1393.571634876563
 20
301.8737912886269
 30
0.0
 41
1.006852855008634
 10
1385.766919191741
 20
300.0938313095514
 30
0.0
 41
1.0
  0
SPLINE
  5
718
330
1F
100
AcDbEntity
  8
0
  6
Continuous
100
AcDbSpline
210
0.0
220
0.0
230
1.0
 70
     8
 71
     3
 72
    12
 73
     8
 74
     0
 42
0.0000000001
 43
0.0000000001
 40
0.5302283687096669
 40
0.5302283687096669
 40
0.5302283687096669
 40
0.5302283687096669
 40
0.7705741176297892
 40
0.7705741176297892
 40
1.013400618476665
 40
1.013400618476665
 40
1.243233923339315
 40
1.243233923339315
 40
1.243233923339315
 40
1.243233923339315
 10
1461.075554579381
 20
255.4924052461822
 30
0.0
 10
1461.770522125687
 20
255.1189068599785
 30
0.0
 10
1462.477727792238
 20
254.6140687606969
 30
0.0
 10
1463.673372191815
 20
253.4294673084148
 30
0.0
 10
1464.158871814466
 20
252.7473047109322
 30
0.0
 10
1464.761802070434
 20
251.4503534749108
 30
0.0
 10
1464.924403876894
 20
250.7761208427194
 30
0.0
 10
1464.925269306839
 20
250.1483518638722
 30
0.0
  0
SPLINE
  5
719
330
1F
100
AcDbEntity
  8
0
  6
Continuous
100
AcDbSpline
210
0.0
220
0.0
230
1.0
 70
    12
 71
     2
 72
     6
 73
     3
 74
     0
 42
0.0000000001
 43
0.0000000001
 40
1.203842643101284
 40
1.203842643101284
 40
1.203842643101284
 40
3.232071380774219
 40
3.232071380774219
 40
3.232071380774219
 10
1461.075554579381
 20
255.4924052461821
 30
0.0
 41
1.005104936193825
 10
1452.08901817112
 20
260.3220650826526
 30
0.0
 41
1.006852855008623
 10
1444.113137237367
 20
264.3662023424792
 30
0.0
 41
1.0
  0
SPLINE
  5
71A
330
1F
100
AcDbEntity
  8
0
  6
Continuous
100
AcDbSpline
210
0.0
220
0.0
230
1.0
 70
     8
 71
     3
 72
    14
 73
    10
 74
     0
 42
0.0000000001
 43
0.0000000001
 40
0.5302283687096672
 40
0.5302283687096672
 40
0.5302283687096672
 40
0.5302283687096672
 40
0.7705741176297893
 40
0.7705741176297893
 40
1.013400618476665
 40
1.013400618476665
 40
1.256227119323543
 40
1.256227119323543
 40
1.496572868243666
 40
1.496572868243666
 40
1.496572868243666
 40
1.496572868243666
 10
1322.667567835482
 20
300.6382224371861
 30
0.0
 10
1322.934340882025
 20
301.1216411937891
 30
0.0
 10
1323.364164997588
 20
301.6299040485671
 30
0.0
 10
1324.50771811911
 20
302.5295428489496
 30
0.0
 10
1325.225141686662
 20
302.9191926620344
 30
0.0
 10
1326.720757913886
 20
303.4711752359496
 30
0.0
 10
1327.571353058925
 20
303.6602293638673
 30
0.0
 10
1329.225415488628
 20
303.7930981043102
 30
0.0
 10
1330.029416957973
 20
303.7401995399975
 30
0.0
 10
1330.709470252919
 20
303.6062231279704
 30
0.0
  0
SPLINE
  5
71B
330
1F
100
AcDbEntity
  8
0
  6
Continuous
100
AcDbSpline
210
0.0
220
0.0
230
1.0
 70
    12
 71
     2
 72
     6
 73
     3
 74
     0
 42
0.0000000001
 43
0.0000000001
 40
1.203842643101274
 40
1.203842643101274
 40
1.203842643101274
 40
3.232071380774218
 40
3.232071380774218
 40
3.232071380774218
 10
1322.667567835482
 20
300.6382224371861
 30
0.0
 41
1.005104936193852
 10
1319.217959708816
 20
294.3871963572826
 30
0.0
 41
1.00685285500866
 10
1316.156305870625
 20
288.5968181243513
 30
0.0
 41
1.0
  0
SPLINE
  5
71C
330
1F
100
AcDbEntity
  8
0
  6
Continuous
100
AcDbSpline
210
0.0
220
0.0
230
1.0
 70
    12
 71
     2
 72
     6
 73
     3
 74
     0
 42
0.0000000001
 43
0.0000000001
 40
0.0
 40
0.0
 40
0.0
 40
2.028228737672956
 40
2.028228737672956
 40
2.028228737672956
 10
1347.307868070212
 20
300.0938313095514
 30
0.0
 41
1.0
 10
1339.503152385388
 20
301.8737912886269
 30
0.0
 41
1.006852855008663
 10
1330.709470252919
 20
303.6062231279704
 30
0.0
 41
1.005104936193855
  0
SPLINE
  5
71D
330
1F
100
AcDbEntity
  8
0
  6
Continuous
100
AcDbSpline
210
0.0
220
0.0
230
1.0
 70
    12
 71
     2
 72
     6
 73
     3
 74
     0
 42
0.0000000001
 43
0.0000000001
 40
1.777770801781785
 40
1.777770801781785
 40
1.777770801781785
 40
2.655294497401119
 40
2.655294497401119
 40
2.655294497401119
 10
1462.227001828423
 20
189.8014098375377
 30
0.0
 41
1.00540547184203
 10
1460.589656992664
 20
193.7829702290999
 30
0.0
 41
1.00510873817216
 10
1459.034762869328
 20
197.5171804011904
 30
0.0
 41
1.00320202121323
  0
SPLINE
  5
71E
330
1F
100
AcDbEntity
  8
0
  6
Continuous
100
AcDbSpline
210
0.0
220
0.0
230
1.0
 70
     8
 71
     3
 72
    12
 73
     8
 74
     0
 42
0.0000000001
 43
0.0000000001
 40
0.7835673136140234
 40
0.7835673136140234
 40
0.7835673136140234
 40
0.7835673136140234
 40
1.013400618476665
 40
1.013400618476665
 40
1.256227119323543
 40
1.256227119323543
 40
1.496572868243661
 40
1.496572868243661
 40
1.496572868243661
 40
1.496572868243661
 10
1268.149517955125
 20
250.1483518638722
 30
0.0
 10
1268.150383385071
 20
250.7761208427194
 30
0.0
 10
1268.312985191531
 20
251.4503534749108
 30
0.0
 10
1268.915915447496
 20
252.7473047109322
 30
0.0
 10
1269.401415070146
 20
253.4294673084148
 30
0.0
 10
1270.597059469722
 20
254.6140687606969
 30
0.0
 10
1271.304265136275
 20
255.1189068599785
 30
0.0
 10
1271.999232682581
 20
255.4924052461822
 30
0.0
  0
SPLINE
  5
71F
330
1F
100
AcDbEntity
  8
0
  6
Continuous
100
AcDbSpline
210
0.0
220
0.0
230
1.0
 70
    12
 71
     2
 72
     6
 73
     3
 74
     0
 42
0.0000000001
 43
0.0000000001
 40
0.0
 40
0.0
 40
0.0
 40
2.028228737672966
 40
2.028228737672966
 40
2.028228737672966
 10
1288.961650024597
 20
264.3662023424792
 30
0.0
 41
1.0
 10
1280.985769090844
 20
260.3220650826526
 30
0.0
 41
1.006852855008648
 10
1271.999232682581
 20
255.4924052461822
 30
0.0
 41
1.005104936193844
  0
SPLINE
  5
720
330
1F
100
AcDbEntity
  8
0
  6
Continuous
100
AcDbSpline
210
0.0
220
0.0
230
1.0
 70
    12
 71
     2
 72
     6
 73
     3
 74
     0
 42
0.0000000001
 43
0.0000000001
 40
0.5767768833730451
 40
0.5767768833730451
 40
0.5767768833730451
 40
1.454300578992473
 40
1.454300578992473
 40
1.454300578992473
 10
1274.040024392656
 20
197.5171804011909
 30
0.0
 41
1.003202021213267
 10
1272.48513026932
 20
193.7829702290999
 30
0.0
 41
1.00510873817222
 10
1270.847785433559
 20
189.8014098375377
 30
0.0
 41
1.005405471842094
  0
SPLINE
  5
721
330
1F
100
AcDbEntity
  8
0
  6
Continuous
100
AcDbSpline
210
0.0
220
0.0
230
1.0
 70
     8
 71
     3
 72
    22
 73
    18
 74
     0
 42
0.0000000001
 43
0.0000000001
 40
0.4312022978056251
 40
0.4312022978056251
 40
0.4312022978056251
 40
0.4312022978056251
 40
0.7482031996387981
 40
0.7482031996387981
 40
1.068637778532325
 40
1.068637778532325
 40
1.391581820122847
 40
1.391581820122847
 40
1.715693471258775
 40
1.715693471258775
 40
2.039860002349183
 40
2.039860002349183
 40
2.36298316156602
 40
2.36298316156602
 40
2.683713548770137
 40
2.683713548770137
 40
2.710390355784172
 40
2.710390355784172
 40
2.710390355784172
 40
2.710390355784172
 10
2146.039441911338
 20
287.8127126329721
 30
0.0
 10
2149.714601638176
 20
294.9301978299702
 30
0.0
 10
2154.650768166786
 20
301.4939818217574
 30
0.0
 10
2166.579084128529
 20
312.9437578637259
 30
0.0
 10
2173.59044919325
 20
317.8100991602548
 30
0.0
 10
2188.985620361913
 20
325.3423300082988
 30
0.0
 10
2197.377626943036
 20
327.9902307239156
 30
0.0
 10
2214.68339854201
 20
330.7836087238863
 30
0.0
 10
2223.596676385342
 20
330.9197510188626
 30
0.0
 10
2241.028790682082
 20
328.6533063682406
 30
0.0
 10
2249.545260673867
 20
326.2504393043739
 30
0.0
 10
2265.297209821697
 20
319.1376169047078
 30
0.0
 10
2272.534535136126
 20
314.4354904506779
 30
0.0
 10
2284.961931963376
 20
303.2112284246725
 30
0.0
 10
2290.164242193636
 20
296.7034389585244
 30
0.0
 10
2294.421220515983
 20
289.0067703738375
 30
0.0
 10
2294.739366746739
 20
288.4116755315869
 30
0.0
 10
2295.048645131157
 20
287.8127126329716
 30
0.0
  0
LINE
  5
722
330
1F
100
AcDbEntity
  8
0
  6
Continuous
100
AcDbLine
 10
2150.544043521213
 20
144.2623390638734
 30
0.0
 11
2150.544043521213
 21
144.0859456553155
 31
0.0
  0
LINE
  5
723
330
1F
100
AcDbEntity
  8
0
  6
Continuous
100
AcDbLine
 10
2290.544043521213
 20
144.2623390638734
 30
0.0
 11
2290.544043521213
 21
144.0859456553155
 31
0.0
  0
ELLIPSE
  5
724
330
1F
100
AcDbEntity
  8
0
  6
Continuous
100
AcDbEllipse
 10
2220.544043521206
 20
178.5944799507522
 30
0.0
 11
-79.99999999999939
 21
0.0000000000462963
 31
0.0
210
0.0
220
0.0
230
1.0
 40
0.8910065241883648
 41
0.5053605102848043
 42
0.9452035702252041
  0
ELLIPSE
  5
725
330
1F
100
AcDbEntity
  8
0
  6
Continuous
100
AcDbEllipse
 10
2220.544043521206
 20
178.5944799507522
 30
0.0
 11
-79.99999999999954
 21
0.0000000000536626
 31
0.0
210
0.0
220
0.0
230
1.0
 40
0.891006524188365
 41
2.19638908336601
 42
2.636232143306422
  0
LINE
  5
726
330
1F
100
AcDbEntity
  8
0
  6
Continuous
100
AcDbLine
 10
2210.33655638491
 20
116.2240232575671
 30
0.0
 11
2198.0444513852
 21
116.2240232575671
 31
0.0
  0
LINE
  5
727
330
1F
100
AcDbEntity
  8
0
  6
Continuous
100
AcDbLine
 10
2243.043635657233
 20
116.2240232575671
 30
0.0
 11
2230.75153065752
 21
116.2240232575671
 31
0.0
  0
ELLIPSE
  5
728
330
1F
100
AcDbEntity
  8
0
  6
Continuous
100
AcDbEllipse
 10
2220.544043520576
 20
183.1797839987987
 30
0.0
 11
-79.00000000098812
 21
0.0000000000529909
 31
0.0
210
0.0
220
0.0
230
1.0
 40
0.891006524188365
 41
2.261765618857593
 42
2.26813966704061
  0
ELLIPSE
  5
729
330
1F
100
AcDbEntity
  8
0
  6
Continuous
100
AcDbEllipse
 10
2220.544043521207
 20
182.7257934983829
 30
0.0
 11
80.00000000000115
 21
-0.0000000000462796
 31
0.0
210
0.0
220
0.0
230
1.0
 40
0.891006524188365
 41
5.377142269760517
 42
5.54769652682444
  0
ELLIPSE
  5
72A
330
1F
100
AcDbEntity
  8
0
  6
Continuous
100
AcDbEllipse
 10
2220.544043520307
 20
183.1797839971539
 30
0.0
 11
-78.99999999858739
 21
0.0000000000456801
 31
0.0
210
0.0
220
0.0
230
1.0
 40
0.8910065241883648
 41
0.8734529865504718
 42
0.8798270347336902
  0
ELLIPSE
  5
72B
330
1F
100
AcDbEntity
  8
0
  6
Continuous
100
AcDbEllipse
 10
2220.544043521209
 20
182.725793498382
 30
0.0
 11
79.99999999999928
 21
-0.0000000000389133
 31
0.0
210
0.0
220
0.0
230
1.0
 40
0.8910065241883648
 41
3.877081433946115
 42
4.047635691010057
  0
LINE
  5
72C
330
1F
100
AcDbEntity
  8
0
  6
Continuous
100
AcDbLine
 10
2117.941835161058
 20
126.3014098375381
 30
0.0
 11
2150.544043521195
 21
126.3014098375381
 31
0.0
  0
LINE
  5
72D
330
1F
100
AcDbEntity
  8
0
  6
Continuous
100
AcDbLine
 10
2117.941835161058
 20
189.8014098375377
 30
0.0
 11
2124.854435323761
 21
189.8014098375377
 31
0.0
  0
LINE
  5
72E
330
1F
100
AcDbEntity
  8
0
  6
Continuous
100
AcDbLine
 10
2117.941835161058
 20
189.8014098375377
 30
0.0
 11
2115.394043521195
 21
196.8014098375377
 31
0.0
  0
LINE
  5
72F
330
1F
100
AcDbEntity
  8
0
  6
Continuous
100
AcDbLine
 10
2117.941835161058
 20
126.3014098375381
 30
0.0
 11
2115.394043521195
 21
119.3014098375381
 31
0.0
  0
LINE
  5
730
330
1F
100
AcDbEntity
  8
0
  6
Continuous
100
AcDbLine
 10
2112.544043521194
 20
119.3014098375381
 30
0.0
 11
2115.394043521193
 21
119.3014098375381
 31
0.0
  0
LINE
  5
731
330
1F
100
AcDbEntity
  8
0
  6
Continuous
100
AcDbLine
 10
2112.544043521194
 20
196.8014098375377
 30
0.0
 11
2115.394043521193
 21
196.8014098375377
 31
0.0
  0
LINE
  5
732
330
1F
100
AcDbEntity
  8
0
  6
Continuous
100
AcDbLine
 10
2117.941835161058
 20
126.3014098375377
 30
0.0
 11
2117.941835161058
 21
189.8014098375377
 31
0.0
  0
LINE
  5
733
330
1F
100
AcDbEntity
  8
0
  6
Continuous
100
AcDbLine
 10
2115.394043521195
 20
119.3014098375381
 30
0.0
 11
2115.394043521195
 21
196.8014098375372
 31
0.0
  0
LINE
  5
734
330
1F
100
AcDbEntity
  8
0
  6
Continuous
100
AcDbLine
 10
2112.544043521194
 20
119.3014098375381
 30
0.0
 11
2112.544043521194
 21
196.8014098375372
 31
0.0
  0
LINE
  5
735
330
1F
100
AcDbEntity
  8
0
  6
Continuous
100
AcDbLine
 10
2290.544043521195
 20
126.3014098375381
 30
0.0
 11
2323.146251881329
 21
126.3014098375381
 31
0.0
  0
LINE
  5
736
330
1F
100
AcDbEntity
  8
0
  6
Continuous
100
AcDbLine
 10
2316.233651718628
 20
189.8014098375377
 30
0.0
 11
2323.146251881331
 21
189.8014098375377
 31
0.0
  0
LINE
  5
737
330
1F
100
AcDbEntity
  8
0
  6
Continuous
100
AcDbLine
 10
2323.146251881331
 20
126.3014098375381
 30
0.0
 11
2325.694043521194
 21
119.3014098375381
 31
0.0
  0
LINE
  5
738
330
1F
100
AcDbEntity
  8
0
  6
Continuous
100
AcDbLine
 10
2323.146251881331
 20
189.8014098375377
 30
0.0
 11
2325.694043521194
 21
196.8014098375377
 31
0.0
  0
LINE
  5
739
330
1F
100
AcDbEntity
  8
0
  6
Continuous
100
AcDbLine
 10
2325.694043521194
 20
119.3014098375381
 30
0.0
 11
2328.544043521195
 21
119.3014098375381
 31
0.0
  0
LINE
  5
73A
330
1F
100
AcDbEntity
  8
0
  6
Continuous
100
AcDbLine
 10
2325.694043521194
 20
196.8014098375377
 30
0.0
 11
2328.544043521195
 21
196.8014098375377
 31
0.0
  0
LINE
  5
73B
330
1F
100
AcDbEntity
  8
0
  6
Continuous
100
AcDbLine
 10
2323.146251881331
 20
126.3014098375377
 30
0.0
 11
2323.146251881331
 21
189.8014098375377
 31
0.0
  0
LINE
  5
73C
330
1F
100
AcDbEntity
  8
0
  6
Continuous
100
AcDbLine
 10
2325.694043521194
 20
119.3014098375381
 30
0.0
 11
2325.694043521194
 21
196.8014098375372
 31
0.0
  0
LINE
  5
73D
330
1F
100
AcDbEntity
  8
0
  6
Continuous
100
AcDbLine
 10
2328.544043521195
 20
119.3014098375381
 30
0.0
 11
2328.544043521195
 21
196.8014098375372
 31
0.0
  0
LINE
  5
73E
330
1F
100
AcDbEntity
  8
0
  6
Continuous
100
AcDbLine
 10
2167.191698452834
 20
117.4446400156992
 30
0.0
 11
2167.191698452834
 21
116.8799946911688
 31
0.0
  0
ELLIPSE
  5
73F
330
1F
100
AcDbEntity
  8
0
  6
Continuous
100
AcDbEllipse
 10
2176.191698452834
 20
116.8799946911688
 30
0.0
 11
-8.999999999999973
 21
0.0000000000002453
 31
0.0
210
0.0
220
0.0
230
1.0
 40
0.891006524188365
 41
0.0
 42
1.940750788167143
  0
LINE
  5
740
330
1F
100
AcDbEntity
  8
0
  6
Continuous
100
AcDbLine
 10
2273.896388589577
 20
116.8799946911688
 30
0.0
 11
2273.896388589577
 21
117.4446400156992
 31
0.0
  0
ELLIPSE
  5
741
330
1F
100
AcDbEntity
  8
0
  6
Continuous
100
AcDbEllipse
 10
2264.896388589577
 20
116.8799946911688
 30
0.0
 11
8.999999999999973
 21
0.0
 31
0.0
210
0.0
220
0.0
230
1.0
 40
0.891006524188365
 41
4.342434519012392
 42
6.28318530717924
  0
LINE
  5
742
330
1F
100
AcDbEntity
  8
0
  6
Continuous
100
AcDbLine
 10
2159.536359578925
 20
124.4492604786148
 30
0.0
 11
2150.544043521196
 21
124.4492604786148
 31
0.0
  0
LINE
  5
743
330
1F
100
AcDbEntity
  8
0
  6
Continuous
100
AcDbLine
 10
2290.544043521202
 20
136.0503138099259
 30
0.0
 11
2290.544043521197
 21
124.4492604786144
 31
0.0
  0
LINE
  5
744
330
1F
100
AcDbEntity
  8
0
  6
Continuous
100
AcDbLine
 10
2290.544043521197
 20
124.4492604786148
 30
0.0
 11
2281.551727463467
 21
124.4492604786148
 31
0.0
  0
LINE
  5
745
330
1F
100
AcDbEntity
  8
0
  6
Continuous
100
AcDbLine
 10
2150.544043521196
 20
124.4492604786148
 30
0.0
 11
2150.544043521203
 21
136.0503138099259
 31
0.0
  0
LINE
  5
746
330
1F
100
AcDbEntity
  8
0
  6
Continuous
100
AcDbLine
 10
2259.273876983286
 20
110.4902995513532
 30
0.0
 11
2259.273876983284
 21
108.188391412177
 31
0.0
  0
LINE
  5
747
330
1F
100
AcDbEntity
  8
0
  6
Continuous
100
AcDbLine
 10
2181.814210059139
 20
110.4902995513532
 30
0.0
 11
2181.814210059137
 21
108.188391412177
 31
0.0
  0
ELLIPSE
  5
748
330
1F
100
AcDbEntity
  8
0
  6
Continuous
100
AcDbEllipse
 10
2220.544043521206
 20
178.1404894510126
 30
0.0
 11
-79.99999999999992
 21
0.0000000000536626
 31
0.0
210
0.0
220
0.0
230
1.0
 40
0.8910065241883648
 41
2.192229024043161
 42
2.636232143306417
  0
LINE
  5
749
330
1F
100
AcDbEntity
  8
0
  6
Continuous
100
AcDbLine
 10
2217.343002892003
 20
115.7700327578275
 30
0.0
 11
2196.900038488394
 21
115.7700327578275
 31
0.0
  0
LINE
  5
74A
330
1F
100
AcDbEntity
  8
0
  6
Continuous
100
AcDbLine
 10
2244.188048554037
 20
115.7700327578275
 30
0.0
 11
2223.74508415043
 21
115.7700327578275
 31
0.0
  0
ELLIPSE
  5
74B
330
1F
100
AcDbEntity
  8
0
  6
Continuous
100
AcDbEllipse
 10
2220.544043521206
 20
178.1404894510126
 30
0.0
 11
-79.9999999999998
 21
0.0000000000462907
 31
0.0
210
0.0
220
0.0
230
1.0
 40
0.891006524188365
 41
0.5053605102848087
 42
0.9493636295480527
  0
LINE
  5
74C
330
1F
100
AcDbEntity
  8
0
  6
Continuous
100
AcDbLine
 10
2290.544043521211
 20
143.6319551555759
 30
0.0
 11
2290.544043521205
 21
136.0503138099254
 31
0.0
  0
LINE
  5
74D
330
1F
100
AcDbEntity
  8
0
  6
Continuous
100
AcDbLine
 10
2290.544043521211
 20
144.0859456553155
 30
0.0
 11
2290.544043521211
 21
143.6319551555759
 31
0.0
  0
LINE
  5
74E
330
1F
100
AcDbEntity
  8
0
  6
Continuous
100
AcDbLine
 10
2150.544043521213
 20
143.6319551555759
 30
0.0
 11
2150.544043521213
 21
144.0859456553155
 31
0.0
  0
LINE
  5
74F
330
1F
100
AcDbEntity
  8
0
  6
Continuous
100
AcDbLine
 10
2150.544043521213
 20
143.6319551555759
 30
0.0
 11
2150.544043521207
 21
136.0503138099254
 31
0.0
  0
ELLIPSE
  5
750
330
1F
100
AcDbEntity
  8
0
  6
Continuous
100
AcDbEllipse
 10
2220.544043521202
 20
170.5588481053621
 30
0.0
 11
79.99999999999968
 21
-0.0000000000389244
 31
0.0
210
0.0
220
0.0
230
1.0
 40
0.8910065241883653
 41
3.646953163874469
 42
4.207028470101071
  0
LINE
  5
751
330
1F
100
AcDbEntity
  8
0
  6
Continuous
100
AcDbLine
 10
2181.814210059137
 20
108.188391412177
 30
0.0
 11
2259.273876983284
 21
108.188391412177
 31
0.0
  0
ELLIPSE
  5
752
330
1F
100
AcDbEntity
  8
0
  6
Continuous
100
AcDbEllipse
 10
2220.544043521202
 20
170.5588481053621
 30
0.0
 11
79.99999999999984
 21
-0.0000000000463019
 31
0.0
210
0.0
220
0.0
230
1.0
 40
0.8910065241883653
 41
5.217749490669501
 42
5.777824796896082
  0
LINE
  5
753
330
1F
100
AcDbEntity
  8
0
  6
Continuous
100
AcDbLine
 10
2128.044043521238
 20
234.9120014434427
 30
0.0
 11
2128.044043521218
 21
198.1387709645398
 31
0.0
  0
LINE
  5
754
330
1F
100
AcDbEntity
  8
0
  6
Continuous
100
AcDbLine
 10
2313.044043521238
 20
234.9120014434427
 30
0.0
 11
2313.044043521216
 21
198.1387709645394
 31
0.0
  0
LINE
  5
755
330
1F
100
AcDbEntity
  8
0
  6
Continuous
100
AcDbLine
 10
2195.544043521254
 20
261.6974409280758
 30
0.0
 11
2195.544043521253
 21
259.4274884293779
 31
0.0
  0
LINE
  5
756
330
1F
100
AcDbEntity
  8
0
  6
Continuous
100
AcDbLine
 10
2245.544043521254
 20
261.6974409280758
 30
0.0
 11
2245.544043521253
 21
259.4274884293779
 31
0.0
  0
LINE
  5
757
330
1F
100
AcDbEntity
  8
0
  6
Continuous
100
AcDbLine
 10
2146.039441911338
 20
287.8127126329707
 30
0.0
 11
2136.511133698024
 21
269.3597479453803
 31
0.0
  0
LINE
  5
758
330
1F
100
AcDbEntity
  8
0
  6
Continuous
100
AcDbLine
 10
2295.048645131159
 20
287.8127126329707
 30
0.0
 11
2304.576953344443
 21
269.3597479453799
 31
0.0
  0
LINE
  5
759
330
1F
100
AcDbEntity
  8
0
  6
Continuous
100
AcDbLine
 10
2210.544043521263
 20
275.9981416698717
 30
0.0
 11
2210.544043521255
 21
261.6974409280762
 31
0.0
  0
LINE
  5
75A
330
1F
100
AcDbEntity
  8
0
  6
Continuous
100
AcDbLine
 10
2230.544043521264
 20
275.9981416698717
 30
0.0
 11
2230.544043521253
 21
261.6974409280758
 31
0.0
  0
ELLIPSE
  5
75B
330
1F
100
AcDbEntity
  8
0
  6
Continuous
100
AcDbEllipse
 10
2220.544043522022
 20
198.1387709645357
 30
0.0
 11
92.49999999919502
 21
0.0000000000038701
 31
0.0
210
0.0
220
0.0
230
1.0
 40
0.8910065241883652
 41
6.275643317859699
 42
6.283185307179224
  0
ELLIPSE
  5
75C
330
1F
100
AcDbEntity
  8
0
  6
Continuous
100
AcDbEllipse
 10
2220.544043521218
 20
198.1387709645394
 30
0.0
 11
-92.49999999999921
 21
0.0000000000619782
 31
0.0
210
0.0
220
0.0
230
1.0
 40
0.891006524188365
 41
2.146780464789781
 42
2.565608515596458
  0
ELLIPSE
  5
75D
330
1F
100
AcDbEntity
  8
0
  6
Continuous
100
AcDbEllipse
 10
2220.544043521216
 20
198.1387709645398
 30
0.0
 11
-92.49999999999989
 21
0.0000000000534961
 31
0.0
210
0.0
220
0.0
230
1.0
 40
0.8910065241883648
 41
1.361382301392211
 42
1.780210352198878
  0
ELLIPSE
  5
75E
330
1F
100
AcDbEntity
  8
0
  6
Continuous
100
AcDbEllipse
 10
2220.544043521216
 20
198.1387709645394
 30
0.0
 11
-92.49999999999921
 21
0.0000000000534794
 31
0.0
210
0.0
220
0.0
230
1.0
 40
0.8910065241883648
 41
0.5759841379947624
 42
0.9948121888014309
  0
ELLIPSE
  5
75F
330
1F
100
AcDbEntity
  8
0
  6
Continuous
100
AcDbEllipse
 10
2220.544043519383
 20
198.1387709645335
 30
0.0
 11
-92.49999999816379
 21
0.0000000000535013
 31
0.0
210
0.0
220
0.0
230
1.0
 40
0.891006524188365
 41
0.0
 42
0.0075419893201936
  0
ELLIPSE
  5
760
330
1F
100
AcDbEntity
  8
0
  6
Continuous
100
AcDbEllipse
 10
2220.544043521254
 20
261.6974409280758
 30
0.0
 11
24.99999999999991
 21
-0.0000000000144565
 31
0.0
210
0.0
220
0.0
230
1.0
 40
0.8910065241883652
 41
1.793949266059334
 42
7.630828694711338
  0
ELLIPSE
  5
761
330
1F
100
AcDbEntity
  8
0
  6
Continuous
100
AcDbEllipse
 10
2220.544043521238
 20
234.9120014434427
 30
0.0
 11
92.49999999999969
 21
-0.0000000000534683
 31
0.0
210
0.0
220
0.0
230
1.0
 40
0.891006524188365
 41
2.710390355784831
 42
6.714387604985827
  0
ELLIPSE
  5
762
330
1F
100
AcDbEntity
  8
0
  6
Continuous
100
AcDbEllipse
 10
2220.544043521253
 20
259.4274884293779
 30
0.0
 11
24.99999999999991
 21
0.0
 31
0.0
210
0.0
220
0.0
230
1.0
 40
0.891006524188365
 41
3.141592653589448
 42
6.283185307179242
  0
ELLIPSE
  5
763
330
1F
100
AcDbEntity
  8
0
  6
Continuous
100
AcDbEllipse
 10
2220.544043521254
 20
261.6974409280758
 30
0.0
 11
9.999999999999957
 21
0.0
 31
0.0
210
0.0
220
0.0
230
1.0
 40
0.891006524188365
 41
3.141592653589466
 42
6.283185307179258
  0
ELLIPSE
  5
764
330
1F
100
AcDbEntity
  8
0
  6
Continuous
100
AcDbEllipse
 10
2220.544043521264
 20
275.9981416698713
 30
0.0
 11
-9.999999999999953
 21
0.0
 31
0.0
210
0.0
220
0.0
230
1.0
 40
0.891006524188365
 41
0.0
 42
6.283185307179586
  0
ELLIPSE
  5
765
330
1F
100
AcDbEntity
  8
0
  6
Continuous
100
AcDbEllipse
 10
2220.544043521264
 20
276.6791274194809
 30
0.0
 11
8.499999999999957
 21
0.0
 31
0.0
210
0.0
220
0.0
230
1.0
 40
0.891006524188365
 41
0.0
 42
6.283185307179586
  0
ELLIPSE
  5
766
330
1F
100
AcDbEntity
  8
0
  6
Continuous
100
AcDbEllipse
 10
2258.812386757739
 20
115.8205018613746
 30
0.0
 11
6.0
 21
-0.0000000000034694
 31
0.0
210
0.0
220
0.0
230
1.0
 40
0.891006524188365
 41
4.293509959906682
 42
5.916666164261414
  0
LINE
  5
767
330
1F
100
AcDbEntity
  8
0
  6
Continuous
100
AcDbLine
 10
2270.925131281592
 20
150.3558307802452
 30
0.0
 11
2270.925131281581
 21
129.018277292487
 31
0.0
  0
LINE
  5
768
330
1F
100
AcDbEntity
  8
0
  6
Continuous
100
AcDbLine
 10
2270.925131281581
 20
129.018277292487
 30
0.0
 11
2264.413869316722
 21
113.9046527747453
 31
0.0
  0
LINE
  5
769
330
1F
100
AcDbEntity
  8
0
  6
Continuous
100
AcDbLine
 10
2256.371966899285
 20
110.9366520839614
 30
0.0
 11
2239.773569081993
 21
117.5212641072864
 31
0.0
  0
LINE
  5
76A
330
1F
100
AcDbEntity
  8
0
  6
Continuous
100
AcDbLine
 10
2239.773569081993
 20
117.5212641072864
 30
0.0
 11
2239.773569082006
 21
138.8588175950447
 31
0.0
  0
LINE
  5
76B
330
1F
100
AcDbEntity
  8
0
  6
Continuous
100
AcDbLine
 10
2122.156090270095
 20
164.0414274709308
 30
0.0
 11
2122.156090270105
 21
181.9536418238056
 31
0.0
  0
LINE
  5
76C
330
1F
100
AcDbEntity
  8
0
  6
Continuous
100
AcDbLine
 10
2122.156090270086
 20
232.2361144581489
 30
0.0
 11
2122.156090270095
 21
250.1483288110232
 31
0.0
  0
LINE
  5
76D
330
1F
100
AcDbEntity
  8
0
  6
Continuous
100
AcDbLine
 10
2318.931996772351
 20
164.0414274709308
 30
0.0
 11
2318.931996772362
 21
181.9536418238056
 31
0.0
  0
LINE
  5
76E
330
1F
100
AcDbEntity
  8
0
  6
Continuous
100
AcDbLine
 10
2318.931996772342
 20
232.2361144581489
 30
0.0
 11
2318.931996772351
 21
250.1483288110237
 31
0.0
  0
ELLIPSE
  5
76F
330
1F
100
AcDbEntity
  8
0
  6
Continuous
100
AcDbEllipse
 10
2182.275700284722
 20
115.8205018613746
 30
0.0
 11
-6.000000000000004
 21
0.0000000000040263
 31
0.0
210
0.0
220
0.0
230
1.0
 40
0.891006524188365
 41
0.3665191429196026
 42
1.989675347274259
  0
LINE
  5
770
330
1F
100
AcDbEntity
  8
0
  6
Continuous
100
AcDbLine
 10
2201.314517960478
 20
138.8588175950447
 30
0.0
 11
2201.314517960466
 21
117.5212641072864
 31
0.0
  0
LINE
  5
771
330
1F
100
AcDbEntity
  8
0
  6
Continuous
100
AcDbLine
 10
2201.314517960466
 20
117.5212641072864
 30
0.0
 11
2184.716120143177
 21
110.9366520839614
 31
0.0
  0
ELLIPSE
  5
772
330
1F
100
AcDbEntity
  8
0
  6
Continuous
100
AcDbEllipse
 10
2128.156090270095
 20
164.0414274709303
 30
0.0
 11
-5.999999999999897
 21
0.0000000000034705
 31
0.0
210
0.0
220
0.0
230
1.0
 40
0.891006524188365
 41
0.0
 42
1.204277183876735
  0
LINE
  5
773
330
1F
100
AcDbEntity
  8
0
  6
Continuous
100
AcDbLine
 10
2142.968299914851
 20
174.5864465621173
 30
0.0
 11
2142.96829991484
 21
153.2488930743591
 31
0.0
  0
LINE
  5
774
330
1F
100
AcDbEntity
  8
0
  6
Continuous
100
AcDbLine
 10
2142.968299914838
 20
153.2488930743591
 30
0.0
 11
2126.005882572824
 21
159.0504699657492
 31
0.0
  0
ELLIPSE
  5
775
330
1F
100
AcDbEntity
  8
0
  6
Continuous
100
AcDbEllipse
 10
2128.156090270084
 20
232.2361144581484
 30
0.0
 11
-5.999999999999727
 21
0.0000000000034715
 31
0.0
210
0.0
220
0.0
230
1.0
 40
0.891006524188365
 41
0.0
 42
0.4188790204792783
  0
LINE
  5
776
330
1F
100
AcDbEntity
  8
0
  6
Continuous
100
AcDbLine
 10
2128.044043521215
 20
219.3166099425568
 30
0.0
 11
2122.67481752423
 21
230.0616844425065
 31
0.0
  0
LINE
  5
777
330
1F
100
AcDbEntity
  8
0
  6
Continuous
100
AcDbLine
 10
2176.674217725738
 20
113.9046527747453
 30
0.0
 11
2170.162955760875
 21
129.018277292487
 31
0.0
  0
LINE
  5
778
330
1F
100
AcDbEntity
  8
0
  6
Continuous
100
AcDbLine
 10
2170.162955760875
 20
129.018277292487
 30
0.0
 11
2170.162955760888
 21
150.3558307802452
 31
0.0
  0
LINE
  5
779
330
1F
100
AcDbEntity
  8
0
  6
Continuous
100
AcDbLine
 10
2315.082204469623
 20
159.0504699657492
 30
0.0
 11
2298.119787127609
 21
153.2488930743591
 31
0.0
  0
LINE
  5
77A
330
1F
100
AcDbEntity
  8
0
  6
Continuous
100
AcDbLine
 10
2298.119787127609
 20
153.2488930743591
 30
0.0
 11
2298.119787127621
 21
174.5864465621173
 31
0.0
  0
ELLIPSE
  5
77B
330
1F
100
AcDbEntity
  8
0
  6
Continuous
100
AcDbEllipse
 10
2312.931996772351
 20
164.0414274709308
 30
0.0
 11
6.000000000000011
 21
0.0000000000000277
 31
0.0
210
0.0
220
0.0
230
1.0
 40
0.8910065241883652
 41
5.07890812330353
 42
6.283185307179211
  0
LINE
  5
77C
330
1F
100
AcDbEntity
  8
0
  6
Continuous
100
AcDbLine
 10
2318.413269518196
 20
230.0616844425069
 30
0.0
 11
2313.044043521215
 21
219.3166099425573
 31
0.0
  0
ELLIPSE
  5
77D
330
1F
100
AcDbEntity
  8
0
  6
Continuous
100
AcDbEllipse
 10
2312.93199677234
 20
232.2361144581489
 30
0.0
 11
6.000000000000667
 21
-0.0000000000000791
 31
0.0
210
0.0
220
0.0
230
1.0
 40
0.8910065241883652
 41
5.86430628670069
 42
6.283185307179303
  0
SPLINE
  5
77E
330
1F
100
AcDbEntity
  8
0
  6
Continuous
100
AcDbSpline
210
0.0
220
0.0
230
1.0
 70
    12
 71
     2
 72
     6
 73
     3
 74
     0
 42
0.0000000001
 43
0.0000000001
 40
0.5348559529099139
 40
0.5348559529099139
 40
0.5348559529099139
 40
2.028228737672941
 40
2.028228737672941
 40
2.028228737672941
 10
2128.195353845714
 20
239.6241975224222
 30
0.0
 41
1.00301617219686
 10
2125.558876030414
 20
243.8488948947845
 30
0.0
 41
1.006391918445649
 10
2122.674817524239
 20
248.3270177253591
 30
0.0
 41
1.005104936193837
  0
SPLINE
  5
77F
330
1F
100
AcDbEntity
  8
0
  6
Continuous
100
AcDbSpline
210
0.0
220
0.0
230
1.0
 70
     8
 71
     3
 72
    14
 73
    10
 74
     0
 42
0.0000000001
 43
0.0000000001
 40
0.5302283687096669
 40
0.5302283687096669
 40
0.5302283687096669
 40
0.5302283687096669
 40
0.7705741176297892
 40
0.7705741176297892
 40
1.013400618476665
 40
1.013400618476665
 40
1.256227119323543
 40
1.256227119323543
 40
1.496572868243664
 40
1.496572868243664
 40
1.496572868243664
 40
1.496572868243664
 10
2126.005882572822
 20
255.4924052461822
 30
0.0
 10
2125.310915026515
 20
255.1189068599785
 30
0.0
 10
2124.603709359964
 20
254.6140687606969
 30
0.0
 10
2123.408064960387
 20
253.4294673084148
 30
0.0
 10
2122.922565337737
 20
252.7473047109322
 30
0.0
 10
2122.303060812315
 20
251.4147008947928
 30
0.0
 10
2122.139065818157
 20
250.6997485893082
 30
0.0
 10
2122.175899914111
 20
249.3916563332775
 30
0.0
 10
2122.37203828979
 20
248.7971477866965
 30
0.0
 10
2122.674817524239
 20
248.3270177253591
 30
0.0
  0
SPLINE
  5
780
330
1F
100
AcDbEntity
  8
0
  6
Continuous
100
AcDbSpline
210
0.0
220
0.0
230
1.0
 70
    12
 71
     2
 72
     6
 73
     3
 74
     0
 42
0.0000000001
 43
0.0000000001
 40
1.203842643101284
 40
1.203842643101284
 40
1.203842643101284
 40
1.890486619332982
 40
1.890486619332982
 40
1.890486619332982
 10
2126.005882572822
 20
255.4924052461821
 30
0.0
 41
1.005104936193825
 10
2129.051715019779
 20
257.1293356462153
 30
0.0
 41
1.005696683023377
 10
2131.970670960539
 20
258.6704472871408
 30
0.0
 41
1.005302679611285
  0
ELLIPSE
  5
781
330
1F
100
AcDbEntity
  8
0
  6
Continuous
100
AcDbEllipse
 10
2220.544043521231
 20
219.476324452298
 30
0.0
 11
-92.4999999999995
 21
0.000000000053485
 31
0.0
210
0.0
220
0.0
230
1.0
 40
0.891006524188365
 41
0.2094140254039834
 42
0.5759841379947659
  0
SPLINE
  5
782
330
1F
100
AcDbEntity
  8
0
  6
Continuous
100
AcDbSpline
210
0.0
220
0.0
230
1.0
 70
    12
 71
     2
 72
     6
 73
     3
 74
     0
 42
0.0000000001
 43
0.0000000001
 40
0.0
 40
0.0
 40
0.0
 40
2.028228737672969
 40
2.028228737672969
 40
2.028228737672969
 10
2142.968299914851
 20
174.5864465621173
 30
0.0
 41
1.0
 10
2134.9924189811
 20
175.9982163915617
 30
0.0
 41
1.00685285500863
 10
2126.005882572834
 20
177.3158032486015
 30
0.0
 41
1.00510493619383
  0
SPLINE
  5
783
330
1F
100
AcDbEntity
  8
0
  6
Continuous
100
AcDbSpline
210
0.0
220
0.0
230
1.0
 70
     8
 71
     3
 72
    14
 73
    10
 74
     0
 42
0.0000000001
 43
0.0000000001
 40
0.5302283687096658
 40
0.5302283687096658
 40
0.5302283687096658
 40
0.5302283687096658
 40
0.7705741176297881
 40
0.7705741176297881
 40
1.013400618476666
 40
1.013400618476666
 40
1.256227119323543
 40
1.256227119323543
 40
1.496572868243666
 40
1.496572868243666
 40
1.496572868243666
 40
1.496572868243666
 10
2122.674817524248
 20
184.481190769425
 30
0.0
 10
2122.372038289801
 20
183.7394569855758
 30
0.0
 10
2122.175899914122
 20
182.9012244228718
 30
0.0
 10
2122.139065818168
 20
181.261755846341
 30
0.0
 10
2122.303060812326
 20
180.4609365044809
 30
0.0
 10
2122.922565337749
 20
179.1283326883415
 30
0.0
 10
2123.408064960398
 20
178.5320371272348
 30
0.0
 10
2124.603709359975
 20
177.6788119954528
 30
0.0
 10
2125.310915026528
 20
177.4176979122942
 30
0.0
 10
2126.005882572834
 20
177.3158032486015
 30
0.0
  0
SPLINE
  5
784
330
1F
100
AcDbEntity
  8
0
  6
Continuous
100
AcDbSpline
210
0.0
220
0.0
230
1.0
 70
    12
 71
     2
 72
     6
 73
     3
 74
     0
 42
0.0000000001
 43
0.0000000001
 40
1.203842643101279
 40
1.203842643101279
 40
1.203842643101279
 40
3.232071380774217
 40
3.232071380774217
 40
3.232071380774217
 10
2122.674817524248
 20
184.481190769425
 30
0.0
 41
1.005104936193811
 10
2126.590017059108
 20
194.0724554108067
 30
0.0
 41
1.006852855008604
 10
2130.064900362669
 20
202.3426917206104
 30
0.0
 41
1.0
  0
SPLINE
  5
785
330
1F
100
AcDbEntity
  8
0
  6
Continuous
100
AcDbSpline
210
0.0
220
0.0
230
1.0
 70
     8
 71
     3
 72
    14
 73
    10
 74
     0
 42
0.0000000001
 43
0.0000000001
 40
0.5302283687096694
 40
0.5302283687096694
 40
0.5302283687096694
 40
0.5302283687096694
 40
0.7705741176297888
 40
0.7705741176297888
 40
1.013400618476665
 40
1.013400618476665
 40
1.256227119323543
 40
1.256227119323543
 40
1.496572868243661
 40
1.496572868243661
 40
1.496572868243661
 40
1.496572868243661
 10
2318.413269518207
 20
248.3270177253591
 30
0.0
 10
2318.716048752656
 20
248.797147786697
 30
0.0
 10
2318.912187128336
 20
249.3916563332775
 30
0.0
 10
2318.949021224287
 20
250.6997485893087
 30
0.0
 10
2318.785026230128
 20
251.4147008947928
 30
0.0
 10
2318.165521704706
 20
252.7473047109322
 30
0.0
 10
2317.680022082057
 20
253.4294673084148
 30
0.0
 10
2316.484377682479
 20
254.6140687606969
 30
0.0
 10
2315.77717201593
 20
255.1189068599785
 30
0.0
 10
2315.082204469623
 20
255.4924052461822
 30
0.0
  0
SPLINE
  5
786
330
1F
100
AcDbEntity
  8
0
  6
Continuous
100
AcDbSpline
210
0.0
220
0.0
230
1.0
 70
    12
 71
     2
 72
     6
 73
     3
 74
     0
 42
0.0000000001
 43
0.0000000001
 40
1.203842643101294
 40
1.203842643101294
 40
1.203842643101294
 40
2.697215427864383
 40
2.697215427864383
 40
2.697215427864383
 10
2318.413269518207
 20
248.3270177253591
 30
0.0
 41
1.005104936193834
 10
2315.529211012035
 20
243.8488948947845
 30
0.0
 41
1.006391918445645
 10
2312.892733196739
 20
239.6241975224222
 30
0.0
 41
1.003016172196858
  0
SPLINE
  5
787
330
1F
100
AcDbEntity
  8
0
  6
Continuous
100
AcDbSpline
210
0.0
220
0.0
230
1.0
 70
    12
 71
     2
 72
     6
 73
     3
 74
     0
 42
0.0000000001
 43
0.0000000001
 40
1.341584761441226
 40
1.341584761441226
 40
1.341584761441226
 40
2.028228737672966
 40
2.028228737672966
 40
2.028228737672966
 10
2309.117416081905
 20
258.6704472871408
 30
0.0
 41
1.005302679611304
 10
2312.036372022665
 20
257.1293356462153
 30
0.0
 41
1.005696683023397
 10
2315.082204469623
 20
255.4924052461822
 30
0.0
 41
1.005104936193844
  0
ELLIPSE
  5
788
330
1F
100
AcDbEntity
  8
0
  6
Continuous
100
AcDbEllipse
 10
2220.544043521231
 20
219.476324452298
 30
0.0
 11
92.49999999999953
 21
-0.0000000000449918
 31
0.0
210
0.0
220
0.0
230
1.0
 40
0.8910065241883653
 41
4.136404842391137
 42
4.502974954981936
  0
SPLINE
  5
789
330
1F
100
AcDbEntity
  8
0
  6
Continuous
100
AcDbSpline
210
0.0
220
0.0
230
1.0
 70
    12
 71
     2
 72
     6
 73
     3
 74
     0
 42
0.0000000001
 43
0.0000000001
 40
0.0
 40
0.0
 40
0.0
 40
2.028228737672941
 40
2.028228737672941
 40
2.028228737672941
 10
2201.314517960478
 20
138.8588175950447
 30
0.0
 41
1.0
 10
2193.509802275655
 20
134.4464901855879
 30
0.0
 41
1.006852855008639
 10
2184.716120143188
 20
129.2019853668137
 30
0.0
 41
1.005104936193837
  0
SPLINE
  5
78A
330
1F
100
AcDbEntity
  8
0
  6
Continuous
100
AcDbSpline
210
0.0
220
0.0
230
1.0
 70
     8
 71
     3
 72
    14
 73
    10
 74
     0
 42
0.0000000001
 43
0.0000000001
 40
0.5302283687096669
 40
0.5302283687096669
 40
0.5302283687096669
 40
0.5302283687096669
 40
0.7705741176297892
 40
0.7705741176297892
 40
1.013400618476665
 40
1.013400618476665
 40
1.256227119323543
 40
1.256227119323543
 40
1.496572868243664
 40
1.496572868243664
 40
1.496572868243664
 40
1.496572868243664
 10
2176.674217725749
 20
132.1699860575975
 30
0.0
 10
2176.940990772293
 20
131.414963578484
 30
0.0
 10
2177.370814887856
 20
130.6629767075822
 30
0.0
 10
2178.514368009377
 20
129.4319615867005
 30
0.0
 10
2179.231791576929
 20
128.9564447372397
 30
0.0
 10
2180.727407804153
 20
128.4044621633245
 30
0.0
 10
2181.578002949192
 20
128.3012750717828
 30
0.0
 10
2183.232065378897
 20
128.4997826518395
 30
0.0
 10
2184.036066848241
 20
128.7964052322752
 30
0.0
 10
2184.716120143188
 20
129.2019853668137
 30
0.0
  0
SPLINE
  5
78B
330
1F
100
AcDbEntity
  8
0
  6
Continuous
100
AcDbSpline
210
0.0
220
0.0
230
1.0
 70
    12
 71
     2
 72
     6
 73
     3
 74
     0
 42
0.0000000001
 43
0.0000000001
 40
1.203842643101284
 40
1.203842643101284
 40
1.203842643101284
 40
3.232071380774219
 40
3.232071380774219
 40
3.232071380774219
 10
2176.674217725749
 20
132.1699860575975
 30
0.0
 41
1.005104936193825
 10
2173.224609599079
 20
141.9330851169318
 30
0.0
 41
1.006852855008623
 10
2170.162955760888
 20
150.3558307802452
 30
0.0
 41
1.0
  0
ELLIPSE
  5
78C
330
1F
100
AcDbEntity
  8
0
  6
Continuous
100
AcDbEllipse
 10
2220.544043521231
 20
219.4763244522985
 30
0.0
 11
92.49999999999989
 21
-0.0000000000535072
 31
0.0
210
0.0
220
0.0
230
1.0
 40
0.891006524188365
 41
4.921803005788671
 42
5.288373118379455
  0
SPLINE
  5
78D
330
1F
100
AcDbEntity
  8
0
  6
Continuous
100
AcDbSpline
210
0.0
220
0.0
230
1.0
 70
    12
 71
     2
 72
     6
 73
     3
 74
     0
 42
0.0000000001
 43
0.0000000001
 40
0.0
 40
0.0
 40
0.0
 40
2.028228737672969
 40
2.028228737672969
 40
2.028228737672969
 10
2270.925131281592
 20
150.3558307802452
 30
0.0
 41
1.0
 10
2267.863477443401
 20
141.9330851169323
 30
0.0
 41
1.00685285500863
 10
2264.413869316731
 20
132.1699860575975
 30
0.0
 41
1.00510493619383
  0
SPLINE
  5
78E
330
1F
100
AcDbEntity
  8
0
  6
Continuous
100
AcDbSpline
210
0.0
220
0.0
230
1.0
 70
     8
 71
     3
 72
    14
 73
    10
 74
     0
 42
0.0000000001
 43
0.0000000001
 40
0.5302283687096649
 40
0.5302283687096649
 40
0.5302283687096649
 40
0.5302283687096649
 40
0.7705741176297878
 40
0.7705741176297878
 40
1.013400618476665
 40
1.013400618476665
 40
1.256227119323542
 40
1.256227119323542
 40
1.496572868243664
 40
1.496572868243664
 40
1.496572868243664
 40
1.496572868243664
 10
2256.371966899294
 20
129.2019853668137
 30
0.0
 10
2257.052020194243
 20
128.7964052322752
 30
0.0
 10
2257.856021663587
 20
128.4997826518395
 30
0.0
 10
2259.51008409329
 20
128.3012750717828
 30
0.0
 10
2260.360679238329
 20
128.4044621633245
 30
0.0
 10
2261.856295465553
 20
128.9564447372397
 30
0.0
 10
2262.573719033103
 20
129.4319615867005
 30
0.0
 10
2263.717272154627
 20
130.6629767075822
 30
0.0
 10
2264.147096270189
 20
131.414963578484
 30
0.0
 10
2264.413869316733
 20
132.1699860575975
 30
0.0
  0
SPLINE
  5
78F
330
1F
100
AcDbEntity
  8
0
  6
Continuous
100
AcDbSpline
210
0.0
220
0.0
230
1.0
 70
    12
 71
     2
 72
     6
 73
     3
 74
     0
 42
0.0000000001
 43
0.0000000001
 40
1.203842643101237
 40
1.203842643101237
 40
1.203842643101237
 40
3.23207138077422
 40
3.23207138077422
 40
3.23207138077422
 10
2256.371966899294
 20
129.2019853668137
 30
0.0
 41
1.005104936193884
 10
2247.57828476683
 20
134.4464901855879
 30
0.0
 41
1.006852855008703
 10
2239.773569082006
 20
138.8588175950447
 30
0.0
 41
1.0
  0
SPLINE
  5
790
330
1F
100
AcDbEntity
  8
0
  6
Continuous
100
AcDbSpline
210
0.0
220
0.0
230
1.0
 70
     8
 71
     3
 72
    14
 73
    10
 74
     0
 42
0.0000000001
 43
0.0000000001
 40
0.5302283687096653
 40
0.5302283687096653
 40
0.5302283687096653
 40
0.5302283687096653
 40
0.7705741176297885
 40
0.7705741176297885
 40
1.013400618476664
 40
1.013400618476664
 40
1.256227119323541
 40
1.256227119323541
 40
1.496572868243667
 40
1.496572868243667
 40
1.496572868243667
 40
1.496572868243667
 10
2315.082204469634
 20
177.3158032486015
 30
0.0
 10
2315.777172015941
 20
177.4176979122942
 30
0.0
 10
2316.484377682491
 20
177.6788119954528
 30
0.0
 10
2317.680022082069
 20
178.5320371272348
 30
0.0
 10
2318.165521704719
 20
179.1283326883415
 30
0.0
 10
2318.785026230141
 20
180.4609365044814
 30
0.0
 10
2318.9490212243
 20
181.261755846341
 30
0.0
 10
2318.912187128346
 20
182.9012244228722
 30
0.0
 10
2318.716048752665
 20
183.7394569855758
 30
0.0
 10
2318.413269518218
 20
184.481190769425
 30
0.0
  0
SPLINE
  5
791
330
1F
100
AcDbEntity
  8
0
  6
Continuous
100
AcDbSpline
210
0.0
220
0.0
230
1.0
 70
    12
 71
     2
 72
     6
 73
     3
 74
     0
 42
0.0000000001
 43
0.0000000001
 40
1.203842643101286
 40
1.203842643101286
 40
1.203842643101286
 40
3.23207138077422
 40
3.23207138077422
 40
3.23207138077422
 10
2315.082204469634
 20
177.3158032486015
 30
0.0
 41
1.005104936193802
 10
2306.095668061372
 20
175.9982163915617
 30
0.0
 41
1.006852855008592
 10
2298.119787127621
 20
174.5864465621173
 30
0.0
 41
1.0
  0
ELLIPSE
  5
792
330
1F
100
AcDbEntity
  8
0
  6
Continuous
100
AcDbEllipse
 10
2220.544043521231
 20
219.476324452298
 30
0.0
 11
92.49999999999996
 21
-0.0000000000534794
 31
0.0
210
0.0
220
0.0
230
1.0
 40
0.891006524188365
 41
5.707201169186122
 42
6.073771281776907
  0
SPLINE
  5
793
330
1F
100
AcDbEntity
  8
0
  6
Continuous
100
AcDbSpline
210
0.0
220
0.0
230
1.0
 70
    12
 71
     2
 72
     6
 73
     3
 74
     0
 42
0.0000000001
 43
0.0000000001
 40
0.0
 40
0.0
 40
0.0
 40
2.028228737672995
 40
2.028228737672995
 40
2.028228737672995
 10
2311.023186679797
 20
202.3426917206109
 30
0.0
 41
1.0
 10
2314.498069983357
 20
194.0724554108067
 30
0.0
 41
1.006852855008685
 10
2318.413269518218
 20
184.481190769425
 30
0.0
 41
1.005104936193871
  0
SPLINE
  5
794
330
1F
100
AcDbEntity
  8
0
  6
Continuous
100
AcDbSpline
210
0.0
220
0.0
230
1.0
 70
     8
 71
     3
 72
    18
 73
    14
 74
     0
 42
0.0000000001
 43
0.0000000001
 40
4.818606267338678
 40
4.818606267338678
 40
4.818606267338678
 40
4.818606267338678
 40
4.833911921718174
 40
4.833911921718174
 40
5.163107893811909
 40
5.163107893811909
 40
5.495145713202006
 40
5.495145713202006
 40
5.833559402440287
 40
5.833559402440287
 40
6.164722644227479
 40
6.164722644227479
 40
6.174461180835356
 40
6.174461180835356
 40
6.174461180835356
 40
6.174461180835356
 10
1944.060038526522
 20
751.8192368951494
 30
0.0
 10
1944.04066293711
 20
751.4189462990997
 30
0.0
 10
1944.019895279421
 20
751.0189551672501
 30
0.0
 10
1943.521162228962
 20
742.0236095827694
 30
0.0
 10
1942.397815322809
 20
733.5900198420294
 30
0.0
 10
1938.927089101211
 20
717.792815309638
 30
0.0
 10
1936.573062784906
 20
710.4422973653844
 30
0.0
 10
1930.710759783478
 20
697.4610679539668
 30
0.0
 10
1927.191295941087
 20
691.8570545292348
 30
0.0
 10
1919.072852701887
 20
683.2271160999879
 30
0.0
 10
1914.42895036101
 20
680.1128702608429
 30
0.0
 10
1909.149808508229
 20
678.7288696567833
 30
0.0
 10
1908.998665055916
 20
678.6908858058471
 30
0.0
 10
1908.847209311168
 20
678.6544707563974
 30
0.0
  0
SPLINE
  5
795
330
1F
100
AcDbEntity
  8
0
  6
Continuous
100
AcDbSpline
210
0.0
220
0.0
230
1.0
 70
     8
 71
     3
 72
    16
 73
    12
 74
     0
 42
0.0000000001
 43
0.0000000001
 40
3.250316779934023
 40
3.250316779934023
 40
3.250316779934023
 40
3.250316779934023
 40
3.511551141194616
 40
3.511551141194616
 40
3.83082219615683
 40
3.83082219615683
 40
4.170817506430815
 40
4.170817506430815
 40
4.504307147802868
 40
4.504307147802868
 40
4.606171693430701
 40
4.606171693430701
 40
4.606171693430701
 40
4.606171693430701
 10
1908.847209311168
 20
841.7092250318255
 30
0.0
 10
1912.909980375406
 20
840.732398372293
 30
0.0
 10
1916.701314297543
 20
838.6300270978999
 30
0.0
 10
1924.231006115849
 20
832.1978870339993
 30
0.0
 10
1927.827781517598
 20
827.4745674273011
 30
0.0
 10
1934.238255316746
 20
815.838867088652
 30
0.0
 10
1936.980586064577
 20
808.7851409782059
 30
0.0
 10
1941.185127619219
 20
793.389870437524
 30
0.0
 10
1942.66507493661
 20
785.0780179018178
 30
0.0
 10
1943.740438440612
 20
773.8593259495108
 30
0.0
 10
1943.931087123144
 20
771.2085344480382
 30
0.0
 10
1944.060038526522
 20
768.5444588930371
 30
0.0
  0
LINE
  5
796
330
1F
100
AcDbEntity
  8
0
  6
Continuous
100
AcDbLine
 10
1740.921082306007
 20
830.181847894102
 30
0.0
 11
1732.812922935891
 21
830.1818478941003
 31
0.0
  0
LINE
  5
797
330
1F
100
AcDbEntity
  8
0
  6
Continuous
100
AcDbLine
 10
1726.724723772515
 20
798.911681356184
 30
0.0
 11
1718.6165644024
 21
798.9116813561826
 31
0.0
  0
LINE
  5
798
330
1F
100
AcDbEntity
  8
0
  6
Continuous
100
AcDbLine
 10
1740.921082306007
 20
690.1818478941021
 30
0.0
 11
1732.812922935893
 21
690.1818478941008
 31
0.0
  0
LINE
  5
799
330
1F
100
AcDbEntity
  8
0
  6
Continuous
100
AcDbLine
 10
1726.724723772515
 20
721.4520144320357
 30
0.0
 11
1718.6165644024
 21
721.4520144320348
 31
0.0
  0
LINE
  5
79A
330
1F
100
AcDbEntity
  8
0
  6
Continuous
100
AcDbLine
 10
1731.230635497746
 20
692.2058565615901
 30
0.0
 11
1731.89032230849
 21
691.3454009751034
 31
0.0
  0
LINE
  5
79B
330
1F
100
AcDbEntity
  8
0
  6
Continuous
100
AcDbLine
 10
1731.230635497746
 20
828.1578392266117
 30
0.0
 11
1731.89032230849
 21
829.0182948130995
 31
0.0
  0
SPLINE
  5
79C
330
1F
100
AcDbEntity
  8
0
  6
Continuous
100
AcDbSpline
210
0.0
220
0.0
230
1.0
 70
     8
 71
     3
 72
     8
 73
     4
 74
     0
 42
0.0000000001
 43
0.0000000001
 40
-0.1437727732828387
 40
-0.1437727732828387
 40
-0.1437727732828387
 40
-0.1437727732828387
 40
0.0
 40
0.0
 40
0.0
 40
0.0
 10
1718.179548377951
 20
721.7110797707658
 30
0.0
 10
1718.325202544625
 20
721.6244445087435
 30
0.0
 10
1718.470878496145
 20
721.5380889399301
 30
0.0
 10
1718.6165644024
 20
721.4520144320348
 30
0.0
  0
SPLINE
  5
79D
330
1F
100
AcDbEntity
  8
0
  6
Continuous
100
AcDbSpline
210
0.0
220
0.0
230
1.0
 70
     8
 71
     3
 72
     8
 73
     4
 74
     0
 42
0.0000000001
 43
0.0000000001
 40
-0.1437727732840677
 40
-0.1437727732840677
 40
-0.1437727732840677
 40
-0.1437727732840677
 40
0.0
 40
0.0
 40
0.0
 40
0.0
 10
1718.179548377951
 20
798.6526160174511
 30
0.0
 10
1718.325202544625
 20
798.739251279473
 30
0.0
 10
1718.470878496144
 20
798.8256068482863
 30
0.0
 10
1718.6165644024
 20
798.911681356183
 30
0.0
  0
ELLIPSE
  5
79E
330
1F
100
AcDbEntity
  8
0
  6
Continuous
100
AcDbEllipse
 10
1750.395899384167
 20
760.1818478940903
 30
0.0
 11
-0.000000000012218
 21
79.99999999999966
 31
0.0
210
0.0
220
0.0
230
1.0
 40
0.4539904997395452
 41
0.5053605102838255
 42
1.065435816510411
  0
LINE
  5
79F
330
1F
100
AcDbEntity
  8
0
  6
Continuous
100
AcDbLine
 10
1718.6165644024
 20
721.4520144320348
 30
0.0
 11
1718.6165644024
 21
798.9116813561826
 31
0.0
  0
ELLIPSE
  5
7A0
330
1F
100
AcDbEntity
  8
0
  6
Continuous
100
AcDbEllipse
 10
1750.395899384167
 20
760.1818478940903
 30
0.0
 11
-0.0000000000084571
 21
79.99999999999949
 31
0.0
210
0.0
220
0.0
230
1.0
 40
0.4539904997395452
 41
2.076156837079139
 42
2.636232143305976
  0
LINE
  5
7A1
330
1F
100
AcDbEntity
  8
0
  6
Continuous
100
AcDbLine
 10
1760.785372940501
 20
691.1818478940912
 30
0.0
 11
1741.929702032792
 21
691.1818478941021
 31
0.0
  0
LINE
  5
7A2
330
1F
100
AcDbEntity
  8
0
  6
Continuous
100
AcDbLine
 10
1740.921082306007
 20
690.1818478941021
 30
0.0
 11
1761.302317069135
 21
690.1818478940898
 31
0.0
  0
ELLIPSE
  5
7A3
330
1F
100
AcDbEntity
  8
0
  6
Continuous
100
AcDbEllipse
 10
1759.395065278471
 20
760.1818478940916
 30
0.0
 11
-0.0000000000083378
 21
78.99999999999974
 31
0.0
210
0.0
220
0.0
230
1.0
 40
0.4539904997395452
 41
2.079415586478297
 42
2.632973393906818
  0
SPLINE
  5
7A4
330
1F
100
AcDbEntity
  8
0
  6
Continuous
100
AcDbSpline
210
0.0
220
0.0
230
1.0
 70
     8
 71
     3
 72
     8
 73
     4
 74
     0
 42
0.0000000001
 43
0.0000000001
 40
-0.1437727769615449
 40
-0.1437727769615449
 40
-0.1437727769615449
 40
-0.1437727769615449
 40
0.0
 40
0.0
 40
0.0
 40
0.0
 10
1740.921082306007
 20
690.1818478941021
 30
0.0
 10
1741.257189825626
 20
690.5152130297113
 30
0.0
 10
1741.593404648103
 20
690.8485553864446
 30
0.0
 10
1741.929702032792
 20
691.1818478941021
 30
0.0
  0
ELLIPSE
  5
7A5
330
1F
100
AcDbEntity
  8
0
  6
Continuous
100
AcDbEllipse
 10
1758.504058754282
 20
760.1818478940916
 30
0.0
 11
0.0000000000122041
 21
-79.99999999999949
 31
0.0
210
0.0
220
0.0
230
1.0
 40
0.4539904997395452
 41
5.217749490668513
 42
5.777824796895094
  0
LINE
  5
7A6
330
1F
100
AcDbEntity
  8
0
  6
Continuous
100
AcDbLine
 10
1728.069720796442
 20
721.7110797707672
 30
0.0
 11
1728.069720796442
 21
798.6526160174524
 31
0.0
  0
SPLINE
  5
7A7
330
1F
100
AcDbEntity
  8
0
  6
Continuous
100
AcDbSpline
210
0.0
220
0.0
230
1.0
 70
     8
 71
     3
 72
     8
 73
     4
 74
     0
 42
0.0000000001
 43
0.0000000001
 40
-0.1437727769613334
 40
-0.1437727769613334
 40
-0.1437727769613334
 40
-0.1437727769613334
 40
0.0
 40
0.0
 40
0.0
 40
0.0
 10
1726.724723772515
 20
721.4520144320366
 30
0.0
 10
1727.173098887791
 20
721.5380889399311
 30
0.0
 10
1727.621443365546
 20
721.6244445087453
 30
0.0
 10
1728.069720796442
 20
721.7110797707672
 30
0.0
  0
LINE
  5
7A8
330
1F
100
AcDbEntity
  8
0
  6
Continuous
100
AcDbLine
 10
1726.724723772515
 20
798.911681356184
 30
0.0
 11
1726.724723772515
 21
721.4520144320357
 31
0.0
  0
ELLIPSE
  5
7A9
330
1F
100
AcDbEntity
  8
0
  6
Continuous
100
AcDbEllipse
 10
1759.395065278471
 20
760.1818478940916
 30
0.0
 11
-0.000000000012057
 21
78.99999999999955
 31
0.0
210
0.0
220
0.0
230
1.0
 40
0.4539904997395455
 41
0.508619259682968
 42
1.062177067111253
  0
SPLINE
  5
7AA
330
1F
100
AcDbEntity
  8
0
  6
Continuous
100
AcDbSpline
210
0.0
220
0.0
230
1.0
 70
     8
 71
     3
 72
     8
 73
     4
 74
     0
 42
0.0000000001
 43
0.0000000001
 40
-0.143772776960682
 40
-0.143772776960682
 40
-0.143772776960682
 40
-0.143772776960682
 40
0.0
 40
0.0
 40
0.0
 40
0.0
 10
1726.724723772515
 20
798.911681356184
 30
0.0
 10
1727.173098887795
 20
798.8256068482886
 30
0.0
 10
1727.621443365549
 20
798.7392512794744
 30
0.0
 10
1728.069720796442
 20
798.6526160174524
 30
0.0
  0
ELLIPSE
  5
7AB
330
1F
100
AcDbEntity
  8
0
  6
Continuous
100
AcDbEllipse
 10
1758.504058754282
 20
760.1818478940916
 30
0.0
 11
0.0000000000159622
 21
-79.99999999999963
 31
0.0
210
0.0
220
0.0
230
1.0
 40
0.4539904997395454
 41
3.64695316387295
 42
4.20702847009978
  0
LINE
  5
7AC
330
1F
100
AcDbEntity
  8
0
  6
Continuous
100
AcDbLine
 10
1741.92970203279
 20
829.1818478941012
 30
0.0
 11
1760.785372940501
 21
829.1818478940907
 31
0.0
  0
SPLINE
  5
7AD
330
1F
100
AcDbEntity
  8
0
  6
Continuous
100
AcDbSpline
210
0.0
220
0.0
230
1.0
 70
     8
 71
     3
 72
     8
 73
     4
 74
     0
 42
0.0000000001
 43
0.0000000001
 40
-0.143772776960857
 40
-0.143772776960857
 40
-0.143772776960857
 40
-0.143772776960857
 40
0.0
 40
0.0
 40
0.0
 40
0.0
 10
1740.921082306007
 20
830.181847894102
 30
0.0
 10
1741.25718982563
 20
829.8484827584887
 30
0.0
 10
1741.593404648105
 20
829.5151404017577
 30
0.0
 10
1741.929702032792
 20
829.1818478941012
 30
0.0
  0
LINE
  5
7AE
330
1F
100
AcDbEntity
  8
0
  6
Continuous
100
AcDbLine
 10
1761.302317069134
 20
830.1818478940898
 30
0.0
 11
1740.921082306007
 21
830.181847894102
 31
0.0
  0
LINE
  5
7AF
330
1F
100
AcDbEntity
  8
0
  6
Continuous
100
AcDbLine
 10
1741.827854164645
 20
657.5796395339478
 30
0.0
 11
1741.827854164645
 21
690.1818478940843
 31
0.0
  0
LINE
  5
7B0
330
1F
100
AcDbEntity
  8
0
  6
Continuous
100
AcDbLine
 10
1678.327854164645
 20
657.5796395339478
 30
0.0
 11
1678.327854164645
 21
690.1818478940843
 31
0.0
  0
LINE
  5
7B1
330
1F
100
AcDbEntity
  8
0
  6
Continuous
100
AcDbLine
 10
1678.327854164645
 20
657.5796395339478
 30
0.0
 11
1671.327854164645
 21
655.0318478940847
 31
0.0
  0
LINE
  5
7B2
330
1F
100
AcDbEntity
  8
0
  6
Continuous
100
AcDbLine
 10
1741.827854164645
 20
657.5796395339478
 30
0.0
 11
1748.827854164645
 21
655.0318478940847
 31
0.0
  0
LINE
  5
7B3
330
1F
100
AcDbEntity
  8
0
  6
Continuous
100
AcDbLine
 10
1748.827854164645
 20
652.1818478940848
 30
0.0
 11
1748.827854164645
 21
655.0318478940843
 31
0.0
  0
LINE
  5
7B4
330
1F
100
AcDbEntity
  8
0
  6
Continuous
100
AcDbLine
 10
1671.327854164645
 20
652.1818478940848
 30
0.0
 11
1671.327854164645
 21
655.0318478940847
 31
0.0
  0
LINE
  5
7B5
330
1F
100
AcDbEntity
  8
0
  6
Continuous
100
AcDbLine
 10
1741.827854164645
 20
657.5796395339483
 30
0.0
 11
1678.327854164645
 21
657.5796395339483
 31
0.0
  0
LINE
  5
7B6
330
1F
100
AcDbEntity
  8
0
  6
Continuous
100
AcDbLine
 10
1748.827854164645
 20
655.0318478940847
 30
0.0
 11
1671.327854164645
 21
655.0318478940847
 31
0.0
  0
LINE
  5
7B7
330
1F
100
AcDbEntity
  8
0
  6
Continuous
100
AcDbLine
 10
1748.827854164645
 20
652.1818478940848
 30
0.0
 11
1671.327854164645
 21
652.1818478940848
 31
0.0
  0
LINE
  5
7B8
330
1F
100
AcDbEntity
  8
0
  6
Continuous
100
AcDbLine
 10
1741.827854164645
 20
830.1818478940843
 30
0.0
 11
1741.827854164645
 21
862.78405625422
 31
0.0
  0
LINE
  5
7B9
330
1F
100
AcDbEntity
  8
0
  6
Continuous
100
AcDbLine
 10
1678.327854164645
 20
830.1818478940843
 30
0.0
 11
1678.327854164645
 21
862.78405625422
 31
0.0
  0
LINE
  5
7BA
330
1F
100
AcDbEntity
  8
0
  6
Continuous
100
AcDbLine
 10
1741.827854164645
 20
862.7840562542209
 30
0.0
 11
1748.827854164645
 21
865.3318478940835
 31
0.0
  0
LINE
  5
7BB
330
1F
100
AcDbEntity
  8
0
  6
Continuous
100
AcDbLine
 10
1678.327854164645
 20
862.7840562542209
 30
0.0
 11
1671.327854164645
 21
865.3318478940835
 31
0.0
  0
LINE
  5
7BC
330
1F
100
AcDbEntity
  8
0
  6
Continuous
100
AcDbLine
 10
1748.827854164645
 20
865.3318478940835
 30
0.0
 11
1748.827854164645
 21
868.1818478940838
 31
0.0
  0
LINE
  5
7BD
330
1F
100
AcDbEntity
  8
0
  6
Continuous
100
AcDbLine
 10
1671.327854164645
 20
865.3318478940835
 30
0.0
 11
1671.327854164645
 21
868.1818478940844
 31
0.0
  0
LINE
  5
7BE
330
1F
100
AcDbEntity
  8
0
  6
Continuous
100
AcDbLine
 10
1741.827854164645
 20
862.7840562542209
 30
0.0
 11
1678.327854164645
 21
862.7840562542209
 31
0.0
  0
LINE
  5
7BF
330
1F
100
AcDbEntity
  8
0
  6
Continuous
100
AcDbLine
 10
1748.827854164645
 20
865.3318478940835
 30
0.0
 11
1671.327854164645
 21
865.3318478940835
 31
0.0
  0
LINE
  5
7C0
330
1F
100
AcDbEntity
  8
0
  6
Continuous
100
AcDbLine
 10
1748.827854164645
 20
868.1818478940838
 30
0.0
 11
1671.327854164645
 21
868.1818478940838
 31
0.0
  0
LINE
  5
7C1
330
1F
100
AcDbEntity
  8
0
  6
Continuous
100
AcDbLine
 10
1671.199910826717
 20
793.4459495092222
 30
0.0
 11
1671.199910826717
 21
830.1818478940848
 31
0.0
  0
SPLINE
  5
7C2
330
1F
100
AcDbEntity
  8
0
  6
Continuous
100
AcDbSpline
210
0.0
220
0.0
230
1.0
 70
     8
 71
     3
 72
    16
 73
    12
 74
     0
 42
0.0000000001
 43
0.0000000001
 40
-1.047197551196596
 40
-1.047197551196596
 40
-1.047197551196596
 40
-1.047197551196596
 40
-0.8377580409572772
 40
-0.8377580409572772
 40
-0.628318530717958
 40
-0.628318530717958
 40
-0.4188790204786387
 40
-0.4188790204786387
 40
-0.2094395102393193
 40
-0.2094395102393193
 40
0.0
 40
0.0
 40
0.0
 40
0.0
 10
1673.213686295123
 20
788.5903540450361
 30
0.0
 10
1672.91365159959
 20
788.8529409414412
 30
0.0
 10
1672.656075517692
 20
789.1413695428345
 30
0.0
 10
1672.213375322273
 20
789.7456093728204
 30
0.0
 10
1672.027965649986
 20
790.0617201878634
 30
0.0
 10
1671.717154827574
 20
790.7102012393087
 30
0.0
 10
1671.591742316768
 20
791.0427558187437
 30
0.0
 10
1671.393451314168
 20
791.7178775227438
 30
0.0
 10
1671.32061492614
 20
792.0605147425316
 30
0.0
 10
1671.223830935842
 20
792.7507405700793
 30
0.0
 10
1671.199910826717
 20
793.0983455164299
 30
0.0
 10
1671.199910826717
 20
793.4459495092222
 30
0.0
  0
LINE
  5
7C3
330
1F
100
AcDbEntity
  8
0
  6
Continuous
100
AcDbLine
 10
1673.213686295123
 20
788.5903540450361
 30
0.0
 11
1690.441482605199
 21
773.512785909379
 31
0.0
  0
SPLINE
  5
7C4
330
1F
100
AcDbEntity
  8
0
  6
Continuous
100
AcDbSpline
210
0.0
220
0.0
230
1.0
 70
     8
 71
     3
 72
    22
 73
    18
 74
     0
 42
0.0000000001
 43
0.0000000001
 40
-1.047197551196597
 40
-1.047197551196597
 40
-1.047197551196597
 40
-1.047197551196597
 40
-0.7125450367037424
 40
-0.7125450367037424
 40
-0.4186574177671151
 40
-0.4186574177671151
 40
-0.1441072420349305
 40
-0.1441072420349305
 40
0.1206806122722386
 40
0.1206806122722386
 40
0.3850574766667648
 40
0.3850574766667648
 40
0.6579596560528414
 40
0.6579596560528414
 40
0.9475388462228291
 40
0.9475388462228291
 40
1.047197551196598
 40
1.047197551196598
 40
1.047197551196598
 40
1.047197551196598
 10
1690.441482605199
 20
773.512785909379
 30
0.0
 10
1691.300394590585
 20
772.761076070867
 30
0.0
 10
1692.13713239796
 20
771.7306108022174
 30
0.0
 10
1693.492933041579
 20
769.3517854457422
 30
0.0
 10
1694.037676210386
 20
768.0603638890159
 30
0.0
 10
1694.835864602964
 20
765.3411489934295
 30
0.0
 10
1695.106389843344
 20
763.9287370010054
 30
0.0
 10
1695.378656790549
 20
761.0846010980885
 30
0.0
 10
1695.389739123957
 20
759.6557162020229
 30
0.0
 10
1695.165654438197
 20
756.8546630518302
 30
0.0
 10
1694.930845292385
 20
755.4827321756978
 30
0.0
 10
1694.231536664756
 20
752.8671622656569
 30
0.0
 10
1693.759726312868
 20
751.6296611933461
 30
0.0
 10
1692.611959618369
 20
749.3784004354919
 30
0.0
 10
1691.925492901935
 20
748.3844895856049
 30
0.0
 10
1690.951144445955
 20
747.3227753387435
 30
0.0
 10
1690.697264505657
 20
747.0747672406299
 30
0.0
 10
1690.441482605199
 20
746.8509098788057
 30
0.0
  0
LINE
  5
7C5
330
1F
100
AcDbEntity
  8
0
  6
Continuous
100
AcDbLine
 10
1690.441482605199
 20
746.8509098788057
 30
0.0
 11
1673.213686295123
 21
731.7733417431344
 31
0.0
  0
SPLINE
  5
7C6
330
1F
100
AcDbEntity
  8
0
  6
Continuous
100
AcDbSpline
210
0.0
220
0.0
230
1.0
 70
     8
 71
     3
 72
    16
 73
    12
 74
     0
 42
0.0000000001
 43
0.0000000001
 40
0.0000000000000003
 40
0.0000000000000003
 40
0.0000000000000003
 40
0.0000000000000003
 40
0.2094395102393197
 40
0.2094395102393197
 40
0.4188790204786392
 40
0.4188790204786392
 40
0.6283185307179586
 40
0.6283185307179586
 40
0.8377580409572779
 40
0.8377580409572779
 40
1.047197551196597
 40
1.047197551196597
 40
1.047197551196597
 40
1.047197551196597
 10
1671.199910826717
 20
726.9177462789474
 30
0.0
 10
1671.199910826717
 20
727.2653502717401
 30
0.0
 10
1671.223830935843
 20
727.6129552180909
 30
0.0
 10
1671.32061492614
 20
728.303181045639
 30
0.0
 10
1671.393451314168
 20
728.6458182654268
 30
0.0
 10
1671.591742316768
 20
729.3209399694268
 30
0.0
 10
1671.717154827574
 20
729.6534945488619
 30
0.0
 10
1672.027965649986
 20
730.3019756003071
 30
0.0
 10
1672.213375322273
 20
730.6180864153492
 30
0.0
 10
1672.656075517692
 20
731.2223262453357
 30
0.0
 10
1672.91365159959
 20
731.5107548467294
 30
0.0
 10
1673.213686295123
 20
731.7733417431344
 30
0.0
  0
LINE
  5
7C7
330
1F
100
AcDbEntity
  8
0
  6
Continuous
100
AcDbLine
 10
1671.199910826717
 20
690.1818478940858
 30
0.0
 11
1671.199910826717
 21
726.9177462789474
 31
0.0
  0
LINE
  5
7C8
330
1F
100
AcDbEntity
  8
0
  6
Continuous
100
AcDbLine
 10
1671.199910826715
 20
830.1818478940848
 30
0.0
 11
1671.772859843591
 21
830.1818478940857
 31
0.0
  0
LINE
  5
7C9
330
1F
100
AcDbEntity
  8
0
  6
Continuous
100
AcDbLine
 10
1671.772859843591
 20
690.1818478940866
 30
0.0
 11
1671.199910826717
 21
690.1818478940858
 31
0.0
  0
LINE
  5
7CA
330
1F
100
AcDbEntity
  8
0
  6
Continuous
100
AcDbLine
 10
1686.920030987028
 20
830.1818478940912
 30
0.0
 11
1671.772859843591
 21
830.1818478940857
 31
0.0
  0
LINE
  5
7CB
330
1F
100
AcDbEntity
  8
0
  6
Continuous
100
AcDbLine
 10
1671.772859843591
 20
690.1818478940858
 30
0.0
 11
1686.920030987028
 21
690.1818478940921
 31
0.0
  0
LINE
  5
7CC
330
1F
100
AcDbEntity
  8
0
  6
Continuous
100
AcDbLine
 10
1697.708883236058
 20
706.8295028257288
 30
0.0
 11
1707.56204315461
 21
706.8295028257302
 31
0.0
  0
LINE
  5
7CD
330
1F
100
AcDbEntity
  8
0
  6
Continuous
100
AcDbLine
 10
1697.708883236058
 20
724.8295028257293
 30
0.0
 11
1702.845748924266
 21
724.8295028257301
 31
0.0
  0
LINE
  5
7CE
330
1F
100
AcDbEntity
  8
0
  6
Continuous
100
AcDbLine
 10
1707.562043154608
 20
813.5341929624727
 30
0.0
 11
1697.708883236056
 21
813.5341929624713
 31
0.0
  0
LINE
  5
7CF
330
1F
100
AcDbEntity
  8
0
  6
Continuous
100
AcDbLine
 10
1702.845748924266
 20
795.5341929624718
 30
0.0
 11
1697.708883236058
 21
795.5341929624713
 31
0.0
  0
ELLIPSE
  5
7D0
330
1F
100
AcDbEntity
  8
0
  6
Continuous
100
AcDbEllipse
 10
1697.708883236058
 20
715.8295028257287
 30
0.0
 11
-0.0000000000000899
 21
-8.999999999999973
 31
0.0
210
0.0
220
0.0
230
1.0
 40
0.4539904997395453
 41
3.141592653592585
 42
6.283185307182378
  0
ELLIPSE
  5
7D1
330
1F
100
AcDbEntity
  8
0
  6
Continuous
100
AcDbEllipse
 10
1697.708883236058
 20
804.5341929624708
 30
0.0
 11
0.0000000000000577
 21
8.999999999999973
 31
0.0
210
0.0
220
0.0
230
1.0
 40
0.4539904997395453
 41
0.0000000000027543
 42
3.141592653592547
  0
LINE
  5
7D2
330
1F
100
AcDbEntity
  8
0
  6
Continuous
100
AcDbLine
 10
1717.725557878211
 20
798.9116813561826
 30
0.0
 11
1702.845748924266
 21
798.9116813561803
 31
0.0
  0
LINE
  5
7D3
330
1F
100
AcDbEntity
  8
0
  6
Continuous
100
AcDbLine
 10
1717.725557878211
 20
721.4520144320344
 30
0.0
 11
1702.845748924266
 21
721.4520144320321
 31
0.0
  0
ELLIPSE
  5
7D4
330
1F
100
AcDbEntity
  8
0
  6
Continuous
100
AcDbEllipse
 10
1749.50489285998
 20
760.1818478940903
 30
0.0
 11
0.0000000000157568
 21
-78.99999999999955
 31
0.0
210
0.0
220
0.0
230
1.0
 40
0.4539904997395454
 41
3.676225843000739
 42
4.203769720700641
  0
LINE
  5
7D5
330
1F
100
AcDbEntity
  8
0
  6
Continuous
100
AcDbLine
 10
1718.179548377951
 20
798.6526160174511
 30
0.0
 11
1718.179548377951
 21
721.7110797707658
 31
0.0
  0
ELLIPSE
  5
7D6
330
1F
100
AcDbEntity
  8
0
  6
Continuous
100
AcDbEllipse
 10
1749.50489285998
 20
760.1818478940903
 30
0.0
 11
0.0000000000120515
 21
-79.00000000000004
 31
0.0
210
0.0
220
0.0
230
1.0
 40
0.4539904997395455
 41
5.221008240067664
 42
5.748552117767318
  0
ELLIPSE
  5
7D7
330
1F
100
AcDbEntity
  8
0
  6
Continuous
100
AcDbEllipse
 10
1749.50489285998
 20
760.1818478940903
 30
0.0
 11
-0.0000000000122041
 21
79.99999999999973
 31
0.0
210
0.0
220
0.0
230
1.0
 40
0.4539904997395453
 41
0.5053605102838246
 42
1.065435816510403
  0
ELLIPSE
  5
7D8
330
1F
100
AcDbEntity
  8
0
  6
Continuous
100
AcDbEllipse
 10
1749.50489285998
 20
760.1818478940903
 30
0.0
 11
-0.0000000000084543
 21
79.99999999999968
 31
0.0
210
0.0
220
0.0
230
1.0
 40
0.4539904997395454
 41
2.076156837079146
 42
2.63623214330596
  0
LINE
  5
7D9
330
1F
100
AcDbEntity
  8
0
  6
Continuous
100
AcDbLine
 10
1717.725557878211
 20
721.4520144320344
 30
0.0
 11
1717.725557878211
 21
798.9116813561826
 31
0.0
  0
LINE
  5
7DA
330
1F
100
AcDbEntity
  8
0
  6
Continuous
100
AcDbLine
 10
1731.921916411704
 20
830.1818478941003
 30
0.0
 11
1732.812922935891
 21
830.1818478940997
 31
0.0
  0
LINE
  5
7DB
330
1F
100
AcDbEntity
  8
0
  6
Continuous
100
AcDbLine
 10
1731.921916411704
 20
830.1818478941003
 30
0.0
 11
1717.042107457759
 21
830.1818478940985
 31
0.0
  0
LINE
  5
7DC
330
1F
100
AcDbEntity
  8
0
  6
Continuous
100
AcDbLine
 10
1731.921916411704
 20
690.1818478941008
 30
0.0
 11
1717.042107457759
 21
690.1818478940985
 31
0.0
  0
LINE
  5
7DD
330
1F
100
AcDbEntity
  8
0
  6
Continuous
100
AcDbLine
 10
1732.812922935893
 20
690.1818478940998
 30
0.0
 11
1731.921916411704
 21
690.1818478941008
 31
0.0
  0
ELLIPSE
  5
7DE
330
1F
100
AcDbEntity
  8
0
  6
Continuous
100
AcDbEllipse
 10
1734.625083906035
 20
760.181847894088
 30
0.0
 11
0.0000000000159706
 21
-79.99999999999973
 31
0.0
210
0.0
220
0.0
230
1.0
 40
0.4539904997395453
 41
3.646953163872932
 42
4.20702847009977
  0
LINE
  5
7DF
330
1F
100
AcDbEntity
  8
0
  6
Continuous
100
AcDbLine
 10
1702.845748924266
 20
798.9116813561803
 30
0.0
 11
1702.845748924266
 21
721.4520144320321
 31
0.0
  0
ELLIPSE
  5
7E0
330
1F
100
AcDbEntity
  8
0
  6
Continuous
100
AcDbEllipse
 10
1734.625083906035
 20
760.181847894088
 30
0.0
 11
0.0000000000122041
 21
-79.99999999999968
 31
0.0
210
0.0
220
0.0
230
1.0
 40
0.4539904997395453
 41
5.217749490668513
 42
5.777824796895093
  0
LINE
  5
7E1
330
1F
100
AcDbEntity
  8
0
  6
Continuous
100
AcDbLine
 10
1717.042107457759
 20
690.1818478940962
 30
0.0
 11
1686.920030987028
 21
690.1818478940921
 31
0.0
  0
LINE
  5
7E2
330
1F
100
AcDbEntity
  8
0
  6
Continuous
100
AcDbLine
 10
1686.920030987028
 20
690.1818478940921
 30
0.0
 11
1686.920030987028
 21
710.1548801666758
 31
0.0
  0
LINE
  5
7E3
330
1F
100
AcDbEntity
  8
0
  6
Continuous
100
AcDbLine
 10
1686.920030987028
 20
810.2088156215085
 30
0.0
 11
1686.920030987028
 21
830.1818478940912
 31
0.0
  0
LINE
  5
7E4
330
1F
100
AcDbEntity
  8
0
  6
Continuous
100
AcDbLine
 10
1686.920030987028
 20
830.1818478940912
 30
0.0
 11
1717.042107457759
 21
830.1818478940962
 31
0.0
  0
ELLIPSE
  5
7E5
330
1F
100
AcDbEntity
  8
0
  6
Continuous
100
AcDbEllipse
 10
1644.12992282527
 20
760.1818478940749
 30
0.0
 11
-72.50366284594534
 21
-0.000000000029526
 31
0.0
210
0.0
220
0.0
230
1.0
 40
0.7723747711751852
 41
3.954232643810217
 42
4.001810014673276
  0
ELLIPSE
  5
7E6
330
1F
100
AcDbEntity
  8
0
  6
Continuous
100
AcDbEllipse
 10
1644.12992282527
 20
760.1818478940749
 30
0.0
 11
-72.50366284594534
 21
-0.000000000029526
 31
0.0
210
0.0
220
0.0
230
1.0
 40
0.7723747711751852
 41
3.768522351930703
 42
3.82481050305122
  0
ELLIPSE
  5
7E7
330
1F
100
AcDbEntity
  8
0
  6
Continuous
100
AcDbEllipse
 10
1644.12992282527
 20
760.1818478940749
 30
0.0
 11
-72.50366284594534
 21
-0.000000000029526
 31
0.0
210
0.0
220
0.0
230
1.0
 40
0.7723747711751852
 41
2.458374804129793
 42
2.51466295525043
  0
ELLIPSE
  5
7E8
330
1F
100
AcDbEntity
  8
0
  6
Continuous
100
AcDbEllipse
 10
1644.12992282527
 20
760.1818478940749
 30
0.0
 11
-72.50366284594534
 21
-0.000000000029526
 31
0.0
210
0.0
220
0.0
230
1.0
 40
0.7723747711751852
 41
2.281375292507466
 42
2.32895266337061
  0
ELLIPSE
  5
7E9
330
1F
100
AcDbEntity
  8
0
  6
Continuous
100
AcDbEllipse
 10
1699.867113638088
 20
810.2088156215135
 30
0.0
 11
-12.94708265106167
 21
-0.0000000000052725
 31
0.0
210
0.0
220
0.0
230
1.0
 40
0.7723747711751852
 41
0.0000000000009938
 42
0.8602173610834668
  0
ELLIPSE
  5
7EA
330
1F
100
AcDbEntity
  8
0
  6
Continuous
100
AcDbEllipse
 10
1699.867113638088
 20
710.1548801666807
 30
0.0
 11
-12.94708265106167
 21
-0.0000000000052725
 31
0.0
210
0.0
220
0.0
230
1.0
 40
0.7723747711751852
 41
5.422967946097266
 42
6.28318530718058
  0
LINE
  5
7EB
330
1F
100
AcDbEntity
  8
0
  6
Continuous
100
AcDbLine
 10
1860.925258709734
 20
852.6818478941063
 30
0.0
 11
1818.294591581112
 21
852.6818478940999
 31
0.0
  0
LINE
  5
7EC
330
1F
100
AcDbEntity
  8
0
  6
Continuous
100
AcDbLine
 10
1860.925258709734
 20
667.6818478941071
 30
0.0
 11
1818.294591581112
 21
667.6818478941012
 31
0.0
  0
LINE
  5
7ED
330
1F
100
AcDbEntity
  8
0
  6
Continuous
100
AcDbLine
 10
1913.49464363685
 20
785.1818478941144
 30
0.0
 11
1909.039611015907
 21
785.1818478941139
 31
0.0
  0
LINE
  5
7EE
330
1F
100
AcDbEntity
  8
0
  6
Continuous
100
AcDbLine
 10
1913.49464363685
 20
735.1818478941153
 30
0.0
 11
1909.039611015907
 21
735.1818478941144
 31
0.0
  0
LINE
  5
7EF
330
1F
100
AcDbEntity
  8
0
  6
Continuous
100
AcDbLine
 10
1908.847209311167
 20
841.7092250318255
 30
0.0
 11
1865.482042879701
 21
852.1356679682865
 31
0.0
  0
LINE
  5
7F0
330
1F
100
AcDbEntity
  8
0
  6
Continuous
100
AcDbLine
 10
1908.847209311167
 20
678.6544707563974
 30
0.0
 11
1865.482042879701
 21
668.2280278199226
 31
0.0
  0
LINE
  5
7F1
330
1F
100
AcDbEntity
  8
0
  6
Continuous
100
AcDbLine
 10
1941.561349148783
 20
770.181847894119
 30
0.0
 11
1913.49464363685
 21
770.1818478941143
 31
0.0
  0
LINE
  5
7F2
330
1F
100
AcDbEntity
  8
0
  6
Continuous
100
AcDbLine
 10
1941.561349148783
 20
750.1818478941185
 30
0.0
 11
1913.49464363685
 21
750.1818478941144
 31
0.0
  0
ELLIPSE
  5
7F3
330
1F
100
AcDbEntity
  8
0
  6
Continuous
100
AcDbEllipse
 10
1759.395065278471
 20
760.1818478940916
 30
0.0
 11
0.000000000008319
 21
-54.49999999999981
 31
0.0
210
0.0
220
0.0
230
1.0
 40
0.4539904997395454
 41
3.342123141149448
 42
6.082654819619257
  0
ELLIPSE
  5
7F4
330
1F
100
AcDbEntity
  8
0
  6
Continuous
100
AcDbEllipse
 10
1788.753730250477
 20
760.1818478940957
 30
0.0
 11
-0.0000000000141234
 21
92.49999999999962
 31
0.0
210
0.0
220
0.0
230
1.0
 40
0.4539904997395454
 41
1.361382301391232
 42
1.780210352197894
  0
ELLIPSE
  5
7F5
330
1F
100
AcDbEntity
  8
0
  6
Continuous
100
AcDbEllipse
 10
1788.753730250477
 20
760.1818478940957
 30
0.0
 11
-0.0000000000141165
 21
92.49999999999955
 31
0.0
210
0.0
220
0.0
230
1.0
 40
0.4539904997395454
 41
0.5759841379937898
 42
0.9948121888004557
  0
ELLIPSE
  5
7F6
330
1F
100
AcDbEntity
  8
0
  6
Continuous
100
AcDbEllipse
 10
1788.753730250477
 20
760.1818478940957
 30
0.0
 11
-0.0000000000097811
 21
92.49999999999987
 31
0.0
210
0.0
220
0.0
230
1.0
 40
0.4539904997395454
 41
2.146780464789092
 42
2.565608515595972
  0
ELLIPSE
  5
7F7
330
1F
100
AcDbEntity
  8
0
  6
Continuous
100
AcDbEllipse
 10
1913.49464363685
 20
760.1818478941153
 30
0.0
 11
0.000000000003815
 21
-24.99999999999992
 31
0.0
210
0.0
220
0.0
230
1.0
 40
0.4539904997395453
 41
1.982313172862049
 42
7.442464787906663
  0
ELLIPSE
  5
7F8
330
1F
100
AcDbEntity
  8
0
  6
Continuous
100
AcDbEllipse
 10
1860.925258709734
 20
760.1818478941066
 30
0.0
 11
0.0000000000141158
 21
-92.49999999999968
 31
0.0
210
0.0
220
0.0
230
1.0
 40
0.4539904997395454
 41
3.032868527245242
 42
6.39190943352348
  0
ELLIPSE
  5
7F9
330
1F
100
AcDbEntity
  8
0
  6
Continuous
100
AcDbEllipse
 10
1909.039611015907
 20
760.1818478941144
 30
0.0
 11
-0.0000000000000098
 21
-24.99999999999991
 31
0.0
210
0.0
220
0.0
230
1.0
 40
0.4539904997395453
 41
3.141592653592406
 42
6.2831853071822
  0
ELLIPSE
  5
7FA
330
1F
100
AcDbEntity
  8
0
  6
Continuous
100
AcDbEllipse
 10
1913.49464363685
 20
760.1818478941153
 30
0.0
 11
-0.0000000000000563
 21
-9.999999999999957
 31
0.0
210
0.0
220
0.0
230
1.0
 40
0.4539904997395452
 41
3.141592653592556
 42
6.283185307182349
  0
LINE
  5
7FB
330
1F
100
AcDbEntity
  8
0
  6
Continuous
100
AcDbLine
 10
1944.864076499356
 20
767.4957203792613
 30
0.0
 11
1943.874546283242
 21
768.7864037589924
 31
0.0
  0
LINE
  5
7FC
330
1F
100
AcDbEntity
  8
0
  6
Continuous
100
AcDbLine
 10
1944.864076499356
 20
752.8679754089742
 30
0.0
 11
1943.874546283242
 21
751.5772920292432
 31
0.0
  0
ELLIPSE
  5
7FD
330
1F
100
AcDbEntity
  8
0
  6
Continuous
100
AcDbEllipse
 10
1941.561349148783
 20
760.1818478941185
 30
0.0
 11
-0.0000000000015266
 21
9.999999999999953
 31
0.0
210
0.0
220
0.0
230
1.0
 40
0.4539904997395454
 41
5.748552117767348
 42
9.959411150180937
  0
ELLIPSE
  5
7FE
330
1F
100
AcDbEntity
  8
0
  6
Continuous
100
AcDbEllipse
 10
1942.897858935064
 20
760.1818478941194
 30
0.0
 11
-0.0000000000000065
 21
8.499999999999957
 31
0.0
210
0.0
220
0.0
230
1.0
 40
0.4539904997395453
 41
0.0
 42
6.283185307179585
  0
LINE
  5
7FF
330
1F
100
AcDbEntity
  8
0
  6
Continuous
100
AcDbLine
 10
1806.534966046143
 20
661.7938946429579
 30
0.0
 11
1841.281894586436
 21
661.793894642963
 31
0.0
  0
LINE
  5
800
330
1F
100
AcDbEntity
  8
0
  6
Continuous
100
AcDbLine
 10
1771.380265980331
 20
661.793894642978
 30
0.0
 11
1806.534966046143
 21
661.7938946429834
 31
0.0
  0
LINE
  5
801
330
1F
100
AcDbEntity
  8
0
  6
Continuous
100
AcDbLine
 10
1806.534966046143
 20
858.5698011452139
 30
0.0
 11
1841.281894586436
 21
858.5698011452199
 31
0.0
  0
LINE
  5
802
330
1F
100
AcDbEntity
  8
0
  6
Continuous
100
AcDbLine
 10
1771.380265980331
 20
858.5698011452349
 30
0.0
 11
1806.534966046143
 21
858.5698011452398
 31
0.0
  0
ELLIPSE
  5
803
330
1F
100
AcDbEntity
  8
0
  6
Continuous
100
AcDbEllipse
 10
1771.380265980331
 20
667.793894642978
 30
0.0
 11
-0.0000000000000378
 21
-6.000000000000011
 31
0.0
210
0.0
220
0.0
230
1.0
 40
0.4539904997395452
 41
5.078908123304861
 42
6.283185307182252
  0
ELLIPSE
  5
804
330
1F
100
AcDbEntity
  8
0
  6
Continuous
100
AcDbEllipse
 10
1746.810477184084
 20
721.9135046576119
 30
0.0
 11
0.0000000000009154
 21
-5.999999999999994
 31
0.0
210
0.0
220
0.0
230
1.0
 40
0.4539904997395454
 41
4.293509959905778
 42
5.916666164260311
  0
LINE
  5
805
330
1F
100
AcDbEntity
  8
0
  6
Continuous
100
AcDbLine
 10
1795.412386279802
 20
709.8007601337703
 30
0.0
 11
1753.535079642948
 21
709.8007601337639
 31
0.0
  0
LINE
  5
806
330
1F
100
AcDbEntity
  8
0
  6
Continuous
100
AcDbLine
 10
1753.535079642948
 20
709.8007601337639
 30
0.0
 11
1745.834303317056
 21
716.3120220986292
 31
0.0
  0
LINE
  5
807
330
1F
100
AcDbEntity
  8
0
  6
Continuous
100
AcDbLine
 10
1789.554365468769
 20
779.4113734548903
 30
0.0
 11
1747.677058831915
 21
779.411373454884
 31
0.0
  0
LINE
  5
808
330
1F
100
AcDbEntity
  8
0
  6
Continuous
100
AcDbLine
 10
1747.677058831915
 20
779.411373454884
 30
0.0
 11
1744.322031430983
 21
796.0097712721757
 31
0.0
  0
LINE
  5
809
330
1F
100
AcDbEntity
  8
0
  6
Continuous
100
AcDbLine
 10
1807.758501677586
 20
837.7575915005007
 30
0.0
 11
1765.881195040734
 21
837.7575915004944
 31
0.0
  0
LINE
  5
80A
330
1F
100
AcDbEntity
  8
0
  6
Continuous
100
AcDbLine
 10
1765.881195040734
 20
837.7575915004944
 30
0.0
 11
1768.837246114095
 21
854.7200088425082
 31
0.0
  0
ELLIPSE
  5
80B
330
1F
100
AcDbEntity
  8
0
  6
Continuous
100
AcDbEllipse
 10
1771.380265980331
 20
852.5698011452345
 30
0.0
 11
-0.0000000000009152
 21
5.999999999999957
 31
0.0
210
0.0
220
0.0
230
1.0
 40
0.4539904997395454
 41
0.0
 42
1.20427718387576
  0
LINE
  5
80C
330
1F
100
AcDbEntity
  8
0
  6
Continuous
100
AcDbLine
 10
1768.837246114095
 20
665.6436869457078
 30
0.0
 11
1765.881195040734
 21
682.6061042877244
 31
0.0
  0
LINE
  5
80D
330
1F
100
AcDbEntity
  8
0
  6
Continuous
100
AcDbLine
 10
1765.881195040734
 20
682.6061042877244
 30
0.0
 11
1807.758501677586
 21
682.6061042877312
 31
0.0
  0
LINE
  5
80E
330
1F
100
AcDbEntity
  8
0
  6
Continuous
100
AcDbLine
 10
1745.834303317055
 20
804.0516736896128
 30
0.0
 11
1753.535079642948
 21
810.5629356544694
 31
0.0
  0
LINE
  5
80F
330
1F
100
AcDbEntity
  8
0
  6
Continuous
100
AcDbLine
 10
1753.535079642948
 20
810.5629356544694
 30
0.0
 11
1795.412386279802
 21
810.5629356544758
 31
0.0
  0
ELLIPSE
  5
810
330
1F
100
AcDbEntity
  8
0
  6
Continuous
100
AcDbEllipse
 10
1746.810477184084
 20
798.4501911306291
 30
0.0
 11
-0.0000000000006339
 21
6.000000000000005
 31
0.0
210
0.0
220
0.0
230
1.0
 40
0.4539904997395454
 41
0.3665191429190262
 42
1.989675347273356
  0
LINE
  5
811
330
1F
100
AcDbEntity
  8
0
  6
Continuous
100
AcDbLine
 10
1744.322031430985
 20
724.3539245160681
 30
0.0
 11
1747.677058831915
 21
740.9523223333561
 31
0.0
  0
LINE
  5
812
330
1F
100
AcDbEntity
  8
0
  6
Continuous
100
AcDbLine
 10
1747.677058831915
 20
740.9523223333561
 30
0.0
 11
1789.554365468769
 21
740.9523223333625
 31
0.0
  0
ELLIPSE
  5
813
330
1F
100
AcDbEntity
  8
0
  6
Continuous
100
AcDbEllipse
 10
1830.63103688733
 20
760.1818478941026
 30
0.0
 11
0.0000000000141123
 21
-92.49999999999998
 31
0.0
210
0.0
220
0.0
230
1.0
 40
0.4539904997395454
 41
4.921803005787683
 42
5.288373118378473
  0
SPLINE
  5
814
330
1F
100
AcDbEntity
  8
0
  6
Continuous
100
AcDbSpline
210
0.0
220
0.0
230
1.0
 70
    12
 71
     2
 72
     6
 73
     3
 74
     0
 42
0.0000000001
 43
0.0000000001
 40
0.0
 40
0.0
 40
0.0
 40
2.028228737672966
 40
2.028228737672966
 40
2.028228737672966
 10
1795.412386279802
 20
709.8007601337703
 30
0.0
 41
1.0
 10
1789.208256122216
 20
712.8624139719639
 30
0.0
 41
1.006852855008648
 10
1781.682038304534
 20
716.3120220986346
 30
0.0
 41
1.005104936193844
  0
SPLINE
  5
815
330
1F
100
AcDbEntity
  8
0
  6
Continuous
100
AcDbSpline
210
0.0
220
0.0
230
1.0
 70
     8
 71
     3
 72
    14
 73
    10
 74
     0
 42
0.0000000001
 43
0.0000000001
 40
0.5302283687096694
 40
0.5302283687096694
 40
0.5302283687096694
 40
0.5302283687096694
 40
0.7705741176297888
 40
0.7705741176297888
 40
1.013400618476665
 40
1.013400618476665
 40
1.256227119323543
 40
1.256227119323543
 40
1.496572868243663
 40
1.496572868243663
 40
1.496572868243663
 40
1.496572868243663
 10
1780.169766418462
 20
724.3539245160735
 30
0.0
 10
1779.765781362937
 20
723.6738712211266
 30
0.0
 10
1779.437568746501
 20
722.8698697517824
 30
0.0
 10
1779.095665092927
 20
721.2158073220788
 30
0.0
 10
1779.085855488447
 20
720.3652121770409
 30
0.0
 10
1779.367104657534
 20
718.8695959498153
 30
0.0
 10
1779.671778647678
 20
718.1521723822637
 30
0.0
 10
1780.539771170099
 20
717.0086192607417
 30
0.0
 10
1781.100003481316
 20
716.5787951451788
 30
0.0
 10
1781.682038304534
 20
716.3120220986346
 30
0.0
  0
SPLINE
  5
816
330
1F
100
AcDbEntity
  8
0
  6
Continuous
100
AcDbSpline
210
0.0
220
0.0
230
1.0
 70
    12
 71
     2
 72
     6
 73
     3
 74
     0
 42
0.0000000001
 43
0.0000000001
 40
1.203842643101294
 40
1.203842643101294
 40
1.203842643101294
 40
3.232071380774219
 40
3.232071380774219
 40
3.232071380774219
 10
1780.169766418462
 20
724.3539245160735
 30
0.0
 41
1.005104936193834
 10
1785.393645474639
 20
733.1476066485391
 30
0.0
 41
1.006852855008634
 10
1789.554365468769
 20
740.9523223333625
 30
0.0
 41
1.0
  0
ELLIPSE
  5
817
330
1F
100
AcDbEntity
  8
0
  6
Continuous
100
AcDbEllipse
 10
1830.63103688733
 20
760.1818478941026
 30
0.0
 11
0.0000000000141137
 21
-92.49999999999976
 31
0.0
210
0.0
220
0.0
230
1.0
 40
0.4539904997395453
 41
5.707201169185141
 42
6.07377128177591
  0
SPLINE
  5
818
330
1F
100
AcDbEntity
  8
0
  6
Continuous
100
AcDbSpline
210
0.0
220
0.0
230
1.0
 70
    12
 71
     2
 72
     6
 73
     3
 74
     0
 42
0.0000000001
 43
0.0000000001
 40
0.0
 40
0.0
 40
0.0
 40
2.028228737672941
 40
2.028228737672941
 40
2.028228737672941
 10
1821.901014968245
 20
669.7027047355439
 30
0.0
 41
1.0
 10
1815.774592207559
 20
666.2278214319843
 30
0.0
 41
1.006852855008639
 10
1808.335928398925
 20
662.3126218971268
 30
0.0
 41
1.005104936193837
  0
SPLINE
  5
819
330
1F
100
AcDbEntity
  8
0
  6
Continuous
100
AcDbSpline
210
0.0
220
0.0
230
1.0
 70
     8
 71
     3
 72
    14
 73
    10
 74
     0
 42
0.0000000001
 43
0.0000000001
 40
0.5302283687096669
 40
0.5302283687096669
 40
0.5302283687096669
 40
0.5302283687096669
 40
0.7705741176297892
 40
0.7705741176297892
 40
1.013400618476665
 40
1.013400618476665
 40
1.256227119323543
 40
1.256227119323543
 40
1.496572868243664
 40
1.496572868243664
 40
1.496572868243664
 40
1.496572868243664
 10
1804.684981101574
 20
665.6436869457128
 30
0.0
 10
1804.539567370724
 20
664.9487193994067
 30
0.0
 10
1804.495535778505
 20
664.2415137328551
 30
0.0
 10
1804.68951670768
 20
663.0458693332778
 30
0.0
 10
1804.930958417804
 20
662.5603697106274
 30
0.0
 10
1805.60995397622
 20
661.9408651852053
 30
0.0
 10
1806.080377865026
 20
661.7768701910462
 30
0.0
 10
1807.15648781803
 20
661.8137042869988
 30
0.0
 10
1807.760664504134
 20
662.0098426626781
 30
0.0
 10
1808.335928398925
 20
662.3126218971268
 30
0.0
  0
SPLINE
  5
81A
330
1F
100
AcDbEntity
  8
0
  6
Continuous
100
AcDbSpline
210
0.0
220
0.0
230
1.0
 70
    12
 71
     2
 72
     6
 73
     3
 74
     0
 42
0.0000000001
 43
0.0000000001
 40
1.203842643101284
 40
1.203842643101284
 40
1.203842643101284
 40
3.232071380774219
 40
3.232071380774219
 40
3.232071380774219
 10
1804.684981101574
 20
665.6436869457128
 30
0.0
 41
1.005104936193825
 10
1806.565307447008
 20
674.6302233539775
 30
0.0
 41
1.006852855008623
 10
1807.758501677586
 20
682.6061042877312
 30
0.0
 41
1.0
  0
SPLINE
  5
81B
330
1F
100
AcDbEntity
  8
0
  6
Continuous
100
AcDbSpline
210
0.0
220
0.0
230
1.0
 70
     8
 71
     3
 72
    14
 73
    10
 74
     0
 42
0.0000000001
 43
0.0000000001
 40
0.5302283687096672
 40
0.5302283687096672
 40
0.5302283687096672
 40
0.5302283687096672
 40
0.7705741176297893
 40
0.7705741176297893
 40
1.013400618476665
 40
1.013400618476665
 40
1.256227119323543
 40
1.256227119323543
 40
1.496572868243666
 40
1.496572868243666
 40
1.496572868243666
 40
1.496572868243666
 10
1781.682038304534
 20
804.0516736896183
 30
0.0
 10
1781.100003481316
 20
803.784900643075
 30
0.0
 10
1780.539771170099
 20
803.3550765275121
 30
0.0
 10
1779.671778647678
 20
802.2115234059901
 30
0.0
 10
1779.367104657534
 20
801.4940998384394
 30
0.0
 10
1779.085855488447
 20
799.9984836112142
 30
0.0
 10
1779.095665092927
 20
799.1478884661754
 30
0.0
 10
1779.437568746501
 20
797.4938260364718
 30
0.0
 10
1779.765781362937
 20
796.6898245671285
 30
0.0
 10
1780.169766418462
 20
796.0097712721816
 30
0.0
  0
SPLINE
  5
81C
330
1F
100
AcDbEntity
  8
0
  6
Continuous
100
AcDbSpline
210
0.0
220
0.0
230
1.0
 70
    12
 71
     2
 72
     6
 73
     3
 74
     0
 42
0.0000000001
 43
0.0000000001
 40
1.203842643101274
 40
1.203842643101274
 40
1.203842643101274
 40
3.232071380774218
 40
3.232071380774218
 40
3.232071380774218
 10
1781.682038304534
 20
804.0516736896183
 30
0.0
 41
1.005104936193852
 10
1789.208256122216
 20
807.5012818162848
 30
0.0
 41
1.00685285500866
 10
1795.412386279802
 20
810.5629356544758
 30
0.0
 41
1.0
  0
ELLIPSE
  5
81D
330
1F
100
AcDbEntity
  8
0
  6
Continuous
100
AcDbEllipse
 10
1830.63103688733
 20
760.1818478941026
 30
0.0
 11
0.0000000000184436
 21
-92.49999999999934
 31
0.0
210
0.0
220
0.0
230
1.0
 40
0.4539904997395453
 41
4.136404842390005
 42
4.502974954980913
  0
SPLINE
  5
81E
330
1F
100
AcDbEntity
  8
0
  6
Continuous
100
AcDbSpline
210
0.0
220
0.0
230
1.0
 70
    12
 71
     2
 72
     6
 73
     3
 74
     0
 42
0.0000000001
 43
0.0000000001
 40
0.0
 40
0.0
 40
0.0
 40
2.028228737672956
 40
2.028228737672956
 40
2.028228737672956
 10
1789.554365468769
 20
779.4113734548899
 30
0.0
 41
1.0
 10
1785.393645474639
 20
787.2160891397146
 30
0.0
 41
1.006852855008663
 10
1780.169766418462
 20
796.0097712721816
 30
0.0
 41
1.005104936193855
  0
SPLINE
  5
81F
330
1F
100
AcDbEntity
  8
0
  6
Continuous
100
AcDbSpline
210
0.0
220
0.0
230
1.0
 70
    12
 71
     2
 72
     6
 73
     3
 74
     0
 42
0.0000000001
 43
0.0000000001
 40
1.796906728079382
 40
1.796906728079382
 40
1.796906728079382
 40
2.028228737672969
 40
2.028228737672969
 40
2.028228737672969
 10
1845.648639474615
 20
667.6818478940898
 30
0.0
 41
1.00539176465604
 10
1845.090512417475
 20
666.6701913887972
 30
0.0
 41
1.00530428850816
 10
1844.517949374339
 20
665.6436869456891
 30
0.0
 41
1.00510493619383
  0
SPLINE
  5
820
330
1F
100
AcDbEntity
  8
0
  6
Continuous
100
AcDbSpline
210
0.0
220
0.0
230
1.0
 70
     8
 71
     3
 72
    14
 73
    10
 74
     0
 42
0.0000000001
 43
0.0000000001
 40
0.5302283687096658
 40
0.5302283687096658
 40
0.5302283687096658
 40
0.5302283687096658
 40
0.7705741176297881
 40
0.7705741176297881
 40
1.013400618476666
 40
1.013400618476666
 40
1.256227119323543
 40
1.256227119323543
 40
1.496572868243666
 40
1.496572868243666
 40
1.496572868243666
 40
1.496572868243666
 10
1840.867002076989
 20
662.3126218971077
 30
0.0
 10
1840.909213652644
 20
662.0098426626586
 30
0.0
 10
1841.03505502426
 20
661.8137042869788
 30
0.0
 10
1841.460802329378
 20
661.7768701910253
 30
0.0
 10
1841.762702670515
 20
661.940865185184
 30
0.0
 10
1842.441698228931
 20
662.5603697106056
 30
0.0
 10
1842.851663486724
 20
663.0458693332561
 30
0.0
 10
1843.696007063785
 20
664.2415137328324
 30
0.0
 10
1844.130310786053
 20
664.9487193993831
 30
0.0
 10
1844.517949374339
 20
665.6436869456891
 30
0.0
  0
SPLINE
  5
821
330
1F
100
AcDbEntity
  8
0
  6
Continuous
100
AcDbSpline
210
0.0
220
0.0
230
1.0
 70
    12
 71
     2
 72
     6
 73
     3
 74
     0
 42
0.0000000001
 43
0.0000000001
 40
1.203842643101279
 40
1.203842643101279
 40
1.203842643101279
 40
2.654553568647171
 40
2.654553568647171
 40
2.654553568647171
 10
1840.867002076989
 20
662.3126218971077
 30
0.0
 41
1.005104936193811
 10
1840.476396842738
 20
665.1143925479827
 30
0.0
 41
1.006355152638578
 10
1839.8758874303
 20
667.6818478940962
 30
0.0
 41
1.003205239901974
  0
SPLINE
  5
822
330
1F
100
AcDbEntity
  8
0
  6
Continuous
100
AcDbSpline
210
0.0
220
0.0
230
1.0
 70
     8
 71
     3
 72
    14
 73
    10
 74
     0
 42
0.0000000001
 43
0.0000000001
 40
0.5302283687096694
 40
0.5302283687096694
 40
0.5302283687096694
 40
0.5302283687096694
 40
0.7705741176297888
 40
0.7705741176297888
 40
1.013400618476665
 40
1.013400618476665
 40
1.256227119323543
 40
1.256227119323543
 40
1.496572868243661
 40
1.496572868243661
 40
1.496572868243661
 40
1.496572868243661
 10
1808.335928398925
 20
858.0510738910952
 30
0.0
 10
1807.760664504134
 20
858.3538531255438
 30
0.0
 10
1807.15648781803
 20
858.549991501224
 30
0.0
 10
1806.080377865026
 20
858.586825597178
 30
0.0
 10
1805.60995397622
 20
858.4228306030189
 30
0.0
 10
1804.930958417802
 20
857.8033260775972
 30
0.0
 10
1804.68951670768
 20
857.3178264549472
 30
0.0
 10
1804.495535778505
 20
856.122182055371
 30
0.0
 10
1804.539567370724
 20
855.4149763888194
 30
0.0
 10
1804.684981101574
 20
854.7200088425132
 30
0.0
  0
SPLINE
  5
823
330
1F
100
AcDbEntity
  8
0
  6
Continuous
100
AcDbSpline
210
0.0
220
0.0
230
1.0
 70
    12
 71
     2
 72
     6
 73
     3
 74
     0
 42
0.0000000001
 43
0.0000000001
 40
1.203842643101294
 40
1.203842643101294
 40
1.203842643101294
 40
3.232071380774219
 40
3.232071380774219
 40
3.232071380774219
 10
1808.335928398925
 20
858.0510738910952
 30
0.0
 41
1.005104936193834
 10
1815.774592207557
 20
854.1358743562339
 30
0.0
 41
1.006852855008634
 10
1821.901014968245
 20
850.6609910526712
 30
0.0
 41
1.0
  0
ELLIPSE
  5
824
330
1F
100
AcDbEntity
  8
0
  6
Continuous
100
AcDbEllipse
 10
1830.63103688733
 20
760.1818478941026
 30
0.0
 11
-0.0000000000141179
 21
92.49999999999955
 31
0.0
210
0.0
220
0.0
230
1.0
 40
0.4539904997395452
 41
0.2094140254030035
 42
0.5759841379937938
  0
SPLINE
  5
825
330
1F
100
AcDbEntity
  8
0
  6
Continuous
100
AcDbSpline
210
0.0
220
0.0
230
1.0
 70
    12
 71
     2
 72
     6
 73
     3
 74
     0
 42
0.0000000001
 43
0.0000000001
 40
0.0
 40
0.0
 40
0.0
 40
2.028228737672966
 40
2.028228737672966
 40
2.028228737672966
 10
1807.758501677586
 20
837.7575915005007
 30
0.0
 41
1.0
 10
1806.565307447008
 20
845.7334724342512
 30
0.0
 41
1.006852855008648
 10
1804.684981101574
 20
854.7200088425132
 30
0.0
 41
1.005104936193844
  0
SPLINE
  5
826
330
1F
100
AcDbEntity
  8
0
  6
Continuous
100
AcDbSpline
210
0.0
220
0.0
230
1.0
 70
     8
 71
     3
 72
    14
 73
    10
 74
     0
 42
0.0000000001
 43
0.0000000001
 40
0.5302283687096653
 40
0.5302283687096653
 40
0.5302283687096653
 40
0.5302283687096653
 40
0.7705741176297885
 40
0.7705741176297885
 40
1.013400618476664
 40
1.013400618476664
 40
1.256227119323541
 40
1.256227119323541
 40
1.496572868243667
 40
1.496572868243667
 40
1.496572868243667
 40
1.496572868243667
 10
1844.517949374339
 20
854.7200088424895
 30
0.0
 10
1844.130310786053
 20
855.4149763887966
 30
0.0
 10
1843.696007063785
 20
856.1221820553482
 30
0.0
 10
1842.851663486722
 20
857.3178264549245
 30
0.0
 10
1842.441698228931
 20
857.8033260775759
 30
0.0
 10
1841.762702670515
 20
858.4228306029981
 30
0.0
 10
1841.460802329378
 20
858.5868255971572
 30
0.0
 10
1841.03505502426
 20
858.5499915012041
 30
0.0
 10
1840.909213652644
 20
858.3538531255248
 30
0.0
 10
1840.867002076989
 20
858.0510738910756
 30
0.0
  0
SPLINE
  5
827
330
1F
100
AcDbEntity
  8
0
  6
Continuous
100
AcDbSpline
210
0.0
220
0.0
230
1.0
 70
    12
 71
     2
 72
     6
 73
     3
 74
     0
 42
0.0000000001
 43
0.0000000001
 40
1.203842643101286
 40
1.203842643101286
 40
1.203842643101286
 40
1.435164652694892
 40
1.435164652694892
 40
1.435164652694892
 10
1844.517949374339
 20
854.7200088424895
 30
0.0
 41
1.005104936193802
 10
1845.090512417475
 20
853.6935043993825
 30
0.0
 41
1.005304288508131
 10
1845.648639474615
 20
852.6818478940894
 30
0.0
 41
1.00539176465601
  0
SPLINE
  5
828
330
1F
100
AcDbEntity
  8
0
  6
Continuous
100
AcDbSpline
210
0.0
220
0.0
230
1.0
 70
    12
 71
     2
 72
     6
 73
     3
 74
     0
 42
0.0000000001
 43
0.0000000001
 40
0.5775178121269951
 40
0.5775178121269951
 40
0.5775178121269951
 40
2.028228737672995
 40
2.028228737672995
 40
2.028228737672995
 10
1839.8758874303
 20
852.6818478940958
 30
0.0
 41
1.003205239902012
 10
1840.476396842738
 20
855.2493032402056
 30
0.0
 41
1.006355152638653
 10
1840.867002076989
 20
858.0510738910756
 30
0.0
 41
1.005104936193871
  0
LINE
  5
829
330
1F
100
AcDbEntity
  8
0
  6
Continuous
100
AcDbLine
 10
1790.283393735162
 20
120.3553368051969
 30
0.0
 11
1782.175234365046
 21
116.2240232575671
 31
0.0
  0
LINE
  5
82A
330
1F
100
AcDbEntity
  8
0
  6
Continuous
100
AcDbLine
 10
1776.087035201669
 20
148.2172592029458
 30
0.0
 11
1767.978875831555
 21
144.085945655316
 31
0.0
  0
LINE
  5
82B
330
1F
100
AcDbEntity
  8
0
  6
Continuous
100
AcDbLine
 10
1740.921082305116
 20
217.2343277938191
 30
0.0
 11
1732.812922935003
 21
213.1030142461893
 31
0.0
  0
LINE
  5
82C
330
1F
100
AcDbEntity
  8
0
  6
Continuous
100
AcDbLine
 10
1726.724723771625
 20
245.0962501915681
 30
0.0
 11
1718.616564401511
 21
240.9649366439382
 31
0.0
  0
LINE
  5
82D
330
1F
100
AcDbEntity
  8
0
  6
Continuous
100
AcDbLine
 10
1767.978875831555
 20
144.085945655316
 30
0.0
 11
1782.175234365046
 21
116.2240232575671
 31
0.0
  0
LINE
  5
82E
330
1F
100
AcDbEntity
  8
0
  6
Continuous
100
AcDbLine
 10
1767.978875831555
 20
144.0859456553155
 30
0.0
 11
1732.812922935003
 21
213.1030142461893
 31
0.0
  0
SPLINE
  5
82F
330
1F
100
AcDbEntity
  8
0
  6
Continuous
100
AcDbSpline
210
0.0
220
0.0
230
1.0
 70
     8
 71
     3
 72
     8
 73
     4
 74
     0
 42
0.0000000001
 43
0.0000000001
 40
-0.1437727732801535
 40
-0.1437727732801535
 40
-0.1437727732801535
 40
-0.1437727732801535
 40
0.0
 40
0.0
 40
0.0
 40
0.0
 10
1766.970256104772
 20
143.862784062577
 30
0.0
 10
1767.306553489459
 20
143.9369031110016
 30
0.0
 10
1767.642768311938
 20
144.011293998906
 30
0.0
 10
1767.978875831555
 20
144.085945655316
 30
0.0
  0
SPLINE
  5
830
330
1F
100
AcDbEntity
  8
0
  6
Continuous
100
AcDbSpline
210
0.0
220
0.0
230
1.0
 70
     8
 71
     3
 72
     8
 73
     4
 74
     0
 42
0.0000000001
 43
0.0000000001
 40
-0.1437727732803562
 40
-0.1437727732803562
 40
-0.1437727732803562
 40
-0.1437727732803562
 40
0.0
 40
0.0
 40
0.0
 40
0.0
 10
1732.03952961341
 20
212.4181948394491
 30
0.0
 10
1732.297163826295
 20
212.6466990552474
 30
0.0
 10
1732.554969433093
 20
212.8749766935791
 30
0.0
 10
1732.812922935003
 20
213.1030142461893
 30
0.0
  0
SPLINE
  5
831
330
1F
100
AcDbEntity
  8
0
  6
Continuous
100
AcDbSpline
210
0.0
220
0.0
230
1.0
 70
    24
 71
     3
 72
     8
 73
     4
 74
     0
 42
0.0000000001
 43
0.0000000001
 40
-0.1437727732828387
 40
-0.1437727732828387
 40
-0.1437727732828387
 40
-0.1437727732828387
 40
0.0
 40
0.0
 40
0.0
 40
0.0
 10
1718.179548377062
 20
239.6199396200097
 30
0.0
 10
1718.325202543738
 20
240.0682170509046
 30
0.0
 10
1718.470878495254
 20
240.5165615286571
 30
0.0
 10
1718.616564401511
 20
240.9649366439378
 30
0.0
  0
SPLINE
  5
832
330
1F
100
AcDbEntity
  8
0
  6
Continuous
100
AcDbSpline
210
0.0
220
0.0
230
1.0
 70
    24
 71
     3
 72
     8
 73
     4
 74
     0
 42
0.0000000001
 43
0.0000000001
 40
-0.1437727732807201
 40
-0.1437727732807201
 40
-0.1437727732807201
 40
-0.1437727732807201
 40
0.0
 40
0.0
 40
0.0
 40
0.0
 10
1780.830237341118
 20
116.6610392820159
 30
0.0
 10
1781.278514772017
 20
116.5153851153407
 30
0.0
 10
1781.726859249773
 20
116.3697091638203
 30
0.0
 10
1782.175234365046
 20
116.2240232575671
 30
0.0
  0
LINE
  5
833
330
1F
100
AcDbEntity
  8
0
  6
Continuous
100
AcDbLine
 10
1718.616564401511
 20
240.9649366439382
 30
0.0
 11
1732.812922935003
 21
213.1030142461893
 31
0.0
  0
LINE
  5
834
330
1F
100
AcDbEntity
  8
0
  6
Continuous
100
AcDbLine
 10
1776.860428523263
 20
148.902078609686
 30
0.0
 11
1741.929702031901
 21
217.4574893865581
 31
0.0
  0
LINE
  5
835
330
1F
100
AcDbEntity
  8
0
  6
Continuous
100
AcDbLine
 10
1740.921082305116
 20
217.2343277938191
 30
0.0
 11
1776.087035201669
 21
148.2172592029458
 31
0.0
  0
LINE
  5
836
330
1F
100
AcDbEntity
  8
0
  6
Continuous
100
AcDbLine
 10
1728.069720795554
 20
244.6592341671187
 30
0.0
 11
1741.929702031901
 21
217.4574893865581
 31
0.0
  0
SPLINE
  5
837
330
1F
100
AcDbEntity
  8
0
  6
Continuous
100
AcDbSpline
210
0.0
220
0.0
230
1.0
 70
     8
 71
     3
 72
     8
 73
     4
 74
     0
 42
0.0000000001
 43
0.0000000001
 40
-0.1437727769615449
 40
-0.1437727769615449
 40
-0.1437727769615449
 40
-0.1437727769615449
 40
0.0
 40
0.0
 40
0.0
 40
0.0
 10
1740.921082305116
 20
217.2343277938191
 30
0.0
 10
1741.257189824735
 20
217.30897945023
 30
0.0
 10
1741.593404647215
 20
217.383370338134
 30
0.0
 10
1741.929702031901
 20
217.4574893865581
 30
0.0
  0
LINE
  5
838
330
1F
100
AcDbEntity
  8
0
  6
Continuous
100
AcDbLine
 10
1740.921082305116
 20
217.2343277938191
 30
0.0
 11
1726.724723771625
 21
245.0962501915681
 31
0.0
  0
SPLINE
  5
839
330
1F
100
AcDbEntity
  8
0
  6
Continuous
100
AcDbSpline
210
0.0
220
0.0
230
1.0
 70
    24
 71
     3
 72
     8
 73
     4
 74
     0
 42
0.0000000001
 43
0.0000000001
 40
-0.1437727769613334
 40
-0.1437727769613334
 40
-0.1437727769613334
 40
-0.1437727769613334
 40
0.0
 40
0.0
 40
0.0
 40
0.0
 10
1726.724723771625
 20
245.0962501915681
 30
0.0
 10
1727.173098886902
 20
244.9505642853134
 30
0.0
 10
1727.621443364658
 20
244.804888333794
 30
0.0
 10
1728.069720795554
 20
244.6592341671192
 30
0.0
  0
SPLINE
  5
83A
330
1F
100
AcDbEntity
  8
0
  6
Continuous
100
AcDbSpline
210
0.0
220
0.0
230
1.0
 70
     8
 71
     3
 72
     8
 73
     4
 74
     0
 42
0.0000000001
 43
0.0000000001
 40
-0.1437727769613388
 40
-0.1437727769613388
 40
-0.1437727769613388
 40
-0.1437727769613388
 40
0.0
 40
0.0
 40
0.0
 40
0.0
 10
1776.087035201669
 20
148.2172592029458
 30
0.0
 10
1776.34498870358
 20
148.4452967555578
 30
0.0
 10
1776.602794310378
 20
148.6735743938886
 30
0.0
 10
1776.860428523263
 20
148.902078609686
 30
0.0
  0
LINE
  5
83B
330
1F
100
AcDbEntity
  8
0
  6
Continuous
100
AcDbLine
 10
1776.860428523263
 20
148.902078609686
 30
0.0
 11
1790.720409759609
 21
121.7003338291249
 31
0.0
  0
SPLINE
  5
83C
330
1F
100
AcDbEntity
  8
0
  6
Continuous
100
AcDbSpline
210
0.0
220
0.0
230
1.0
 70
    24
 71
     3
 72
     8
 73
     4
 74
     0
 42
0.0000000001
 43
0.0000000001
 40
-0.1437727769611343
 40
-0.1437727769611343
 40
-0.1437727769611343
 40
-0.1437727769611343
 40
0.0
 40
0.0
 40
0.0
 40
0.0
 10
1790.283393735162
 20
120.3553368051969
 30
0.0
 10
1790.429079641415
 20
120.8037119204757
 30
0.0
 10
1790.574755592935
 20
121.2520563982296
 30
0.0
 10
1790.720409759609
 20
121.7003338291249
 30
0.0
  0
LINE
  5
83D
330
1F
100
AcDbEntity
  8
0
  6
Continuous
100
AcDbLine
 10
1790.283393735162
 20
120.3553368051969
 30
0.0
 11
1776.087035201669
 21
148.2172592029458
 31
0.0
  0
CIRCLE
  5
83E
330
1F
100
AcDbEntity
  8
0
  6
Continuous
100
AcDbCircle
 10
1710.077854163755
 20
158.0514098375381
 30
0.0
 40
29.74999999999982
  0
CIRCLE
  5
83F
330
1F
100
AcDbEntity
  8
0
  6
Continuous
100
AcDbCircle
 10
1710.077854163755
 20
158.0514098375381
 30
0.0
 40
38.74999999999976
  0
LINE
  5
840
330
1F
100
AcDbEntity
  8
0
  6
Continuous
100
AcDbLine
 10
1754.535775476735
 20
131.4819156550877
 30
0.0
 11
1741.616180876002
 21
124.8990534088646
 31
0.0
  0
LINE
  5
841
330
1F
100
AcDbEntity
  8
0
  6
Continuous
100
AcDbLine
 10
1762.707604472047
 20
115.4437982196975
 30
0.0
 11
1749.788009871315
 21
108.8609359734739
 31
0.0
  0
LINE
  5
842
330
1F
100
AcDbEntity
  8
0
  6
Continuous
100
AcDbLine
 10
1749.788009871315
 20
108.8609359734735
 30
0.0
 11
1741.616180876002
 21
124.8990534088646
 31
0.0
  0
ARC
  5
843
330
1F
100
AcDbEntity
  8
0
  6
Continuous
100
AcDbCircle
 10
1691.158896264101
 20
127.4492604786148
 30
0.0
 40
2.999999999999982
100
AcDbArc
 50
214.8947240955198
 51
261.6546413356074
  0
ARC
  5
844
330
1F
100
AcDbEntity
  8
0
  6
Continuous
100
AcDbCircle
 10
1674.199910825826
 20
160.7331434624795
 30
0.0
 40
3.000000000000002
100
AcDbArc
 50
152.3453586643344
 51
199.1052759045212
  0
LINE
  5
845
330
1F
100
AcDbEntity
  8
0
  6
Continuous
100
AcDbLine
 10
1701.794797732824
 20
203.0529183094142
 30
0.0
 11
1714.714392333555
 21
209.6357805556374
 31
0.0
  0
LINE
  5
846
330
1F
100
AcDbEntity
  8
0
  6
Continuous
100
AcDbLine
 10
1693.622968737512
 20
219.0910357448045
 30
0.0
 11
1706.542563338244
 21
225.673897991028
 31
0.0
  0
LINE
  5
847
330
1F
100
AcDbEntity
  8
0
  6
Continuous
100
AcDbLine
 10
1693.622968737512
 20
219.0910357448049
 30
0.0
 11
1701.794797732824
 21
203.0529183094142
 31
0.0
  0
LINE
  5
848
330
1F
100
AcDbEntity
  8
0
  6
Continuous
100
AcDbLine
 10
1781.284227840858
 20
115.7700327578279
 30
0.0
 11
1766.404418886913
 21
108.1883914121774
 31
0.0
  0
LINE
  5
849
330
1F
100
AcDbEntity
  8
0
  6
Continuous
100
AcDbLine
 10
1717.725557877323
 20
240.5109461441982
 30
0.0
 11
1702.845748923377
 21
232.9293047985482
 31
0.0
  0
LINE
  5
84A
330
1F
100
AcDbEntity
  8
0
  6
Continuous
100
AcDbLine
 10
1767.087869307366
 20
143.6319551555759
 30
0.0
 11
1781.284227840858
 21
115.7700327578275
 31
0.0
  0
LINE
  5
84B
330
1F
100
AcDbEntity
  8
0
  6
Continuous
100
AcDbLine
 10
1717.725557877323
 20
240.5109461441982
 30
0.0
 11
1731.921916410814
 21
212.6490237464497
 31
0.0
  0
LINE
  5
84C
330
1F
100
AcDbEntity
  8
0
  6
Continuous
100
AcDbLine
 10
1731.921916410814
 20
212.6490237464502
 30
0.0
 11
1717.042107456867
 21
205.0673824007997
 31
0.0
  0
LINE
  5
84D
330
1F
100
AcDbEntity
  8
0
  6
Continuous
100
AcDbLine
 10
1767.087869307366
 20
143.6319551555759
 30
0.0
 11
1731.921916410814
 21
212.6490237464497
 31
0.0
  0
LINE
  5
84E
330
1F
100
AcDbEntity
  8
0
  6
Continuous
100
AcDbLine
 10
1767.087869307366
 20
143.6319551555759
 30
0.0
 11
1752.208060353421
 21
136.0503138099259
 31
0.0
  0
LINE
  5
84F
330
1F
100
AcDbEntity
  8
0
  6
Continuous
100
AcDbLine
 10
1749.629469921537
 20
141.1110824809373
 30
0.0
 11
1752.208060353421
 21
136.0503138099259
 31
0.0
  0
LINE
  5
850
330
1F
100
AcDbEntity
  8
0
  6
Continuous
100
AcDbLine
 10
1766.404418886913
 20
108.1883914121774
 30
0.0
 11
1752.208060353421
 21
136.0503138099259
 31
0.0
  0
LINE
  5
851
330
1F
100
AcDbEntity
  8
0
  6
Continuous
100
AcDbLine
 10
1717.042107456867
 20
205.0673824007993
 30
0.0
 11
1702.845748923377
 21
232.9293047985482
 31
0.0
  0
LINE
  5
852
330
1F
100
AcDbEntity
  8
0
  6
Continuous
100
AcDbLine
 10
1717.042107456867
 20
205.0673824007997
 30
0.0
 11
1719.620697888753
 21
200.0066137297879
 31
0.0
  0
LINE
  5
853
330
1F
100
AcDbEntity
  8
0
  6
Continuous
100
AcDbLine
 10
1743.107458519369
 20
137.7879516896398
 30
0.0
 11
1749.629469921537
 21
141.1110824809373
 31
0.0
  0
LINE
  5
854
330
1F
100
AcDbEntity
  8
0
  6
Continuous
100
AcDbLine
 10
1719.620697888753
 20
200.0066137297879
 30
0.0
 11
1713.098686486586
 21
196.6834829384909
 31
0.0
  0
LINE
  5
855
330
1F
100
AcDbEntity
  8
0
  6
Continuous
100
AcDbLine
 10
1729.377026644995
 20
124.4492604786148
 30
0.0
 11
1741.845361820969
 21
124.4492604786148
 31
0.0
  0
LINE
  5
856
330
1F
100
AcDbEntity
  8
0
  6
Continuous
100
AcDbLine
 10
1701.565616787859
 20
203.5027112396635
 30
0.0
 11
1694.236913250782
 21
193.4156161907374
 31
0.0
  0
LINE
  5
857
330
1F
100
AcDbEntity
  8
0
  6
Continuous
100
AcDbLine
 10
1764.011248013783
 20
246.6986265328057
 30
0.0
 11
1734.652583041775
 21
231.7396395663875
 31
0.0
  0
LINE
  5
858
330
1F
100
AcDbEntity
  8
0
  6
Continuous
100
AcDbLine
 10
1813.496212485393
 20
149.5789153962744
 30
0.0
 11
1784.137547513388
 21
134.6199284298561
 31
0.0
  0
LINE
  5
859
330
1F
100
AcDbEntity
  8
0
  6
Continuous
100
AcDbLine
 10
1818.931137482937
 20
317.3301049308663
 30
0.0
 11
1787.091118278907
 21
301.1068048340223
 31
0.0
  0
LINE
  5
85A
330
1F
100
AcDbEntity
  8
0
  6
Continuous
100
AcDbLine
 10
1902.919379934754
 20
152.4938979560195
 30
0.0
 11
1871.079360730724
 21
136.2705978591755
 31
0.0
  0
LINE
  5
85B
330
1F
100
AcDbEntity
  8
0
  6
Continuous
100
AcDbLine
 10
1902.14488114247
 20
283.9726040327852
 30
0.0
 11
1897.689848521529
 21
281.7026515340878
 31
0.0
  0
LINE
  5
85C
330
1F
100
AcDbEntity
  8
0
  6
Continuous
100
AcDbLine
 10
1924.844406129448
 20
239.4222778233673
 30
0.0
 11
1920.389373508505
 21
237.1523253246694
 31
0.0
  0
LINE
  5
85D
330
1F
100
AcDbEntity
  8
0
  6
Continuous
100
AcDbLine
 10
1867.574609463421
 20
330.3438155521478
 30
0.0
 11
1818.931137482937
 21
317.3301049308663
 31
0.0
  0
LINE
  5
85E
330
1F
100
AcDbEntity
  8
0
  6
Continuous
100
AcDbLine
 10
1942.039608437679
 20
184.1980262728414
 30
0.0
 11
1902.919379934754
 21
152.4938979560195
 31
0.0
  0
LINE
  5
85F
330
1F
100
AcDbEntity
  8
0
  6
Continuous
100
AcDbLine
 10
1937.021444150495
 20
284.908206911755
 30
0.0
 11
1908.954738638564
 21
270.6075061699596
 31
0.0
  0
LINE
  5
860
330
1F
100
AcDbEntity
  8
0
  6
Continuous
100
AcDbLine
 10
1946.101254145289
 20
267.0880764279879
 30
0.0
 11
1918.034548633355
 21
252.7873756861925
 31
0.0
  0
LINE
  5
861
330
1F
100
AcDbEntity
  8
0
  6
Continuous
100
AcDbLine
 10
1811.626265459334
 20
153.2488930743591
 30
0.0
 11
1823.972380857118
 21
129.018277292487
 31
0.0
  0
LINE
  5
862
330
1F
100
AcDbEntity
  8
0
  6
Continuous
100
AcDbLine
 10
1780.023708330503
 20
215.2724036962275
 30
0.0
 11
1797.483752168673
 21
181.0051382328522
 31
0.0
  0
LINE
  5
863
330
1F
100
AcDbEntity
  8
0
  6
Continuous
100
AcDbLine
 10
1753.535079642059
 20
267.2592646365931
 30
0.0
 11
1765.881195039843
 21
243.028648854721
 31
0.0
  0
LINE
  5
864
330
1F
100
AcDbEntity
  8
0
  6
Continuous
100
AcDbLine
 10
1902.14488114247
 20
283.9726040327848
 30
0.0
 11
1924.844406129448
 21
239.4222778233673
 31
0.0
  0
LINE
  5
865
330
1F
100
AcDbEntity
  8
0
  6
Continuous
100
AcDbLine
 10
1818.931137482937
 20
317.3301049308663
 30
0.0
 11
1902.919379934754
 21
152.493897956019
 31
0.0
  0
ARC
  5
866
330
1F
100
AcDbEntity
  8
0
  6
Continuous
100
AcDbCircle
 10
1938.261873443634
 20
188.8594336048361
 30
0.0
 40
5.999999999999968
100
AcDbArc
 50
309.0222766861776
 51
26.9999999999872
  0
ARC
  5
867
330
1F
100
AcDbEntity
  8
0
  6
Continuous
100
AcDbCircle
 10
1869.125270296141
 20
324.5476572570467
 30
0.0
 40
5.999999999999968
100
AcDbArc
 50
26.9999999999872
 51
104.9777233137893
  0
LINE
  5
868
330
1F
100
AcDbEntity
  8
0
  6
Continuous
100
AcDbLine
 10
1874.47130944127
 20
327.2716002554837
 30
0.0
 11
1943.607912588764
 21
191.5833766032731
 31
0.0
  0
LINE
  5
869
330
1F
100
AcDbEntity
  8
0
  6
Continuous
100
AcDbLine
 10
1939.038939686388
 20
284.2526828750817
 30
0.0
 11
1937.021444150495
 21
284.908206911755
 31
0.0
  0
LINE
  5
86A
330
1F
100
AcDbEntity
  8
0
  6
Continuous
100
AcDbLine
 10
1946.756778181961
 20
269.10557196388
 30
0.0
 11
1946.101254145289
 21
267.0880764279879
 31
0.0
  0
LINE
  5
86B
330
1F
100
AcDbEntity
  8
0
  6
Continuous
100
AcDbLine
 10
1946.101254145289
 20
267.0880764279879
 30
0.0
 11
1937.021444150497
 21
284.908206911755
 31
0.0
  0
LINE
  5
86C
330
1F
100
AcDbEntity
  8
0
  6
Continuous
100
AcDbLine
 10
1939.038939686388
 20
284.2526828750822
 30
0.0
 11
1946.756778181961
 21
269.10557196388
 31
0.0
  0
LINE
  5
86D
330
1F
100
AcDbEntity
  8
0
  6
Continuous
100
AcDbLine
 10
1833.420926314418
 20
110.4744627162451
 30
0.0
 11
1868.57562638023
 21
128.3866770691195
 31
0.0
  0
LINE
  5
86E
330
1F
100
AcDbEntity
  8
0
  6
Continuous
100
AcDbLine
 10
1744.086534184758
 20
285.8030792128354
 30
0.0
 11
1779.241234250568
 21
303.7152935657102
 31
0.0
  0
LINE
  5
86F
330
1F
100
AcDbEntity
  8
0
  6
Continuous
100
AcDbLine
 10
1831.673157183011
 20
113.9046527747457
 30
0.0
 11
1833.420926314418
 21
110.4744627162447
 31
0.0
  0
LINE
  5
870
330
1F
100
AcDbEntity
  8
0
  6
Continuous
100
AcDbLine
 10
1805.01926708862
 20
166.2158574865732
 30
0.0
 11
1808.670214385971
 21
159.0504699657497
 31
0.0
  0
LINE
  5
871
330
1F
100
AcDbEntity
  8
0
  6
Continuous
100
AcDbLine
 10
1853.503572096186
 20
174.5864465621178
 30
0.0
 11
1811.626265459332
 21
153.2488930743591
 31
0.0
  0
LINE
  5
872
330
1F
100
AcDbEntity
  8
0
  6
Continuous
100
AcDbLine
 10
1811.626265459332
 20
153.2488930743591
 30
0.0
 11
1808.670214385971
 21
159.0504699657497
 31
0.0
  0
LINE
  5
873
330
1F
100
AcDbEntity
  8
0
  6
Continuous
100
AcDbLine
 10
1768.837246113205
 20
237.22707196333
 30
0.0
 11
1772.488193410556
 21
230.0616844425069
 31
0.0
  0
LINE
  5
874
330
1F
100
AcDbEntity
  8
0
  6
Continuous
100
AcDbLine
 10
1821.901014967355
 20
236.6099571839861
 30
0.0
 11
1780.023708330502
 21
215.2724036962275
 31
0.0
  0
LINE
  5
875
330
1F
100
AcDbEntity
  8
0
  6
Continuous
100
AcDbLine
 10
1780.023708330502
 20
215.2724036962275
 30
0.0
 11
1772.488193410556
 21
230.0616844425069
 31
0.0
  0
LINE
  5
876
330
1F
100
AcDbEntity
  8
0
  6
Continuous
100
AcDbLine
 10
1744.086534184758
 20
285.8030792128354
 30
0.0
 11
1745.834303316167
 21
282.3728891543344
 31
0.0
  0
LINE
  5
877
330
1F
100
AcDbEntity
  8
0
  6
Continuous
100
AcDbLine
 10
1795.412386278911
 20
288.5968181243513
 30
0.0
 11
1753.535079642059
 21
267.2592646365926
 31
0.0
  0
LINE
  5
878
330
1F
100
AcDbEntity
  8
0
  6
Continuous
100
AcDbLine
 10
1753.535079642059
 20
267.2592646365926
 30
0.0
 11
1745.834303316167
 21
282.3728891543344
 31
0.0
  0
LINE
  5
879
330
1F
100
AcDbEntity
  8
0
  6
Continuous
100
AcDbLine
 10
1831.673157183009
 20
113.9046527747457
 30
0.0
 11
1823.972380857118
 21
129.018277292487
 31
0.0
  0
LINE
  5
87A
330
1F
100
AcDbEntity
  8
0
  6
Continuous
100
AcDbLine
 10
1823.972380857118
 20
129.018277292487
 30
0.0
 11
1865.849687493971
 21
150.3558307802457
 31
0.0
  0
LINE
  5
87B
330
1F
100
AcDbEntity
  8
0
  6
Continuous
100
AcDbLine
 10
1805.01926708862
 20
166.2158574865732
 30
0.0
 11
1797.483752168673
 21
181.0051382328527
 31
0.0
  0
LINE
  5
87C
330
1F
100
AcDbEntity
  8
0
  6
Continuous
100
AcDbLine
 10
1797.483752168673
 20
181.0051382328522
 30
0.0
 11
1839.361058805527
 21
202.3426917206109
 31
0.0
  0
LINE
  5
87D
330
1F
100
AcDbEntity
  8
0
  6
Continuous
100
AcDbLine
 10
1768.837246113205
 20
237.2270719633304
 30
0.0
 11
1765.881195039843
 21
243.028648854721
 31
0.0
  0
LINE
  5
87E
330
1F
100
AcDbEntity
  8
0
  6
Continuous
100
AcDbLine
 10
1765.881195039843
 20
243.0286488547206
 30
0.0
 11
1807.758501676697
 21
264.3662023424792
 31
0.0
  0
LINE
  5
87F
330
1F
100
AcDbEntity
  8
0
  6
Continuous
100
AcDbLine
 10
1795.412386278911
 20
288.5968181243513
 30
0.0
 11
1789.554365467878
 21
300.0938313095518
 31
0.0
  0
SPLINE
  5
880
330
1F
100
AcDbEntity
  8
0
  6
Continuous
100
AcDbSpline
210
0.0
220
0.0
230
1.0
 70
    12
 71
     2
 72
     6
 73
     3
 74
     0
 42
0.0000000001
 43
0.0000000001
 40
0.0
 40
0.0
 40
0.0
 40
2.028228737672966
 40
2.028228737672966
 40
2.028228737672966
 10
1795.412386278911
 20
288.5968181243513
 30
0.0
 41
1.0
 10
1789.208256121326
 20
294.387196357283
 30
0.0
 41
1.006852855008648
 10
1781.682038303644
 20
300.6382224371866
 30
0.0
 41
1.005104936193844
  0
SPLINE
  5
881
330
1F
100
AcDbEntity
  8
0
  6
Continuous
100
AcDbSpline
210
0.0
220
0.0
230
1.0
 70
     8
 71
     3
 72
    14
 73
    10
 74
     0
 42
0.0000000001
 43
0.0000000001
 40
0.5302283687096694
 40
0.5302283687096694
 40
0.5302283687096694
 40
0.5302283687096694
 40
0.7705741176297888
 40
0.7705741176297888
 40
1.013400618476665
 40
1.013400618476665
 40
1.256227119323543
 40
1.256227119323543
 40
1.496572868243663
 40
1.496572868243663
 40
1.496572868243663
 40
1.496572868243663
 10
1780.169766417575
 20
303.6062231279704
 30
0.0
 10
1779.765781362048
 20
303.7401995399975
 30
0.0
 10
1779.43756874561
 20
303.7930981043102
 30
0.0
 10
1779.095665092039
 20
303.6602293638677
 30
0.0
 10
1779.085855487557
 20
303.4711752359496
 30
0.0
 10
1779.367104656643
 20
302.9191926620349
 30
0.0
 10
1779.671778646789
 20
302.5295428489501
 30
0.0
 10
1780.539771169207
 20
301.6299040485676
 30
0.0
 10
1781.100003480427
 20
301.1216411937891
 30
0.0
 10
1781.682038303644
 20
300.6382224371866
 30
0.0
  0
SPLINE
  5
882
330
1F
100
AcDbEntity
  8
0
  6
Continuous
100
AcDbSpline
210
0.0
220
0.0
230
1.0
 70
    12
 71
     2
 72
     6
 73
     3
 74
     0
 42
0.0000000001
 43
0.0000000001
 40
1.203842643101294
 40
1.203842643101294
 40
1.203842643101294
 40
3.232071380774219
 40
3.232071380774219
 40
3.232071380774219
 10
1780.169766417575
 20
303.6062231279704
 30
0.0
 41
1.005104936193834
 10
1785.39364547375
 20
301.8737912886274
 30
0.0
 41
1.006852855008634
 10
1789.554365467878
 20
300.0938313095518
 30
0.0
 41
1.0
  0
LINE
  5
883
330
1F
100
AcDbEntity
  8
0
  6
Continuous
100
AcDbLine
 10
1821.901014967357
 20
236.6099571839856
 30
0.0
 11
1807.758501676697
 21
264.3662023424792
 31
0.0
  0
SPLINE
  5
884
330
1F
100
AcDbEntity
  8
0
  6
Continuous
100
AcDbSpline
210
0.0
220
0.0
230
1.0
 70
    12
 71
     2
 72
     6
 73
     3
 74
     0
 42
0.0000000001
 43
0.0000000001
 40
0.0
 40
0.0
 40
0.0
 40
2.028228737672941
 40
2.028228737672941
 40
2.028228737672941
 10
1821.901014967355
 20
236.6099571839861
 30
0.0
 41
1.0
 10
1815.774592206669
 20
242.2478260634086
 30
0.0
 41
1.006852855008639
 10
1808.335928398033
 20
248.3270177253591
 30
0.0
 41
1.005104936193837
  0
SPLINE
  5
885
330
1F
100
AcDbEntity
  8
0
  6
Continuous
100
AcDbSpline
210
0.0
220
0.0
230
1.0
 70
     8
 71
     3
 72
    14
 73
    10
 74
     0
 42
0.0000000001
 43
0.0000000001
 40
0.5302283687096669
 40
0.5302283687096669
 40
0.5302283687096669
 40
0.5302283687096669
 40
0.7705741176297892
 40
0.7705741176297892
 40
1.013400618476665
 40
1.013400618476665
 40
1.256227119323543
 40
1.256227119323543
 40
1.496572868243664
 40
1.496572868243664
 40
1.496572868243664
 40
1.496572868243664
 10
1804.684981100685
 20
255.4924052461827
 30
0.0
 10
1804.539567369834
 20
255.118906859979
 30
0.0
 10
1804.495535777616
 20
254.6140687606969
 30
0.0
 10
1804.68951670679
 20
253.4294673084152
 30
0.0
 10
1804.930958416915
 20
252.7473047109327
 30
0.0
 10
1805.60995397533
 20
251.4147008947932
 30
0.0
 10
1806.080377864136
 20
250.6997485893087
 30
0.0
 10
1807.156487817143
 20
249.391656333278
 30
0.0
 10
1807.760664503244
 20
248.797147786697
 30
0.0
 10
1808.335928398033
 20
248.3270177253591
 30
0.0
  0
SPLINE
  5
886
330
1F
100
AcDbEntity
  8
0
  6
Continuous
100
AcDbSpline
210
0.0
220
0.0
230
1.0
 70
    12
 71
     2
 72
     6
 73
     3
 74
     0
 42
0.0000000001
 43
0.0000000001
 40
1.203842643101284
 40
1.203842643101284
 40
1.203842643101284
 40
3.232071380774219
 40
3.232071380774219
 40
3.232071380774219
 10
1804.684981100685
 20
255.4924052461826
 30
0.0
 41
1.005104936193825
 10
1806.565307446119
 20
260.3220650826531
 30
0.0
 41
1.006852855008623
 10
1807.758501676697
 20
264.3662023424792
 30
0.0
 41
1.0
  0
LINE
  5
887
330
1F
100
AcDbEntity
  8
0
  6
Continuous
100
AcDbLine
 10
1853.503572096188
 20
174.5864465621178
 30
0.0
 11
1839.361058805527
 21
202.3426917206109
 31
0.0
  0
SPLINE
  5
888
330
1F
100
AcDbEntity
  8
0
  6
Continuous
100
AcDbSpline
210
0.0
220
0.0
230
1.0
 70
    12
 71
     2
 72
     6
 73
     3
 74
     0
 42
0.0000000001
 43
0.0000000001
 40
0.0
 40
0.0
 40
0.0
 40
2.028228737672969
 40
2.028228737672969
 40
2.028228737672969
 10
1853.503572096186
 20
174.5864465621178
 30
0.0
 41
1.0
 10
1849.530454353547
 20
175.9982163915622
 30
0.0
 41
1.00685285500863
 10
1844.517949373448
 20
177.3158032486019
 30
0.0
 41
1.00510493619383
  0
SPLINE
  5
889
330
1F
100
AcDbEntity
  8
0
  6
Continuous
100
AcDbSpline
210
0.0
220
0.0
230
1.0
 70
     8
 71
     3
 72
    14
 73
    10
 74
     0
 42
0.0000000001
 43
0.0000000001
 40
0.5302283687096658
 40
0.5302283687096658
 40
0.5302283687096658
 40
0.5302283687096658
 40
0.7705741176297881
 40
0.7705741176297881
 40
1.013400618476666
 40
1.013400618476666
 40
1.256227119323543
 40
1.256227119323543
 40
1.496572868243666
 40
1.496572868243666
 40
1.496572868243666
 40
1.496572868243666
 10
1840.8670020761
 20
184.4811907694254
 30
0.0
 10
1840.909213651755
 20
183.7394569855762
 30
0.0
 10
1841.035055023368
 20
182.9012244228722
 30
0.0
 10
1841.460802328487
 20
181.2617558463414
 30
0.0
 10
1841.762702669626
 20
180.4609365044814
 30
0.0
 10
1842.441698228043
 20
179.128332688342
 30
0.0
 10
1842.851663485833
 20
178.5320371272353
 30
0.0
 10
1843.696007062897
 20
177.6788119954528
 30
0.0
 10
1844.130310785165
 20
177.4176979122946
 30
0.0
 10
1844.517949373448
 20
177.3158032486019
 30
0.0
  0
SPLINE
  5
88A
330
1F
100
AcDbEntity
  8
0
  6
Continuous
100
AcDbSpline
210
0.0
220
0.0
230
1.0
 70
    12
 71
     2
 72
     6
 73
     3
 74
     0
 42
0.0000000001
 43
0.0000000001
 40
1.203842643101279
 40
1.203842643101279
 40
1.203842643101279
 40
3.232071380774217
 40
3.232071380774217
 40
3.232071380774217
 10
1840.8670020761
 20
184.4811907694254
 30
0.0
 41
1.005104936193811
 10
1840.321169592996
 20
194.0724554108071
 30
0.0
 41
1.006852855008604
 10
1839.361058805527
 20
202.3426917206109
 30
0.0
 41
1.0
  0
LINE
  5
88B
330
1F
100
AcDbEntity
  8
0
  6
Continuous
100
AcDbLine
 10
1871.707708305004
 20
138.8588175950451
 30
0.0
 11
1865.849687493971
 21
150.3558307802457
 31
0.0
  0
SPLINE
  5
88C
330
1F
100
AcDbEntity
  8
0
  6
Continuous
100
AcDbSpline
210
0.0
220
0.0
230
1.0
 70
    12
 71
     2
 72
     6
 73
     3
 74
     0
 42
0.0000000001
 43
0.0000000001
 40
0.0
 40
0.0
 40
0.0
 40
2.028228737672941
 40
2.028228737672941
 40
2.028228737672941
 10
1871.707708305004
 20
138.8588175950451
 30
0.0
 41
1.0
 10
1870.702116325916
 20
134.4464901855883
 30
0.0
 41
1.006852855008639
 10
1869.03316405656
 20
129.2019853668141
 30
0.0
 41
1.005104936193837
  0
SPLINE
  5
88D
330
1F
100
AcDbEntity
  8
0
  6
Continuous
100
AcDbSpline
210
0.0
220
0.0
230
1.0
 70
     8
 71
     3
 72
    14
 73
    10
 74
     0
 42
0.0000000001
 43
0.0000000001
 40
0.5302283687096669
 40
0.5302283687096669
 40
0.5302283687096669
 40
0.5302283687096669
 40
0.7705741176297892
 40
0.7705741176297892
 40
1.013400618476665
 40
1.013400618476665
 40
1.256227119323543
 40
1.256227119323543
 40
1.496572868243664
 40
1.496572868243664
 40
1.496572868243664
 40
1.496572868243664
 10
1867.520892170489
 20
132.1699860575979
 30
0.0
 10
1867.569874674571
 20
131.414963578484
 30
0.0
 10
1867.651771671304
 20
130.6629767075826
 30
0.0
 10
1867.869401545835
 20
129.4319615867005
 30
0.0
 10
1868.005551988312
 20
128.9564447372402
 30
0.0
 10
1868.286801157397
 20
128.404462163325
 30
0.0
 10
1868.445515100586
 20
128.3012750717828
 30
0.0
 10
1868.753974094901
 20
128.4997826518399
 30
0.0
 10
1868.904096792952
 20
128.7964052322757
 30
0.0
 10
1869.03316405656
 20
129.2019853668141
 30
0.0
  0
SPLINE
  5
88E
330
1F
100
AcDbEntity
  8
0
  6
Continuous
100
AcDbSpline
210
0.0
220
0.0
230
1.0
 70
    12
 71
     2
 72
     6
 73
     3
 74
     0
 42
0.0000000001
 43
0.0000000001
 40
1.203842643101284
 40
1.203842643101284
 40
1.203842643101284
 40
3.232071380774219
 40
3.232071380774219
 40
3.232071380774219
 10
1867.520892170489
 20
132.1699860575979
 30
0.0
 41
1.005104936193825
 10
1866.88750567834
 20
141.9330851169323
 30
0.0
 41
1.006852855008623
 10
1865.849687493971
 20
150.3558307802457
 30
0.0
 41
1.0
  0
VIEWPORT
  5
71
330
55
100
AcDbEntity
 67
     1
  8
0
100
AcDbViewport
 10
133.3499908447265
 20
101.5999970436096
 30
0.0
 40
381.3957395593834
 41
218.2856291881582
 68
     1
 69
     1
 12
133.3499908447265
 22
101.5999970436096
 13
0.0
 23
0.0
 14
10.0
 24
10.0
 15
10.0
 25
10.0
 16
0.0
 26
0.0
 36
1.0
 17
0.0
 27
0.0
 37
0.0
 42
50.0
 43
0.0
 44
0.0
 45
218.2856291881582
 50
0.0
 51
0.0
 72
   100
 90
    32800
  1

281
     0
 71
     1
 74
     0
110
0.0
120
0.0
130
0.0
111
1.0
121
0.0
131
0.0
112
0.0
122
1.0
132
0.0
 79
     0
146
0.0
  0
VIEWPORT
  5
73
330
55
100
AcDbEntity
 67
     1
  8
0
100
AcDbViewport
 10
133.349993944168
 20
101.599993944168
 30
0.0
 40
213.3599903106689
 41
162.5599903106689
 68
     2
 69
     2
 12
210.0
 22
148.5
 13
0.0
 23
0.0
 14
10.0
 24
10.0
 15
10.0
 25
10.0
 16
0.0
 26
0.0
 36
1.0
 17
0.0
 27
0.0
 37
0.0
 42
50.0
 43
0.0
 44
0.0
 45
324.0677920111345
 50
0.0
 51
0.0
 72
   100
 90
    32864
  1

281
     0
 71
     1
 74
     0
110
0.0
120
0.0
130
0.0
111
1.0
121
0.0
131
0.0
112
0.0
122
1.0
132
0.0
 79
     0
146
0.0
  0
ENDSEC
  0
SECTION
  2
OBJECTS
  0
DICTIONARY
  5
C
330
0
100
AcDbDictionary
281
     1
  3
ACAD_GROUP
350
D
  3
ACAD_LAYOUT
350
1A
  3
ACAD_MLINESTYLE
350
17
  3
ACAD_PLOTSETTINGS
350
19
  3
ACAD_PLOTSTYLENAME
350
E
  3
AcDbVariableDictionary
350
5E
  0
DICTIONARY
  5
46B
330
2
100
AcDbDictionary
280
     1
281
     1
  3
ACAD_LAYERSTATES
360
46C
  0
DICTIONARY
  5
423
330
1F
100
AcDbDictionary
280
     1
281
     1
  3
ACAD_LAYOUTSELFREF
360
45A
  0
DICTIONARY
  5
425
330
55
100
AcDbDictionary
280
     1
281
     1
  3
ACAD_LAYOUTSELFREF
360
45E
  0
DICTIONARY
  5
427
330
50
100
AcDbDictionary
280
     1
281
     1
  3
ACAD_LAYOUTSELFREF
360
45D
  0
DICTIONARY
  5
D
102
{ACAD_REACTORS
330
C
102
}
330
C
100
AcDbDictionary
281
     1
  0
DICTIONARY
  5
1A
102
{ACAD_REACTORS
330
C
102
}
330
C
100
AcDbDictionary
281
     1
  3
Model
350
22
  3
ﾚｲｱｳﾄ1
350
51
  3
ﾚｲｱｳﾄ2
350
56
  0
DICTIONARY
  5
17
102
{ACAD_REACTORS
330
C
102
}
330
C
100
AcDbDictionary
281
     1
  3
Standard
350
18
  0
DICTIONARY
  5
19
102
{ACAD_REACTORS
330
C
102
}
330
C
100
AcDbDictionary
281
     1
  0
ACDBDICTIONARYWDFLT
  5
E
102
{ACAD_REACTORS
330
C
102
}
330
C
100
AcDbDictionary
281
     1
  3
Normal
350
F
100
AcDbDictionaryWithDefault
340
F
  0
DICTIONARY
  5
5E
102
{ACAD_REACTORS
330
C
102
}
330
C
100
AcDbDictionary
281
     1
  3
DIMASSOC
350
5F
  3
HIDETEXT
350
63
  0
DICTIONARY
  5
46C
102
{ACAD_REACTORS
330
46B
102
}
330
46B
100
AcDbDictionary
281
     1
  0
XRECORD
  5
45A
102
{ACAD_REACTORS
330
423
102
}
330
423
100
AcDbXrecord
280
     1
340
1F
  0
XRECORD
  5
45E
102
{ACAD_REACTORS
330
425
102
}
330
425
100
AcDbXrecord
280
     1
340
55
  0
XRECORD
  5
45D
102
{ACAD_REACTORS
330
427
102
}
330
427
100
AcDbXrecord
280
     1
340
50
  0
LAYOUT
  5
22
102
{ACAD_REACTORS
330
1A
102
}
330
1A
100
AcDbPlotSettings
  1

  2
none_device
  4
ANSI_A_(8.50_x_11.00_Inches)
  6

 40
6.349999904632568
 41
19.04999923706054
 42
6.350006103515625
 43
19.04998779296875
 44
215.8999938964843
 45
279.3999938964843
 46
0.0
 47
0.0
 48
0.0
 49
0.0
140
0.0
141
0.0
142
1.0
143
78.436453180766
 70
 11952
 72
     0
 73
     1
 74
     0
  7

 75
     0
147
0.0127491741332998
148
0.0
149
0.0
100
AcDbLayout
  1
Model
 70
     1
 71
     0
 10
0.0
 20
0.0
 11
12.0
 21
9.0
 12
0.0
 22
0.0
 32
0.0
 14
0.0
 24
0.0
 34
0.0
 15
0.0
 25
0.0
 35
0.0
146
0.0
 13
0.0
 23
0.0
 33
0.0
 16
1.0
 26
0.0
 36
0.0
 17
0.0
 27
1.0
 37
0.0
 76
     0
330
1F
  0
LAYOUT
  5
51
102
{ACAD_REACTORS
330
1A
102
}
330
1A
100
AcDbPlotSettings
  1

  2
none_device
  4
Letter_(8.50_x_11.00_Inches)
  6

 40
6.349999904632568
 41
6.349999904632568
 42
6.350006103515625
 43
6.350006103515625
 44
215.8999938964843
 45
279.3999938964843
 46
0.0
 47
0.0
 48
0.0
 49
0.0
140
0.0
141
0.0
142
1.0
143
1.0
 70
   688
 72
     1
 73
     1
 74
     5
  7

 75
    16
147
1.0
148
0.0
149
0.0
100
AcDbLayout
  1
ﾚｲｱｳﾄ1
 70
     1
 71
     1
 10
-6.350006103515625
 20
-6.349999904632568
 11
273.0499877929687
 21
209.5499939918517
 12
0.0
 22
0.0
 32
0.0
 14
26.66076962115562
 24
20.31135699206657
 34
-0.0015258207003583
 15
240.039213369355
 25
182.8886381005154
 35
0.0000000349246037
146
0.0
 13
0.0
 23
0.0
 33
0.0
 16
1.0
 26
0.0
 36
0.0
 17
0.0
 27
1.0
 37
0.0
 76
     0
330
50
331
6B
  0
LAYOUT
  5
56
102
{ACAD_REACTORS
330
1A
102
}
330
1A
100
AcDbPlotSettings
  1

  2
none_device
  4
Letter_(8.50_x_11.00_Inches)
  6

 40
6.349999904632568
 41
6.349999904632568
 42
6.350006103515625
 43
6.350006103515625
 44
215.8999938964843
 45
279.3999938964843
 46
0.0
 47
0.0
 48
0.0
 49
0.0
140
0.0
141
0.0
142
1.0
143
1.0
 70
   688
 72
     1
 73
     1
 74
     5
  7

 75
    16
147
1.0
148
0.0
149
0.0
100
AcDbLayout
  1
ﾚｲｱｳﾄ2
 70
     1
 71
     2
 10
-6.350006103515625
 20
-6.349999904632568
 11
273.0499877929687
 21
209.5499939918517
 12
0.0
 22
0.0
 32
0.0
 14
26.66076962115562
 24
20.31135699206657
 34
-0.0015258207003583
 15
240.039213369355
 25
182.8886381005154
 35
0.0000000349246037
146
0.0
 13
0.0
 23
0.0
 33
0.0
 16
1.0
 26
0.0
 36
0.0
 17
0.0
 27
1.0
 37
0.0
 76
     0
330
55
331
71
  0
MLINESTYLE
  5
18
102
{ACAD_REACTORS
330
17
102
}
330
17
100
AcDbMlineStyle
  2
STANDARD
 70
     0
  3

 62
   256
 51
90.0
 52
90.0
 71
     2
 49
0.5
 62
   256
  6
BYLAYER
 49
-0.5
 62
   256
  6
BYLAYER
  0
ACDBPLACEHOLDER
  5
F
102
{ACAD_REACTORS
330
E
102
}
330
E
  0
DICTIONARYVAR
  5
5F
102
{ACAD_REACTORS
330
5E
102
}
330
5E
100
DictionaryVariables
280
     0
  1
2
  0
DICTIONARYVAR
  5
63
102
{ACAD_REACTORS
330
5E
102
}
330
5E
100
DictionaryVariables
280
     0
  1
1
  0
ENDSEC
  0
EOF
