  0
SECTION
  2
HEADER
  9
$ACADVER
  1
AC1015
  9
$ACADMAINTVER
 70
    14
  9
$DWGCODEPAGE
  3
ANSI_932
  9
$INSBASE
 10
0.0
 20
0.0
 30
0.0
  9
$EXTMIN
 10
32.71129640970412
 20
17.42967856350833
 30
-0.0000000000112498
  9
$EXTMAX
 10
2192.057885596529
 20
879.9838153754258
 30
0.0000000000002956
  9
$LIMMIN
 10
0.0
 20
0.0
  9
$LIMMAX
 10
420.0
 20
297.0
  9
$ORTHOMODE
 70
     0
  9
$REGENMODE
 70
     1
  9
$FILLMODE
 70
     1
  9
$QTEXTMODE
 70
     0
  9
$MIRRTEXT
 70
     1
  9
$LTSCALE
 40
1.0
  9
$ATTMODE
 70
     1
  9
$TEXTSIZE
 40
2.5
  9
$TRACEWID
 40
1.0
  9
$TEXTSTYLE
  7
Standard
  9
$CLAYER
  8
0
  9
$CELTYPE
  6
ByLayer
  9
$CECOLOR
 62
   256
  9
$CELTSCALE
 40
1.0
  9
$DISPSILH
 70
     0
  9
$DIMSCALE
 40
1.0
  9
$DIMASZ
 40
2.5
  9
$DIMEXO
 40
0.625
  9
$DIMDLI
 40
3.75
  9
$DIMRND
 40
0.0
  9
$DIMDLE
 40
0.0
  9
$DIMEXE
 40
1.25
  9
$DIMTP
 40
0.0
  9
$DIMTM
 40
0.0
  9
$DIMTXT
 40
2.5
  9
$DIMCEN
 40
2.5
  9
$DIMTSZ
 40
0.0
  9
$DIMTOL
 70
     0
  9
$DIMLIM
 70
     0
  9
$DIMTIH
 70
     0
  9
$DIMTOH
 70
     0
  9
$DIMSE1
 70
     0
  9
$DIMSE2
 70
     0
  9
$DIMTAD
 70
     1
  9
$DIMZIN
 70
     8
  9
$DIMBLK
  1

  9
$DIMASO
 70
     1
  9
$DIMSHO
 70
     1
  9
$DIMPOST
  1

  9
$DIMAPOST
  1

  9
$DIMALT
 70
     0
  9
$DIMALTD
 70
     3
  9
$DIMALTF
 40
0.03937007874016
  9
$DIMLFAC
 40
1.0
  9
$DIMTOFL
 70
     1
  9
$DIMTVP
 40
0.0
  9
$DIMTIX
 70
     0
  9
$DIMSOXD
 70
     0
  9
$DIMSAH
 70
     0
  9
$DIMBLK1
  1

  9
$DIMBLK2
  1

  9
$DIMSTYLE
  2
ISO-25
  9
$DIMCLRD
 70
     0
  9
$DIMCLRE
 70
     0
  9
$DIMCLRT
 70
     0
  9
$DIMTFAC
 40
1.0
  9
$DIMGAP
 40
0.625
  9
$DIMJUST
 70
     0
  9
$DIMSD1
 70
     0
  9
$DIMSD2
 70
     0
  9
$DIMTOLJ
 70
     0
  9
$DIMTZIN
 70
     8
  9
$DIMALTZ
 70
     0
  9
$DIMALTTZ
 70
     0
  9
$DIMUPT
 70
     0
  9
$DIMDEC
 70
     2
  9
$DIMTDEC
 70
     2
  9
$DIMALTU
 70
     2
  9
$DIMALTTD
 70
     3
  9
$DIMTXSTY
  7
Standard
  9
$DIMAUNIT
 70
     0
  9
$DIMADEC
 70
     0
  9
$DIMALTRND
 40
0.0
  9
$DIMAZIN
 70
     0
  9
$DIMDSEP
 70
    44
  9
$DIMATFIT
 70
     3
  9
$DIMFRAC
 70
     0
  9
$DIMLDRBLK
  1

  9
$DIMLUNIT
 70
     2
  9
$DIMLWD
 70
    -2
  9
$DIMLWE
 70
    -2
  9
$DIMTMOVE
 70
     0
  9
$LUNITS
 70
     2
  9
$LUPREC
 70
     4
  9
$SKETCHINC
 40
1.0
  9
$FILLETRAD
 40
10.0
  9
$AUNITS
 70
     0
  9
$AUPREC
 70
     0
  9
$MENU
  1
.
  9
$ELEVATION
 40
0.0
  9
$PELEVATION
 40
0.0
  9
$THICKNESS
 40
0.0
  9
$LIMCHECK
 70
     0
  9
$CHAMFERA
 40
10.0
  9
$CHAMFERB
 40
10.0
  9
$CHAMFERC
 40
20.0
  9
$CHAMFERD
 40
0.0
  9
$SKPOLY
 70
     0
  9
$TDCREATE
 40
2454278.667173564
  9
$TDUCREATE
 40
2454278.292173565
  9
$TDUPDATE
 40
2456899.672550671
  9
$TDUUPDATE
 40
2456899.297550671
  9
$TDINDWG
 40
0.0036648264
  9
$TDUSRTIMER
 40
0.0036648264
  9
$USRTIMER
 70
     1
  9
$ANGBASE
 50
0.0
  9
$ANGDIR
 70
     0
  9
$PDMODE
 70
     0
  9
$PDSIZE
 40
0.0
  9
$PLINEWID
 40
0.0
  9
$SPLFRAME
 70
     0
  9
$SPLINETYPE
 70
     6
  9
$SPLINESEGS
 70
     8
  9
$HANDSEED
  5
75C
  9
$SURFTAB1
 70
     6
  9
$SURFTAB2
 70
     6
  9
$SURFTYPE
 70
     6
  9
$SURFU
 70
     6
  9
$SURFV
 70
     6
  9
$UCSBASE
  2

  9
$UCSNAME
  2

  9
$UCSORG
 10
0.0
 20
0.0
 30
0.0
  9
$UCSXDIR
 10
1.0
 20
0.0
 30
0.0
  9
$UCSYDIR
 10
0.0
 20
1.0
 30
0.0
  9
$UCSORTHOREF
  2

  9
$UCSORTHOVIEW
 70
     0
  9
$UCSORGTOP
 10
0.0
 20
0.0
 30
0.0
  9
$UCSORGBOTTOM
 10
0.0
 20
0.0
 30
0.0
  9
$UCSORGLEFT
 10
0.0
 20
0.0
 30
0.0
  9
$UCSORGRIGHT
 10
0.0
 20
0.0
 30
0.0
  9
$UCSORGFRONT
 10
0.0
 20
0.0
 30
0.0
  9
$UCSORGBACK
 10
0.0
 20
0.0
 30
0.0
  9
$PUCSBASE
  2

  9
$PUCSNAME
  2

  9
$PUCSORG
 10
0.0
 20
0.0
 30
0.0
  9
$PUCSXDIR
 10
1.0
 20
0.0
 30
0.0
  9
$PUCSYDIR
 10
0.0
 20
1.0
 30
0.0
  9
$PUCSORTHOREF
  2

  9
$PUCSORTHOVIEW
 70
     0
  9
$PUCSORGTOP
 10
0.0
 20
0.0
 30
0.0
  9
$PUCSORGBOTTOM
 10
0.0
 20
0.0
 30
0.0
  9
$PUCSORGLEFT
 10
0.0
 20
0.0
 30
0.0
  9
$PUCSORGRIGHT
 10
0.0
 20
0.0
 30
0.0
  9
$PUCSORGFRONT
 10
0.0
 20
0.0
 30
0.0
  9
$PUCSORGBACK
 10
0.0
 20
0.0
 30
0.0
  9
$USERI1
 70
     0
  9
$USERI2
 70
     0
  9
$USERI3
 70
     0
  9
$USERI4
 70
     0
  9
$USERI5
 70
     0
  9
$USERR1
 40
0.0
  9
$USERR2
 40
0.0
  9
$USERR3
 40
0.0
  9
$USERR4
 40
0.0
  9
$USERR5
 40
0.0
  9
$WORLDVIEW
 70
     1
  9
$SHADEDGE
 70
     3
  9
$SHADEDIF
 70
    70
  9
$TILEMODE
 70
     1
  9
$MAXACTVP
 70
    48
  9
$PINSBASE
 10
0.0
 20
0.0
 30
0.0
  9
$PLIMCHECK
 70
     0
  9
$PEXTMIN
 10
26.66076962115562
 20
20.31135699206657
 30
-0.0015258207003583
  9
$PEXTMAX
 10
240.039213369355
 20
182.8886381005154
 30
0.0000000349246037
  9
$PLIMMIN
 10
-6.350006103515625
 20
-6.349999904632568
  9
$PLIMMAX
 10
273.0499877929687
 20
209.5499939918517
  9
$UNITMODE
 70
     0
  9
$VISRETAIN
 70
     1
  9
$PLINEGEN
 70
     0
  9
$PSLTSCALE
 70
     1
  9
$TREEDEPTH
 70
  3020
  9
$CMLSTYLE
  2
Standard
  9
$CMLJUST
 70
     0
  9
$CMLSCALE
 40
20.0
  9
$PROXYGRAPHICS
 70
     1
  9
$MEASUREMENT
 70
     1
  9
$CELWEIGHT
370
    -1
  9
$ENDCAPS
280
     0
  9
$JOINSTYLE
280
     0
  9
$LWDISPLAY
290
     0
  9
$INSUNITS
 70
     4
  9
$HYPERLINKBASE
  1

  9
$STYLESHEET
  1

  9
$XEDIT
290
     1
  9
$CEPSNTYPE
380
     0
  9
$PSTYLEMODE
290
     1
  9
$FINGERPRINTGUID
  2
{FDEAD578-A652-11D2-9A35-0060089B3A3F}
  9
$VERSIONGUID
  2
{7ED9228F-C1F4-4FF9-9FB8-5CAA0741DFAB}
  9
$EXTNAMES
290
     1
  9
$PSVPSCALE
 40
0.0
  9
$OLESTARTUP
290
     0
  0
ENDSEC
  0
SECTION
  2
CLASSES
  0
CLASS
  1
ACDBDICTIONARYWDFLT
  2
AcDbDictionaryWithDefault
  3
AutoCAD 2000
 90
        0
280
     0
281
     0
  0
CLASS
  1
ACDBPLACEHOLDER
  2
AcDbPlaceHolder
  3
AutoCAD 2000
 90
        0
280
     0
281
     0
  0
CLASS
  1
LAYOUT
  2
AcDbLayout
  3
AutoCAD 2000
 90
        0
280
     0
281
     0
  0
CLASS
  1
DICTIONARYVAR
  2
AcDbDictionaryVar
  3
AutoCAD 2000
 90
        0
280
     0
281
     0
  0
CLASS
  1
LONG_TRANSACTION
  2
AcDbLongTransaction
  3
AutoCAD 2000
 90
    32768
280
     0
281
     0
  0
CLASS
  1
LWPOLYLINE
  2
AcDbPolyline
  3
AutoCAD 2000
 90
    32768
280
     0
281
     1
  0
CLASS
  1
HATCH
  2
AcDbHatch
  3
AutoCAD 2000
 90
    32768
280
     0
281
     1
  0
CLASS
  1
XRECORD
  2
AcDbXrecord
  3
AutoCAD 2000
 90
    32768
280
     0
281
     0
  0
ENDSEC
  0
SECTION
  2
TABLES
  0
TABLE
  2
VPORT
  5
8
330
0
100
AcDbSymbolTable
 70
     2
  0
VPORT
  5
75B
330
8
100
AcDbSymbolTableRecord
100
AcDbViewportTableRecord
  2
*Active
 70
     0
 10
0.0
 20
0.0
 11
1.0
 21
1.0
 12
1112.384591003116
 22
448.7067469694671
 13
0.0
 23
0.0
 14
10.0
 24
10.0
 15
10.0
 25
10.0
 16
0.0
 26
0.0
 36
1.0
 17
0.0
 27
0.0
 37
0.0
 40
1361.644701964834
 41
1.592161016949152
 42
50.0
 43
0.0
 44
0.0
 50
0.0
 51
0.0
 71
     0
 72
   100
 73
     1
 74
     3
 75
     0
 76
     0
 77
     0
 78
     0
281
     0
 65
     1
110
0.0
120
0.0
130
0.0
111
1.0
121
0.0
131
0.0
112
0.0
122
1.0
132
0.0
 79
     0
146
0.0
  0
ENDTAB
  0
TABLE
  2
LTYPE
  5
5
330
0
100
AcDbSymbolTable
 70
     3
  0
LTYPE
  5
14
330
5
100
AcDbSymbolTableRecord
100
AcDbLinetypeTableRecord
  2
ByBlock
 70
     0
  3

 72
    65
 73
     0
 40
0.0
  0
LTYPE
  5
15
330
5
100
AcDbSymbolTableRecord
100
AcDbLinetypeTableRecord
  2
ByLayer
 70
     0
  3

 72
    65
 73
     0
 40
0.0
  0
LTYPE
  5
16
330
5
100
AcDbSymbolTableRecord
100
AcDbLinetypeTableRecord
  2
Continuous
 70
     0
  3
Solid line
 72
    65
 73
     0
 40
0.0
  0
LTYPE
  5
86
330
5
100
AcDbSymbolTableRecord
100
AcDbLinetypeTableRecord
  2
HIDDEN
 70
     0
  3
Hidden __ __ __ __ __ __ __ __ __ __ __ __ __ _
 72
    65
 73
     2
 40
0.375
 49
0.25
 74
     0
 49
-0.125
 74
     0
  0
LTYPE
  5
394
330
5
100
AcDbSymbolTableRecord
100
AcDbLinetypeTableRecord
  2
CENTER
 70
     0
  3
Center ____ _ ____ _ ____ _ ____ _ ____ _ ____
 72
    65
 73
     4
 40
50.8
 49
31.75
 74
     0
 49
-6.349999999999999
 74
     0
 49
6.349999999999999
 74
     0
 49
-6.349999999999999
 74
     0
  0
ENDTAB
  0
TABLE
  2
LAYER
  5
2
102
{ACAD_XDICTIONARY
360
395
102
}
330
0
100
AcDbSymbolTable
 70
     1
  0
LAYER
  5
10
330
2
100
AcDbSymbolTableRecord
100
AcDbLayerTableRecord
  2
0
 70
     0
 62
     7
  6
Continuous
370
    -3
390
F
  0
ENDTAB
  0
TABLE
  2
STYLE
  5
3
330
0
100
AcDbSymbolTable
 70
     1
  0
STYLE
  5
11
330
3
100
AcDbSymbolTableRecord
100
AcDbTextStyleTableRecord
  2
Standard
 70
     0
 40
0.0
 41
1.0
 50
0.0
 71
     0
 42
2.5
  3
txt
  4

  0
ENDTAB
  0
TABLE
  2
VIEW
  5
6
330
0
100
AcDbSymbolTable
 70
     0
  0
ENDTAB
  0
TABLE
  2
UCS
  5
7
330
0
100
AcDbSymbolTable
 70
     0
  0
ENDTAB
  0
TABLE
  2
APPID
  5
9
330
0
100
AcDbSymbolTable
 70
     1
  0
APPID
  5
12
330
9
100
AcDbSymbolTableRecord
100
AcDbRegAppTableRecord
  2
ACAD
 70
     0
  0
ENDTAB
  0
TABLE
  2
DIMSTYLE
  5
A
330
0
100
AcDbSymbolTable
 70
     1
100
AcDbDimStyleTable
 71
     0
  0
DIMSTYLE
105
27
330
A
100
AcDbSymbolTableRecord
100
AcDbDimStyleTableRecord
  2
ISO-25
 70
     0
 41
2.5
 42
0.625
 43
3.75
 44
1.25
 73
     0
 74
     0
 77
     1
 78
     8
140
2.5
141
2.5
143
0.03937007874016
147
0.625
171
     3
172
     1
271
     2
272
     2
274
     3
278
    44
283
     0
284
     8
340
11
  0
ENDTAB
  0
TABLE
  2
BLOCK_RECORD
  5
1
330
0
100
AcDbSymbolTable
 70
     1
  0
BLOCK_RECORD
  5
1F
102
{ACAD_XDICTIONARY
360
34D
102
}
330
1
100
AcDbSymbolTableRecord
100
AcDbBlockTableRecord
  2
*Model_Space
340
22
  0
BLOCK_RECORD
  5
55
102
{ACAD_XDICTIONARY
360
34F
102
}
330
1
100
AcDbSymbolTableRecord
100
AcDbBlockTableRecord
  2
*Paper_Space
340
56
  0
BLOCK_RECORD
  5
50
102
{ACAD_XDICTIONARY
360
351
102
}
330
1
100
AcDbSymbolTableRecord
100
AcDbBlockTableRecord
  2
*Paper_Space0
340
51
  0
ENDTAB
  0
ENDSEC
  0
SECTION
  2
BLOCKS
  0
BLOCK
  5
20
330
1F
100
AcDbEntity
  8
0
100
AcDbBlockBegin
  2
*Model_Space
 70
     0
 10
0.0
 20
0.0
 30
0.0
  3
*Model_Space
  1

  0
ENDBLK
  5
21
330
1F
100
AcDbEntity
  8
0
100
AcDbBlockEnd
  0
BLOCK
  5
57
330
55
100
AcDbEntity
 67
     1
  8
0
100
AcDbBlockBegin
  2
*Paper_Space
 70
     0
 10
0.0
 20
0.0
 30
0.0
  3
*Paper_Space
  1

  0
ENDBLK
  5
58
330
55
100
AcDbEntity
 67
     1
  8
0
100
AcDbBlockEnd
  0
BLOCK
  5
52
330
50
100
AcDbEntity
  8
0
100
AcDbBlockBegin
  2
*Paper_Space0
 70
     0
 10
0.0
 20
0.0
 30
0.0
  3
*Paper_Space0
  1

  0
VIEWPORT
  5
6B
330
50
100
AcDbEntity
  8
0
100
AcDbViewport
 10
133.3499908447265
 20
101.5999970436096
 30
0.0
 40
381.3957395593834
 41
218.2856291881582
 69
     0
 12
133.3499908447265
 22
101.5999970436096
 13
0.0
 23
0.0
 14
10.0
 24
10.0
 15
10.0
 25
10.0
 16
0.0
 26
0.0
 36
1.0
 17
0.0
 27
0.0
 37
0.0
 42
50.0
 43
0.0
 44
0.0
 45
218.2856291881582
 50
0.0
 51
0.0
 72
   100
 90
    32800
  1

281
     0
 71
     1
 74
     0
110
0.0
120
0.0
130
0.0
111
1.0
121
0.0
131
0.0
112
0.0
122
1.0
132
0.0
 79
     0
146
0.0
  0
VIEWPORT
  5
6D
330
50
100
AcDbEntity
  8
0
100
AcDbViewport
 10
133.349993944168
 20
101.599993944168
 30
0.0
 40
213.3599903106689
 41
162.5599903106689
 69
     0
 12
210.0
 22
148.5
 13
0.0
 23
0.0
 14
10.0
 24
10.0
 15
10.0
 25
10.0
 16
0.0
 26
0.0
 36
1.0
 17
0.0
 27
0.0
 37
0.0
 42
50.0
 43
0.0
 44
0.0
 45
324.0677920111345
 50
0.0
 51
0.0
 72
   100
 90
    32864
  1

281
     0
 71
     1
 74
     0
110
0.0
120
0.0
130
0.0
111
1.0
121
0.0
131
0.0
112
0.0
122
1.0
132
0.0
 79
     0
146
0.0
  0
ENDBLK
  5
53
330
50
100
AcDbEntity
  8
0
100
AcDbBlockEnd
  0
ENDSEC
  0
SECTION
  2
ENTITIES
  0
LINE
  5
1EA
330
1F
100
AcDbEntity
  8
0
100
AcDbLine
 10
153.9552323687168
 20
117.8821480809411
 30
0.0
 11
153.9552323038947
 21
90.38224453251414
 31
0.0
  0
LINE
  5
1EB
330
1F
100
AcDbEntity
  8
0
100
AcDbLine
 10
238.8169572222313
 20
117.8821360845031
 30
0.0
 11
238.8169571574102
 21
90.38224433248059
 31
0.0
  0
LINE
  5
1EC
330
1F
100
AcDbEntity
  8
0
100
AcDbLine
 10
265.9551408159813
 20
117.8821277589268
 30
0.0
 11
265.9551407511603
 21
90.38224426851149
 31
0.0
  0
CIRCLE
  5
1ED
330
1F
100
AcDbEntity
  8
0
100
AcDbCircle
 10
209.9551865810354
 20
67.98217372647389
 30
0.0
 40
32.0
  0
CIRCLE
  5
1EE
330
1F
100
AcDbEntity
  8
0
100
AcDbCircle
 10
209.9551865810354
 20
67.98217372647389
 30
0.0
 40
23.89996337890647
  0
LINE
  5
1EF
330
1F
100
AcDbEntity
  8
0
100
AcDbLine
 10
153.9552323404309
 20
105.8822445325138
 30
0.0
 11
265.9551407876962
 21
105.8822442685112
 31
0.0
  0
LINE
  5
1F0
330
1F
100
AcDbEntity
  8
0
100
AcDbLine
 10
153.9552323038947
 20
90.38221401493579
 30
0.0
 11
187.1026550237722
 21
90.3822139368018
 31
0.0
  0
LINE
  5
1F1
330
1F
100
AcDbEntity
  8
0
100
AcDbLine
 10
168.6706471673037
 20
90.38221398024907
 30
0.0
 11
178.1384943933711
 21
71.40229903977719
 31
0.0
  0
LINE
  5
1F2
330
1F
100
AcDbEntity
  8
0
100
AcDbLine
 10
181.0934464800446
 20
117.8821726749572
 30
0.0
 11
181.0934464152223
 21
90.38224446854441
 31
0.0
  0
LINE
  5
1F3
330
1F
100
AcDbEntity
  8
0
100
AcDbLine
 10
251.2397700031454
 20
90.38221378561987
 30
0.0
 11
241.7719218931932
 21
71.40229721670687
 31
0.0
  0
LINE
  5
1F4
330
1F
100
AcDbEntity
  8
0
100
AcDbLine
 10
265.9551407511603
 20
90.38221375093336
 30
0.0
 11
232.8077182439002
 21
90.38221382906716
 31
0.0
  0
LINE
  5
1F5
330
1F
100
AcDbEntity
  8
0
100
AcDbLine
 10
177.9551865810352
 20
565.7331570001042
 30
0.0
 11
241.9551865810344
 21
565.7331570001042
 31
0.0
  0
LINE
  5
1F6
330
1F
100
AcDbEntity
  8
0
100
AcDbLine
 10
177.9551865810352
 20
565.7331570001042
 30
0.0
 11
177.9551865810343
 21
568.5831603701561
 31
0.0
  0
LINE
  5
1F7
330
1F
100
AcDbEntity
  8
0
100
AcDbLine
 10
177.9551865810343
 20
568.5831603701561
 30
0.0
 11
184.5552232021281
 21
570.9853773313207
 31
0.0
  0
LINE
  5
1F8
330
1F
100
AcDbEntity
  8
0
100
AcDbLine
 10
184.5552232021281
 20
570.9853773313207
 30
0.0
 11
184.5552232021281
 21
588.5730174052256
 31
0.0
  0
LINE
  5
1F9
330
1F
100
AcDbEntity
  8
0
  6
HIDDEN
 48
10.0
100
AcDbLine
 10
184.5552232021281
 20
588.5730174052256
 30
0.0
 11
184.5552232021281
 21
604.7331970001041
 31
0.0
  0
LINE
  5
1FA
330
1F
100
AcDbEntity
  8
0
100
AcDbLine
 10
241.9551865810344
 20
565.7331570001042
 30
0.0
 11
241.9551865810344
 21
568.5831619490008
 31
0.0
  0
LINE
  5
1FB
330
1F
100
AcDbEntity
  8
0
100
AcDbLine
 10
235.35514995994
 20
570.9853789101647
 30
0.0
 11
235.3551499599407
 21
588.5729962855655
 31
0.0
  0
LINE
  5
1FC
330
1F
100
AcDbEntity
  8
0
  6
HIDDEN
 48
10.0
100
AcDbLine
 10
235.3551499599407
 20
588.5729962855655
 30
0.0
 11
235.3551499599414
 21
604.7331970001043
 31
0.0
  0
LINE
  5
1FD
330
1F
100
AcDbEntity
  8
0
100
AcDbLine
 10
241.9551865810344
 20
568.5831619490008
 30
0.0
 11
235.35514995994
 21
570.9853789101647
 31
0.0
  0
LINE
  5
1FE
330
1F
100
AcDbEntity
  8
0
100
AcDbLine
 10
652.416687628697
 20
113.0821950887785
 30
0.0
 11
652.4166876286963
 21
41.08216457120045
 31
0.0
  0
LINE
  5
1FF
330
1F
100
AcDbEntity
  8
0
100
AcDbLine
 10
540.4167486638528
 20
113.0821950887785
 30
0.0
 11
540.4167486638528
 21
41.08216457120045
 31
0.0
  0
LINE
  5
200
330
1F
100
AcDbEntity
  8
0
100
AcDbLine
 10
540.4167486638528
 20
41.08216457120045
 30
0.0
 11
568.5721441716663
 21
41.08216457120045
 31
0.0
  0
LINE
  5
201
330
1F
100
AcDbEntity
  8
0
100
AcDbLine
 10
540.4166876286963
 20
105.8821828817472
 30
0.0
 11
652.416687628697
 21
105.8821828817472
 31
0.0
  0
LINE
  5
202
330
1F
100
AcDbEntity
  8
0
100
AcDbLine
 10
540.4167486638528
 20
90.3821523641692
 30
0.0
 11
652.4166876286963
 21
90.3821523641692
 31
0.0
  0
LINE
  5
203
330
1F
100
AcDbEntity
  8
0
100
AcDbLine
 10
504.266782711049
 20
35.98218898526295
 30
0.0
 11
506.668977457233
 21
42.58216457120044
 31
0.0
  0
LINE
  5
204
330
1F
100
AcDbEntity
  8
0
100
AcDbLine
 10
501.4167181462739
 20
99.98215846768481
 30
0.0
 11
501.4167181462739
 21
35.98218898526295
 31
0.0
  0
LINE
  5
205
330
1F
100
AcDbEntity
  8
0
100
AcDbLine
 10
501.4167181462739
 20
35.98218898526295
 30
0.0
 11
504.266782711049
 21
35.98218898526295
 31
0.0
  0
LINE
  5
206
330
1F
100
AcDbEntity
  8
0
100
AcDbLine
 10
506.668977457233
 20
42.58216457120044
 30
0.0
 11
540.4167486638528
 21
42.58216457120044
 31
0.0
  0
LINE
  5
207
330
1F
100
AcDbEntity
  8
0
100
AcDbLine
 10
506.6689002302508
 20
93.38218288174729
 30
0.0
 11
540.4167486638528
 21
93.38218288174729
 31
0.0
  0
LINE
  5
208
330
1F
100
AcDbEntity
  8
0
100
AcDbLine
 10
506.6689002302508
 20
93.38218288174729
 30
0.0
 11
506.668977457233
 21
42.58216457120044
 31
0.0
  0
LINE
  5
209
330
1F
100
AcDbEntity
  8
0
100
AcDbLine
 10
501.4167181462739
 20
99.98215846768481
 30
0.0
 11
504.2667054840668
 21
99.98215846768481
 31
0.0
  0
LINE
  5
20A
330
1F
100
AcDbEntity
  8
0
100
AcDbLine
 10
504.2667054840668
 20
99.98215846768481
 30
0.0
 11
506.6689002302508
 21
93.38218288174729
 31
0.0
  0
LINE
  5
20B
330
1F
100
AcDbEntity
  8
0
100
AcDbLine
 10
652.4166876286963
 20
41.08216457120045
 30
0.0
 11
624.261292120884
 21
41.08216457120045
 31
0.0
  0
ARC
  5
20C
330
1F
100
AcDbEntity
  8
0
100
AcDbCircle
 10
597.1835638494004
 20
55.98218898526296
 30
0.0
 40
12.0
100
AcDbArc
 50
30.00000333930298
 51
90.00000500895694
  0
ARC
  5
20D
330
1F
100
AcDbEntity
  8
0
100
AcDbCircle
 10
568.5721441716663
 20
49.08219508877857
 30
0.0
 40
8.0
100
AcDbArc
 50
269.9999974955215
 51
330.0000016696579
  0
LINE
  5
20E
330
1F
100
AcDbEntity
  8
0
100
AcDbLine
 10
595.6498724431504
 20
67.98218898526295
 30
0.0
 11
597.1835638494004
 21
67.98218898526295
 31
0.0
  0
ARC
  5
20F
330
1F
100
AcDbEntity
  8
0
100
AcDbCircle
 10
595.6498724431504
 20
55.98218898526296
 30
0.0
 40
12.0
100
AcDbArc
 50
90.00000865142139
 51
149.999996660697
  0
LINE
  5
210
330
1F
100
AcDbEntity
  8
0
100
AcDbLine
 10
585.257585989513
 20
61.98221592460811
 30
0.0
 11
575.500353192153
 21
45.08219328162964
 31
0.0
  0
ARC
  5
211
330
1F
100
AcDbEntity
  8
0
100
AcDbCircle
 10
624.261292120884
 20
49.08219508877857
 30
0.0
 40
8.0
100
AcDbArc
 50
210.0000051605344
 51
269.9999974955215
  0
LINE
  5
212
330
1F
100
AcDbEntity
  8
0
100
AcDbLine
 10
607.5758741848201
 20
61.98217852653225
 30
0.0
 11
617.333095538087
 21
45.08217570530211
 31
0.0
  0
LINE
  5
213
330
1F
100
AcDbEntity
  8
0
100
AcDbLine
 10
688.5666854427569
 20
35.98218898526295
 30
0.0
 11
686.1644906965737
 21
42.58216457120044
 31
0.0
  0
LINE
  5
214
330
1F
100
AcDbEntity
  8
0
100
AcDbLine
 10
691.4166876286968
 20
99.98215846768481
 30
0.0
 11
691.4166876286968
 21
35.98218898526295
 31
0.0
  0
LINE
  5
215
330
1F
100
AcDbEntity
  8
0
100
AcDbLine
 10
691.4166876286968
 20
35.98218898526295
 30
0.0
 11
688.5666854427569
 21
35.98218898526295
 31
0.0
  0
LINE
  5
216
330
1F
100
AcDbEntity
  8
0
100
AcDbLine
 10
686.164486733235
 20
93.38218288174729
 30
0.0
 11
652.416687628697
 21
93.38218288174729
 31
0.0
  0
LINE
  5
217
330
1F
100
AcDbEntity
  8
0
100
AcDbLine
 10
686.1644906965737
 20
42.58216457120044
 30
0.0
 11
652.4166876286963
 21
42.58216457120044
 31
0.0
  0
LINE
  5
218
330
1F
100
AcDbEntity
  8
0
100
AcDbLine
 10
686.164486733235
 20
93.38218288174729
 30
0.0
 11
686.1644906965737
 21
42.58216457120044
 31
0.0
  0
LINE
  5
219
330
1F
100
AcDbEntity
  8
0
100
AcDbLine
 10
691.4166876286968
 20
99.98215846768481
 30
0.0
 11
688.5666814794183
 21
99.98215846768481
 31
0.0
  0
LINE
  5
21A
330
1F
100
AcDbEntity
  8
0
100
AcDbLine
 10
688.5666814794183
 20
99.98215846768481
 30
0.0
 11
686.164486733235
 21
93.38218288174729
 31
0.0
  0
LINE
  5
21B
330
1F
100
AcDbEntity
  8
0
100
AcDbLine
 10
177.9551865810343
 20
755.7331264825262
 30
0.0
 11
241.9551865810344
 21
755.7331264825262
 31
0.0
  0
LINE
  5
21C
330
1F
100
AcDbEntity
  8
0
100
AcDbLine
 10
184.5552232021281
 20
750.4809035778882
 30
0.0
 11
184.5552232021281
 21
732.8932965949828
 31
0.0
  0
LINE
  5
21D
330
1F
100
AcDbEntity
  8
0
  6
HIDDEN
 48
10.0
100
AcDbLine
 10
184.5552232021281
 20
732.8932965949828
 30
0.0
 11
184.5552232021281
 21
716.7330970001042
 31
0.0
  0
LINE
  5
21E
330
1F
100
AcDbEntity
  8
0
100
AcDbLine
 10
177.9551865810343
 20
755.7331264825262
 30
0.0
 11
177.9551865810343
 21
752.883120539053
 31
0.0
  0
LINE
  5
21F
330
1F
100
AcDbEntity
  8
0
100
AcDbLine
 10
177.9551865810343
 20
752.883120539053
 30
0.0
 11
184.5552232021281
 21
750.4809035778882
 31
0.0
  0
LINE
  5
220
330
1F
100
AcDbEntity
  8
0
100
AcDbLine
 10
235.3551499599414
 20
750.4808695229153
 30
0.0
 11
235.3551499599414
 21
732.8933177146427
 31
0.0
  0
LINE
  5
221
330
1F
100
AcDbEntity
  8
0
  6
HIDDEN
 48
10.0
100
AcDbLine
 10
235.3551499599414
 20
732.8933177146427
 30
0.0
 11
235.3551499599414
 21
716.7330970001044
 31
0.0
  0
LINE
  5
222
330
1F
100
AcDbEntity
  8
0
100
AcDbLine
 10
241.9551865810344
 20
755.7331264825262
 30
0.0
 11
241.9551865810352
 21
752.8830864840803
 31
0.0
  0
LINE
  5
223
330
1F
100
AcDbEntity
  8
0
100
AcDbLine
 10
241.9551865810352
 20
752.8830864840803
 30
0.0
 11
235.3551499599414
 21
750.4808695229153
 31
0.0
  0
LINE
  5
224
330
1F
100
AcDbEntity
  8
0
100
AcDbLine
 10
567.5549933040731
 20
117.8821737295054
 30
0.0
 11
567.5549932392524
 21
90.38224411693692
 31
0.0
  0
LINE
  5
225
330
1F
100
AcDbEntity
  8
0
100
AcDbLine
 10
625.2785040462612
 20
117.8821737295055
 30
0.0
 11
625.2785039814392
 21
90.38224398087313
 31
0.0
  0
TEXT
  5
226
330
1F
100
AcDbEntity
  8
0
100
AcDbText
 10
32.85499999999911
 20
831.970381585471
 30
0.0
 40
48.000002
  1
DHC2S14AD000 2S
 41
1.32095
100
AcDbText
  0
LINE
  5
227
330
1F
100
AcDbEntity
  8
0
  6
HIDDEN
 48
10.0
100
AcDbLine
 10
181.0934320634562
 20
716.7330970001042
 30
0.0
 11
238.8169120634563
 21
716.7330970001042
 31
0.0
  0
LINE
  5
228
330
1F
100
AcDbEntity
  8
0
  6
HIDDEN
 48
10.0
100
AcDbLine
 10
181.0934320634562
 20
604.7331970001042
 30
0.0
 11
238.8168500634562
 21
604.7331970001042
 31
0.0
  0
ARC
  5
229
330
1F
100
AcDbEntity
  8
0
  6
HIDDEN
 48
10.0
100
AcDbCircle
 10
209.9551560634563
 20
660.7331570001043
 30
0.0
 40
62.99995
100
AcDbArc
 50
207.2660962106228
 51
242.7339399999953
  0
ARC
  5
22A
330
1F
100
AcDbEntity
  8
0
  6
HIDDEN
 48
10.0
100
AcDbCircle
 10
209.9551560634563
 20
660.7331570001043
 30
0.0
 40
62.99995
100
AcDbArc
 50
27.26601871873661
 51
62.73394199999678
  0
ARC
  5
22B
330
1F
100
AcDbEntity
  8
0
  6
HIDDEN
 48
10.0
100
AcDbCircle
 10
209.9551560634563
 20
660.7331570001043
 30
0.0
 40
62.99995
100
AcDbArc
 50
297.2660600000046
 51
332.7339812812633
  0
ARC
  5
22C
330
1F
100
AcDbEntity
  8
0
  6
HIDDEN
 48
10.0
100
AcDbCircle
 10
209.9551560634563
 20
660.7331570001043
 30
0.0
 40
62.99995
100
AcDbArc
 50
117.2660600000046
 51
152.7339037893771
  0
LINE
  5
22D
330
1F
100
AcDbEntity
  8
0
  6
HIDDEN
 48
10.0
100
AcDbLine
 10
153.9552265810355
 20
631.8713899376668
 30
0.0
 11
153.9552265810355
 21
689.5949240625415
 31
0.0
  0
LINE
  5
22E
330
1F
100
AcDbEntity
  8
0
  6
HIDDEN
 48
10.0
100
AcDbLine
 10
265.9551245810355
 20
631.8714656769571
 30
0.0
 11
265.9551245810355
 21
689.5948483232515
 31
0.0
  0
CIRCLE
  5
22F
330
1F
100
AcDbEntity
  8
0
100
AcDbCircle
 10
209.9551865810354
 20
660.7331570001043
 30
0.0
 40
10.00002760754864
  0
CIRCLE
  5
230
330
1F
100
AcDbEntity
  8
0
100
AcDbCircle
 10
209.9551865810354
 20
660.7331570001043
 30
0.0
 40
25.000029274094
  0
LINE
  5
231
330
1F
100
AcDbEntity
  8
0
100
AcDbLine
 10
277.589261445499
 20
134.8823489043815
 30
0.0
 11
284.3492648821754
 21
134.8823294449752
 31
0.0
  0
LINE
  5
232
330
1F
100
AcDbEntity
  8
0
100
AcDbLine
 10
273.4692601631688
 20
140.8823290346752
 30
0.0
 11
273.4692659718193
 21
139.2823377906485
 31
0.0
  0
LINE
  5
233
330
1F
100
AcDbEntity
  8
0
100
AcDbLine
 10
288.4692687199392
 20
140.8823499315082
 30
0.0
 11
288.4692763106027
 21
139.2823577795003
 31
0.0
  0
LINE
  5
234
330
1F
100
AcDbEntity
  8
0
100
AcDbLine
 10
273.4692659718193
 20
139.2823377906485
 30
0.0
 11
288.4692763106027
 21
139.2823577795003
 31
0.0
  0
LINE
  5
235
330
1F
100
AcDbEntity
  8
0
100
AcDbLine
 10
217.4551577221625
 20
140.8823406615876
 30
0.0
 11
217.4551706588652
 21
139.2823457856369
 31
0.0
  0
LINE
  5
236
330
1F
100
AcDbEntity
  8
0
100
AcDbLine
 10
202.4551473833791
 20
140.8823206727357
 30
0.0
 11
202.4551621020948
 21
139.2823248888038
 31
0.0
  0
LINE
  5
237
330
1F
100
AcDbEntity
  8
0
100
AcDbLine
 10
217.4551706588652
 20
139.2823457856369
 30
0.0
 11
202.4551621020948
 21
139.2823248888038
 31
0.0
  0
LINE
  5
238
330
1F
100
AcDbEntity
  8
0
100
AcDbLine
 10
142.3210808181304
 20
134.8823589176396
 30
0.0
 11
135.5610647376179
 21
134.882362372877
 31
0.0
  0
LINE
  5
239
330
1F
100
AcDbEntity
  8
0
100
AcDbLine
 10
131.4410743171109
 20
140.8823594153203
 30
0.0
 11
131.4410747797221
 21
139.282370895237
 31
0.0
  0
LINE
  5
23A
330
1F
100
AcDbEntity
  8
0
100
AcDbLine
 10
146.4410501186673
 20
140.8823072156693
 30
0.0
 11
146.4410596610885
 21
139.2823365157163
 31
0.0
  0
LINE
  5
23B
330
1F
100
AcDbEntity
  8
0
100
AcDbLine
 10
146.4410596610885
 20
139.2823365157163
 30
0.0
 11
131.4410747797221
 21
139.282370895237
 31
0.0
  0
LINE
  5
23C
330
1F
100
AcDbEntity
  8
0
100
AcDbLine
 10
284.9692572496132
 20
183.1793824822374
 30
0.0
 11
271.7224839027112
 21
183.1793704191342
 31
0.0
  0
LINE
  5
23D
330
1F
100
AcDbEntity
  8
0
100
AcDbLine
 10
270.9933394248482
 20
181.4147421123497
 30
0.0
 11
286.8541862281715
 21
174.8612392950138
 31
0.0
  0
LINE
  5
23E
330
1F
100
AcDbEntity
  8
0
100
AcDbLine
 10
148.9170107203319
 20
181.4147347890953
 30
0.0
 11
133.0561402332509
 21
174.8612076007449
 31
0.0
  0
LINE
  5
23F
330
1F
100
AcDbEntity
  8
0
100
AcDbLine
 10
134.9410552313672
 20
183.1793806969411
 30
0.0
 11
148.1879128421167
 21
183.1794171650436
 31
0.0
  0
LINE
  5
240
330
1F
100
AcDbEntity
  8
0
100
AcDbLine
 10
197.6260572859505
 20
180.9849686967414
 30
0.0
 11
207.4034398538387
 21
175.1824985040012
 31
0.0
  0
LINE
  5
241
330
1F
100
AcDbEntity
  8
0
100
AcDbLine
 10
222.2843308595363
 20
180.9849216237006
 30
0.0
 11
212.5069394619442
 21
175.1824532321615
 31
0.0
  0
LINE
  5
242
330
1F
100
AcDbEntity
  8
0
100
AcDbLine
 10
198.9283062462886
 20
183.179398580958
 30
0.0
 11
220.9820227820432
 21
183.1794235064975
 31
0.0
  0
LINE
  5
243
330
1F
100
AcDbEntity
  8
0
100
AcDbLine
 10
291.5196213045953
 20
220.1323520232796
 30
0.0
 11
289.5196209104467
 21
220.1323533458502
 31
0.0
  0
LINE
  5
244
330
1F
100
AcDbEntity
  8
0
100
AcDbLine
 10
291.5196237011359
 20
210.6322856845766
 30
0.0
 11
289.5196160091904
 21
210.6322682790354
 31
0.0
  0
LINE
  5
245
330
1F
100
AcDbEntity
  8
0
100
AcDbLine
 10
289.5195936710167
 20
220.1322998854585
 30
0.0
 11
286.4556284029092
 21
220.0365554947822
 31
0.0
  0
LINE
  5
246
330
1F
100
AcDbEntity
  8
0
100
AcDbLine
 10
288.4557224766495
 20
220.099087351086
 30
0.0
 11
288.4557097703302
 21
210.665605100091
 31
0.0
  0
LINE
  5
247
330
1F
100
AcDbEntity
  8
0
100
AcDbLine
 10
289.520966860874
 20
210.6322982745163
 30
0.0
 11
286.4556183202162
 21
210.7280766033303
 31
0.0
  0
LINE
  5
248
330
1F
100
AcDbEntity
  8
0
100
AcDbLine
 10
304.019590065453
 20
220.3822861477604
 30
0.0
 11
291.5196187448166
 21
220.3822729341483
 31
0.0
  0
LINE
  5
249
330
1F
100
AcDbEntity
  8
0
100
AcDbLine
 10
294.9556063170634
 20
152.3823155037422
 30
0.0
 11
294.9556061037008
 21
168.3823106887949
 31
0.0
  0
LINE
  5
24A
330
1F
100
AcDbEntity
  8
0
100
AcDbLine
 10
304.0195956297927
 20
210.3823565352653
 30
0.0
 11
291.5196171811044
 21
210.3823469535774
 31
0.0
  0
LINE
  5
24B
330
1F
100
AcDbEntity
  8
0
100
AcDbLine
 10
304.019590065453
 20
220.3822861477604
 30
0.0
 11
304.0195956297927
 21
210.3823565352653
 31
0.0
  0
LINE
  5
24C
330
1F
100
AcDbEntity
  8
0
100
AcDbLine
 10
286.4556574275452
 20
182.9534003439183
 30
0.0
 11
286.4556570282568
 21
223.3822852099259
 31
0.0
  0
LINE
  5
24D
330
1F
100
AcDbEntity
  8
0
100
AcDbLine
 10
289.9693292027814
 20
169.3823508881636
 30
0.0
 11
293.9556106029028
 21
169.3823128582026
 31
0.0
  0
LINE
  5
24E
330
1F
100
AcDbEntity
  8
0
100
AcDbLine
 10
289.9693341099512
 20
151.3823230629828
 30
0.0
 11
293.9556338394374
 21
151.3823430333178
 31
0.0
  0
LINE
  5
24F
330
1F
100
AcDbEntity
  8
0
100
AcDbLine
 10
283.7409890981691
 20
224.3822720462192
 30
0.0
 11
285.4555881254343
 21
224.3822798864834
 31
0.0
  0
LINE
  5
250
330
1F
100
AcDbEntity
  8
0
100
AcDbLine
 10
141.4551484346886
 20
251.8822710905163
 30
0.0
 11
141.4551536052758
 21
239.8201345565695
 31
0.0
  0
LINE
  5
251
330
1F
100
AcDbEntity
  8
0
100
AcDbLine
 10
285.7806341594771
 20
189.5275992883556
 30
0.0
 11
285.8929374838344
 21
183.0933875438687
 31
0.0
  0
LINE
  5
252
330
1F
100
AcDbEntity
  8
0
100
AcDbLine
 10
276.9411907923013
 20
245.4704930366239
 30
0.0
 11
278.9962627516183
 21
237.8008711424005
 31
0.0
  0
LINE
  5
253
330
1F
100
AcDbEntity
  8
0
100
AcDbLine
 10
142.9691459111368
 20
245.4705105524654
 30
0.0
 11
140.9140830869512
 21
237.8008910649124
 31
0.0
  0
LINE
  5
254
330
1F
100
AcDbEntity
  8
0
100
AcDbLine
 10
134.1297137750623
 20
189.5275960687193
 30
0.0
 11
134.0174250089951
 21
183.0933424338196
 31
0.0
  0
LINE
  5
255
330
1F
100
AcDbEntity
  8
0
100
AcDbLine
 10
291.5196187448166
 20
220.3822729341483
 30
0.0
 11
291.5196171811044
 21
210.3823469535774
 31
0.0
  0
LINE
  5
256
330
1F
100
AcDbEntity
  8
0
100
AcDbLine
 10
266.7224377123127
 20
178.1793323606497
 30
0.0
 11
266.7224391343272
 21
140.882343232705
 31
0.0
  0
LINE
  5
257
330
1F
100
AcDbEntity
  8
0
100
AcDbLine
 10
184.9551578003331
 20
252.882318772802
 30
0.0
 11
184.9551568135498
 21
256.882312433047
 31
0.0
  0
LINE
  5
258
330
1F
100
AcDbEntity
  8
0
100
AcDbLine
 10
233.9551604743867
 20
257.8822869860827
 30
0.0
 11
185.9551704472207
 21
257.8822863799436
 31
0.0
  0
LINE
  5
259
330
1F
100
AcDbEntity
  8
0
100
AcDbLine
 10
209.95515908075
 20
150.8823214578866
 30
0.0
 11
289.9693237851906
 21
150.8823319848451
 31
0.0
  0
LINE
  5
25A
330
1F
100
AcDbEntity
  8
0
100
AcDbLine
 10
234.9551681632806
 20
252.8823527886505
 30
0.0
 11
234.9551636124711
 21
256.8823482648575
 31
0.0
  0
LINE
  5
25B
330
1F
100
AcDbEntity
  8
0
100
AcDbLine
 10
267.2818949836057
 20
252.8823450848877
 30
0.0
 11
142.4551718271486
 21
252.8823522976853
 31
0.0
  0
LINE
  5
25C
330
1F
100
AcDbEntity
  8
0
100
AcDbLine
 10
289.9693129924328
 20
178.1793093240006
 30
0.0
 11
289.9693247113796
 21
141.8823525202886
 31
0.0
  0
LINE
  5
25D
330
1F
100
AcDbEntity
  8
0
100
AcDbLine
 10
288.9693178662714
 20
140.8823302213971
 30
0.0
 11
130.9409943673227
 21
140.8823274810023
 31
0.0
  0
LINE
  5
25E
330
1F
100
AcDbEntity
  8
0
100
AcDbLine
 10
153.1879079964924
 20
178.1793748781605
 30
0.0
 11
153.1879003386968
 21
140.8823679300857
 31
0.0
  0
LINE
  5
25F
330
1F
100
AcDbEntity
  8
0
100
AcDbLine
 10
209.95515908075
 20
150.8823214578866
 30
0.0
 11
129.9410608200266
 21
150.8823444157375
 31
0.0
  0
LINE
  5
260
330
1F
100
AcDbEntity
  8
0
100
AcDbLine
 10
225.9820785248627
 20
178.1793503482607
 30
0.0
 11
225.9820851231716
 21
140.882336136338
 31
0.0
  0
LINE
  5
261
330
1F
100
AcDbEntity
  8
0
100
AcDbLine
 10
129.9410482452558
 20
178.1793226628741
 30
0.0
 11
129.941074220307
 21
141.8823585953142
 31
0.0
  0
LINE
  5
262
330
1F
100
AcDbEntity
  8
0
100
AcDbLine
 10
193.9283010421902
 20
178.1793396389101
 30
0.0
 11
193.928307640499
 21
140.8823254269876
 31
0.0
  0
LINE
  5
263
330
1F
100
AcDbEntity
  8
0
100
AcDbLine
 10
202.9551693267137
 20
290.8822939162645
 30
0.0
 11
216.9551738677664
 21
290.8822837502913
 31
0.0
  0
LINE
  5
264
330
1F
100
AcDbEntity
  8
0
100
AcDbLine
 10
219.9551560404843
 20
261.614503214614
 30
0.0
 11
219.9551585881474
 21
287.8822781500499
 31
0.0
  0
LINE
  5
265
330
1F
100
AcDbEntity
  8
0
100
AcDbLine
 10
219.9551560404843
 20
261.614503214614
 30
0.0
 11
199.9551538810121
 21
261.6145155323362
 31
0.0
  0
LINE
  5
266
330
1F
100
AcDbEntity
  8
0
100
AcDbLine
 10
199.9551538810121
 20
261.6145155323362
 30
0.0
 11
199.9551724667928
 21
287.8822822959431
 31
0.0
  0
LINE
  5
267
330
1F
100
AcDbEntity
  8
0
100
AcDbLine
 10
198.9549993055036
 20
257.8824897455695
 30
0.0
 11
199.9550019006687
 21
261.6145256306146
 31
0.0
  0
LINE
  5
268
330
1F
100
AcDbEntity
  8
0
100
AcDbLine
 10
153.9552323687168
 20
117.8821480809411
 30
0.0
 11
205.4551752234956
 21
117.882192635475
 31
0.0
  0
LINE
  5
269
330
1F
100
AcDbEntity
  8
0
100
AcDbLine
 10
276.2030038086897
 20
134.8822903159244
 30
0.0
 11
214.455148131064
 21
134.882267708829
 31
0.0
  0
LINE
  5
26A
330
1F
100
AcDbEntity
  8
0
100
AcDbLine
 10
281.955531539899
 20
150.8823382095457
 30
0.0
 11
286.4555157097902
 21
150.8823718096265
 31
0.0
  0
LINE
  5
26B
330
1F
100
AcDbEntity
  8
0
100
AcDbLine
 10
255.4552676602359
 20
129.887282112642
 30
0.0
 11
255.4552500516554
 21
119.882179160122
 31
0.0
  0
LINE
  5
26C
330
1F
100
AcDbEntity
  8
0
100
AcDbLine
 10
143.9655500256283
 20
134.8822989884282
 30
0.0
 11
205.4551644321434
 21
134.8822981206388
 31
0.0
  0
LINE
  5
26D
330
1F
100
AcDbEntity
  8
0
100
AcDbLine
 10
282.4497650040593
 20
140.8823695723928
 30
0.0
 11
285.4608371648439
 21
140.882371643055
 31
0.0
  0
LINE
  5
26E
330
1F
100
AcDbEntity
  8
0
100
AcDbLine
 10
164.4550827261789
 20
129.8872590315583
 30
0.0
 11
164.4550508614938
 21
119.8821633428861
 31
0.0
  0
LINE
  5
26F
330
1F
100
AcDbEntity
  8
0
100
AcDbLine
 10
207.455164004315
 20
132.882244521848
 30
0.0
 11
207.4551707540922
 21
119.8822015929976
 31
0.0
  0
LINE
  5
270
330
1F
100
AcDbEntity
  8
0
100
AcDbLine
 10
213.3351592304379
 20
134.8823174511115
 30
0.0
 11
206.5751486657093
 21
134.8823405424417
 31
0.0
  0
LINE
  5
271
330
1F
100
AcDbEntity
  8
0
100
AcDbLine
 10
265.9551408159813
 20
117.8821277589268
 30
0.0
 11
214.4551498426064
 21
117.8821444035351
 31
0.0
  0
LINE
  5
272
330
1F
100
AcDbEntity
  8
0
100
AcDbLine
 10
212.4551668565718
 20
132.882251487459
 30
0.0
 11
212.4551588410104
 21
119.88214874235
 31
0.0
  0
ARC
  5
273
330
1F
100
AcDbEntity
  8
0
100
AcDbCircle
 10
216.9551634278361
 20
287.8822885899802
 30
0.0
 40
3.0
100
AcDbArc
 50
359.9999600000025
 51
89.99982599999031
  0
ARC
  5
274
330
1F
100
AcDbEntity
  8
0
100
AcDbCircle
 10
202.9551676271041
 20
287.882271856013
 30
0.0
 40
3.0
100
AcDbArc
 50
90.00009099999092
 51
179.9999600000024
  0
ARC
  5
275
330
1F
100
AcDbEntity
  8
0
100
AcDbCircle
 10
130.9410007607396
 20
141.8823169011258
 30
0.0
 40
1.0
100
AcDbArc
 50
179.9994400000022
 51
270.0006199999972
  0
ARC
  5
276
330
1F
100
AcDbEntity
  8
0
100
AcDbCircle
 10
288.9693299452169
 20
141.8823616376486
 30
0.0
 40
1.0
100
AcDbArc
 50
270.0002299999971
 51
359.9994400000022
  0
ARC
  5
277
330
1F
100
AcDbEntity
  8
0
100
AcDbCircle
 10
142.4551829143726
 20
251.8823090776808
 30
0.0
 40
1.0
100
AcDbArc
 50
89.99983599999131
 51
179.999040000001
  0
ARC
  5
278
330
1F
100
AcDbEntity
  8
0
100
AcDbCircle
 10
152.6284000553632
 20
242.8823032235128
 30
0.0
 40
10.0
100
AcDbArc
 50
89.99990499999043
 51
164.9999099999948
  0
ARC
  5
279
330
1F
100
AcDbEntity
  8
0
100
AcDbCircle
 10
85.81106535875255
 20
186.0371023693907
 30
0.0
 40
200.00002
100
AcDbArc
 50
0.9999900000019598
 51
14.99999999999445
  0
ARC
  5
27A
330
1F
100
AcDbEntity
  8
0
100
AcDbCircle
 10
283.7409884000073
 20
226.3822786943745
 30
0.0
 40
2.0
100
AcDbArc
 50
191.5210900000001
 51
270.0000199999889
  0
ARC
  5
27B
330
1F
100
AcDbEntity
  8
0
100
AcDbCircle
 10
334.0992953800689
 20
186.0370601398177
 30
0.0
 40
200.00002
100
AcDbArc
 50
165.0000000000055
 51
178.9999999999982
  0
ARC
  5
27C
330
1F
100
AcDbEntity
  8
0
100
AcDbCircle
 10
267.2818959654509
 20
242.8822831281416
 30
0.0
 40
10.0
100
AcDbArc
 50
15.0000600000016
 51
89.99998499999849
  0
ARC
  5
27D
330
1F
100
AcDbEntity
  8
0
100
AcDbCircle
 10
293.9556095555251
 20
168.3823207141362
 30
0.0
 40
1.0
100
AcDbArc
 50
359.9994400000022
 51
90.00022599999148
  0
ARC
  5
27E
330
1F
100
AcDbEntity
  8
0
100
AcDbCircle
 10
293.9556115509008
 20
152.3823246211021
 30
0.0
 40
1.0
100
AcDbArc
 50
270.0002299999971
 51
359.9994400000022
  0
ARC
  5
27F
330
1F
100
AcDbEntity
  8
0
100
AcDbCircle
 10
285.4555959881217
 20
223.3822832025117
 30
0.0
 40
1.0
100
AcDbArc
 50
359.9994400000022
 51
89.99943199999755
  0
ARC
  5
280
330
1F
100
AcDbEntity
  8
0
100
AcDbCircle
 10
233.9551597664983
 20
256.8823395620871
 30
0.0
 40
1.0
100
AcDbArc
 50
359.9994400000022
 51
89.99982199999772
  0
ARC
  5
281
330
1F
100
AcDbEntity
  8
0
100
AcDbCircle
 10
185.9551734731035
 20
256.8823595000216
 30
0.0
 40
1.0
100
AcDbArc
 50
90.00061499999677
 51
179.9994400000022
  0
ARC
  5
282
330
1F
100
AcDbEntity
  8
0
100
AcDbCircle
 10
209.9551779027074
 20
179.4823269160088
 30
0.0
 40
5.0
100
AcDbArc
 50
239.3127600000043
 51
300.68694999999
  0
ARC
  5
283
330
1F
100
AcDbEntity
  8
0
100
AcDbCircle
 10
198.928303894447
 20
178.1793466045211
 30
0.0
 40
5.0
100
AcDbArc
 50
90.00014200000386
 51
180.0000599999929
  0
ARC
  5
284
330
1F
100
AcDbEntity
  8
0
100
AcDbCircle
 10
220.9820074468759
 20
178.1793108058215
 30
0.0
 40
5.0
100
AcDbArc
 50
0.000059999993011
 51
90.00014200000386
  0
ARC
  5
285
330
1F
100
AcDbEntity
  8
0
100
AcDbCircle
 10
134.9410582255645
 20
178.179325996561
 30
0.0
 40
5.0
100
AcDbArc
 50
90.00014200000386
 51
180.0000599999929
  0
ARC
  5
286
330
1F
100
AcDbEntity
  8
0
100
AcDbCircle
 10
148.1878980161836
 20
178.1793715444736
 30
0.0
 40
5.0
100
AcDbArc
 50
0.000059999993011
 51
90.00014200000386
  0
ARC
  5
287
330
1F
100
AcDbEntity
  8
0
100
AcDbCircle
 10
288.7635233304608
 20
179.4823267764001
 30
0.0
 40
5.0
100
AcDbArc
 50
247.5502399999974
 51
270.000059999993
  0
ARC
  5
288
330
1F
100
AcDbEntity
  8
0
100
AcDbCircle
 10
271.7224886789217
 20
178.1793148107734
 30
0.0
 40
5.0
100
AcDbArc
 50
90.00006399999863
 51
180.0000599999929
  0
ARC
  5
289
330
1F
100
AcDbEntity
  8
0
100
AcDbCircle
 10
284.9692548977716
 20
178.1793305058005
 30
0.0
 40
5.0
100
AcDbArc
 50
0.000059999993011
 51
90.00006399999863
  0
ARC
  5
28A
330
1F
100
AcDbEntity
  8
0
100
AcDbCircle
 10
131.1468144850789
 20
179.4823137753927
 30
0.0
 40
5.0
100
AcDbArc
 50
270.000140000001
 51
292.4499500000024
  0
ARC
  5
28B
330
1F
100
AcDbEntity
  8
0
100
AcDbCircle
 10
138.9410517981944
 20
141.3522566202922
 30
0.0
 40
7.299638199999999
100
AcDbArc
 50
196.4733900000001
 51
242.4167199999908
  0
ARC
  5
28C
330
1F
100
AcDbEntity
  8
0
100
AcDbCircle
 10
138.9410517981944
 20
141.3522566202922
 30
0.0
 40
7.299638199999999
100
AcDbArc
 50
297.5832099999978
 51
343.5268499999934
  0
ARC
  5
28D
330
1F
100
AcDbEntity
  8
0
100
AcDbCircle
 10
209.9551592319451
 20
141.3522677061749
 30
0.0
 40
7.299638199999999
100
AcDbArc
 50
297.5832099999978
 51
343.5268499999934
  0
ARC
  5
28E
330
1F
100
AcDbEntity
  8
0
100
AcDbCircle
 10
209.9551592319451
 20
141.3522677061749
 30
0.0
 40
7.299638199999999
100
AcDbArc
 50
196.4733900000001
 51
242.4167199999908
  0
ARC
  5
28F
330
1F
100
AcDbEntity
  8
0
100
AcDbCircle
 10
280.9692739634924
 20
141.3522975201686
 30
0.0
 40
7.299638199999999
100
AcDbArc
 50
196.4733499999942
 51
242.4167799999956
  0
ARC
  5
290
330
1F
100
AcDbEntity
  8
0
100
AcDbCircle
 10
280.9692739634924
 20
141.3522975201686
 30
0.0
 40
7.299638199999999
100
AcDbArc
 50
297.5832099999978
 51
343.5268499999934
  0
ARC
  5
291
330
1F
100
AcDbEntity
  8
0
100
AcDbCircle
 10
257.4552538400851
 20
119.8821536615543
 30
0.0
 40
2.00001
100
AcDbArc
 50
179.9993400000051
 51
269.9996300000018
  0
ARC
  5
292
330
1F
100
AcDbEntity
  8
0
100
AcDbCircle
 10
162.4550595471555
 20
119.8821824855871
 30
0.0
 40
2.00001
100
AcDbArc
 50
269.9998199999948
 51
359.9992399999951
  0
ARC
  5
293
330
1F
100
AcDbEntity
  8
0
100
AcDbCircle
 10
260.4552303681653
 20
129.8822366182151
 30
0.0
 40
4.999994799999999
100
AcDbArc
 50
90.00006399999863
 51
180.0001000000035
  0
ARC
  5
294
330
1F
100
AcDbEntity
  8
0
100
AcDbCircle
 10
159.4550794431163
 20
129.8822467104338
 30
0.0
 40
4.999994799999999
100
AcDbArc
 50
0.000059999993011
 51
89.99998599999338
  0
ARC
  5
295
330
1F
100
AcDbEntity
  8
0
100
AcDbCircle
 10
205.4551522003239
 20
119.8821672753068
 30
0.0
 40
1.999997859999999
100
AcDbArc
 50
270.0002299999971
 51
359.9994400000022
  0
ARC
  5
296
330
1F
100
AcDbEntity
  8
0
100
AcDbCircle
 10
205.4551744719897
 20
132.8822627565679
 30
0.0
 40
1.999997859999999
100
AcDbArc
 50
359.9994400000022
 51
90.00022599999148
  0
ARC
  5
297
330
1F
100
AcDbEntity
  8
0
100
AcDbCircle
 10
214.4551631386746
 20
119.8821903238887
 30
0.0
 40
1.999997859999999
100
AcDbArc
 50
179.9994400000022
 51
270.0002299999971
  0
ARC
  5
298
330
1F
100
AcDbEntity
  8
0
100
AcDbCircle
 10
214.4551581709104
 20
132.8822323447581
 30
0.0
 40
1.999997859999999
100
AcDbArc
 50
90.00022599999148
 51
179.9994400000022
  0
LINE
  5
299
330
1F
100
AcDbEntity
  8
0
100
AcDbLine
 10
219.9551770405953
 20
261.6145155323362
 30
0.0
 11
219.9551584548146
 21
287.8822822959431
 31
0.0
  0
LINE
  5
29A
330
1F
100
AcDbEntity
  8
0
100
AcDbLine
 10
220.9553316161038
 20
257.8824897455695
 30
0.0
 11
219.9553290209387
 21
261.6145256306146
 31
0.0
  0
LINE
  5
29B
330
1F
100
AcDbEntity
  8
0
100
AcDbLine
 10
652.4166581462741
 20
131.8822537264738
 30
0.0
 11
652.4166581462741
 21
106.2649137264738
 31
0.0
  0
LINE
  5
29C
330
1F
100
AcDbEntity
  8
0
100
AcDbLine
 10
653.7434781462739
 20
252.8823137264739
 30
0.0
 11
539.089958146274
 21
252.8823137264739
 31
0.0
  0
LINE
  5
29D
330
1F
100
AcDbEntity
  8
0
100
AcDbLine
 10
518.030618146274
 20
181.7649737264739
 30
0.0
 11
510.416678146274
 21
177.3691137264738
 31
0.0
  0
LINE
  5
29E
330
1F
100
AcDbEntity
  8
0
100
AcDbLine
 10
505.4167181462739
 20
168.7181337264737
 30
0.0
 11
505.4167181462739
 21
150.8823537264738
 31
0.0
  0
LINE
  5
29F
330
1F
100
AcDbEntity
  8
0
100
AcDbLine
 10
687.4167181462739
 20
150.8823537264738
 30
0.0
 11
505.4167181462739
 21
150.8823537264738
 31
0.0
  0
LINE
  5
2A0
330
1F
100
AcDbEntity
  8
0
100
AcDbLine
 10
571.4167181462739
 20
252.8823137264739
 30
0.0
 11
571.4167181462739
 21
256.8823137264739
 31
0.0
  0
LINE
  5
2A1
330
1F
100
AcDbEntity
  8
0
100
AcDbLine
 10
620.4167181462739
 20
257.8823137264739
 30
0.0
 11
572.4167181462739
 21
257.8823137264739
 31
0.0
  0
LINE
  5
2A2
330
1F
100
AcDbEntity
  8
0
100
AcDbLine
 10
663.4027181462738
 20
245.4705137264738
 30
0.0
 11
665.4577981462739
 21
237.8008937264739
 31
0.0
  0
LINE
  5
2A3
330
1F
100
AcDbEntity
  8
0
100
AcDbLine
 10
672.242158146274
 20
189.5275937264739
 30
0.0
 11
672.916678146274
 21
150.8823537264738
 31
0.0
  0
LINE
  5
2A4
330
1F
100
AcDbEntity
  8
0
100
AcDbLine
 10
547.3139581462739
 20
179.5099737264738
 30
0.0
 11
547.6462781462739
 21
178.9413337264738
 31
0.0
  0
LINE
  5
2A5
330
1F
100
AcDbEntity
  8
0
100
AcDbLine
 10
520.5912781462739
 20
189.5275937264739
 30
0.0
 11
519.9167581462738
 21
150.8823537264738
 31
0.0
  0
LINE
  5
2A6
330
1F
100
AcDbEntity
  8
0
100
AcDbLine
 10
621.4167181462739
 20
252.8823137264739
 30
0.0
 11
621.4167181462739
 21
256.8823137264739
 31
0.0
  0
LINE
  5
2A7
330
1F
100
AcDbEntity
  8
0
100
AcDbLine
 10
687.4167181462739
 20
168.7181337264737
 30
0.0
 11
687.4167181462739
 21
150.8823537264738
 31
0.0
  0
LINE
  5
2A8
330
1F
100
AcDbEntity
  8
0
100
AcDbLine
 10
674.8028181462739
 20
181.7649737264739
 30
0.0
 11
682.4167581462738
 21
177.3691137264738
 31
0.0
  0
LINE
  5
2A9
330
1F
100
AcDbEntity
  8
0
100
AcDbLine
 10
529.430718146274
 20
245.4705137264738
 30
0.0
 11
527.375638146274
 21
237.8008937264739
 31
0.0
  0
LINE
  5
2AA
330
1F
100
AcDbEntity
  8
0
100
AcDbLine
 10
647.6975781462738
 20
178.237113726474
 30
0.0
 11
647.6975781462738
 21
140.8823737264738
 31
0.0
  0
LINE
  5
2AB
330
1F
100
AcDbEntity
  8
0
100
AcDbLine
 10
619.9381781462739
 20
178.237113726474
 30
0.0
 11
619.9381781462739
 21
140.8823737264738
 31
0.0
  0
LINE
  5
2AC
330
1F
100
AcDbEntity
  8
0
100
AcDbLine
 10
642.6975781462738
 20
183.237113726474
 30
0.0
 11
624.9381781462739
 21
183.237113726474
 31
0.0
  0
LINE
  5
2AD
330
1F
100
AcDbEntity
  8
0
100
AcDbLine
 10
645.5194381462741
 20
179.5100137264739
 30
0.0
 11
645.187138146274
 21
178.941373726474
 31
0.0
  0
LINE
  5
2AE
330
1F
100
AcDbEntity
  8
0
100
AcDbLine
 10
545.1358581462739
 20
178.237113726474
 30
0.0
 11
545.1358581462739
 21
140.8823737264738
 31
0.0
  0
LINE
  5
2AF
330
1F
100
AcDbEntity
  8
0
100
AcDbLine
 10
623.6741981462739
 20
181.0640537264739
 30
0.0
 11
632.891658146274
 21
175.7026537264739
 31
0.0
  0
LINE
  5
2B0
330
1F
100
AcDbEntity
  8
0
100
AcDbLine
 10
569.159218146274
 20
181.0640537264739
 30
0.0
 11
559.9417781462739
 21
175.7026937264738
 31
0.0
  0
LINE
  5
2B1
330
1F
100
AcDbEntity
  8
0
100
AcDbLine
 10
572.895258146274
 20
178.237113726474
 30
0.0
 11
572.895258146274
 21
140.8823737264738
 31
0.0
  0
LINE
  5
2B2
330
1F
100
AcDbEntity
  8
0
100
AcDbLine
 10
550.1358581462739
 20
183.237113726474
 30
0.0
 11
567.895258146274
 21
183.237113726474
 31
0.0
  0
LINE
  5
2B3
330
1F
100
AcDbEntity
  8
0
100
AcDbLine
 10
558.7966981462739
 20
134.8823737264738
 30
0.0
 11
552.0366781462739
 21
134.8823737264738
 31
0.0
  0
LINE
  5
2B4
330
1F
100
AcDbEntity
  8
0
100
AcDbLine
 10
517.7963581462741
 20
134.8823737264738
 30
0.0
 11
511.0363381462739
 21
134.8823737264738
 31
0.0
  0
LINE
  5
2B5
330
1F
100
AcDbEntity
  8
0
100
AcDbLine
 10
685.9170781462739
 20
139.2823537264739
 30
0.0
 11
670.917078146274
 21
139.2823537264739
 31
0.0
  0
LINE
  5
2B6
330
1F
100
AcDbEntity
  8
0
100
AcDbLine
 10
670.917078146274
 20
140.8823737264738
 30
0.0
 11
670.917078146274
 21
139.2823537264739
 31
0.0
  0
LINE
  5
2B7
330
1F
100
AcDbEntity
  8
0
100
AcDbLine
 10
685.9170781462739
 20
140.8823737264738
 30
0.0
 11
685.9170781462739
 21
139.2823537264739
 31
0.0
  0
LINE
  5
2B8
330
1F
100
AcDbEntity
  8
0
100
AcDbLine
 10
642.4313381462739
 20
134.8822537264738
 30
0.0
 11
664.9166581462741
 21
134.8822537264738
 31
0.0
  0
LINE
  5
2B9
330
1F
100
AcDbEntity
  8
0
100
AcDbLine
 10
519.9163781462739
 20
150.8823537264738
 30
0.0
 11
519.9163781462739
 21
141.8823537264738
 31
0.0
  0
LINE
  5
2BA
330
1F
100
AcDbEntity
  8
0
100
AcDbLine
 10
550.916618146274
 20
129.8872737264739
 30
0.0
 11
550.916618146274
 21
119.8821937264738
 31
0.0
  0
LINE
  5
2BB
330
1F
100
AcDbEntity
  8
0
100
AcDbLine
 10
672.917058146274
 20
150.8823537264738
 30
0.0
 11
672.917058146274
 21
141.8823537264738
 31
0.0
  0
LINE
  5
2BC
330
1F
100
AcDbEntity
  8
0
100
AcDbLine
 10
686.411738146274
 20
140.8823737264738
 30
0.0
 11
506.411018146274
 21
140.8823737264738
 31
0.0
  0
LINE
  5
2BD
330
1F
100
AcDbEntity
  8
0
100
AcDbLine
 10
667.9166581462741
 20
139.8823737264738
 30
0.0
 11
667.9166581462741
 21
137.8822537264738
 31
0.0
  0
LINE
  5
2BE
330
1F
100
AcDbEntity
  8
0
100
AcDbLine
 10
629.9167581462739
 20
140.8823737264738
 30
0.0
 11
629.9167581462739
 21
139.2823537264739
 31
0.0
  0
LINE
  5
2BF
330
1F
100
AcDbEntity
  8
0
100
AcDbLine
 10
505.416358146274
 20
150.8823537264738
 30
0.0
 11
505.416358146274
 21
141.8823537264738
 31
0.0
  0
LINE
  5
2C0
330
1F
100
AcDbEntity
  8
0
100
AcDbLine
 10
547.916678146274
 20
140.8823737264738
 30
0.0
 11
547.916678146274
 21
139.2823537264739
 31
0.0
  0
LINE
  5
2C1
330
1F
100
AcDbEntity
  8
0
100
AcDbLine
 10
644.9167581462738
 20
140.8823737264738
 30
0.0
 11
644.9167581462738
 21
139.2823537264739
 31
0.0
  0
LINE
  5
2C2
330
1F
100
AcDbEntity
  8
0
100
AcDbLine
 10
644.9167581462738
 20
139.2823537264739
 30
0.0
 11
629.9167581462739
 21
139.2823537264739
 31
0.0
  0
LINE
  5
2C3
330
1F
100
AcDbEntity
  8
0
100
AcDbLine
 10
681.797098146274
 20
134.8823737264738
 30
0.0
 11
675.0370781462739
 21
134.8823737264738
 31
0.0
  0
LINE
  5
2C4
330
1F
100
AcDbEntity
  8
0
100
AcDbLine
 10
687.417078146274
 20
150.8823537264738
 30
0.0
 11
687.417078146274
 21
141.8823537264738
 31
0.0
  0
LINE
  5
2C5
330
1F
100
AcDbEntity
  8
0
100
AcDbLine
 10
605.4166781462741
 20
169.3823537264738
 30
0.0
 11
587.4167181462739
 21
169.3823537264738
 31
0.0
  0
LINE
  5
2C6
330
1F
100
AcDbEntity
  8
0
100
AcDbLine
 10
524.916778146274
 20
139.8823737264738
 30
0.0
 11
524.916778146274
 21
137.8822537264738
 31
0.0
  0
LINE
  5
2C7
330
1F
100
AcDbEntity
  8
0
100
AcDbLine
 10
527.916778146274
 20
134.8822537264738
 30
0.0
 11
550.7702981462739
 21
134.8822537264738
 31
0.0
  0
LINE
  5
2C8
330
1F
100
AcDbEntity
  8
0
100
AcDbLine
 10
640.796758146274
 20
134.8823737264738
 30
0.0
 11
634.0367381462741
 21
134.8823737264738
 31
0.0
  0
LINE
  5
2C9
330
1F
100
AcDbEntity
  8
0
100
AcDbLine
 10
641.9168181462739
 20
129.8872737264739
 30
0.0
 11
641.9168181462739
 21
119.8821937264738
 31
0.0
  0
LINE
  5
2CA
330
1F
100
AcDbEntity
  8
0
100
AcDbLine
 10
540.416418146274
 20
117.8821737264738
 30
0.0
 11
652.4166581462741
 21
117.8821737264738
 31
0.0
  0
LINE
  5
2CB
330
1F
100
AcDbEntity
  8
0
100
AcDbLine
 10
668.4170781462739
 20
150.8823537264738
 30
0.0
 11
672.917058146274
 21
150.8823537264738
 31
0.0
  0
LINE
  5
2CC
330
1F
100
AcDbEntity
  8
0
100
AcDbLine
 10
540.416418146274
 20
131.8822537264738
 30
0.0
 11
540.416418146274
 21
106.2822137264738
 31
0.0
  0
LINE
  5
2CD
330
1F
100
AcDbEntity
  8
0
100
AcDbLine
 10
562.9166781462741
 20
140.8823737264738
 30
0.0
 11
562.9166781462741
 21
139.2823537264739
 31
0.0
  0
LINE
  5
2CE
330
1F
100
AcDbEntity
  8
0
100
AcDbLine
 10
562.9166781462741
 20
139.2823537264739
 30
0.0
 11
547.916678146274
 21
139.2823537264739
 31
0.0
  0
LINE
  5
2CF
330
1F
100
AcDbEntity
  8
0
100
AcDbLine
 10
506.9163581462739
 20
140.8823737264738
 30
0.0
 11
506.9163581462739
 21
139.2823537264739
 31
0.0
  0
LINE
  5
2D0
330
1F
100
AcDbEntity
  8
0
100
AcDbLine
 10
521.916358146274
 20
140.8823737264738
 30
0.0
 11
521.916358146274
 21
139.2823537264739
 31
0.0
  0
LINE
  5
2D1
330
1F
100
AcDbEntity
  8
0
100
AcDbLine
 10
521.916358146274
 20
139.2823537264739
 30
0.0
 11
506.9163581462739
 21
139.2823537264739
 31
0.0
  0
LINE
  5
2D2
330
1F
100
AcDbEntity
  8
0
100
AcDbLine
 10
560.2968981462741
 20
134.8822537264738
 30
0.0
 11
631.465358146274
 21
134.8822537264738
 31
0.0
  0
LINE
  5
2D3
330
1F
100
AcDbEntity
  8
0
100
AcDbLine
 10
605.4147981462738
 20
215.5695137264738
 30
0.0
 11
606.416318146274
 21
167.4239537264738
 31
0.0
  0
LINE
  5
2D4
330
1F
100
AcDbEntity
  8
0
100
AcDbLine
 10
605.4166781462741
 20
151.3823537264738
 30
0.0
 11
587.4167181462739
 21
151.3823537264738
 31
0.0
  0
LINE
  5
2D5
330
1F
100
AcDbEntity
  8
0
100
AcDbLine
 10
606.416718146274
 20
168.3823137264739
 30
0.0
 11
606.416718146274
 21
152.3823537264738
 31
0.0
  0
LINE
  5
2D6
330
1F
100
AcDbEntity
  8
0
100
AcDbLine
 10
586.416718146274
 20
168.3823137264739
 30
0.0
 11
586.416718146274
 21
152.3823537264738
 31
0.0
  0
LINE
  5
2D7
330
1F
100
AcDbEntity
  8
0
100
AcDbLine
 10
587.4167581462739
 20
215.3823137264739
 30
0.0
 11
586.4171781462739
 21
167.4240337264739
 31
0.0
  0
ARC
  5
2D8
330
1F
100
AcDbEntity
  8
0
100
AcDbCircle
 10
539.089958146274
 20
242.8823137264739
 30
0.0
 40
10.0
100
AcDbArc
 50
90.0
 51
164.9999899999844
  0
ARC
  5
2D9
330
1F
100
AcDbEntity
  8
0
100
AcDbCircle
 10
720.5608181462739
 20
186.0371137264739
 30
0.0
 40
200.00002
100
AcDbArc
 50
165.0000099999996
 51
178.9999999999982
  0
ARC
  5
2DA
330
1F
100
AcDbEntity
  8
0
100
AcDbCircle
 10
515.416718146274
 20
168.7088537264739
 30
0.0
 40
10.0
100
AcDbArc
 50
120.0000200000044
 51
180.0
  0
ARC
  5
2DB
330
1F
100
AcDbEntity
  8
0
100
AcDbCircle
 10
572.4167181462739
 20
256.8823137264739
 30
0.0
 40
1.0
100
AcDbArc
 50
90.0
 51
180.0
  0
ARC
  5
2DC
330
1F
100
AcDbEntity
  8
0
100
AcDbCircle
 10
677.416718146274
 20
168.7088537264739
 30
0.0
 40
10.0
100
AcDbArc
 50
0.0
 51
59.9999799999955
  0
ARC
  5
2DD
330
1F
100
AcDbEntity
  8
0
100
AcDbCircle
 10
472.2726181462739
 20
186.0371137264739
 30
0.0
 40
200.00002
100
AcDbArc
 50
0.99999900001091
 51
14.99999000000044
  0
ARC
  5
2DE
330
1F
100
AcDbEntity
  8
0
100
AcDbCircle
 10
677.3028181462739
 20
186.0951137264739
 30
0.0
 40
5.0
100
AcDbArc
 50
180.999859999981
 51
240.0000699999898
  0
ARC
  5
2DF
330
1F
100
AcDbEntity
  8
0
100
AcDbCircle
 10
653.7434781462739
 20
242.8823137264739
 30
0.0
 40
10.0
100
AcDbArc
 50
15.00001000001555
 51
90.0
  0
ARC
  5
2E0
330
1F
100
AcDbEntity
  8
0
100
AcDbCircle
 10
620.4167181462739
 20
256.8823137264739
 30
0.0
 40
1.0
100
AcDbArc
 50
0.0
 51
90.0
  0
ARC
  5
2E1
330
1F
100
AcDbEntity
  8
0
100
AcDbCircle
 10
515.530618146274
 20
186.0951137264739
 30
0.0
 40
5.0
100
AcDbArc
 50
299.9999300000101
 51
359.0001399999928
  0
ARC
  5
2E2
330
1F
100
AcDbEntity
  8
0
100
AcDbCircle
 10
624.9381781462739
 20
178.237113726474
 30
0.0
 40
5.0
100
AcDbArc
 50
90.0
 51
180.0
  0
ARC
  5
2E3
330
1F
100
AcDbEntity
  8
0
100
AcDbCircle
 10
637.4167581462739
 20
183.4823537264737
 30
0.0
 40
9.0
100
AcDbArc
 50
239.8154300000016
 51
329.6982390000089
  0
ARC
  5
2E4
330
1F
100
AcDbEntity
  8
0
100
AcDbCircle
 10
550.1358581462739
 20
178.237113726474
 30
0.0
 40
5.0
100
AcDbArc
 50
90.0
 51
180.0
  0
ARC
  5
2E5
330
1F
100
AcDbEntity
  8
0
100
AcDbCircle
 10
642.6975781462738
 20
178.237113726474
 30
0.0
 40
5.0
100
AcDbArc
 50
0.0
 51
90.0
  0
ARC
  5
2E6
330
1F
100
AcDbEntity
  8
0
100
AcDbCircle
 10
567.895258146274
 20
178.237113726474
 30
0.0
 40
5.0
100
AcDbArc
 50
0.0
 51
90.0
  0
ARC
  5
2E7
330
1F
100
AcDbEntity
  8
0
100
AcDbCircle
 10
555.4166781462741
 20
183.4823537264737
 30
0.0
 40
9.0
100
AcDbArc
 50
210.3017599999827
 51
300.1845699999983
  0
ARC
  5
2E8
330
1F
100
AcDbEntity
  8
0
100
AcDbCircle
 10
520.9163581462739
 20
141.8823537264738
 30
0.0
 40
0.9999989199999999
100
AcDbArc
 50
180.0
 51
270.0
  0
ARC
  5
2E9
330
1F
100
AcDbEntity
  8
0
100
AcDbCircle
 10
527.916778146274
 20
137.8822537264738
 30
0.0
 40
2.9999966
100
AcDbArc
 50
180.0
 51
270.0
  0
ARC
  5
2EA
330
1F
100
AcDbEntity
  8
0
100
AcDbCircle
 10
664.9166581462741
 20
137.8822537264738
 30
0.0
 40
2.9999966
100
AcDbArc
 50
270.0
 51
0.0
  0
ARC
  5
2EB
330
1F
100
AcDbEntity
  8
0
100
AcDbCircle
 10
548.9166181462739
 20
119.8821937264738
 30
0.0
 40
2.00001
100
AcDbArc
 50
270.0
 51
0.0
  0
ARC
  5
2EC
330
1F
100
AcDbEntity
  8
0
100
AcDbCircle
 10
545.9166581462739
 20
129.8822537264738
 30
0.0
 40
4.999994799999999
100
AcDbArc
 50
0.0
 51
90.0
  0
ARC
  5
2ED
330
1F
100
AcDbEntity
  8
0
100
AcDbCircle
 10
646.9167781462738
 20
129.8822537264738
 30
0.0
 40
4.999994799999999
100
AcDbArc
 50
90.0
 51
180.0
  0
ARC
  5
2EE
330
1F
100
AcDbEntity
  8
0
100
AcDbCircle
 10
668.9166581462741
 20
139.8823737264738
 30
0.0
 40
0.9999989199999999
100
AcDbArc
 50
90.0
 51
180.0
  0
ARC
  5
2EF
330
1F
100
AcDbEntity
  8
0
100
AcDbCircle
 10
506.4163581462739
 20
141.8823537264738
 30
0.0
 40
0.9999989199999999
100
AcDbArc
 50
180.0
 51
270.0
  0
ARC
  5
2F0
330
1F
100
AcDbEntity
  8
0
100
AcDbCircle
 10
523.916778146274
 20
139.8823737264738
 30
0.0
 40
0.9999989199999999
100
AcDbArc
 50
0.0
 51
90.0
  0
ARC
  5
2F1
330
1F
100
AcDbEntity
  8
0
100
AcDbCircle
 10
671.9170781462739
 20
141.8823537264738
 30
0.0
 40
0.9999989199999999
100
AcDbArc
 50
270.0
 51
0.0
  0
ARC
  5
2F2
330
1F
100
AcDbEntity
  8
0
100
AcDbCircle
 10
637.4167581462739
 20
141.3522937264738
 30
0.0
 40
7.299638199999999
100
AcDbArc
 50
196.4733000000023
 51
242.4166800000043
  0
ARC
  5
2F3
330
1F
100
AcDbEntity
  8
0
100
AcDbCircle
 10
643.9168181462739
 20
119.8821937264738
 30
0.0
 40
2.00001
100
AcDbArc
 50
180.0
 51
270.0
  0
ARC
  5
2F4
330
1F
100
AcDbEntity
  8
0
100
AcDbCircle
 10
678.417078146274
 20
141.3522937264738
 30
0.0
 40
7.299638199999999
100
AcDbArc
 50
196.4733000000023
 51
242.4166800000043
  0
ARC
  5
2F5
330
1F
100
AcDbEntity
  8
0
100
AcDbCircle
 10
678.417078146274
 20
141.3522937264738
 30
0.0
 40
7.299638199999999
100
AcDbArc
 50
297.5833190000033
 51
343.5267029999903
  0
ARC
  5
2F6
330
1F
100
AcDbEntity
  8
0
100
AcDbCircle
 10
637.4167581462739
 20
141.3522937264738
 30
0.0
 40
7.299638199999999
100
AcDbArc
 50
297.5833190000033
 51
343.5267029999903
  0
ARC
  5
2F7
330
1F
100
AcDbEntity
  8
0
100
AcDbCircle
 10
686.4170781462739
 20
141.8823537264738
 30
0.0
 40
0.9999989199999999
100
AcDbArc
 50
270.0
 51
0.0
  0
ARC
  5
2F8
330
1F
100
AcDbEntity
  8
0
100
AcDbCircle
 10
555.4166781462741
 20
141.3522937264738
 30
0.0
 40
7.299638199999999
100
AcDbArc
 50
196.4733000000023
 51
242.4166800000043
  0
ARC
  5
2F9
330
1F
100
AcDbEntity
  8
0
100
AcDbCircle
 10
555.4166781462741
 20
141.3522937264738
 30
0.0
 40
7.299638199999999
100
AcDbArc
 50
297.5833190000033
 51
343.5267029999903
  0
ARC
  5
2FA
330
1F
100
AcDbEntity
  8
0
100
AcDbCircle
 10
514.4163581462739
 20
141.3522937264738
 30
0.0
 40
7.299638199999999
100
AcDbArc
 50
196.4733000000023
 51
242.4166800000043
  0
ARC
  5
2FB
330
1F
100
AcDbEntity
  8
0
100
AcDbCircle
 10
514.4163581462739
 20
141.3522937264738
 30
0.0
 40
7.299638199999999
100
AcDbArc
 50
297.5833190000033
 51
343.5267029999903
  0
CIRCLE
  5
2FC
330
1F
100
AcDbEntity
  8
0
100
AcDbCircle
 10
596.4167181462739
 20
215.3823137264739
 30
0.0
 40
4.9999694
  0
ARC
  5
2FD
330
1F
100
AcDbEntity
  8
0
100
AcDbCircle
 10
587.4167181462739
 20
152.3823537264738
 30
0.0
 40
1.0
100
AcDbArc
 50
180.0
 51
270.0
  0
CIRCLE
  5
2FE
330
1F
100
AcDbEntity
  8
0
100
AcDbCircle
 10
596.4167181462739
 20
160.3823537264738
 30
0.0
 40
0.69999998
  0
ARC
  5
2FF
330
1F
100
AcDbEntity
  8
0
100
AcDbCircle
 10
587.4167181462739
 20
168.3823137264739
 30
0.0
 40
1.0
100
AcDbArc
 50
90.0
 51
180.0
  0
ARC
  5
300
330
1F
100
AcDbEntity
  8
0
100
AcDbCircle
 10
605.4166781462741
 20
152.3823537264738
 30
0.0
 40
1.0
100
AcDbArc
 50
270.0
 51
0.0
  0
ARC
  5
301
330
1F
100
AcDbEntity
  8
0
100
AcDbCircle
 10
605.4166781462741
 20
168.3823137264739
 30
0.0
 40
1.0
100
AcDbArc
 50
0.0
 51
90.0
  0
ARC
  5
302
330
1F
100
AcDbEntity
  8
0
100
AcDbCircle
 10
596.4167181462739
 20
215.3823137264739
 30
0.0
 40
9.0
100
AcDbArc
 50
0.0
 51
180.0
  0
CIRCLE
  5
303
330
1F
100
AcDbEntity
  8
0
100
AcDbCircle
 10
596.4167181462739
 20
160.3823537264738
 30
0.0
 40
4.212704599999999
  0
CIRCLE
  5
304
330
1F
100
AcDbEntity
  8
0
100
AcDbCircle
 10
596.4167181462739
 20
160.3823537264738
 30
0.0
 40
4.793684999999999
  0
ARC
  5
305
330
1F
100
AcDbEntity
  8
0
100
AcDbCircle
 10
655.4166581462741
 20
131.8822537264738
 30
0.0
 40
3.0
100
AcDbArc
 50
90.0
 51
180.0
  0
ARC
  5
306
330
1F
100
AcDbEntity
  8
0
100
AcDbCircle
 10
537.416418146274
 20
131.8822537264738
 30
0.0
 40
3.0
100
AcDbArc
 50
0.0
 51
90.0
  0
LINE
  5
307
330
1F
100
AcDbEntity
  8
0
100
AcDbLine
 10
589.416722012184
 20
290.8823209597255
 30
0.0
 11
603.4167265532366
 21
290.8823107937521
 31
0.0
  0
LINE
  5
308
330
1F
100
AcDbEntity
  8
0
100
AcDbLine
 10
606.4167087259545
 20
261.6145302580751
 30
0.0
 11
606.4167112736177
 21
287.8823051935107
 31
0.0
  0
LINE
  5
309
330
1F
100
AcDbEntity
  8
0
100
AcDbLine
 10
606.4167087259545
 20
261.6145302580751
 30
0.0
 11
586.4167065664823
 21
261.614542575797
 31
0.0
  0
LINE
  5
30A
330
1F
100
AcDbEntity
  8
0
100
AcDbLine
 10
586.4167065664823
 20
261.614542575797
 30
0.0
 11
586.4167251522631
 21
287.8823093394041
 31
0.0
  0
LINE
  5
30B
330
1F
100
AcDbEntity
  8
0
100
AcDbLine
 10
585.4165519909738
 20
257.8825167890306
 30
0.0
 11
586.4165545861389
 21
261.6145526740754
 31
0.0
  0
ARC
  5
30C
330
1F
100
AcDbEntity
  8
0
100
AcDbCircle
 10
603.4167161133064
 20
287.8823156334413
 30
0.0
 40
3.0
100
AcDbArc
 50
359.9999599999959
 51
89.99982599999031
  0
ARC
  5
30D
330
1F
100
AcDbEntity
  8
0
100
AcDbCircle
 10
589.4167203125744
 20
287.8822988994741
 30
0.0
 40
3.0
100
AcDbArc
 50
90.00009099999092
 51
179.9999599999959
  0
LINE
  5
30E
330
1F
100
AcDbEntity
  8
0
100
AcDbLine
 10
606.4167297260655
 20
261.614542575797
 30
0.0
 11
606.4167111402849
 21
287.8823093394041
 31
0.0
  0
LINE
  5
30F
330
1F
100
AcDbEntity
  8
0
100
AcDbLine
 10
607.4168843015741
 20
257.8825167890306
 30
0.0
 11
606.4168817064089
 21
261.6145526740754
 31
0.0
  0
CIRCLE
  5
310
330
1F
100
AcDbEntity
  8
0
100
AcDbCircle
 10
596.4167181462739
 20
111.8820537264739
 30
0.0
 40
4.0
  0
LINE
  5
311
330
1F
100
AcDbEntity
  8
0
100
AcDbLine
 10
273.9554523630898
 20
108.3821776054737
 30
0.0
 11
265.955142062552
 21
108.3821816852723
 31
0.0
  0
LINE
  5
312
330
1F
100
AcDbEntity
  8
0
100
AcDbLine
 10
273.9554523630898
 20
108.3821776054737
 30
0.0
 11
273.9554830982339
 21
115.3821372929438
 31
0.0
  0
LINE
  5
313
330
1F
100
AcDbEntity
  8
0
100
AcDbLine
 10
273.9554830982339
 20
115.3821372929438
 30
0.0
 11
265.9551399194234
 21
115.3821401620664
 31
0.0
  0
LINE
  5
314
330
1F
100
AcDbEntity
  8
0
100
AcDbLine
 10
130.7843785810353
 20
697.9296370001043
 30
0.0
 11
136.3458405810354
 21
686.0030170001042
 31
0.0
  0
LINE
  5
315
330
1F
100
AcDbEntity
  8
0
100
AcDbLine
 10
138.1567385810354
 20
710.6989170001043
 30
0.0
 11
151.2661985810353
 21
711.8458370001042
 31
0.0
  0
LINE
  5
316
330
1F
100
AcDbEntity
  8
0
100
AcDbLine
 10
202.5828711923951
 20
573.5709721775574
 30
0.0
 11
195.0348819321278
 21
584.3506312837901
 31
0.0
  0
LINE
  5
317
330
1F
100
AcDbEntity
  8
0
100
AcDbLine
 10
217.3275760604318
 20
573.570990151605
 30
0.0
 11
224.8755922370482
 21
584.3506576658564
 31
0.0
  0
ARC
  5
318
330
1F
100
AcDbEntity
  8
0
100
AcDbCircle
 10
138.9411325810354
 20
701.7331570001042
 30
0.0
 40
9.0
100
AcDbArc
 50
94.9999899999989
 51
204.9999689999945
  0
ARC
  5
319
330
1F
100
AcDbEntity
  8
0
100
AcDbCircle
 10
150.8304225810352
 20
716.8268370001042
 30
0.0
 40
5.0
100
AcDbArc
 50
274.9999520000045
 51
316.5068400000002
  0
ARC
  5
31A
330
1F
100
AcDbEntity
  8
0
100
AcDbCircle
 10
131.8142865810353
 20
683.8899570001042
 30
0.0
 40
5.0
100
AcDbArc
 50
343.4930799999984
 51
25.00006999999919
  0
ARC
  5
31B
330
1F
100
AcDbEntity
  8
0
100
AcDbCircle
 10
209.9552011361974
 20
578.7331822103842
 30
0.0
 40
9.0
100
AcDbArc
 50
215.0000299999995
 51
325.0000090000033
  0
ARC
  5
31C
330
1F
100
AcDbEntity
  8
0
100
AcDbCircle
 10
228.9713564527904
 20
581.4827693833445
 30
0.0
 40
5.0
100
AcDbArc
 50
103.4931599999972
 51
145.0000499999987
  0
ARC
  5
31D
330
1F
100
AcDbEntity
  8
0
100
AcDbCircle
 10
190.9391136513908
 20
581.4827525255246
 30
0.0
 40
5.0
100
AcDbArc
 50
34.9999299999999
 51
76.50691999999887
  0
ARC
  5
31E
330
1F
100
AcDbEntity
  8
0
100
AcDbCircle
 10
209.9552165810353
 20
660.7331570001043
 30
0.0
 40
76.49996999999999
100
AcDbArc
 50
7.51114285798264
 51
352.4888571420173
  0
LINE
  5
31F
330
1F
100
AcDbEntity
  8
0
100
AcDbLine
 10
289.1260545810353
 20
623.5366770001042
 30
0.0
 11
283.5645925810351
 21
635.4632970001042
 31
0.0
  0
LINE
  5
320
330
1F
100
AcDbEntity
  8
0
100
AcDbLine
 10
281.7536945810352
 20
610.7673970001042
 30
0.0
 11
268.6442345810353
 21
609.6204770001043
 31
0.0
  0
LINE
  5
321
330
1F
100
AcDbEntity
  8
0
100
AcDbLine
 10
217.3275319696754
 20
747.8953937841751
 30
0.0
 11
224.8755212299428
 21
737.1157346779423
 31
0.0
  0
LINE
  5
322
330
1F
100
AcDbEntity
  8
0
100
AcDbLine
 10
202.5828271016388
 20
747.8953758101275
 30
0.0
 11
195.0348109250223
 21
737.115708295876
 31
0.0
  0
ARC
  5
323
330
1F
100
AcDbEntity
  8
0
100
AcDbCircle
 10
280.9693005810352
 20
619.7331570001042
 30
0.0
 40
9.0
100
AcDbArc
 50
274.9999899999993
 51
24.99996899999994
  0
ARC
  5
324
330
1F
100
AcDbEntity
  8
0
100
AcDbCircle
 10
269.0800105810353
 20
604.6394770001043
 30
0.0
 40
5.0
100
AcDbArc
 50
94.99995200000414
 51
136.5068400000008
  0
ARC
  5
325
330
1F
100
AcDbEntity
  8
0
100
AcDbCircle
 10
288.0961465810353
 20
637.5763570001042
 30
0.0
 40
5.0
100
AcDbArc
 50
163.4930799999968
 51
205.0000699999988
  0
ARC
  5
326
330
1F
100
AcDbEntity
  8
0
100
AcDbCircle
 10
209.9552020258732
 20
742.7331837513483
 30
0.0
 40
9.0
100
AcDbArc
 50
35.0000300000045
 51
145.0000090000033
  0
ARC
  5
327
330
1F
100
AcDbEntity
  8
0
100
AcDbCircle
 10
190.9390467092803
 20
739.9835965783879
 30
0.0
 40
5.0
100
AcDbArc
 50
283.4931599999973
 51
325.0000499999998
  0
ARC
  5
328
330
1F
100
AcDbEntity
  8
0
100
AcDbCircle
 10
228.9712895106798
 20
739.9836134362078
 30
0.0
 40
5.0
100
AcDbArc
 50
214.9999299999998
 51
256.5069200000052
  0
LINE
  5
329
330
1F
100
AcDbEntity
  8
0
100
AcDbLine
 10
130.7843625810353
 20
623.5366770001042
 30
0.0
 11
136.3458265810355
 21
635.4632570001042
 31
0.0
  0
LINE
  5
32A
330
1F
100
AcDbEntity
  8
0
100
AcDbLine
 10
138.1567305810353
 20
610.7673970001042
 30
0.0
 11
151.2662045810352
 21
609.6204570001042
 31
0.0
  0
ARC
  5
32B
330
1F
100
AcDbEntity
  8
0
100
AcDbCircle
 10
138.9411325810353
 20
619.7331570001042
 30
0.0
 40
9.0
100
AcDbArc
 50
155.0000300000008
 51
265.0000090000049
  0
ARC
  5
32C
330
1F
100
AcDbEntity
  8
0
100
AcDbCircle
 10
150.8304225810352
 20
604.6394770001043
 30
0.0
 40
5.0
100
AcDbArc
 50
43.49315999999975
 51
85.00005000000065
  0
ARC
  5
32D
330
1F
100
AcDbEntity
  8
0
100
AcDbCircle
 10
131.8142865810353
 20
637.5763570001042
 30
0.0
 40
5.0
100
AcDbArc
 50
334.9999300000007
 51
16.50692000000147
  0
LINE
  5
32E
330
1F
100
AcDbEntity
  8
0
100
AcDbLine
 10
289.1260705810352
 20
697.9296370001043
 30
0.0
 11
283.5646065810351
 21
686.0030570001042
 31
0.0
  0
LINE
  5
32F
330
1F
100
AcDbEntity
  8
0
100
AcDbLine
 10
281.7537025810352
 20
710.6989170001043
 30
0.0
 11
268.6442285810353
 21
711.8458570001043
 31
0.0
  0
ARC
  5
330
330
1F
100
AcDbEntity
  8
0
100
AcDbCircle
 10
280.9693005810352
 20
701.7331570001042
 30
0.0
 40
9.0
100
AcDbArc
 50
335.0000300000036
 51
85.00000900000456
  0
ARC
  5
331
330
1F
100
AcDbEntity
  8
0
100
AcDbCircle
 10
269.0800105810353
 20
716.8268370001042
 30
0.0
 40
5.0
100
AcDbArc
 50
223.4931599999991
 51
265.000050000001
  0
ARC
  5
332
330
1F
100
AcDbEntity
  8
0
100
AcDbCircle
 10
288.0961465810353
 20
683.8899570001042
 30
0.0
 40
5.0
100
AcDbArc
 50
154.9999300000011
 51
196.5069200000031
  0
LINE
  5
333
330
1F
100
AcDbEntity
  8
0
100
AcDbLine
 10
304.0151465810356
 20
665.7331170001042
 30
0.0
 11
304.0151465810356
 21
655.7331570001042
 31
0.0
  0
LINE
  5
334
330
1F
100
AcDbEntity
  8
0
100
AcDbLine
 10
294.9556265810356
 20
669.7331570001042
 30
0.0
 11
294.9556265810356
 21
665.7331122296141
 31
0.0
  0
LINE
  5
335
330
1F
100
AcDbEntity
  8
0
100
AcDbLine
 10
294.9556265810356
 20
655.7331852494031
 30
0.0
 11
294.9556265810356
 21
651.7331570001042
 31
0.0
  0
LINE
  5
336
330
1F
100
AcDbEntity
  8
0
100
AcDbLine
 10
293.9556065810356
 20
670.7331570001042
 30
0.0
 11
287.5325265810356
 21
670.7331570001042
 31
0.0
  0
LINE
  5
337
330
1F
100
AcDbEntity
  8
0
100
AcDbLine
 10
293.9556065810356
 20
650.7331570001042
 30
0.0
 11
287.5325265810356
 21
650.7331570001042
 31
0.0
  0
ARC
  5
338
330
1F
100
AcDbEntity
  8
0
100
AcDbCircle
 10
293.9556065810356
 20
669.7331570001042
 30
0.0
 40
1.0
100
AcDbArc
 50
0.0
 51
90.0
  0
ARC
  5
339
330
1F
100
AcDbEntity
  8
0
100
AcDbCircle
 10
287.5325265810356
 20
672.7331570001042
 30
0.0
 40
2.0
100
AcDbArc
 50
188.7928902000059
 51
270.0
  0
ARC
  5
33A
330
1F
100
AcDbEntity
  8
0
100
AcDbCircle
 10
293.9556065810356
 20
651.7331570001042
 30
0.0
 40
1.0
100
AcDbArc
 50
270.0
 51
0.0
  0
ARC
  5
33B
330
1F
100
AcDbEntity
  8
0
100
AcDbCircle
 10
287.5325265810356
 20
648.7331570001042
 30
0.0
 40
2.0
100
AcDbArc
 50
90.0
 51
171.2071099999982
  0
LINE
  5
33C
330
1F
100
AcDbEntity
  8
0
100
AcDbLine
 10
286.4556570282568
 20
670.7331570001042
 30
0.0
 11
281.4043873490632
 21
670.7331570001042
 31
0.0
  0
LINE
  5
33D
330
1F
100
AcDbEntity
  8
0
100
AcDbLine
 10
286.4556570282568
 20
650.7331570001042
 30
0.0
 11
281.4043873490632
 21
650.7331570001042
 31
0.0
  0
ARC
  5
33E
330
1F
100
AcDbEntity
  8
0
100
AcDbCircle
 10
209.9551865810354
 20
660.7331570001043
 30
0.0
 40
72.14560478913416
100
AcDbArc
 50
352.032661097611
 51
7.967338902389378
  0
LINE
  5
33F
330
1F
100
AcDbEntity
  8
0
100
AcDbLine
 10
286.4556570282568
 20
670.7331570001042
 30
0.0
 11
286.4556570282568
 21
650.7331570001042
 31
0.0
  0
LINE
  5
340
330
1F
100
AcDbEntity
  8
0
100
AcDbLine
 10
291.5151750380081
 20
665.4831876818709
 30
0.0
 11
289.5151746438595
 21
665.4831890044415
 31
0.0
  0
LINE
  5
341
330
1F
100
AcDbEntity
  8
0
100
AcDbLine
 10
291.5151774345487
 20
655.983121343168
 30
0.0
 11
289.5151697426032
 21
655.9831039376267
 31
0.0
  0
LINE
  5
342
330
1F
100
AcDbEntity
  8
0
100
AcDbLine
 10
289.5151474044295
 20
665.4831355440498
 30
0.0
 11
286.451182136322
 21
665.3873911533735
 31
0.0
  0
LINE
  5
343
330
1F
100
AcDbEntity
  8
0
100
AcDbLine
 10
288.4512762100622
 20
665.4499230096774
 30
0.0
 11
288.451263503743
 21
656.0164407586824
 31
0.0
  0
LINE
  5
344
330
1F
100
AcDbEntity
  8
0
100
AcDbLine
 10
289.5165205942868
 20
655.9831339331076
 30
0.0
 11
286.4511720536289
 21
656.0789122619216
 31
0.0
  0
LINE
  5
345
330
1F
100
AcDbEntity
  8
0
100
AcDbLine
 10
304.0151437988658
 20
665.7331218063518
 30
0.0
 11
291.5151724782294
 21
665.7331085927396
 31
0.0
  0
LINE
  5
346
330
1F
100
AcDbEntity
  8
0
100
AcDbLine
 10
304.0151493632055
 20
655.7331921938566
 30
0.0
 11
291.5151709145171
 21
655.7331826121687
 31
0.0
  0
LINE
  5
347
330
1F
100
AcDbEntity
  8
0
100
AcDbLine
 10
291.5151724782294
 20
665.7331085927396
 30
0.0
 11
291.5151709145171
 21
655.7331826121687
 31
0.0
  0
LINE
  5
39D
330
1F
100
AcDbEntity
  8
0
  6
CENTER
100
AcDbLine
 10
325.6486691809086
 20
660.7331570001043
 30
0.0
 11
118.8388891720551
 21
660.7331570001041
 31
0.0
  0
LINE
  5
39E
330
1F
100
AcDbEntity
  8
0
  6
CENTER
100
AcDbLine
 10
209.9551865810354
 20
546.767000109867
 30
0.0
 11
209.9551865810354
 21
774.6993138903414
 31
0.0
  0
LINE
  5
39F
330
1F
100
AcDbEntity
  8
0
  6
CENTER
100
AcDbLine
 10
209.9551865810354
 20
17.44939433090303
 30
0.0
 11
209.9551865810354
 21
308.7802217958967
 31
0.0
  0
LINE
  5
3A0
330
1F
100
AcDbEntity
  8
0
  6
CENTER
100
AcDbLine
 10
256.6683203271696
 20
67.982173726474
 30
0.0
 11
163.2420528349012
 21
67.98217372647378
 31
0.0
  0
LINE
  5
3A1
330
1F
100
AcDbEntity
  8
0
  6
CENTER
100
AcDbLine
 10
720.9232189813364
 20
67.98218898526307
 30
0.0
 11
471.9102173112145
 21
67.98218898526285
 31
0.0
  0
LINE
  5
3A2
330
1F
100
AcDbEntity
  8
0
  6
CENTER
100
AcDbLine
 10
596.4167181462739
 20
46.38808110410423
 30
0.0
 11
596.4167181462739
 21
308.7801871250036
 31
0.0
  0
LINE
  5
57D
330
1F
100
AcDbEntity
  8
0
  6
CENTER
100
AcDbLine
 10
1561.460970184253
 20
539.3596007343355
 30
0.0
 11
1561.460970184259
 21
782.1067132658716
 31
0.0
  0
LINE
  5
57E
330
1F
100
AcDbEntity
  8
0
  6
CENTER
100
AcDbLine
 10
1540.015931385937
 20
660.7331570001012
 30
0.0
 11
1773.526918432023
 21
660.7331570001349
 31
0.0
  0
LINE
  5
57F
330
1F
100
AcDbEntity
  8
0
  6
CENTER
100
AcDbLine
 10
1371.770518738098
 20
67.98218898526307
 30
0.0
 11
1141.855306667594
 21
67.98218898526307
 31
0.0
  0
LINE
  5
580
330
1F
100
AcDbEntity
  8
0
  6
CENTER
100
AcDbLine
 10
1256.812912702853
 20
41.3975570566638
 30
0.0
 11
1256.812912702817
 21
219.2904429143766
 31
0.0
  0
LINE
  5
581
330
1F
100
AcDbEntity
  8
0
  6
CENTER
100
AcDbLine
 10
1523.8659791305
 20
67.98218898526352
 30
0.0
 11
1599.055961236245
 21
67.98218898526352
 31
0.0
  0
LINE
  5
582
330
1F
100
AcDbEntity
  8
0
  6
CENTER
100
AcDbLine
 10
1561.460970183372
 20
30.3871979323901
 30
0.0
 11
1561.460970183372
 21
105.5771800381369
 31
0.0
  0
LINE
  5
583
330
1F
100
AcDbEntity
  8
0
  6
CENTER
100
AcDbLine
 10
1526.428795183899
 20
50.13240427187861
 30
0.0
 11
1775.271161132015
 21
176.9239226348479
 31
0.0
  0
LINE
  5
584
330
1F
100
AcDbEntity
  8
0
  6
CENTER
100
AcDbLine
 10
2065.218064691256
 20
19.11678316774327
 30
0.0
 11
2065.218064691256
 21
217.785147565017
 31
0.0
  0
LINE
  5
585
330
1F
100
AcDbEntity
  8
0
  6
CENTER
100
AcDbLine
 10
1938.542805529006
 20
67.98218898526307
 30
0.0
 11
2191.893323853502
 21
67.98218898526307
 31
0.0
  0
SPLINE
  5
586
330
1F
100
AcDbEntity
  8
0
  6
Continuous
100
AcDbSpline
210
0.0
220
0.0
230
1.0
 70
     8
 71
     3
 72
    20
 73
    16
 74
     0
 42
0.0000000001
 43
0.0000000001
 40
0.5525790657719165
 40
0.5525790657719165
 40
0.5525790657719165
 40
0.5525790657719165
 40
0.8705293583402722
 40
0.8705293583402722
 40
1.192429687870493
 40
1.192429687870493
 40
1.516792993411971
 40
1.516792993411971
 40
1.84204825492397
 40
1.84204825492397
 40
2.166864077601201
 40
2.166864077601201
 40
2.489752633585091
 40
2.489752633585091
 40
2.589013587817884
 40
2.589013587817884
 40
2.589013587817884
 40
2.589013587817884
 10
1313.152156340868
 20
180.8603099719896
 30
0.0
 10
1309.41346687932
 20
186.2623144662713
 30
0.0
 10
1304.724665467341
 20
191.0996348708197
 30
0.0
 10
1293.877814880062
 20
199.2444391079605
 30
0.0
 10
1287.704048255635
 20
202.531972107826
 30
0.0
 10
1274.49717785262
 20
207.2097522790056
 30
0.0
 10
1267.45946354797
 20
208.58507766157
 30
0.0
 10
1253.243904791219
 20
209.2697580058709
 30
0.0
 10
1246.067443199557
 20
208.5733495629576
 30
0.0
 10
1232.317878268514
 20
205.1662811029925
 30
0.0
 10
1225.745646790209
 20
202.4584713401338
 30
0.0
 10
1213.898726234553
 20
195.2977114577795
 30
0.0
 10
1208.618320761923
 20
190.8553222739258
 30
0.0
 10
1202.900127809153
 20
184.1787817600986
 30
0.0
 10
1201.640851144039
 20
182.5467626452702
 30
0.0
 10
1200.47366906493
 20
180.8603099719896
 30
0.0
  0
LINE
  5
587
330
1F
100
AcDbEntity
  8
0
  6
Continuous
100
AcDbLine
 10
1200.812912702865
 20
113.7191681101783
 30
0.0
 11
1200.812912702863
 21
111.3584175115327
 31
0.0
  0
LINE
  5
588
330
1F
100
AcDbEntity
  8
0
  6
Continuous
100
AcDbLine
 10
1227.951173323537
 20
137.899535378325
 30
0.0
 11
1227.951173323535
 21
135.5387847796798
 31
0.0
  0
LINE
  5
589
330
1F
100
AcDbEntity
  8
0
  6
Continuous
100
AcDbLine
 10
1312.812912702864
 20
113.7191681101783
 30
0.0
 11
1312.812912702863
 21
111.3584175115327
 31
0.0
  0
LINE
  5
58A
330
1F
100
AcDbEntity
  8
0
  6
Continuous
100
AcDbLine
 10
1285.674652082184
 20
137.899535378325
 30
0.0
 11
1285.674652082183
 21
135.5387847796794
 31
0.0
  0
LINE
  5
58B
330
1F
100
AcDbEntity
  8
0
  6
Continuous
100
AcDbLine
 10
1312.812912702863
 20
110.9044270117931
 30
0.0
 11
1312.812912702863
 21
111.3584175115327
 31
0.0
  0
SPLINE
  5
58C
330
1F
100
AcDbEntity
  8
0
  6
Continuous
100
AcDbSpline
210
0.0
220
0.0
230
1.0
 70
     8
 71
     3
 72
     8
 73
     4
 74
     0
 42
0.0000000001
 43
0.0000000001
 40
-0.0273103982859635
 40
-0.0273103982859635
 40
-0.0273103982859635
 40
-0.0273103982859635
 40
0.0
 40
0.0
 40
0.0
 40
0.0
 10
1312.62258014699
 20
111.2308443712902
 30
0.0
 10
1312.686023444837
 20
111.2733791559619
 30
0.0
 10
1312.749467729761
 20
111.3159035855067
 30
0.0
 10
1312.812912702863
 20
111.3584175115331
 30
0.0
  0
SPLINE
  5
58D
330
1F
100
AcDbEntity
  8
0
  6
Continuous
100
AcDbSpline
210
0.0
220
0.0
230
1.0
 70
     8
 71
     3
 72
     8
 73
     4
 74
     0
 42
0.0000000001
 43
0.0000000001
 40
-0.0484334607701307
 40
-0.0484334607701307
 40
-0.0484334607701307
 40
-0.0484334607701307
 40
0.0
 40
0.0
 40
0.0
 40
0.0
 10
1285.59267013536
 20
135.0847942799398
 30
0.0
 10
1285.62003557646
 20
135.2361200405337
 30
0.0
 10
1285.647362918555
 20
135.3874509545605
 30
0.0
 10
1285.674652082183
 20
135.5387847796798
 30
0.0
  0
SPLINE
  5
58E
330
1F
100
AcDbEntity
  8
0
  6
Continuous
100
AcDbSpline
210
0.0
220
0.0
230
1.0
 70
     8
 71
     3
 72
     8
 73
     4
 74
     0
 42
0.0000000001
 43
0.0000000001
 40
-0.0484334607703085
 40
-0.0484334607703085
 40
-0.0484334607703085
 40
-0.0484334607703085
 40
0.0
 40
0.0
 40
0.0
 40
0.0
 10
1228.033155270359
 20
135.0847942799398
 30
0.0
 10
1228.005789829258
 20
135.2361200405328
 30
0.0
 10
1227.978462487163
 20
135.3874509545605
 30
0.0
 10
1227.951173323535
 20
135.5387847796798
 30
0.0
  0
SPLINE
  5
58F
330
1F
100
AcDbEntity
  8
0
  6
Continuous
100
AcDbSpline
210
0.0
220
0.0
230
1.0
 70
     8
 71
     3
 72
     8
 73
     4
 74
     0
 42
0.0000000001
 43
0.0000000001
 40
-0.0273103982858785
 40
-0.0273103982858785
 40
-0.0273103982858785
 40
-0.0273103982858785
 40
0.0
 40
0.0
 40
0.0
 40
0.0
 10
1201.003245258736
 20
111.2308443712902
 30
0.0
 10
1200.939801960889
 20
111.2733791559624
 30
0.0
 10
1200.876357675964
 20
111.3159035855067
 30
0.0
 10
1200.812912702863
 20
111.3584175115331
 30
0.0
  0
LINE
  5
590
330
1F
100
AcDbEntity
  8
0
  6
Continuous
100
AcDbLine
 10
1200.812912702863
 20
111.3584175115327
 30
0.0
 11
1200.812912702863
 21
110.9044270117931
 31
0.0
  0
ELLIPSE
  5
591
330
1F
100
AcDbEntity
  8
0
  6
Continuous
100
AcDbEllipse
 10
1256.812912702867
 20
85.64241942513149
 30
0.0
 11
-62.9999999999999
 21
0.0000000000369732
 31
0.0
210
0.0
220
0.0
230
1.0
 40
0.8910065241883661
 41
5.188271230045764
 42
5.807303057519826
  0
LINE
  5
592
330
1F
100
AcDbEntity
  8
0
  6
Continuous
100
AcDbLine
 10
1285.674652082183
 20
135.5387847796794
 30
0.0
 11
1227.951173323535
 21
135.5387847796794
 31
0.0
  0
ELLIPSE
  5
593
330
1F
100
AcDbEntity
  8
0
  6
Continuous
100
AcDbEllipse
 10
1256.812912702867
 20
85.64241942513149
 30
0.0
 11
-62.9999999999999
 21
0.0000000000311251
 31
0.0
210
0.0
220
0.0
230
1.0
 40
0.8910065241883661
 41
3.61747490325073
 42
4.236506730724823
  0
ELLIPSE
  5
594
330
1F
100
AcDbEntity
  8
0
  6
Continuous
100
AcDbEllipse
 10
1256.812912702868
 20
88.0031700237771
 30
0.0
 11
62.99999999999973
 21
-0.0000000000369232
 31
0.0
210
0.0
220
0.0
230
1.0
 40
0.8910065241883659
 41
0.475882249661078
 42
1.094914077135136
  0
LINE
  5
595
330
1F
100
AcDbEntity
  8
0
  6
Continuous
100
AcDbLine
 10
1227.951173323537
 20
137.899535378325
 30
0.0
 11
1285.674652082184
 21
137.899535378325
 31
0.0
  0
ELLIPSE
  5
596
330
1F
100
AcDbEntity
  8
0
  6
Continuous
100
AcDbEllipse
 10
1256.812912702868
 20
88.00317002377665
 30
0.0
 11
62.99999999999988
 21
-0.0000000000427325
 31
0.0
210
0.0
220
0.0
230
1.0
 40
0.8910065241883661
 41
2.046678576456077
 42
2.665710403930166
  0
LINE
  5
597
330
1F
100
AcDbEntity
  8
0
  6
Continuous
100
AcDbLine
 10
1346.560709156699
 20
93.38218898526315
 30
0.0
 11
1312.812912702857
 21
93.38218898526315
 31
0.0
  0
LINE
  5
598
330
1F
100
AcDbEntity
  8
0
  6
Continuous
100
AcDbLine
 10
1346.5607091567
 20
42.58218898526297
 30
0.0
 11
1312.812912702857
 21
42.58218898526297
 31
0.0
  0
LINE
  5
599
330
1F
100
AcDbEntity
  8
0
  6
Continuous
100
AcDbLine
 10
1346.5607091567
 20
42.58218898526343
 30
0.0
 11
1348.962912702856
 21
35.98218898526306
 31
0.0
  0
LINE
  5
59A
330
1F
100
AcDbEntity
  8
0
  6
Continuous
100
AcDbLine
 10
1346.5607091567
 20
93.38218898526269
 30
0.0
 11
1348.962912702856
 21
99.98218898526261
 31
0.0
  0
LINE
  5
59B
330
1F
100
AcDbEntity
  8
0
  6
Continuous
100
AcDbLine
 10
1351.812912702857
 20
99.98218898526261
 30
0.0
 11
1348.962912702856
 21
99.98218898526261
 31
0.0
  0
LINE
  5
59C
330
1F
100
AcDbEntity
  8
0
  6
Continuous
100
AcDbLine
 10
1351.812912702857
 20
35.98218898526306
 30
0.0
 11
1348.962912702856
 21
35.98218898526306
 31
0.0
  0
LINE
  5
59D
330
1F
100
AcDbEntity
  8
0
  6
Continuous
100
AcDbLine
 10
1346.5607091567
 20
93.38218898526315
 30
0.0
 11
1346.5607091567
 21
42.58218898526343
 31
0.0
  0
LINE
  5
59E
330
1F
100
AcDbEntity
  8
0
  6
Continuous
100
AcDbLine
 10
1348.962912702856
 20
99.98218898526261
 30
0.0
 11
1348.962912702856
 21
35.98218898526352
 31
0.0
  0
LINE
  5
59F
330
1F
100
AcDbEntity
  8
0
  6
Continuous
100
AcDbLine
 10
1351.812912702857
 20
99.98218898526261
 30
0.0
 11
1351.812912702857
 21
35.98218898526352
 31
0.0
  0
LINE
  5
5A0
330
1F
100
AcDbEntity
  8
0
  6
Continuous
100
AcDbLine
 10
1200.812912702857
 20
93.38218898526269
 30
0.0
 11
1167.065116249013
 21
93.38218898526269
 31
0.0
  0
LINE
  5
5A1
330
1F
100
AcDbEntity
  8
0
  6
Continuous
100
AcDbLine
 10
1200.812912702857
 20
42.58218898526297
 30
0.0
 11
1167.065116249013
 21
42.58218898526297
 31
0.0
  0
LINE
  5
5A2
330
1F
100
AcDbEntity
  8
0
  6
Continuous
100
AcDbLine
 10
1167.065116249013
 20
93.38218898526269
 30
0.0
 11
1164.662912702857
 21
99.98218898526261
 31
0.0
  0
LINE
  5
5A3
330
1F
100
AcDbEntity
  8
0
  6
Continuous
100
AcDbLine
 10
1167.065116249013
 20
42.58218898526297
 30
0.0
 11
1164.662912702857
 21
35.98218898526306
 31
0.0
  0
LINE
  5
5A4
330
1F
100
AcDbEntity
  8
0
  6
Continuous
100
AcDbLine
 10
1164.662912702857
 20
99.98218898526261
 30
0.0
 11
1161.812912702856
 21
99.98218898526261
 31
0.0
  0
LINE
  5
5A5
330
1F
100
AcDbEntity
  8
0
  6
Continuous
100
AcDbLine
 10
1164.662912702857
 20
35.98218898526306
 30
0.0
 11
1161.812912702856
 21
35.98218898526306
 31
0.0
  0
LINE
  5
5A6
330
1F
100
AcDbEntity
  8
0
  6
Continuous
100
AcDbLine
 10
1167.065116249013
 20
93.38218898526315
 30
0.0
 11
1167.065116249013
 21
42.58218898526343
 31
0.0
  0
LINE
  5
5A7
330
1F
100
AcDbEntity
  8
0
  6
Continuous
100
AcDbLine
 10
1164.662912702857
 20
99.98218898526261
 30
0.0
 11
1164.662912702857
 21
35.98218898526352
 31
0.0
  0
LINE
  5
5A8
330
1F
100
AcDbEntity
  8
0
  6
Continuous
100
AcDbLine
 10
1161.812912702856
 20
99.98218898526261
 30
0.0
 11
1161.812912702856
 21
35.98218898526352
 31
0.0
  0
LINE
  5
5A9
330
1F
100
AcDbEntity
  8
0
  6
Continuous
100
AcDbLine
 10
1200.812912702853
 20
41.39755705665879
 30
0.0
 11
1230.148811087714
 21
41.39755705665879
 31
0.0
  0
LINE
  5
5AA
330
1F
100
AcDbEntity
  8
0
  6
Continuous
100
AcDbLine
 10
1232.746887299068
 20
41.39755705665925
 30
0.0
 11
1230.148811087714
 21
41.39755705665925
 31
0.0
  0
LINE
  5
5AB
330
1F
100
AcDbEntity
  8
0
  6
Continuous
100
AcDbLine
 10
1232.746887299068
 20
41.39755705665879
 30
0.0
 11
1243.822531646093
 21
41.39755705665879
 31
0.0
  0
LINE
  5
5AC
330
1F
100
AcDbEntity
  8
0
  6
Continuous
100
AcDbLine
 10
1243.822531646093
 20
41.39755705665879
 30
0.0
 11
1269.803293759625
 21
41.39755705665879
 31
0.0
  0
LINE
  5
5AD
330
1F
100
AcDbEntity
  8
0
  6
Continuous
100
AcDbLine
 10
1269.803293759625
 20
41.39755705665879
 30
0.0
 11
1280.878938106637
 21
41.39755705665879
 31
0.0
  0
LINE
  5
5AE
330
1F
100
AcDbEntity
  8
0
  6
Continuous
100
AcDbLine
 10
1283.47701431799
 20
41.39755705665925
 30
0.0
 11
1280.878938106637
 21
41.39755705665925
 31
0.0
  0
LINE
  5
5AF
330
1F
100
AcDbEntity
  8
0
  6
Continuous
100
AcDbLine
 10
1283.47701431799
 20
41.39755705665879
 30
0.0
 11
1312.812912702852
 21
41.39755705665879
 31
0.0
  0
LINE
  5
5B0
330
1F
100
AcDbEntity
  8
0
  6
Continuous
100
AcDbLine
 10
1200.812912702847
 20
68.50410352709809
 30
0.0
 11
1200.812912702847
 21
71.62943078319472
 31
0.0
  0
LINE
  5
5B1
330
1F
100
AcDbEntity
  8
0
  6
Continuous
100
AcDbLine
 10
1200.812912702853
 20
41.39755705665879
 30
0.0
 11
1200.812912702852
 21
43.03558555744053
 31
0.0
  0
LINE
  5
5B2
330
1F
100
AcDbEntity
  8
0
  6
Continuous
100
AcDbLine
 10
1312.812912702851
 20
43.03558555744007
 30
0.0
 11
1312.812912702852
 21
41.39755705665879
 31
0.0
  0
LINE
  5
5B3
330
1F
100
AcDbEntity
  8
0
  6
Continuous
100
AcDbLine
 10
1312.812912702847
 20
71.62943078319472
 30
0.0
 11
1312.812912702847
 21
68.50410352709855
 31
0.0
  0
LINE
  5
5B4
330
1F
100
AcDbEntity
  8
0
  6
Continuous
100
AcDbLine
 10
1227.316806560419
 20
35.38883777034721
 30
0.0
 11
1227.316806560422
 21
39.9287427677425
 31
0.0
  0
LINE
  5
5B5
330
1F
100
AcDbEntity
  8
0
  6
Continuous
100
AcDbLine
 10
1214.316806560419
 20
35.38883777034721
 30
0.0
 11
1214.316806560422
 21
39.9287427677425
 31
0.0
  0
ELLIPSE
  5
5B6
330
1F
100
AcDbEntity
  8
0
  6
Continuous
100
AcDbEllipse
 10
1220.81680656042
 20
35.38883777034766
 30
0.0
 11
-6.499999999999975
 21
0.0
 31
0.0
210
0.0
220
0.0
230
1.0
 40
0.8910065241883661
 41
0.0
 42
6.283185307179586
  0
ELLIPSE
  5
5B7
330
1F
100
AcDbEntity
  8
0
  6
Continuous
100
AcDbEllipse
 10
1220.816806560422
 20
39.9287427677425
 30
0.0
 11
6.500000000000008
 21
-0.0000000000038108
 31
0.0
210
0.0
220
0.0
230
1.0
 40
0.8910065241883662
 41
0.0
 42
0.2564142397231475
  0
ELLIPSE
  5
5B8
330
1F
100
AcDbEntity
  8
0
  6
Continuous
100
AcDbEllipse
 10
1220.816806560422
 20
39.9287427677425
 30
0.0
 11
-6.500000000000165
 21
-0.0000000000000396
 31
0.0
210
0.0
220
0.0
230
1.0
 40
0.8910065241883661
 41
6.026771067456749
 42
6.283185307179222
  0
LINE
  5
5B9
330
1F
100
AcDbEntity
  8
0
  6
Continuous
100
AcDbLine
 10
1286.309018845315
 20
39.9287427677425
 30
0.0
 11
1286.309018845311
 21
35.38883777034721
 31
0.0
  0
LINE
  5
5BA
330
1F
100
AcDbEntity
  8
0
  6
Continuous
100
AcDbLine
 10
1299.309018845315
 20
39.9287427677425
 30
0.0
 11
1299.309018845311
 21
35.38883777034721
 31
0.0
  0
ELLIPSE
  5
5BB
330
1F
100
AcDbEntity
  8
0
  6
Continuous
100
AcDbEllipse
 10
1292.809018845311
 20
35.38883777034766
 30
0.0
 11
6.499999999999975
 21
0.0
 31
0.0
210
0.0
220
0.0
230
1.0
 40
0.8910065241883661
 41
0.0
 42
6.283185307179586
  0
ELLIPSE
  5
5BC
330
1F
100
AcDbEntity
  8
0
  6
Continuous
100
AcDbEllipse
 10
1292.809018845315
 20
39.9287427677425
 30
0.0
 11
6.500000000000001
 21
-0.0000000000038091
 31
0.0
210
0.0
220
0.0
230
1.0
 40
0.8910065241883661
 41
0.0
 42
0.2564142397232132
  0
ELLIPSE
  5
5BD
330
1F
100
AcDbEntity
  8
0
  6
Continuous
100
AcDbEllipse
 10
1292.809018845315
 20
39.9287427677425
 30
0.0
 11
-6.500000000000125
 21
0.0
 31
0.0
210
0.0
220
0.0
230
1.0
 40
0.8910065241883661
 41
6.026771067456756
 42
6.283185307179231
  0
LINE
  5
5BE
330
1F
100
AcDbEntity
  8
0
  6
Continuous
100
AcDbLine
 10
1299.3090188453
 20
111.8345045937196
 30
0.0
 11
1299.309018845303
 21
116.3744095911149
 31
0.0
  0
LINE
  5
5BF
330
1F
100
AcDbEntity
  8
0
  6
Continuous
100
AcDbLine
 10
1286.3090188453
 20
111.8345045937191
 30
0.0
 11
1286.309018845302
 21
116.3744095911149
 31
0.0
  0
LINE
  5
5C0
330
1F
100
AcDbEntity
  8
0
  6
Continuous
100
AcDbLine
 10
1214.316806560411
 20
116.3744095911149
 30
0.0
 11
1214.316806560407
 21
111.8345045937191
 31
0.0
  0
LINE
  5
5C1
330
1F
100
AcDbEntity
  8
0
  6
Continuous
100
AcDbLine
 10
1227.316806560411
 20
116.3744095911149
 30
0.0
 11
1227.316806560408
 21
111.8345045937191
 31
0.0
  0
ELLIPSE
  5
5C2
330
1F
100
AcDbEntity
  8
0
  6
Continuous
100
AcDbEllipse
 10
1292.8090188453
 20
111.8345045937196
 30
0.0
 11
-6.499999999999975
 21
0.0
 31
0.0
210
0.0
220
0.0
230
1.0
 40
0.8910065241883661
 41
0.0
 42
6.283185307179586
  0
ELLIPSE
  5
5C3
330
1F
100
AcDbEntity
  8
0
  6
Continuous
100
AcDbEllipse
 10
1220.816806560407
 20
111.8345045937196
 30
0.0
 11
6.499999999999975
 21
0.0
 31
0.0
210
0.0
220
0.0
230
1.0
 40
0.8910065241883661
 41
0.0
 42
6.283185307179586
  0
ELLIPSE
  5
5C4
330
1F
100
AcDbEntity
  8
0
  6
Continuous
100
AcDbEllipse
 10
1220.816806560411
 20
116.3744095911149
 30
0.0
 11
-6.499999999999974
 21
-0.0000000000000554
 31
0.0
210
0.0
220
0.0
230
1.0
 40
0.8910065241883661
 41
3.141592653589427
 42
6.283185307179219
  0
ELLIPSE
  5
5C5
330
1F
100
AcDbEntity
  8
0
  6
Continuous
100
AcDbEllipse
 10
1292.809018845303
 20
116.3744095911149
 30
0.0
 11
-6.499999999999977
 21
0.0
 31
0.0
210
0.0
220
0.0
230
1.0
 40
0.8910065241883659
 41
3.141592653589437
 42
6.283185307179231
  0
LINE
  5
5C6
330
1F
100
AcDbEntity
  8
0
  6
Continuous
100
AcDbLine
 10
1200.812912702847
 20
68.50410352709809
 30
0.0
 11
1200.812912702852
 21
43.03558555744007
 31
0.0
  0
LINE
  5
5C7
330
1F
100
AcDbEntity
  8
0
  6
Continuous
100
AcDbLine
 10
1200.812912702851
 20
88.35360088138555
 30
0.0
 11
1200.812912702847
 21
71.62943078319426
 31
0.0
  0
LINE
  5
5C8
330
1F
100
AcDbEntity
  8
0
  6
Continuous
100
AcDbLine
 10
1312.812912702851
 20
43.03558555744007
 30
0.0
 11
1312.812912702847
 21
68.50410352709809
 31
0.0
  0
LINE
  5
5C9
330
1F
100
AcDbEntity
  8
0
  6
Continuous
100
AcDbLine
 10
1312.812912702847
 20
71.62943078319426
 30
0.0
 11
1312.812912702851
 21
88.35360088138555
 31
0.0
  0
LINE
  5
5CA
330
1F
100
AcDbEntity
  8
0
  6
Continuous
100
AcDbLine
 10
1241.501560705074
 20
114.9055953021986
 30
0.0
 11
1272.12426470064
 21
114.9055953021986
 31
0.0
  0
LINE
  5
5CB
330
1F
100
AcDbEntity
  8
0
  6
Continuous
100
AcDbLine
 10
1227.951173323535
 20
135.0847942799398
 30
0.0
 11
1227.951173323532
 21
128.0479415339771
 31
0.0
  0
LINE
  5
5CC
330
1F
100
AcDbEntity
  8
0
  6
Continuous
100
AcDbLine
 10
1285.674652082182
 20
135.0847942799398
 30
0.0
 11
1285.674652082178
 21
128.0479415339771
 31
0.0
  0
ELLIPSE
  5
5CD
330
1F
100
AcDbEntity
  8
0
  6
Continuous
100
AcDbEllipse
 10
1256.812912702867
 20
85.18842892539192
 30
0.0
 11
-62.99999999999967
 21
0.0000000000369399
 31
0.0
210
0.0
220
0.0
230
1.0
 40
0.8910065241883661
 41
5.18827123004576
 42
5.807303057519829
  0
ELLIPSE
  5
5CE
330
1F
100
AcDbEntity
  8
0
  6
Continuous
100
AcDbEllipse
 10
1256.812912702867
 20
85.18842892539145
 30
0.0
 11
-62.99999999999982
 21
0.0000000000311445
 31
0.0
210
0.0
220
0.0
230
1.0
 40
0.8910065241883661
 41
3.61747490325073
 42
4.236506730724825
  0
LINE
  5
5CF
330
1F
100
AcDbEntity
  8
0
  6
Continuous
100
AcDbLine
 10
1285.674652082182
 20
135.0847942799398
 30
0.0
 11
1227.951173323535
 21
135.0847942799398
 31
0.0
  0
LINE
  5
5D0
330
1F
100
AcDbEntity
  8
0
  6
Continuous
100
AcDbLine
 10
1200.812912702863
 20
110.9044270117931
 30
0.0
 11
1200.812912702858
 21
103.8675742658299
 31
0.0
  0
LINE
  5
5D1
330
1F
100
AcDbEntity
  8
0
  6
Continuous
100
AcDbLine
 10
1312.812912702862
 20
110.9044270117931
 30
0.0
 11
1312.812912702858
 21
103.8675742658299
 31
0.0
  0
ELLIPSE
  5
5D2
330
1F
100
AcDbEntity
  8
0
  6
Continuous
100
AcDbEllipse
 10
1256.812912702859
 20
78.15157617943327
 30
0.0
 11
-63.00000000000578
 21
0.0000000000426992
 31
0.0
210
0.0
220
0.0
230
1.0
 40
0.8910065241883659
 41
2.046678576456061
 42
2.120541654820168
  0
ELLIPSE
  5
5D3
330
1F
100
AcDbEntity
  8
0
  6
Continuous
100
AcDbEllipse
 10
1256.812912702863
 20
78.15157617942827
 30
0.0
 11
-62.99999999999895
 21
0.0000000000427158
 31
0.0
210
0.0
220
0.0
230
1.0
 40
0.8910065241883661
 41
2.311139598613801
 42
2.427725085572165
  0
LINE
  5
5D4
330
1F
100
AcDbEntity
  8
0
  6
Continuous
100
AcDbLine
 10
1285.674652082194
 20
28.25521082488035
 30
0.0
 11
1227.951173323546
 21
28.25521082488035
 31
0.0
  0
ELLIPSE
  5
5D5
330
1F
100
AcDbEntity
  8
0
  6
Continuous
100
AcDbEllipse
 10
1256.81291270286
 20
78.15157617942645
 30
0.0
 11
-62.99999999999613
 21
0.0000000000368872
 31
0.0
210
0.0
220
0.0
230
1.0
 40
0.8910065241883659
 41
0.7138675680190581
 42
0.8304530549774211
  0
ELLIPSE
  5
5D6
330
1F
100
AcDbEntity
  8
0
  6
Continuous
100
AcDbEllipse
 10
1256.812912702859
 20
78.15157617942372
 30
0.0
 11
-62.99999999999323
 21
0.0000000000368844
 31
0.0
210
0.0
220
0.0
230
1.0
 40
0.8910065241883661
 41
1.02105099877102
 42
1.094914077135141
  0
LINE
  5
5D7
330
1F
100
AcDbEntity
  8
0
  6
Continuous
100
AcDbLine
 10
1200.812912702859
 20
101.6295980917918
 30
0.0
 11
1200.812912702858
 21
103.8675742658299
 31
0.0
  0
ELLIPSE
  5
5D8
330
1F
100
AcDbEntity
  8
0
  6
Continuous
100
AcDbEllipse
 10
1256.812912702862
 20
78.15157617942873
 30
0.0
 11
62.99999999999973
 21
-0.0000000000427214
 31
0.0
210
0.0
220
0.0
230
1.0
 40
0.8910065241883659
 41
2.046678576456082
 42
2.665710403930171
  0
LINE
  5
5D9
330
1F
100
AcDbEntity
  8
0
  6
Continuous
100
AcDbLine
 10
1227.951173323532
 20
128.0479415339766
 30
0.0
 11
1285.674652082178
 21
128.0479415339766
 31
0.0
  0
ELLIPSE
  5
5DA
330
1F
100
AcDbEntity
  8
0
  6
Continuous
100
AcDbEllipse
 10
1256.812912702862
 20
78.15157617942873
 30
0.0
 11
62.99999999999983
 21
-0.0000000000369288
 31
0.0
210
0.0
220
0.0
230
1.0
 40
0.8910065241883659
 41
0.4758822496610771
 42
1.094914077135134
  0
LINE
  5
5DB
330
1F
100
AcDbEntity
  8
0
  6
Continuous
100
AcDbLine
 10
1312.812912702858
 20
103.8675742658299
 30
0.0
 11
1312.812912702858
 21
101.6295980917918
 31
0.0
  0
LINE
  5
5DC
330
1F
100
AcDbEntity
  8
0
  6
Continuous
100
AcDbLine
 10
1312.812912702858
 20
101.6295980917918
 30
0.0
 11
1312.812912702851
 21
88.35360088138555
 31
0.0
  0
LINE
  5
5DD
330
1F
100
AcDbEntity
  8
0
  6
Continuous
100
AcDbLine
 10
1312.812912702851
 20
88.35360088138555
 30
0.0
 11
1296.746326030539
 21
88.35360088138555
 31
0.0
  0
LINE
  5
5DE
330
1F
100
AcDbEntity
  8
0
  6
Continuous
100
AcDbLine
 10
1216.879499375163
 20
88.35360088138555
 30
0.0
 11
1200.812912702851
 21
88.35360088138555
 31
0.0
  0
LINE
  5
5DF
330
1F
100
AcDbEntity
  8
0
  6
Continuous
100
AcDbLine
 10
1200.812912702851
 20
88.35360088138555
 30
0.0
 11
1200.812912702859
 21
101.6295980917918
 31
0.0
  0
ELLIPSE
  5
5E0
330
1F
100
AcDbEntity
  8
0
  6
Continuous
100
AcDbEllipse
 10
1256.812912702841
 20
41.39755705665925
 30
0.0
 11
-0.0000000000168815
 21
-78.40857412857591
 31
0.0
210
0.0
220
0.0
230
1.0
 40
0.5611631188171816
 41
3.497013855279313
 42
3.973931310015862
  0
ELLIPSE
  5
5E1
330
1F
100
AcDbEntity
  8
0
  6
Continuous
100
AcDbEllipse
 10
1256.812912702862
 20
78.15157617942873
 30
0.0
 11
43.99999999999981
 21
-0.0000000000298511
 31
0.0
210
0.0
220
0.0
230
1.0
 40
0.8910065241883657
 41
1.926217528485874
 42
2.403134983222226
  0
LINE
  5
5E2
330
1F
100
AcDbEntity
  8
0
  6
Continuous
100
AcDbLine
 10
1200.812912702859
 20
101.6295980917918
 30
0.0
 11
1216.879499375171
 21
101.6295980917918
 31
0.0
  0
LINE
  5
5E3
330
1F
100
AcDbEntity
  8
0
  6
Continuous
100
AcDbLine
 10
1312.812912702858
 20
101.6295980917918
 30
0.0
 11
1296.746326030547
 21
101.6295980917918
 31
0.0
  0
ELLIPSE
  5
5E4
330
1F
100
AcDbEntity
  8
0
  6
Continuous
100
AcDbEllipse
 10
1256.812912702841
 20
41.39755705665925
 30
0.0
 11
-0.0000000000168771
 21
-78.40857412857591
 31
0.0
210
0.0
220
0.0
230
1.0
 40
0.5611631188171816
 41
2.309253997162741
 42
2.786171451898863
  0
ELLIPSE
  5
5E5
330
1F
100
AcDbEntity
  8
0
  6
Continuous
100
AcDbEllipse
 10
1256.812912702862
 20
78.15157617942873
 30
0.0
 11
-43.99999999999979
 21
0.000000000021752
 31
0.0
210
0.0
220
0.0
230
1.0
 40
0.8910065241883659
 41
3.880050323958675
 42
4.356967778695033
  0
ELLIPSE
  5
5E6
330
1F
100
AcDbEntity
  8
0
  6
Continuous
100
AcDbEllipse
 10
1216.879499375167
 20
106.1737313651531
 30
0.0
 11
-0.0000000000038362
 21
-17.82013048376725
 31
0.0
210
0.0
220
0.0
230
1.0
 40
0.5611631188171816
 41
0.0
 42
0.8323386564260646
  0
ELLIPSE
  5
5E7
330
1F
100
AcDbEntity
  8
0
  6
Continuous
100
AcDbEllipse
 10
1216.87949937517
 20
110.5396633336756
 30
0.0
 11
9.999999999999975
 21
0.000000000000004
 31
0.0
210
0.0
220
0.0
230
1.0
 40
0.8910065241883661
 41
4.712388980384973
 42
5.544727636811352
  0
ELLIPSE
  5
5E8
330
1F
100
AcDbEntity
  8
0
  6
Continuous
100
AcDbEllipse
 10
1296.746326030543
 20
106.1737313651531
 30
0.0
 11
-0.0000000000038362
 21
-17.82013048376725
 31
0.0
210
0.0
220
0.0
230
1.0
 40
0.5611631188171816
 41
5.45084665075252
 42
6.283185307178804
  0
ELLIPSE
  5
5E9
330
1F
100
AcDbEntity
  8
0
  6
Continuous
100
AcDbEllipse
 10
1296.746326030545
 20
110.5396633336756
 30
0.0
 11
9.999999999999973
 21
-0.000000000004946
 31
0.0
210
0.0
220
0.0
230
1.0
 40
0.8910065241883661
 41
3.880050323958659
 42
4.712388980385236
  0
LINE
  5
5EA
330
1F
100
AcDbEntity
  8
0
  6
Continuous
100
AcDbLine
 10
1200.473669064931
 20
180.8603099719905
 30
0.0
 11
1191.698128975421
 21
168.1805976046537
 31
0.0
  0
LINE
  5
5EB
330
1F
100
AcDbEntity
  8
0
  6
Continuous
100
AcDbLine
 10
1313.152156340867
 20
180.8603099719905
 30
0.0
 11
1321.927696430356
 21
168.1805976046537
 31
0.0
  0
ELLIPSE
  5
5EC
330
1F
100
AcDbEntity
  8
0
  6
Continuous
100
AcDbEllipse
 10
1256.812912702875
 20
101.0780964162756
 30
0.0
 11
-45.49999999999981
 21
0.0000000000224903
 31
0.0
210
0.0
220
0.0
230
1.0
 40
0.8910065241883657
 41
4.280690563944842
 42
5.144087396825696
  0
ELLIPSE
  5
5ED
330
1F
100
AcDbEntity
  8
0
  6
Continuous
100
AcDbEllipse
 10
1256.812912702875
 20
101.0780964162756
 30
0.0
 11
-76.49999999999984
 21
0.0000000000448752
 31
0.0
210
0.0
220
0.0
230
1.0
 40
0.8910065241883661
 41
4.432909919450353
 42
4.99186804132034
  0
ELLIPSE
  5
5EE
330
1F
100
AcDbEntity
  8
0
  6
Continuous
100
AcDbEllipse
 10
1256.812912702875
 20
101.0780964162756
 30
0.0
 11
-76.4999999999996
 21
0.0000000000448974
 31
0.0
210
0.0
220
0.0
230
1.0
 40
0.8910065241883662
 41
5.480107470646947
 42
6.039065592516937
  0
ELLIPSE
  5
5EF
330
1F
100
AcDbEntity
  8
0
  6
Continuous
100
AcDbEllipse
 10
1256.812912702875
 20
101.0780964162756
 30
0.0
 11
76.49999999999964
 21
-0.0000000000448447
 31
0.0
210
0.0
220
0.0
230
1.0
 40
0.8910065241883661
 41
0.2441197146639603
 42
0.8030778365339479
  0
ELLIPSE
  5
5F0
330
1F
100
AcDbEntity
  8
0
  6
Continuous
100
AcDbEllipse
 10
1256.812912702894
 20
132.4034408983045
 30
0.0
 11
76.49999999999973
 21
-0.0000000000448423
 31
0.0
210
0.0
220
0.0
230
1.0
 40
0.8910065241883661
 41
0.0275500735915935
 42
3.11404257999951
  0
ELLIPSE
  5
5F1
330
1F
100
AcDbEntity
  8
0
  6
Continuous
100
AcDbEllipse
 10
1214.312912702886
 20
35.48918220106793
 30
0.0
 11
-5.999999999999954
 21
0.0000000000035182
 31
0.0
210
0.0
220
0.0
230
1.0
 40
0.8910065241883661
 41
0.2356194490198932
 42
1.858775653374612
  0
LINE
  5
5F2
330
1F
100
AcDbEntity
  8
0
  6
Continuous
100
AcDbLine
 10
1206.550429490327
 20
41.39755705665925
 30
0.0
 11
1208.478693180501
 21
34.24117414764509
 31
0.0
  0
LINE
  5
5F3
330
1F
100
AcDbEntity
  8
0
  6
Continuous
100
AcDbLine
 10
1216.01700477111
 20
30.36329436533947
 30
0.0
 11
1217.086956241495
 21
30.64568468453058
 31
0.0
  0
LINE
  5
5F4
330
1F
100
AcDbEntity
  8
0
  6
Continuous
100
AcDbLine
 10
1165.812912702877
 20
101.0780964162756
 30
0.0
 11
1165.812912702886
 21
116.3450801154415
 31
0.0
  0
LINE
  5
5F5
330
1F
100
AcDbEntity
  8
0
  6
Continuous
100
AcDbLine
 10
1347.812912702876
 20
101.0780964162756
 30
0.0
 11
1347.812912702884
 21
116.3450801154415
 31
0.0
  0
ELLIPSE
  5
5F6
330
1F
100
AcDbEntity
  8
0
  6
Continuous
100
AcDbEllipse
 10
1299.312912702886
 20
35.48918220106793
 30
0.0
 11
5.999999999999954
 21
-0.0000000000035152
 31
0.0
210
0.0
220
0.0
230
1.0
 40
0.8910065241883659
 41
4.424409653806295
 42
6.047565858161007
  0
LINE
  5
5F7
330
1F
100
AcDbEntity
  8
0
  6
Continuous
100
AcDbLine
 10
1296.538869164279
 20
30.64568468453058
 30
0.0
 11
1297.608820634663
 21
30.36329436533947
 31
0.0
  0
LINE
  5
5F8
330
1F
100
AcDbEntity
  8
0
  6
Continuous
100
AcDbLine
 10
1341.427515809285
 20
93.38218898526315
 30
0.0
 11
1345.943040157038
 21
97.20021663396961
 31
0.0
  0
ELLIPSE
  5
5F9
330
1F
100
AcDbEntity
  8
0
  6
Continuous
100
AcDbEllipse
 10
1299.312912702866
 20
166.6670106314834
 30
0.0
 11
5.999999999999954
 21
-0.0000000000035182
 31
0.0
210
0.0
220
0.0
230
1.0
 40
0.8910065241883661
 41
0.2356194490198932
 42
1.858775653374612
  0
LINE
  5
5FA
330
1F
100
AcDbEntity
  8
0
  6
Continuous
100
AcDbLine
 10
1309.941819070491
 20
169.1880539368519
 30
0.0
 11
1309.94181907048
 21
150.1204529477906
 31
0.0
  0
LINE
  5
5FB
330
1F
100
AcDbEntity
  8
0
  6
Continuous
100
AcDbLine
 10
1309.94181907048
 20
150.1204529477906
 30
0.0
 11
1305.147132225251
 21
167.9150186849058
 31
0.0
  0
LINE
  5
5FC
330
1F
100
AcDbEntity
  8
0
  6
Continuous
100
AcDbLine
 10
1235.710008280705
 20
185.6629613427774
 30
0.0
 11
1235.710008280694
 21
166.5953603537166
 31
0.0
  0
LINE
  5
5FD
330
1F
100
AcDbEntity
  8
0
  6
Continuous
100
AcDbLine
 10
1235.710008280694
 20
166.5953603537166
 30
0.0
 11
1216.017004771089
 21
171.7928984672119
 31
0.0
  0
LINE
  5
5FE
330
1F
100
AcDbEntity
  8
0
  6
Continuous
100
AcDbLine
 10
1182.581101913101
 20
136.6206048112624
 30
0.0
 11
1182.58110191309
 21
117.5530038222011
 31
0.0
  0
LINE
  5
5FF
330
1F
100
AcDbEntity
  8
0
  6
Continuous
100
AcDbLine
 10
1182.58110191309
 20
117.5530038222016
 30
0.0
 11
1167.682785248713
 21
104.9559761985817
 31
0.0
  0
LINE
  5
600
330
1F
100
AcDbEntity
  8
0
  6
Continuous
100
AcDbLine
 10
1305.147132225273
 20
34.24117414764509
 30
0.0
 11
1307.075395915442
 21
41.39755705665925
 31
0.0
  0
LINE
  5
601
330
1F
100
AcDbEntity
  8
0
  6
Continuous
100
AcDbLine
 10
1167.682785248714
 20
97.20021663396961
 30
0.0
 11
1172.198309596469
 21
93.38218898526315
 31
0.0
  0
ELLIPSE
  5
602
330
1F
100
AcDbEntity
  8
0
  6
Continuous
100
AcDbEllipse
 10
1171.812912702876
 20
101.0780964162756
 30
0.0
 11
-5.999999999999939
 21
0.0000000000035198
 31
0.0
210
0.0
220
0.0
230
1.0
 40
0.8910065241883659
 41
5.471607205002845
 42
7.094763409357562
  0
LINE
  5
603
330
1F
100
AcDbEntity
  8
0
  6
Continuous
100
AcDbLine
 10
1345.943040157037
 20
104.9559761985817
 30
0.0
 11
1331.044723492657
 21
117.5530038222011
 31
0.0
  0
LINE
  5
604
330
1F
100
AcDbEntity
  8
0
  6
Continuous
100
AcDbLine
 10
1331.044723492657
 20
117.5530038222011
 30
0.0
 11
1331.044723492668
 21
136.6206048112624
 31
0.0
  0
ELLIPSE
  5
605
330
1F
100
AcDbEntity
  8
0
  6
Continuous
100
AcDbEllipse
 10
1341.812912702876
 20
101.0780964162756
 30
0.0
 11
5.999999999999939
 21
-0.0000000000035198
 31
0.0
210
0.0
220
0.0
230
1.0
 40
0.8910065241883659
 41
5.471607205002845
 42
7.094763409357562
  0
LINE
  5
606
330
1F
100
AcDbEntity
  8
0
  6
Continuous
100
AcDbLine
 10
1208.47869318048
 20
167.9150186849062
 30
0.0
 11
1203.684006335257
 21
150.1204529477906
 31
0.0
  0
LINE
  5
607
330
1F
100
AcDbEntity
  8
0
  6
Continuous
100
AcDbLine
 10
1203.684006335257
 20
150.1204529477906
 30
0.0
 11
1203.684006335268
 21
169.1880539368519
 31
0.0
  0
ELLIPSE
  5
608
330
1F
100
AcDbEntity
  8
0
  6
Continuous
100
AcDbEllipse
 10
1214.312912702866
 20
166.6670106314834
 30
0.0
 11
-5.999999999999971
 21
0.0000000000035147
 31
0.0
210
0.0
220
0.0
230
1.0
 40
0.8910065241883662
 41
4.424409653806295
 42
6.047565858161014
  0
LINE
  5
609
330
1F
100
AcDbEntity
  8
0
  6
Continuous
100
AcDbLine
 10
1297.608820634642
 20
171.7928984672119
 30
0.0
 11
1277.915817125038
 21
166.5953603537166
 31
0.0
  0
LINE
  5
60A
330
1F
100
AcDbEntity
  8
0
  6
Continuous
100
AcDbLine
 10
1277.915817125038
 20
166.5953603537166
 30
0.0
 11
1277.915817125049
 21
185.6629613427774
 31
0.0
  0
SPLINE
  5
60B
330
1F
100
AcDbEntity
  8
0
  6
Continuous
100
AcDbSpline
210
0.0
220
0.0
230
1.0
 70
    12
 71
     2
 72
     6
 73
     3
 74
     0
 42
0.0000000001
 43
0.0000000001
 40
0.0
 40
0.0
 40
0.0
 40
2.285361866379776
 40
2.285361866379776
 40
2.285361866379776
 10
1309.941819070491
 20
169.1880539368519
 30
0.0
 41
1.0
 10
1307.728704087638
 20
176.0660103570987
 30
0.0
 41
1.011342813077101
 10
1305.147132225261
 20
183.6442819969372
 30
0.0
 41
1.007106630171223
  0
SPLINE
  5
60C
330
1F
100
AcDbEntity
  8
0
  6
Continuous
100
AcDbSpline
210
0.0
220
0.0
230
1.0
 70
     8
 71
     3
 72
    14
 73
    10
 74
     0
 42
0.0000000001
 43
0.0000000001
 40
0.5371471316248521
 40
0.5371471316248521
 40
0.5371471316248521
 40
0.5371471316248521
 40
0.7756900856282975
 40
0.7756900856282975
 40
1.020133699573842
 40
1.020133699573842
 40
1.264577313519387
 40
1.264577313519387
 40
1.503120267522837
 40
1.503120267522837
 40
1.503120267522837
 40
1.503120267522837
 10
1297.608820634651
 20
187.5221617792433
 30
0.0
 10
1298.31923650084
 20
187.5754763597171
 30
0.0
 10
1299.135560335547
 20
187.5351090370557
 30
0.0
 10
1300.779625226021
 20
187.2142366405739
 30
0.0
 10
1301.607264771308
 20
186.9268014646607
 30
0.0
 10
1303.01856063444
 20
186.200798615255
 30
0.0
 10
1303.66991033987
 20
185.7274079159485
 30
0.0
 10
1304.643392012784
 20
184.7017545320357
 30
0.0
 10
1304.974166145881
 20
184.1520284413111
 30
0.0
 10
1305.147132225261
 20
183.6442819969372
 30
0.0
  0
SPLINE
  5
60D
330
1F
100
AcDbEntity
  8
0
  6
Continuous
100
AcDbSpline
210
0.0
220
0.0
230
1.0
 70
    12
 71
     2
 72
     6
 73
     3
 74
     0
 42
0.0000000001
 43
0.0000000001
 40
1.042507592243017
 40
1.042507592243017
 40
1.042507592243017
 40
3.327869458622813
 40
3.327869458622813
 40
3.327869458622813
 10
1297.608820634651
 20
187.5221617792433
 30
0.0
 41
1.007106630171227
 10
1287.005645622993
 20
186.7264252897591
 30
0.0
 41
1.011342813077106
 10
1277.915817125049
 20
185.6629613427774
 30
0.0
 41
1.0
  0
SPLINE
  5
60E
330
1F
100
AcDbEntity
  8
0
  6
Continuous
100
AcDbSpline
210
0.0
220
0.0
230
1.0
 70
     8
 71
     3
 72
    10
 73
     6
 74
     0
 42
0.0000000001
 43
0.0000000001
 40
0.537147131624853
 40
0.537147131624853
 40
0.537147131624853
 40
0.537147131624853
 40
0.7756900856282986
 40
0.7756900856282986
 40
1.020133699573842
 40
1.020133699573842
 40
1.020133699573844
 40
1.020133699573844
 10
1345.943040157047
 20
120.6852395106127
 30
0.0
 10
1346.480489943857
 20
120.0966234772288
 30
0.0
 10
1346.966039645465
 20
119.3865426510985
 30
0.0
 10
1347.636622863026
 20
117.8749623628807
 30
0.0
 10
1347.812912702884
 20
117.0710829648467
 30
0.0
 10
1347.812912702884
 20
116.3450801154415
 30
0.0
  0
SPLINE
  5
60F
330
1F
100
AcDbEntity
  8
0
  6
Continuous
100
AcDbSpline
210
0.0
220
0.0
230
1.0
 70
    12
 71
     2
 72
     6
 73
     3
 74
     0
 42
0.0000000001
 43
0.0000000001
 40
1.042507592243063
 40
1.042507592243063
 40
1.042507592243063
 40
3.327869458622811
 40
3.327869458622811
 40
3.327869458622811
 10
1345.943040157047
 20
120.6852395106127
 30
0.0
 41
1.007106630171207
 10
1337.921437007761
 20
129.4705146060339
 30
0.0
 41
1.011342813077074
 10
1331.044723492667
 20
136.6206048112624
 30
0.0
 41
1.0
  0
SPLINE
  5
610
330
1F
100
AcDbEntity
  8
0
  6
Continuous
100
AcDbSpline
210
0.0
220
0.0
230
1.0
 70
     8
 71
     3
 72
    14
 73
    10
 74
     0
 42
0.0000000001
 43
0.0000000001
 40
0.5371471316248499
 40
0.5371471316248499
 40
0.5371471316248499
 40
0.5371471316248499
 40
0.7756900856282983
 40
0.7756900856282983
 40
1.020133699573842
 40
1.020133699573842
 40
1.264577313519387
 40
1.264577313519387
 40
1.503120267522835
 40
1.503120267522835
 40
1.503120267522835
 40
1.503120267522835
 10
1208.478693180489
 20
183.6442819969372
 30
0.0
 10
1208.651659259868
 20
184.1520284413111
 30
0.0
 10
1208.982433392966
 20
184.7017545320357
 30
0.0
 10
1209.955915065878
 20
185.727407915949
 30
0.0
 10
1210.607264771309
 20
186.200798615255
 30
0.0
 10
1212.01856063444
 20
186.9268014646607
 30
0.0
 10
1212.846200179727
 20
187.2142366405739
 30
0.0
 10
1214.490265070202
 20
187.5351090370557
 30
0.0
 10
1215.306588904907
 20
187.5754763597171
 30
0.0
 10
1216.017004771098
 20
187.5221617792433
 30
0.0
  0
SPLINE
  5
611
330
1F
100
AcDbEntity
  8
0
  6
Continuous
100
AcDbSpline
210
0.0
220
0.0
230
1.0
 70
    12
 71
     2
 72
     6
 73
     3
 74
     0
 42
0.0000000001
 43
0.0000000001
 40
1.042507592243061
 40
1.042507592243061
 40
1.042507592243061
 40
3.327869458622811
 40
3.327869458622811
 40
3.327869458622811
 10
1208.478693180489
 20
183.6442819969372
 30
0.0
 41
1.007106630171201
 10
1205.897121318117
 20
176.0660103570987
 30
0.0
 41
1.011342813077065
 10
1203.684006335268
 20
169.1880539368519
 30
0.0
 41
1.0
  0
SPLINE
  5
612
330
1F
100
AcDbEntity
  8
0
  6
Continuous
100
AcDbSpline
210
0.0
220
0.0
230
1.0
 70
    12
 71
     2
 72
     6
 73
     3
 74
     0
 42
0.0000000001
 43
0.0000000001
 40
0.0
 40
0.0
 40
0.0
 40
2.285361866379756
 40
2.285361866379756
 40
2.285361866379756
 10
1235.710008280705
 20
185.6629613427774
 30
0.0
 41
1.0
 10
1226.620179782758
 20
186.7264252897591
 30
0.0
 41
1.01134281307709
 10
1216.017004771098
 20
187.5221617792433
 30
0.0
 41
1.007106630171217
  0
SPLINE
  5
613
330
1F
100
AcDbEntity
  8
0
  6
Continuous
100
AcDbSpline
210
0.0
220
0.0
230
1.0
 70
     8
 71
     3
 72
    10
 73
     6
 74
     0
 42
0.0000000001
 43
0.0000000001
 40
1.020133699573843
 40
1.020133699573843
 40
1.020133699573845
 40
1.020133699573845
 40
1.264577313519387
 40
1.264577313519387
 40
1.503120267522837
 40
1.503120267522837
 40
1.503120267522837
 40
1.503120267522837
 10
1165.812912702886
 20
116.3450801154415
 30
0.0
 10
1165.812912702885
 20
117.0710829648467
 30
0.0
 10
1165.989202542742
 20
117.8749623628812
 30
0.0
 10
1166.659785760303
 20
119.3865426510985
 30
0.0
 10
1167.145335461911
 20
120.0966234772292
 30
0.0
 10
1167.682785248722
 20
120.6852395106127
 30
0.0
  0
SPLINE
  5
614
330
1F
100
AcDbEntity
  8
0
  6
Continuous
100
AcDbSpline
210
0.0
220
0.0
230
1.0
 70
    12
 71
     2
 72
     6
 73
     3
 74
     0
 42
0.0000000001
 43
0.0000000001
 40
0.0
 40
0.0
 40
0.0
 40
2.285361866379774
 40
2.285361866379774
 40
2.285361866379774
 10
1182.581101913101
 20
136.6206048112624
 30
0.0
 41
1.0
 10
1175.704388398007
 20
129.4705146060343
 30
0.0
 41
1.011342813077075
 10
1167.682785248722
 20
120.6852395106127
 30
0.0
 41
1.007106630171207
  0
SPLINE
  5
615
330
1F
100
AcDbEntity
  8
0
  6
Continuous
100
AcDbSpline
210
0.0
220
0.0
230
1.0
 70
     8
 71
     3
 72
    20
 73
    16
 74
     0
 42
0.0000000001
 43
0.0000000001
 40
0.5525790657719165
 40
0.5525790657719165
 40
0.5525790657719165
 40
0.5525790657719165
 40
0.8705293583402722
 40
0.8705293583402722
 40
1.192429687870493
 40
1.192429687870493
 40
1.516792993411971
 40
1.516792993411971
 40
1.84204825492397
 40
1.84204825492397
 40
2.166864077601201
 40
2.166864077601201
 40
2.489752633585091
 40
2.489752633585091
 40
2.589013587817884
 40
2.589013587817884
 40
2.589013587817884
 40
2.589013587817884
 10
2008.878821053293
 20
180.8603099719896
 30
0.0
 10
2012.617510514837
 20
186.2623144662713
 30
0.0
 10
2017.306311926815
 20
191.0996348708197
 30
0.0
 10
2028.153162514092
 20
199.2444391079605
 30
0.0
 10
2034.326929138516
 20
202.531972107826
 30
0.0
 10
2047.533799541532
 20
207.2097522790056
 30
0.0
 10
2054.571513846182
 20
208.58507766157
 30
0.0
 10
2068.787072602932
 20
209.2697580058709
 30
0.0
 10
2075.963534194594
 20
208.5733495629576
 30
0.0
 10
2089.71309912564
 20
205.1662811029925
 30
0.0
 10
2096.285330603945
 20
202.4584713401338
 30
0.0
 10
2108.132251159602
 20
195.2977114577795
 30
0.0
 10
2113.412656632234
 20
190.8553222739258
 30
0.0
 10
2119.130849585006
 20
184.1787817600986
 30
0.0
 10
2120.390126250118
 20
182.5467626452702
 30
0.0
 10
2121.557308329229
 20
180.8603099719896
 30
0.0
  0
LINE
  5
616
330
1F
100
AcDbEntity
  8
0
  6
Continuous
100
AcDbLine
 10
1975.470268237375
 20
42.58218898526297
 30
0.0
 11
2009.218064691218
 21
42.58218898526297
 31
0.0
  0
LINE
  5
617
330
1F
100
AcDbEntity
  8
0
  6
Continuous
100
AcDbLine
 10
1975.470268237375
 20
93.38218898526315
 30
0.0
 11
1980.603461584809
 21
93.38218898526315
 31
0.0
  0
LINE
  5
618
330
1F
100
AcDbEntity
  8
0
  6
Continuous
100
AcDbLine
 10
1975.470268237373
 20
93.38218898526269
 30
0.0
 11
1973.068064691217
 21
99.98218898526261
 31
0.0
  0
LINE
  5
619
330
1F
100
AcDbEntity
  8
0
  6
Continuous
100
AcDbLine
 10
1975.470268237373
 20
42.58218898526343
 30
0.0
 11
1973.068064691217
 21
35.98218898526306
 31
0.0
  0
LINE
  5
61A
330
1F
100
AcDbEntity
  8
0
  6
Continuous
100
AcDbLine
 10
1970.218064691218
 20
35.98218898526306
 30
0.0
 11
1973.068064691217
 21
35.98218898526306
 31
0.0
  0
LINE
  5
61B
330
1F
100
AcDbEntity
  8
0
  6
Continuous
100
AcDbLine
 10
1970.218064691218
 20
99.98218898526261
 30
0.0
 11
1973.068064691217
 21
99.98218898526261
 31
0.0
  0
LINE
  5
61C
330
1F
100
AcDbEntity
  8
0
  6
Continuous
100
AcDbLine
 10
1975.470268237373
 20
42.58218898526343
 30
0.0
 11
1975.470268237373
 21
93.38218898526315
 31
0.0
  0
LINE
  5
61D
330
1F
100
AcDbEntity
  8
0
  6
Continuous
100
AcDbLine
 10
1973.068064691217
 20
35.98218898526352
 30
0.0
 11
1973.068064691217
 21
99.98218898526261
 31
0.0
  0
LINE
  5
61E
330
1F
100
AcDbEntity
  8
0
  6
Continuous
100
AcDbLine
 10
1970.218064691218
 20
35.98218898526352
 30
0.0
 11
1970.218064691218
 21
99.98218898526261
 31
0.0
  0
LINE
  5
61F
330
1F
100
AcDbEntity
  8
0
  6
Continuous
100
AcDbLine
 10
2121.218064691216
 20
42.58218898526297
 30
0.0
 11
2154.965861145059
 21
42.58218898526297
 31
0.0
  0
LINE
  5
620
330
1F
100
AcDbEntity
  8
0
  6
Continuous
100
AcDbLine
 10
2149.832667797623
 20
93.38218898526269
 30
0.0
 11
2154.965861145059
 21
93.38218898526269
 31
0.0
  0
LINE
  5
621
330
1F
100
AcDbEntity
  8
0
  6
Continuous
100
AcDbLine
 10
2154.965861145059
 20
42.58218898526297
 30
0.0
 11
2157.368064691216
 21
35.98218898526306
 31
0.0
  0
LINE
  5
622
330
1F
100
AcDbEntity
  8
0
  6
Continuous
100
AcDbLine
 10
2154.965861145059
 20
93.38218898526269
 30
0.0
 11
2157.368064691216
 21
99.98218898526261
 31
0.0
  0
LINE
  5
623
330
1F
100
AcDbEntity
  8
0
  6
Continuous
100
AcDbLine
 10
2157.368064691216
 20
35.98218898526306
 30
0.0
 11
2160.218064691216
 21
35.98218898526306
 31
0.0
  0
LINE
  5
624
330
1F
100
AcDbEntity
  8
0
  6
Continuous
100
AcDbLine
 10
2157.368064691216
 20
99.98218898526261
 30
0.0
 11
2160.218064691216
 21
99.98218898526261
 31
0.0
  0
LINE
  5
625
330
1F
100
AcDbEntity
  8
0
  6
Continuous
100
AcDbLine
 10
2154.965861145059
 20
42.58218898526343
 30
0.0
 11
2154.965861145059
 21
93.38218898526315
 31
0.0
  0
LINE
  5
626
330
1F
100
AcDbEntity
  8
0
  6
Continuous
100
AcDbLine
 10
2157.368064691216
 20
35.98218898526352
 30
0.0
 11
2157.368064691216
 21
99.98218898526261
 31
0.0
  0
LINE
  5
627
330
1F
100
AcDbEntity
  8
0
  6
Continuous
100
AcDbLine
 10
2160.218064691216
 20
35.98218898526352
 30
0.0
 11
2160.218064691216
 21
99.98218898526261
 31
0.0
  0
ELLIPSE
  5
628
330
1F
100
AcDbEntity
  8
0
  6
Continuous
100
AcDbEllipse
 10
2029.22195854878
 20
35.38883777034766
 30
0.0
 11
6.499999999999979
 21
-0.0000000000031537
 31
0.0
210
0.0
220
0.0
230
1.0
 40
0.8910065241883661
 41
4.10122255797957
 42
5.20612786845743
  0
ELLIPSE
  5
629
330
1F
100
AcDbEntity
  8
0
  6
Continuous
100
AcDbEllipse
 10
2101.214170833673
 20
35.38883777034721
 30
0.0
 11
-6.499999999999952
 21
0.0000000000043604
 31
0.0
210
0.0
220
0.0
230
1.0
 40
0.8910065241883659
 41
1.077057438723437
 42
2.181962749201312
  0
LINE
  5
62A
330
1F
100
AcDbEntity
  8
0
  6
Continuous
100
AcDbLine
 10
2014.955581478662
 20
41.39755705665879
 30
0.0
 11
2009.218064691218
 21
41.39755705665879
 31
0.0
  0
LINE
  5
62B
330
1F
100
AcDbEntity
  8
0
  6
Continuous
100
AcDbLine
 10
2121.218064691225
 20
52.43557809302706
 30
0.0
 11
2121.218064691218
 21
41.39755705665879
 31
0.0
  0
LINE
  5
62C
330
1F
100
AcDbEntity
  8
0
  6
Continuous
100
AcDbLine
 10
2121.218064691218
 20
41.39755705665879
 30
0.0
 11
2115.480547903776
 21
41.39755705665879
 31
0.0
  0
LINE
  5
62D
330
1F
100
AcDbEntity
  8
0
  6
Continuous
100
AcDbLine
 10
2009.218064691218
 20
41.39755705665879
 30
0.0
 11
2009.218064691225
 21
52.43557809302706
 31
0.0
  0
LINE
  5
62E
330
1F
100
AcDbEntity
  8
0
  6
Continuous
100
AcDbLine
 10
2094.079804070557
 20
33.51305747151059
 30
0.0
 11
2094.079804070554
 21
28.25521082488035
 31
0.0
  0
LINE
  5
62F
330
1F
100
AcDbEntity
  8
0
  6
Continuous
100
AcDbLine
 10
2036.356325311909
 20
33.51305747151059
 30
0.0
 11
2036.356325311908
 21
28.25521082488035
 31
0.0
  0
LINE
  5
630
330
1F
100
AcDbEntity
  8
0
  6
Continuous
100
AcDbLine
 10
2045.196066465012
 20
35.29206357084353
 30
0.0
 11
2043.096819098153
 21
35.29206357084353
 31
0.0
  0
LINE
  5
631
330
1F
100
AcDbEntity
  8
0
  6
Continuous
100
AcDbLine
 10
2087.339310284316
 20
35.29206357084353
 30
0.0
 11
2085.240062917457
 21
35.29206357084353
 31
0.0
  0
LINE
  5
632
330
1F
100
AcDbEntity
  8
0
  6
Continuous
100
AcDbLine
 10
2121.218064691227
 20
54.64092546702772
 30
0.0
 11
2121.218064691225
 21
52.43557809302706
 31
0.0
  0
LINE
  5
633
330
1F
100
AcDbEntity
  8
0
  6
Continuous
100
AcDbLine
 10
2009.218064691229
 20
54.64092546702772
 30
0.0
 11
2009.218064691227
 21
52.43557809302751
 31
0.0
  0
ELLIPSE
  5
634
330
1F
100
AcDbEntity
  8
0
  6
Continuous
100
AcDbEllipse
 10
2065.218064691225
 20
78.15157617943282
 30
0.0
 11
63.00000000000511
 21
-0.0000000000306311
 31
0.0
210
0.0
220
0.0
230
1.0
 40
0.8910065241883659
 41
4.114168566722296
 42
4.236506730724825
  0
ELLIPSE
  5
635
330
1F
100
AcDbEntity
  8
0
  6
Continuous
100
AcDbEllipse
 10
2065.218064691224
 20
78.15157617942873
 30
0.0
 11
62.99999999999958
 21
-0.0000000000306283
 31
0.0
210
0.0
220
0.0
230
1.0
 40
0.8910065241883662
 41
3.617474903250718
 42
3.757320098237436
  0
LINE
  5
636
330
1F
100
AcDbEntity
  8
0
  6
Continuous
100
AcDbLine
 10
2036.356325311908
 20
28.25521082488035
 30
0.0
 11
2094.079804070554
 21
28.25521082488035
 31
0.0
  0
ELLIPSE
  5
637
330
1F
100
AcDbEntity
  8
0
  6
Continuous
100
AcDbEllipse
 10
2065.218064691224
 20
78.15157617942919
 30
0.0
 11
63.0000000000002
 21
-0.000000000036432
 31
0.0
210
0.0
220
0.0
230
1.0
 40
0.8910065241883659
 41
5.667457862533128
 42
5.807303057519827
  0
ELLIPSE
  5
638
330
1F
100
AcDbEntity
  8
0
  6
Continuous
100
AcDbEllipse
 10
2065.218064691224
 20
78.15157617942919
 30
0.0
 11
63.0000000000001
 21
-0.0000000000364403
 31
0.0
210
0.0
220
0.0
230
1.0
 40
0.8910065241883661
 41
5.188271230045763
 42
5.310609394048288
  0
LINE
  5
639
330
1F
100
AcDbEntity
  8
0
  6
Continuous
100
AcDbLine
 10
1988.718064691254
 20
132.4034408983045
 30
0.0
 11
1988.718064691247
 21
120.1456974053364
 31
0.0
  0
LINE
  5
63A
330
1F
100
AcDbEntity
  8
0
  6
Continuous
100
AcDbLine
 10
2141.718064691255
 20
132.4034408983036
 30
0.0
 11
2141.718064691247
 21
120.1456974053364
 31
0.0
  0
LINE
  5
63B
330
1F
100
AcDbEntity
  8
0
  6
Continuous
100
AcDbLine
 10
2040.218064691267
 20
154.1949848858023
 30
0.0
 11
2040.218064691265
 21
151.9250323871049
 31
0.0
  0
LINE
  5
63C
330
1F
100
AcDbEntity
  8
0
  6
Continuous
100
AcDbLine
 10
2090.218064691267
 20
154.1949848858023
 30
0.0
 11
2090.218064691265
 21
151.9250323871044
 31
0.0
  0
LINE
  5
63D
330
1F
100
AcDbEntity
  8
0
  6
Continuous
100
AcDbLine
 10
2008.878821053293
 20
180.8603099719905
 30
0.0
 11
2000.103280963781
 21
168.1805976046537
 31
0.0
  0
LINE
  5
63E
330
1F
100
AcDbEntity
  8
0
  6
Continuous
100
AcDbLine
 10
2121.557308329229
 20
180.8603099719905
 30
0.0
 11
2130.332848418717
 21
168.1805976046537
 31
0.0
  0
LINE
  5
63F
330
1F
100
AcDbEntity
  8
0
  6
Continuous
100
AcDbLine
 10
2055.218064691274
 20
168.4956856275978
 30
0.0
 11
2055.218064691269
 21
154.1949848858023
 31
0.0
  0
LINE
  5
640
330
1F
100
AcDbEntity
  8
0
  6
Continuous
100
AcDbLine
 10
2075.218064691276
 20
168.4956856275978
 30
0.0
 11
2075.218064691265
 21
154.1949848858023
 31
0.0
  0
ELLIPSE
  5
641
330
1F
100
AcDbEntity
  8
0
  6
Continuous
100
AcDbEllipse
 10
2065.218064691236
 20
101.0780964162756
 30
0.0
 11
76.49999999999973
 21
-0.0000000000442368
 31
0.0
210
0.0
220
0.0
230
1.0
 40
0.8910065241883661
 41
5.480107470646938
 42
6.039065592516933
  0
ELLIPSE
  5
642
330
1F
100
AcDbEntity
  8
0
  6
Continuous
100
AcDbEllipse
 10
2065.218064691236
 20
101.0780964162756
 30
0.0
 11
-76.49999999999981
 21
0.0000000000442341
 31
0.0
210
0.0
220
0.0
230
1.0
 40
0.8910065241883661
 41
1.291317265860554
 42
1.85027538773054
  0
ELLIPSE
  5
643
330
1F
100
AcDbEntity
  8
0
  6
Continuous
100
AcDbEllipse
 10
2065.218064691236
 20
101.0780964162756
 30
0.0
 11
-76.49999999999986
 21
0.000000000044198
 31
0.0
210
0.0
220
0.0
230
1.0
 40
0.8910065241883661
 41
0.2441197146639524
 42
0.8030778365339426
  0
ELLIPSE
  5
644
330
1F
100
AcDbEntity
  8
0
  6
Continuous
100
AcDbEllipse
 10
2065.218064691267
 20
154.1949848858023
 30
0.0
 11
24.9999999999999
 21
-0.0000000000144364
 31
0.0
210
0.0
220
0.0
230
1.0
 40
0.8910065241883662
 41
1.793949266059305
 42
7.630828694711336
  0
ELLIPSE
  5
645
330
1F
100
AcDbEntity
  8
0
  6
Continuous
100
AcDbEllipse
 10
2065.218064691254
 20
132.4034408983045
 30
0.0
 11
76.4999999999997
 21
-0.0000000000442868
 31
0.0
210
0.0
220
0.0
230
1.0
 40
0.8910065241883661
 41
2.589013587818506
 42
6.83576437295216
  0
ELLIPSE
  5
646
330
1F
100
AcDbEntity
  8
0
  6
Continuous
100
AcDbEllipse
 10
2065.218064691265
 20
151.9250323871049
 30
0.0
 11
24.99999999999991
 21
0.000000000000002
 31
0.0
210
0.0
220
0.0
230
1.0
 40
0.8910065241883661
 41
3.141592653589448
 42
6.283185307179242
  0
ELLIPSE
  5
647
330
1F
100
AcDbEntity
  8
0
  6
Continuous
100
AcDbEllipse
 10
2065.218064691267
 20
154.1949848858023
 30
0.0
 11
9.999999999999959
 21
0.0000000000000005
 31
0.0
210
0.0
220
0.0
230
1.0
 40
0.8910065241883661
 41
3.141592653589466
 42
6.283185307179258
  0
ELLIPSE
  5
648
330
1F
100
AcDbEntity
  8
0
  6
Continuous
100
AcDbEllipse
 10
2065.218064691276
 20
168.4956856275978
 30
0.0
 11
-9.999999999999953
 21
0.0
 31
0.0
210
0.0
220
0.0
230
1.0
 40
0.8910065241883659
 41
0.0
 42
6.283185307179586
  0
ELLIPSE
  5
649
330
1F
100
AcDbEntity
  8
0
  6
Continuous
100
AcDbEllipse
 10
2065.218064691276
 20
169.1766713772074
 30
0.0
 11
8.499999999999957
 21
0.0
 31
0.0
210
0.0
220
0.0
230
1.0
 40
0.8910065241883661
 41
0.0
 42
6.283185307179586
  0
ELLIPSE
  5
64A
330
1F
100
AcDbEntity
  8
0
  6
Continuous
100
AcDbEllipse
 10
2107.718064691245
 20
35.48918220106793
 30
0.0
 11
5.999999999999955
 21
-0.0000000000034688
 31
0.0
210
0.0
220
0.0
230
1.0
 40
0.8910065241883661
 41
4.424409653806154
 42
6.047565858160985
  0
LINE
  5
64B
330
1F
100
AcDbEntity
  8
0
  6
Continuous
100
AcDbLine
 10
2118.346971058867
 20
71.10334087382103
 30
0.0
 11
2118.346971058856
 21
52.03573988476023
 31
0.0
  0
LINE
  5
64C
330
1F
100
AcDbEntity
  8
0
  6
Continuous
100
AcDbLine
 10
2118.346971058856
 20
52.03573988476023
 30
0.0
 11
2113.552284213632
 21
34.24117414764509
 31
0.0
  0
LINE
  5
64D
330
1F
100
AcDbEntity
  8
0
  6
Continuous
100
AcDbLine
 10
2106.013972623024
 20
30.36329436533947
 30
0.0
 11
2086.320969113418
 21
35.56083247883475
 31
0.0
  0
LINE
  5
64E
330
1F
100
AcDbEntity
  8
0
  6
Continuous
100
AcDbLine
 10
2086.320969113418
 20
35.56083247883475
 30
0.0
 11
2086.320969113429
 21
54.62843346789554
 31
0.0
  0
LINE
  5
64F
330
1F
100
AcDbEntity
  8
0
  6
Continuous
100
AcDbLine
 10
2156.218064691236
 20
101.0780964162756
 30
0.0
 11
2156.218064691243
 21
116.3450801154415
 31
0.0
  0
LINE
  5
650
330
1F
100
AcDbEntity
  8
0
  6
Continuous
100
AcDbLine
 10
1974.218064691236
 20
101.0780964162756
 30
0.0
 11
1974.218064691243
 21
116.3450801154415
 31
0.0
  0
ELLIPSE
  5
651
330
1F
100
AcDbEntity
  8
0
  6
Continuous
100
AcDbEllipse
 10
2022.718064691247
 20
35.48918220106793
 30
0.0
 11
-5.999999999999955
 21
0.0000000000034694
 31
0.0
210
0.0
220
0.0
230
1.0
 40
0.8910065241883659
 41
0.235619449020013
 42
1.85877565337469
  0
LINE
  5
652
330
1F
100
AcDbEntity
  8
0
  6
Continuous
100
AcDbLine
 10
2044.115160269086
 20
54.62843346789554
 30
0.0
 11
2044.115160269075
 21
35.56083247883475
 31
0.0
  0
LINE
  5
653
330
1F
100
AcDbEntity
  8
0
  6
Continuous
100
AcDbLine
 10
2044.115160269075
 20
35.56083247883475
 30
0.0
 11
2024.42215675947
 21
30.36329436533947
 31
0.0
  0
LINE
  5
654
330
1F
100
AcDbEntity
  8
0
  6
Continuous
100
AcDbLine
 10
1990.986253901466
 20
103.6707899994109
 30
0.0
 11
1990.986253901455
 21
84.60318901034975
 31
0.0
  0
LINE
  5
655
330
1F
100
AcDbEntity
  8
0
  6
Continuous
100
AcDbLine
 10
1990.986253901455
 20
84.60318901034975
 30
0.0
 11
1976.087937237074
 21
97.20021663396961
 31
0.0
  0
LINE
  5
656
330
1F
100
AcDbEntity
  8
0
  6
Continuous
100
AcDbLine
 10
2016.88384516886
 20
34.24117414764509
 30
0.0
 11
2012.089158323631
 21
52.03573988476023
 31
0.0
  0
LINE
  5
657
330
1F
100
AcDbEntity
  8
0
  6
Continuous
100
AcDbLine
 10
2012.089158323631
 20
52.03573988476023
 30
0.0
 11
2012.089158323642
 21
71.10334087382103
 31
0.0
  0
LINE
  5
658
330
1F
100
AcDbEntity
  8
0
  6
Continuous
100
AcDbLine
 10
2154.348192145398
 20
97.20021663396961
 30
0.0
 11
2139.449875481021
 21
84.60318901035021
 31
0.0
  0
LINE
  5
659
330
1F
100
AcDbEntity
  8
0
  6
Continuous
100
AcDbLine
 10
2139.449875481021
 20
84.60318901034975
 30
0.0
 11
2139.449875481033
 21
103.6707899994109
 31
0.0
  0
ELLIPSE
  5
65A
330
1F
100
AcDbEntity
  8
0
  6
Continuous
100
AcDbEllipse
 10
2150.218064691236
 20
101.0780964162756
 30
0.0
 11
5.999999999999884
 21
0.000000000000003
 31
0.0
210
0.0
220
0.0
230
1.0
 40
0.8910065241883661
 41
5.471607205002068
 42
6.283185307179217
  0
ELLIPSE
  5
65B
330
1F
100
AcDbEntity
  8
0
  6
Continuous
100
AcDbEllipse
 10
1980.218064691236
 20
101.0780964162756
 30
0.0
 11
-5.999999999999974
 21
0.0000000000034667
 31
0.0
210
0.0
220
0.0
230
1.0
 40
0.8910065241883661
 41
0.0
 42
0.8115781021779238
  0
ELLIPSE
  5
65C
330
1F
100
AcDbEntity
  8
0
  6
Continuous
100
AcDbEllipse
 10
2065.218064691247
 20
120.1456974053364
 30
0.0
 11
-76.50000000000026
 21
0.0000000000002109
 31
0.0
210
0.0
220
0.0
230
1.0
 40
0.8910065241883661
 41
0.0
 42
0.244119714662987
  0
SPLINE
  5
65D
330
1F
100
AcDbEntity
  8
0
  6
Continuous
100
AcDbSpline
210
0.0
220
0.0
230
1.0
 70
    12
 71
     2
 72
     6
 73
     3
 74
     0
 42
0.0000000001
 43
0.0000000001
 40
0.0
 40
0.0
 40
0.0
 40
2.285361866379782
 40
2.285361866379782
 40
2.285361866379782
 10
1990.986253901466
 20
103.6707899994109
 30
0.0
 41
1.0
 10
1984.109540386371
 20
108.1496847407131
 30
0.0
 41
1.011342813077102
 10
1976.087937237085
 20
112.9294799460005
 30
0.0
 41
1.007106630171224
  0
SPLINE
  5
65E
330
1F
100
AcDbEntity
  8
0
  6
Continuous
100
AcDbSpline
210
0.0
220
0.0
230
1.0
 70
     8
 71
     3
 72
    14
 73
    10
 74
     0
 42
0.0000000001
 43
0.0000000001
 40
0.537147131624853
 40
0.537147131624853
 40
0.537147131624853
 40
0.537147131624853
 40
0.7756900856282986
 40
0.7756900856282986
 40
1.020133699573844
 40
1.020133699573844
 40
1.264577313519389
 40
1.264577313519389
 40
1.503120267522838
 40
1.503120267522838
 40
1.503120267522838
 40
1.503120267522838
 10
1976.087937237082
 20
120.6852395106127
 30
0.0
 10
1975.550487450271
 20
120.0966234772288
 30
0.0
 10
1975.064937748664
 20
119.3865426510985
 30
0.0
 10
1974.394354531103
 20
117.8749623628807
 30
0.0
 10
1974.218064691243
 20
117.0710829648467
 30
0.0
 10
1974.218064691247
 20
115.6190772660359
 30
0.0
 10
1974.394354531103
 20
114.9013049136303
 30
0.0
 10
1975.064937748664
 20
113.719833641059
 30
0.0
 10
1975.550487450271
 20
113.2497276404171
 30
0.0
 10
1976.087937237085
 20
112.9294799460005
 30
0.0
  0
SPLINE
  5
65F
330
1F
100
AcDbEntity
  8
0
  6
Continuous
100
AcDbSpline
210
0.0
220
0.0
230
1.0
 70
    12
 71
     2
 72
     6
 73
     3
 74
     0
 42
0.0000000001
 43
0.0000000001
 40
1.042507592243063
 40
1.042507592243063
 40
1.042507592243063
 40
2.963359290364857
 40
2.963359290364857
 40
2.963359290364857
 10
1976.087937237082
 20
120.6852395106127
 30
0.0
 41
1.007106630171207
 10
1982.834619757241
 20
128.0742190971106
 30
0.0
 41
1.01066715126329
 10
1988.747094855725
 20
134.2810714462759
 30
0.0
 41
1.003221984676216
  0
ELLIPSE
  5
660
330
1F
100
AcDbEntity
  8
0
  6
Continuous
100
AcDbEllipse
 10
2065.218064691247
 20
120.1456974053369
 30
0.0
 11
76.50000000000011
 21
-0.0000000000371647
 31
0.0
210
0.0
220
0.0
230
1.0
 40
0.8910065241883657
 41
3.94467049012363
 42
4.432909919450262
  0
SPLINE
  5
661
330
1F
100
AcDbEntity
  8
0
  6
Continuous
100
AcDbSpline
210
0.0
220
0.0
230
1.0
 70
    12
 71
     2
 72
     6
 73
     3
 74
     0
 42
0.0000000001
 43
0.0000000001
 40
0.0
 40
0.0
 40
0.0
 40
2.28536186637976
 40
2.28536186637976
 40
2.28536186637976
 10
2044.115160269086
 20
54.62843346789554
 30
0.0
 41
1.0
 10
2035.025331771139
 20
50.89377405698837
 30
0.0
 41
1.011342813077099
 10
2024.422156759479
 20
46.09255767737045
 30
0.0
 41
1.007106630171222
  0
SPLINE
  5
662
330
1F
100
AcDbEntity
  8
0
  6
Continuous
100
AcDbSpline
210
0.0
220
0.0
230
1.0
 70
     8
 71
     3
 72
    14
 73
    10
 74
     0
 42
0.0000000001
 43
0.0000000001
 40
0.5371471316248521
 40
0.5371471316248521
 40
0.5371471316248521
 40
0.5371471316248521
 40
0.7756900856282988
 40
0.7756900856282988
 40
1.020133699573844
 40
1.020133699573844
 40
1.264577313519389
 40
1.264577313519389
 40
1.503120267522837
 40
1.503120267522837
 40
1.503120267522837
 40
1.503120267522837
 10
2016.883845168869
 20
49.97043745967608
 30
0.0
 10
2017.056811248248
 20
49.19432267633578
 30
0.0
 10
2017.387585381348
 20
48.40462176012192
 30
0.0
 10
2018.36106705426
 20
47.04885936056257
 30
0.0
 10
2019.012416759689
 20
46.48936161562756
 30
0.0
 10
2020.423712622821
 20
45.76335876622192
 30
0.0
 10
2021.251352168108
 20
45.56203063593716
 30
0.0
 10
2022.895417058584
 20
45.57126725510193
 30
0.0
 10
2023.711740893288
 20
45.77087475792973
 30
0.0
 10
2024.422156759479
 20
46.09255767737045
 30
0.0
  0
SPLINE
  5
663
330
1F
100
AcDbEntity
  8
0
  6
Continuous
100
AcDbSpline
210
0.0
220
0.0
230
1.0
 70
    12
 71
     2
 72
     6
 73
     3
 74
     0
 42
0.0000000001
 43
0.0000000001
 40
1.042507592243018
 40
1.042507592243018
 40
1.042507592243018
 40
3.327869458622809
 40
3.327869458622809
 40
3.327869458622809
 10
2016.883845168869
 20
49.97043745967608
 30
0.0
 41
1.007106630171232
 10
2014.302273306495
 20
61.55418898964876
 30
0.0
 41
1.011342813077115
 10
2012.089158323642
 20
71.10334087382103
 30
0.0
 41
1.0
  0
ELLIPSE
  5
664
330
1F
100
AcDbEntity
  8
0
  6
Continuous
100
AcDbEllipse
 10
2065.218064691247
 20
120.1456974053364
 30
0.0
 11
76.49999999999973
 21
-0.0000000000442257
 31
0.0
210
0.0
220
0.0
230
1.0
 40
0.8910065241883661
 41
4.991868041320334
 42
5.480107470646939
  0
SPLINE
  5
665
330
1F
100
AcDbEntity
  8
0
  6
Continuous
100
AcDbSpline
210
0.0
220
0.0
230
1.0
 70
    12
 71
     2
 72
     6
 73
     3
 74
     0
 42
0.0000000001
 43
0.0000000001
 40
0.0
 40
0.0
 40
0.0
 40
2.285361866379775
 40
2.285361866379775
 40
2.285361866379775
 10
2118.346971058867
 20
71.10334087382148
 30
0.0
 41
1.0
 10
2116.133856076014
 20
61.55418898964876
 30
0.0
 41
1.011342813077101
 10
2113.552284213641
 20
49.97043745967608
 30
0.0
 41
1.007106630171223
  0
SPLINE
  5
666
330
1F
100
AcDbEntity
  8
0
  6
Continuous
100
AcDbSpline
210
0.0
220
0.0
230
1.0
 70
     8
 71
     3
 72
    14
 73
    10
 74
     0
 42
0.0000000001
 43
0.0000000001
 40
0.5371471316248511
 40
0.5371471316248511
 40
0.5371471316248511
 40
0.5371471316248511
 40
0.7756900856282987
 40
0.7756900856282987
 40
1.020133699573843
 40
1.020133699573843
 40
1.264577313519388
 40
1.264577313519388
 40
1.503120267522838
 40
1.503120267522838
 40
1.503120267522838
 40
1.503120267522838
 10
2106.013972623031
 20
46.09255767737045
 30
0.0
 10
2106.724388489221
 20
45.77087475792973
 30
0.0
 10
2107.540712323927
 20
45.57126725510238
 30
0.0
 10
2109.184777214403
 20
45.56203063593716
 30
0.0
 10
2110.012416759689
 20
45.76335876622192
 30
0.0
 10
2111.42371262282
 20
46.48936161562756
 30
0.0
 10
2112.075062328251
 20
47.04885936056302
 30
0.0
 10
2113.048544001163
 20
48.40462176012192
 30
0.0
 10
2113.37931813426
 20
49.19432267633578
 30
0.0
 10
2113.552284213641
 20
49.97043745967608
 30
0.0
  0
SPLINE
  5
667
330
1F
100
AcDbEntity
  8
0
  6
Continuous
100
AcDbSpline
210
0.0
220
0.0
230
1.0
 70
    12
 71
     2
 72
     6
 73
     3
 74
     0
 42
0.0000000001
 43
0.0000000001
 40
1.042507592243036
 40
1.042507592243036
 40
1.042507592243036
 40
3.32786945862281
 40
3.32786945862281
 40
3.32786945862281
 10
2106.013972623031
 20
46.09255767737045
 30
0.0
 41
1.007106630171212
 10
2095.410797611373
 20
50.89377405698883
 30
0.0
 41
1.011342813077082
 10
2086.320969113429
 20
54.62843346789554
 30
0.0
 41
1.0
  0
SPLINE
  5
668
330
1F
100
AcDbEntity
  8
0
  6
Continuous
100
AcDbSpline
210
0.0
220
0.0
230
1.0
 70
     8
 71
     3
 72
    14
 73
    10
 74
     0
 42
0.0000000001
 43
0.0000000001
 40
0.537147131624851
 40
0.537147131624851
 40
0.537147131624851
 40
0.537147131624851
 40
0.7756900856282984
 40
0.7756900856282984
 40
1.020133699573843
 40
1.020133699573843
 40
1.264577313519387
 40
1.264577313519387
 40
1.503120267522837
 40
1.503120267522837
 40
1.503120267522837
 40
1.503120267522837
 10
2154.348192145407
 20
112.929479946001
 30
0.0
 10
2154.885641932218
 20
113.2497276404176
 30
0.0
 10
2155.371191633827
 20
113.719833641059
 30
0.0
 10
2156.041774851388
 20
114.9013049136308
 30
0.0
 10
2156.218064691243
 20
115.6190772660359
 30
0.0
 10
2156.218064691243
 20
117.0710829648467
 30
0.0
 10
2156.041774851388
 20
117.8749623628812
 30
0.0
 10
2155.371191633827
 20
119.3865426510985
 30
0.0
 10
2154.885641932218
 20
120.0966234772292
 30
0.0
 10
2154.348192145405
 20
120.6852395106127
 30
0.0
  0
SPLINE
  5
669
330
1F
100
AcDbEntity
  8
0
  6
Continuous
100
AcDbSpline
210
0.0
220
0.0
230
1.0
 70
    12
 71
     2
 72
     6
 73
     3
 74
     0
 42
0.0000000001
 43
0.0000000001
 40
1.042507592243038
 40
1.042507592243038
 40
1.042507592243038
 40
3.327869458622807
 40
3.327869458622807
 40
3.327869458622807
 10
2154.348192145407
 20
112.929479946001
 30
0.0
 41
1.007106630171217
 10
2146.326588996126
 20
108.1496847407131
 30
0.0
 41
1.01134281307709
 10
2139.449875481033
 20
103.6707899994109
 30
0.0
 41
1.0
  0
ELLIPSE
  5
66A
330
1F
100
AcDbEntity
  8
0
  6
Continuous
100
AcDbEllipse
 10
2065.218064691247
 20
120.1456974053364
 30
0.0
 11
76.49999999999905
 21
-0.0000000000442313
 31
0.0
210
0.0
220
0.0
230
1.0
 40
0.8910065241883661
 41
6.039065592516923
 42
6.28318530718023
  0
SPLINE
  5
66B
330
1F
100
AcDbEntity
  8
0
  6
Continuous
100
AcDbSpline
210
0.0
220
0.0
230
1.0
 70
    12
 71
     2
 72
     6
 73
     3
 74
     0
 42
0.0000000001
 43
0.0000000001
 40
0.3645101682579277
 40
0.3645101682579277
 40
0.3645101682579277
 40
2.285361866379774
 40
2.285361866379774
 40
2.285361866379774
 10
2141.689034526765
 20
134.2810714462764
 30
0.0
 41
1.003221984676216
 10
2147.601509625248
 20
128.0742190971111
 30
0.0
 41
1.010667151263292
 10
2154.348192145405
 20
120.6852395106127
 30
0.0
 41
1.007106630171207
  0
SPLINE
  5
66C
330
1F
100
AcDbEntity
  8
0
  6
Continuous
100
AcDbSpline
210
0.0
220
0.0
230
1.0
 70
     8
 71
     3
 72
    14
 73
    10
 74
     0
 42
0.0000000001
 43
0.0000000001
 40
4.871423547416808
 40
4.871423547416808
 40
4.871423547416808
 40
4.871423547416808
 40
5.200462723371062
 40
5.200462723371062
 40
5.536280829078369
 40
5.536280829078369
 40
5.88015341474424
 40
5.88015341474424
 40
6.146491579499728
 40
6.146491579499728
 40
6.146491579499728
 40
6.146491579499728
 10
1753.918396809954
 20
650.7331570001131
 30
0.0
 10
1753.420020506785
 20
643.8887482939019
 30
0.0
 10
1752.406759820323
 20
637.209467536217
 30
0.0
 10
1749.386012510653
 20
624.6768585135671
 30
0.0
 10
1747.36296273984
 20
618.8458547670846
 30
0.0
 10
1742.330060167736
 20
608.5821656133391
 30
0.0
 10
1739.30760009197
 20
604.1710889373842
 30
0.0
 10
1732.947035056063
 20
598.1974732920463
 30
0.0
 10
1729.797490867685
 20
596.2086571906068
 30
0.0
 10
1726.338069898157
 20
595.1605105481196
 30
0.0
  0
SPLINE
  5
66D
330
1F
100
AcDbEntity
  8
0
  6
Continuous
100
AcDbSpline
210
0.0
220
0.0
230
1.0
 70
     8
 71
     3
 72
    16
 73
    12
 74
     0
 42
0.0000000001
 43
0.0000000001
 40
3.27828638126965
 40
3.27828638126965
 40
3.27828638126965
 40
3.27828638126965
 40
3.534118990047502
 40
3.534118990047502
 40
3.856154069421682
 40
3.856154069421682
 40
4.200588442210781
 40
4.200588442210781
 40
4.53688397304069
 40
4.53688397304069
 40
4.553354413352568
 40
4.553354413352568
 40
4.553354413352568
 40
4.553354413352568
 10
1726.338069898156
 20
726.3058034521329
 30
0.0
 10
1729.661035993938
 20
725.2990003521115
 30
0.0
 10
1732.700180799133
 20
723.422851265894
 30
0.0
 10
1738.782864000693
 20
717.875821247296
 30
0.0
 10
1741.673725666923
 20
713.8573417756094
 30
0.0
 10
1746.787808249029
 20
704.0852825490294
 30
0.0
 10
1748.943763793712
 20
698.2132716450335
 30
0.0
 10
1752.1793720228
 20
685.5254981560444
 30
0.0
 10
1753.277938002267
 20
678.7376847635657
 30
0.0
 10
1753.867218806898
 20
671.4179618289515
 30
0.0
 10
1753.893450001932
 20
671.0757618730392
 30
0.0
 10
1753.918396809954
 20
670.7331570001127
 30
0.0
  0
LINE
  5
66E
330
1F
100
AcDbEntity
  8
0
  6
Continuous
100
AcDbLine
 10
1587.651402416793
 20
716.7331570001176
 30
0.0
 11
1583.018168491014
 21
716.7331570001167
 31
0.0
  0
LINE
  5
66F
330
1F
100
AcDbEntity
  8
0
  6
Continuous
100
AcDbLine
 10
1575.330889915551
 20
689.5948963794483
 30
0.0
 11
1570.697655989772
 21
689.5948963794478
 31
0.0
  0
LINE
  5
670
330
1F
100
AcDbEntity
  8
0
  6
Continuous
100
AcDbLine
 10
1587.651402416793
 20
604.7331570001181
 30
0.0
 11
1583.018168491014
 21
604.7331570001172
 31
0.0
  0
LINE
  5
671
330
1F
100
AcDbEntity
  8
0
  6
Continuous
100
AcDbLine
 10
1575.330889915551
 20
631.8714176208016
 30
0.0
 11
1570.697655989772
 21
631.8714176208007
 31
0.0
  0
LINE
  5
672
330
1F
100
AcDbEntity
  8
0
  6
Continuous
100
AcDbLine
 10
1580.888295217346
 20
607.3849106378941
 30
0.0
 11
1581.547982028088
 21
606.5244550514068
 31
0.0
  0
LINE
  5
673
330
1F
100
AcDbEntity
  8
0
  6
Continuous
100
AcDbLine
 10
1580.888295217346
 20
714.0814033623407
 30
0.0
 11
1581.547982028088
 21
714.9418589488289
 31
0.0
  0
SPLINE
  5
674
330
1F
100
AcDbEntity
  8
0
  6
Continuous
100
AcDbSpline
210
0.0
220
0.0
230
1.0
 70
     8
 71
     3
 72
     8
 73
     4
 74
     0
 42
0.0000000001
 43
0.0000000001
 40
-0.1435004111850182
 40
-0.1435004111850182
 40
-0.1435004111850182
 40
-0.1435004111850182
 40
0.0
 40
0.0
 40
0.0
 40
0.0
 10
1570.260639965323
 20
632.1149809576156
 30
0.0
 10
1570.406291037148
 20
632.03345941069
 30
0.0
 10
1570.551969361844
 20
631.9522709428463
 30
0.0
 10
1570.697655989772
 20
631.8714176208007
 30
0.0
  0
SPLINE
  5
675
330
1F
100
AcDbEntity
  8
0
  6
Continuous
100
AcDbSpline
210
0.0
220
0.0
230
1.0
 70
     8
 71
     3
 72
     8
 73
     4
 74
     0
 42
0.0000000001
 43
0.0000000001
 40
-0.14350041118619
 40
-0.14350041118619
 40
-0.14350041118619
 40
-0.14350041118619
 40
0.0
 40
0.0
 40
0.0
 40
0.0
 10
1570.260639965322
 20
689.3513330426319
 30
0.0
 10
1570.406291037148
 20
689.432854589558
 30
0.0
 10
1570.551969361842
 20
689.5140430574013
 30
0.0
 10
1570.697655989772
 20
689.5948963794478
 30
0.0
  0
ELLIPSE
  5
676
330
1F
100
AcDbEntity
  8
0
  6
Continuous
100
AcDbEllipse
 10
1596.121123975185
 20
660.7331570001094
 30
0.0
 11
-0.0000000000096839
 21
62.9999999999999
 31
0.0
210
0.0
220
0.0
230
1.0
 40
0.4539904997395435
 41
0.475882249660085
 42
1.094914077134138
  0
LINE
  5
677
330
1F
100
AcDbEntity
  8
0
  6
Continuous
100
AcDbLine
 10
1570.697655989772
 20
631.8714176208007
 30
0.0
 11
1570.697655989772
 21
689.5948963794478
 31
0.0
  0
ELLIPSE
  5
678
330
1F
100
AcDbEntity
  8
0
  6
Continuous
100
AcDbEllipse
 10
1596.121123975185
 20
660.7331570001094
 30
0.0
 11
-0.000000000006721
 21
62.9999999999999
 31
0.0
210
0.0
220
0.0
230
1.0
 40
0.4539904997395435
 41
2.046678576455381
 42
2.665710403929718
  0
LINE
  5
679
330
1F
100
AcDbEntity
  8
0
  6
Continuous
100
AcDbLine
 10
1602.275812398453
 20
605.7331570001099
 30
0.0
 11
1588.65298438198
 21
605.7331570001186
 31
0.0
  0
LINE
  5
67A
330
1F
100
AcDbEntity
  8
0
  6
Continuous
100
AcDbLine
 10
1587.651402416793
 20
604.7331570001181
 30
0.0
 11
1602.754425396424
 21
604.7331570001095
 31
0.0
  0
ELLIPSE
  5
67B
330
1F
100
AcDbEntity
  8
0
  6
Continuous
100
AcDbEllipse
 10
1601.645364425154
 20
660.7331570001104
 30
0.0
 11
-0.0000000000066114
 21
61.9999999999996
 31
0.0
210
0.0
220
0.0
230
1.0
 40
0.4539904997395436
 41
2.050575717021022
 42
2.66181326336407
  0
SPLINE
  5
67C
330
1F
100
AcDbEntity
  8
0
  6
Continuous
100
AcDbSpline
210
0.0
220
0.0
230
1.0
 70
     8
 71
     3
 72
     8
 73
     4
 74
     0
 42
0.0000000001
 43
0.0000000001
 40
-0.1435004186553732
 40
-0.1435004186553732
 40
-0.1435004186553732
 40
-0.1435004186553732
 40
0.0
 40
0.0
 40
0.0
 40
0.0
 10
1587.651402416793
 20
604.7331570001181
 30
0.0
 10
1587.985141039018
 20
605.0665237870942
 30
0.0
 10
1588.319014885274
 20
605.3998715742348
 30
0.0
 10
1588.65298438198
 20
605.7331570001186
 30
0.0
  0
ELLIPSE
  5
67D
330
1F
100
AcDbEntity
  8
0
  6
Continuous
100
AcDbEllipse
 10
1600.754357900965
 20
660.7331570001104
 30
0.0
 11
0.0000000000096839
 21
-62.99999999999972
 31
0.0
210
0.0
220
0.0
230
1.0
 40
0.4539904997395435
 41
5.188271230044774
 42
5.807303057518828
  0
LINE
  5
67E
330
1F
100
AcDbEntity
  8
0
  6
Continuous
100
AcDbLine
 10
1576.675886939479
 20
632.1149809576166
 30
0.0
 11
1576.675886939479
 21
689.3513330426332
 31
0.0
  0
SPLINE
  5
67F
330
1F
100
AcDbEntity
  8
0
  6
Continuous
100
AcDbSpline
210
0.0
220
0.0
230
1.0
 70
     8
 71
     3
 72
     8
 73
     4
 74
     0
 42
0.0000000001
 43
0.0000000001
 40
-0.1435004186556224
 40
-0.1435004186556224
 40
-0.1435004186556224
 40
-0.1435004186556224
 40
0.0
 40
0.0
 40
0.0
 40
0.0
 10
1575.330889915551
 20
631.8714176208016
 30
0.0
 10
1575.779267251909
 20
631.9522709428472
 30
0.0
 10
1576.227619033547
 20
632.0334594106904
 30
0.0
 10
1576.675886939479
 20
632.1149809576166
 30
0.0
  0
LINE
  5
680
330
1F
100
AcDbEntity
  8
0
  6
Continuous
100
AcDbLine
 10
1575.330889915551
 20
689.5948963794483
 30
0.0
 11
1575.330889915551
 21
631.8714176208016
 31
0.0
  0
ELLIPSE
  5
681
330
1F
100
AcDbEntity
  8
0
  6
Continuous
100
AcDbEllipse
 10
1601.645364425154
 20
660.7331570001104
 30
0.0
 11
-0.0000000000095257
 21
61.99999999999961
 31
0.0
210
0.0
220
0.0
230
1.0
 40
0.4539904997395435
 41
0.4797793902257297
 42
1.091016936568494
  0
SPLINE
  5
682
330
1F
100
AcDbEntity
  8
0
  6
Continuous
100
AcDbSpline
210
0.0
220
0.0
230
1.0
 70
     8
 71
     3
 72
     8
 73
     4
 74
     0
 42
0.0000000001
 43
0.0000000001
 40
-0.1435004186557438
 40
-0.1435004186557438
 40
-0.1435004186557438
 40
-0.1435004186557438
 40
0.0
 40
0.0
 40
0.0
 40
0.0
 10
1575.330889915551
 20
689.5948963794483
 30
0.0
 10
1575.779267251908
 20
689.5140430574035
 30
0.0
 10
1576.227619033547
 20
689.4328545895594
 30
0.0
 10
1576.675886939479
 20
689.3513330426332
 30
0.0
  0
ELLIPSE
  5
683
330
1F
100
AcDbEntity
  8
0
  6
Continuous
100
AcDbEllipse
 10
1600.754357900965
 20
660.7331570001104
 30
0.0
 11
0.0000000000126385
 21
-62.99999999999988
 31
0.0
210
0.0
220
0.0
230
1.0
 40
0.4539904997395436
 41
3.617474903249194
 42
4.236506730723521
  0
LINE
  5
684
330
1F
100
AcDbEntity
  8
0
  6
Continuous
100
AcDbLine
 10
1588.65298438198
 20
715.7331570001177
 30
0.0
 11
1602.275812398453
 21
715.7331570001099
 31
0.0
  0
SPLINE
  5
685
330
1F
100
AcDbEntity
  8
0
  6
Continuous
100
AcDbSpline
210
0.0
220
0.0
230
1.0
 70
     8
 71
     3
 72
     8
 73
     4
 74
     0
 42
0.0000000001
 43
0.0000000001
 40
-0.1435004186561987
 40
-0.1435004186561987
 40
-0.1435004186561987
 40
-0.1435004186561987
 40
0.0
 40
0.0
 40
0.0
 40
0.0
 10
1587.651402416793
 20
716.7331570001176
 30
0.0
 10
1587.985141039014
 20
716.3997902131452
 30
0.0
 10
1588.319014885271
 20
716.0664424260028
 30
0.0
 10
1588.65298438198
 20
715.7331570001177
 30
0.0
  0
LINE
  5
686
330
1F
100
AcDbEntity
  8
0
  6
Continuous
100
AcDbLine
 10
1602.754425396424
 20
716.7331570001086
 30
0.0
 11
1587.651402416793
 21
716.7331570001176
 31
0.0
  0
LINE
  5
687
330
1F
100
AcDbEntity
  8
0
  6
Continuous
100
AcDbLine
 10
1586.860970184257
 20
570.9853605462624
 30
0.0
 11
1586.860970184257
 21
604.7331570001045
 31
0.0
  0
LINE
  5
688
330
1F
100
AcDbEntity
  8
0
  6
Continuous
100
AcDbLine
 10
1536.060970184258
 20
570.9853605462624
 30
0.0
 11
1536.060970184258
 21
604.7331570001045
 31
0.0
  0
LINE
  5
689
330
1F
100
AcDbEntity
  8
0
  6
Continuous
100
AcDbLine
 10
1536.060970184258
 20
570.9853605462615
 30
0.0
 11
1529.460970184258
 21
568.5831570001043
 31
0.0
  0
LINE
  5
68A
330
1F
100
AcDbEntity
  8
0
  6
Continuous
100
AcDbLine
 10
1586.860970184257
 20
570.9853605462615
 30
0.0
 11
1593.460970184258
 21
568.5831570001043
 31
0.0
  0
LINE
  5
68B
330
1F
100
AcDbEntity
  8
0
  6
Continuous
100
AcDbLine
 10
1593.460970184258
 20
565.7331570001044
 30
0.0
 11
1593.460970184258
 21
568.5831570001052
 31
0.0
  0
LINE
  5
68C
330
1F
100
AcDbEntity
  8
0
  6
Continuous
100
AcDbLine
 10
1529.460970184259
 20
565.7331570001044
 30
0.0
 11
1529.460970184259
 21
568.5831570001052
 31
0.0
  0
LINE
  5
68D
330
1F
100
AcDbEntity
  8
0
  6
Continuous
100
AcDbLine
 10
1586.860970184257
 20
570.9853605462615
 30
0.0
 11
1536.060970184258
 21
570.9853605462615
 31
0.0
  0
LINE
  5
68E
330
1F
100
AcDbEntity
  8
0
  6
Continuous
100
AcDbLine
 10
1593.460970184258
 20
568.5831570001043
 30
0.0
 11
1529.460970184258
 21
568.5831570001043
 31
0.0
  0
LINE
  5
68F
330
1F
100
AcDbEntity
  8
0
  6
Continuous
100
AcDbLine
 10
1593.460970184258
 20
565.7331570001044
 30
0.0
 11
1529.460970184258
 21
565.7331570001044
 31
0.0
  0
LINE
  5
690
330
1F
100
AcDbEntity
  8
0
  6
Continuous
100
AcDbLine
 10
1586.860970184257
 20
716.733157000104
 30
0.0
 11
1586.860970184257
 21
750.480953453947
 31
0.0
  0
LINE
  5
691
330
1F
100
AcDbEntity
  8
0
  6
Continuous
100
AcDbLine
 10
1536.060970184258
 20
716.733157000104
 30
0.0
 11
1536.060970184258
 21
750.480953453947
 31
0.0
  0
LINE
  5
692
330
1F
100
AcDbEntity
  8
0
  6
Continuous
100
AcDbLine
 10
1586.860970184257
 20
750.480953453947
 30
0.0
 11
1593.460970184258
 21
752.8831570001041
 31
0.0
  0
LINE
  5
693
330
1F
100
AcDbEntity
  8
0
  6
Continuous
100
AcDbLine
 10
1536.060970184258
 20
750.480953453947
 30
0.0
 11
1529.460970184258
 21
752.8831570001041
 31
0.0
  0
LINE
  5
694
330
1F
100
AcDbEntity
  8
0
  6
Continuous
100
AcDbLine
 10
1593.460970184258
 20
752.8831570001041
 30
0.0
 11
1593.460970184258
 21
755.733157000104
 31
0.0
  0
LINE
  5
695
330
1F
100
AcDbEntity
  8
0
  6
Continuous
100
AcDbLine
 10
1529.460970184258
 20
752.8831570001041
 30
0.0
 11
1529.460970184258
 21
755.733157000104
 31
0.0
  0
LINE
  5
696
330
1F
100
AcDbEntity
  8
0
  6
Continuous
100
AcDbLine
 10
1586.860970184257
 20
750.480953453947
 30
0.0
 11
1536.060970184258
 21
750.480953453947
 31
0.0
  0
LINE
  5
697
330
1F
100
AcDbEntity
  8
0
  6
Continuous
100
AcDbLine
 10
1593.460970184258
 20
752.8831570001041
 30
0.0
 11
1529.460970184258
 21
752.8831570001041
 31
0.0
  0
LINE
  5
698
330
1F
100
AcDbEntity
  8
0
  6
Continuous
100
AcDbLine
 10
1593.460970184258
 20
755.733157000104
 30
0.0
 11
1529.460970184258
 21
755.733157000104
 31
0.0
  0
LINE
  5
699
330
1F
100
AcDbEntity
  8
0
  6
Continuous
100
AcDbLine
 10
1530.677485222933
 20
687.397258615242
 30
0.0
 11
1530.677485222933
 21
716.7331570001049
 31
0.0
  0
SPLINE
  5
69A
330
1F
100
AcDbEntity
  8
0
  6
Continuous
100
AcDbSpline
210
0.0
220
0.0
230
1.0
 70
     8
 71
     3
 72
    16
 73
    12
 74
     0
 42
0.0000000001
 43
0.0000000001
 40
-1.047197551196597
 40
-1.047197551196597
 40
-1.047197551196597
 40
-1.047197551196597
 40
-0.8377580409572782
 40
-0.8377580409572782
 40
-0.6283185307179587
 40
-0.6283185307179587
 40
-0.4188790204786391
 40
-0.4188790204786391
 40
-0.2094395102393195
 40
-0.2094395102393195
 40
0.0
 40
0.0
 40
0.0
 40
0.0
 10
1532.691260691339
 20
682.5416631510559
 30
0.0
 10
1532.391225995807
 20
682.804250047461
 30
0.0
 10
1532.133649913909
 20
683.0926786488551
 30
0.0
 10
1531.690949718489
 20
683.6969184788402
 30
0.0
 10
1531.505540046204
 20
684.0130292938831
 30
0.0
 10
1531.194729223791
 20
684.6615103453275
 30
0.0
 10
1531.069316712985
 20
684.994064924763
 30
0.0
 10
1530.871025710385
 20
685.6691866287631
 30
0.0
 10
1530.798189322356
 20
686.0118238485513
 30
0.0
 10
1530.70140533206
 20
686.702049676099
 30
0.0
 10
1530.677485222933
 20
687.0496546224496
 30
0.0
 10
1530.677485222933
 20
687.397258615242
 30
0.0
  0
LINE
  5
69B
330
1F
100
AcDbEntity
  8
0
  6
Continuous
100
AcDbLine
 10
1532.69126069134
 20
682.5416631510567
 30
0.0
 11
1545.346414566051
 21
671.4660188040436
 31
0.0
  0
SPLINE
  5
69C
330
1F
100
AcDbEntity
  8
0
  6
Continuous
100
AcDbSpline
210
0.0
220
0.0
230
1.0
 70
     8
 71
     3
 72
    22
 73
    18
 74
     0
 42
0.0000000001
 43
0.0000000001
 40
-1.047197551196597
 40
-1.047197551196597
 40
-1.047197551196597
 40
-1.047197551196597
 40
-0.715832879136757
 40
-0.715832879136757
 40
-0.4269217456179115
 40
-0.4269217456179115
 40
-0.1568767888073885
 40
-0.1568767888073885
 40
0.1034864067079639
 40
0.1034864067079639
 40
0.3629508483846711
 40
0.3629508483846711
 40
0.6299829463116477
 40
0.6299829463116477
 40
0.9123047497578433
 40
0.9123047497578433
 40
1.047197551196597
 40
1.047197551196597
 40
1.047197551196597
 40
1.047197551196597
 10
1545.346414566051
 20
671.4660188040436
 30
0.0
 10
1546.00757757358
 20
670.8873765844953
 30
0.0
 10
1546.665343064735
 20
670.0834923884142
 30
0.0
 10
1547.738896150771
 20
668.2123568376471
 30
0.0
 10
1548.174322707036
 20
667.1947105013794
 30
0.0
 10
1548.820387316041
 20
665.0418212588635
 30
0.0
 10
1549.044092122485
 20
663.9193023944701
 30
0.0
 10
1549.280604430983
 20
661.6527073026498
 30
0.0
 10
1549.300800774776
 20
660.5111453245301
 30
0.0
 10
1549.147259773591
 20
658.2701083398508
 30
0.0
 10
1548.974173669445
 20
657.1707528353097
 30
0.0
 10
1548.448493009911
 20
655.07250289233
 30
0.0
 10
1548.090676709303
 20
654.0779183764823
 30
0.0
 10
1547.218547806837
 20
652.2646480086184
 30
0.0
 10
1546.696522990864
 20
651.4605153222917
 30
0.0
 10
1545.884239945691
 20
650.5078574033316
 30
0.0
 10
1545.615562540513
 20
650.2358503914263
 30
0.0
 10
1545.346414566051
 20
650.0002951961771
 30
0.0
  0
LINE
  5
69D
330
1F
100
AcDbEntity
  8
0
  6
Continuous
100
AcDbLine
 10
1545.346414566051
 20
650.0002951961771
 30
0.0
 11
1532.691260691339
 21
638.9246508491539
 31
0.0
  0
SPLINE
  5
69E
330
1F
100
AcDbEntity
  8
0
  6
Continuous
100
AcDbSpline
210
0.0
220
0.0
230
1.0
 70
     8
 71
     3
 72
    16
 73
    12
 74
     0
 42
0.0000000001
 43
0.0000000001
 40
0.0000000000000001
 40
0.0000000000000001
 40
0.0000000000000001
 40
0.0000000000000001
 40
0.2094395102393198
 40
0.2094395102393198
 40
0.4188790204786395
 40
0.4188790204786395
 40
0.6283185307179592
 40
0.6283185307179592
 40
0.8377580409572789
 40
0.8377580409572789
 40
1.047197551196598
 40
1.047197551196598
 40
1.047197551196598
 40
1.047197551196598
 10
1530.677485222933
 20
634.0690553849669
 30
0.0
 10
1530.677485222933
 20
634.4166593777597
 30
0.0
 10
1530.70140533206
 20
634.7642643241104
 30
0.0
 10
1530.798189322356
 20
635.4544901516585
 30
0.0
 10
1530.871025710385
 20
635.7971273714463
 30
0.0
 10
1531.069316712985
 20
636.4722490754464
 30
0.0
 10
1531.194729223791
 20
636.8048036548814
 30
0.0
 10
1531.505540046204
 20
637.4532847063266
 30
0.0
 10
1531.690949718489
 20
637.7693955213697
 30
0.0
 10
1532.133649913909
 20
638.3736353513556
 30
0.0
 10
1532.391225995807
 20
638.6620639527489
 30
0.0
 10
1532.69126069134
 20
638.9246508491539
 30
0.0
  0
LINE
  5
69F
330
1F
100
AcDbEntity
  8
0
  6
Continuous
100
AcDbLine
 10
1530.677485222933
 20
604.7331570001049
 30
0.0
 11
1530.677485222933
 21
634.0690553849669
 31
0.0
  0
LINE
  5
6A0
330
1F
100
AcDbEntity
  8
0
  6
Continuous
100
AcDbLine
 10
1530.677485222933
 20
716.7331570001049
 30
0.0
 11
1531.250434239808
 21
716.7331570001054
 31
0.0
  0
LINE
  5
6A1
330
1F
100
AcDbEntity
  8
0
  6
Continuous
100
AcDbLine
 10
1531.250434239808
 20
604.7331570001058
 30
0.0
 11
1530.677485222933
 21
604.7331570001049
 31
0.0
  0
LINE
  5
6A2
330
1F
100
AcDbEntity
  8
0
  6
Continuous
100
AcDbLine
 10
1543.401255061739
 20
716.7331570001099
 30
0.0
 11
1531.250434239807
 21
716.7331570001049
 31
0.0
  0
LINE
  5
6A3
330
1F
100
AcDbEntity
  8
0
  6
Continuous
100
AcDbLine
 10
1531.250434239808
 20
604.7331570001049
 30
0.0
 11
1543.401255061739
 21
604.7331570001099
 31
0.0
  0
LINE
  5
6A4
330
1F
100
AcDbEntity
  8
0
  6
Continuous
100
AcDbLine
 10
1553.033944709154
 20
618.2370508576711
 30
0.0
 11
1560.304902034991
 21
618.237050857672
 31
0.0
  0
LINE
  5
6A5
330
1F
100
AcDbEntity
  8
0
  6
Continuous
100
AcDbLine
 10
1553.033944709154
 20
631.2370508576716
 30
0.0
 11
1556.146555039025
 21
631.2370508576716
 31
0.0
  0
LINE
  5
6A6
330
1F
100
AcDbEntity
  8
0
  6
Continuous
100
AcDbLine
 10
1560.304902034991
 20
703.2292631425641
 30
0.0
 11
1553.033944709154
 21
703.2292631425637
 31
0.0
  0
LINE
  5
6A7
330
1F
100
AcDbEntity
  8
0
  6
Continuous
100
AcDbLine
 10
1556.146555039025
 20
690.2292631425641
 30
0.0
 11
1553.033944709154
 21
690.2292631425632
 31
0.0
  0
ELLIPSE
  5
6A8
330
1F
100
AcDbEntity
  8
0
  6
Continuous
100
AcDbEllipse
 10
1553.033944709154
 20
624.7370508576712
 30
0.0
 11
0.0000000000000706
 21
-6.499999999999974
 31
0.0
210
0.0
220
0.0
230
1.0
 40
0.4539904997395435
 41
3.141592653592184
 42
6.283185307181977
  0
ELLIPSE
  5
6A9
330
1F
100
AcDbEntity
  8
0
  6
Continuous
100
AcDbEllipse
 10
1553.033944709154
 20
696.7292631425632
 30
0.0
 11
0.0000000000000182
 21
6.499999999999974
 31
0.0
210
0.0
220
0.0
230
1.0
 40
0.4539904997395435
 41
0.0000000000027779
 42
3.14159265359257
  0
LINE
  5
6AA
330
1F
100
AcDbEntity
  8
0
  6
Continuous
100
AcDbLine
 10
1569.806649465583
 20
689.5948963794478
 30
0.0
 11
1555.996048340664
 21
689.5948963794455
 31
0.0
  0
LINE
  5
6AB
330
1F
100
AcDbEntity
  8
0
  6
Continuous
100
AcDbLine
 10
1569.806649465583
 20
631.8714176208007
 30
0.0
 11
1555.996048340664
 21
631.8714176207984
 31
0.0
  0
ELLIPSE
  5
6AC
330
1F
100
AcDbEntity
  8
0
  6
Continuous
100
AcDbEllipse
 10
1595.230117450997
 20
660.7331570001094
 30
0.0
 11
0.0000000000124303
 21
-61.99999999999961
 31
0.0
210
0.0
220
0.0
230
1.0
 40
0.4539904997395435
 41
3.676225843000764
 42
4.232609590157892
  0
LINE
  5
6AD
330
1F
100
AcDbEntity
  8
0
  6
Continuous
100
AcDbLine
 10
1570.260639965322
 20
689.3513330426319
 30
0.0
 11
1570.260639965322
 21
632.1149809576156
 31
0.0
  0
ELLIPSE
  5
6AE
330
1F
100
AcDbEntity
  8
0
  6
Continuous
100
AcDbEllipse
 10
1595.230117450997
 20
660.7331570001094
 30
0.0
 11
0.0000000000095243
 21
-61.99999999999995
 31
0.0
210
0.0
220
0.0
230
1.0
 40
0.4539904997395434
 41
5.19216837061041
 42
5.748552117767323
  0
ELLIPSE
  5
6AF
330
1F
100
AcDbEntity
  8
0
  6
Continuous
100
AcDbEllipse
 10
1595.230117450997
 20
660.7331570001094
 30
0.0
 11
-0.0000000000096811
 21
62.99999999999968
 31
0.0
210
0.0
220
0.0
230
1.0
 40
0.4539904997395436
 41
0.475882249660085
 42
1.094914077134148
  0
ELLIPSE
  5
6B0
330
1F
100
AcDbEntity
  8
0
  6
Continuous
100
AcDbEllipse
 10
1595.230117450997
 20
660.7331570001094
 30
0.0
 11
-0.0000000000067141
 21
62.99999999999982
 31
0.0
210
0.0
220
0.0
230
1.0
 40
0.4539904997395436
 41
2.046678576455381
 42
2.665710403929718
  0
LINE
  5
6B1
330
1F
100
AcDbEntity
  8
0
  6
Continuous
100
AcDbLine
 10
1569.806649465583
 20
631.8714176208007
 30
0.0
 11
1569.806649465583
 21
689.5948963794478
 31
0.0
  0
LINE
  5
6B2
330
1F
100
AcDbEntity
  8
0
  6
Continuous
100
AcDbLine
 10
1582.127161966826
 20
716.7331570001167
 30
0.0
 11
1583.018168491014
 21
716.7331570001163
 31
0.0
  0
LINE
  5
6B3
330
1F
100
AcDbEntity
  8
0
  6
Continuous
100
AcDbLine
 10
1582.127161966826
 20
716.7331570001167
 30
0.0
 11
1568.316560841905
 21
716.7331570001149
 31
0.0
  0
LINE
  5
6B4
330
1F
100
AcDbEntity
  8
0
  6
Continuous
100
AcDbLine
 10
1582.127161966826
 20
604.7331570001172
 30
0.0
 11
1568.316560841905
 21
604.7331570001149
 31
0.0
  0
LINE
  5
6B5
330
1F
100
AcDbEntity
  8
0
  6
Continuous
100
AcDbLine
 10
1583.018168491014
 20
604.7331570001163
 30
0.0
 11
1582.127161966826
 21
604.7331570001172
 31
0.0
  0
ELLIPSE
  5
6B6
330
1F
100
AcDbEntity
  8
0
  6
Continuous
100
AcDbEllipse
 10
1581.419516326077
 20
660.7331570001076
 30
0.0
 11
0.0000000000126357
 21
-62.99999999999973
 31
0.0
210
0.0
220
0.0
230
1.0
 40
0.4539904997395434
 41
3.617474903249195
 42
4.236506730723531
  0
LINE
  5
6B7
330
1F
100
AcDbEntity
  8
0
  6
Continuous
100
AcDbLine
 10
1555.996048340663
 20
689.5948963794455
 30
0.0
 11
1555.996048340664
 21
631.8714176207984
 31
0.0
  0
ELLIPSE
  5
6B8
330
1F
100
AcDbEntity
  8
0
  6
Continuous
100
AcDbEllipse
 10
1581.419516326077
 20
660.7331570001076
 30
0.0
 11
0.0000000000096784
 21
-62.99999999999983
 31
0.0
210
0.0
220
0.0
230
1.0
 40
0.4539904997395436
 41
5.188271230044765
 42
5.807303057518828
  0
LINE
  5
6B9
330
1F
100
AcDbEntity
  8
0
  6
Continuous
100
AcDbLine
 10
1568.316560841905
 20
604.7331570001144
 30
0.0
 11
1543.401255061739
 21
604.7331570001099
 31
0.0
  0
LINE
  5
6BA
330
1F
100
AcDbEntity
  8
0
  6
Continuous
100
AcDbLine
 10
1543.401255061739
 20
604.7331570001099
 30
0.0
 11
1543.401255061739
 21
620.7997436724224
 31
0.0
  0
LINE
  5
6BB
330
1F
100
AcDbEntity
  8
0
  6
Continuous
100
AcDbLine
 10
1543.401255061739
 20
700.6665703277983
 30
0.0
 11
1543.401255061739
 21
716.7331570001099
 31
0.0
  0
LINE
  5
6BC
330
1F
100
AcDbEntity
  8
0
  6
Continuous
100
AcDbLine
 10
1543.401255061739
 20
716.7331570001099
 30
0.0
 11
1568.316560841905
 21
716.733157000114
 31
0.0
  0
ELLIPSE
  5
6BD
330
1F
100
AcDbEntity
  8
0
  6
Continuous
100
AcDbEllipse
 10
1509.285692276193
 20
660.7331570000963
 30
0.0
 11
-56.96716366467118
 21
-0.0000000000232747
 31
0.0
210
0.0
220
0.0
230
1.0
 40
0.7723747711751871
 41
3.751061320034077
 42
3.973931310016947
  0
ELLIPSE
  5
6BE
330
1F
100
AcDbEntity
  8
0
  6
Continuous
100
AcDbEllipse
 10
1509.285692276193
 20
660.7331570000963
 30
0.0
 11
-56.96716366467118
 21
-0.0000000000232791
 31
0.0
210
0.0
220
0.0
230
1.0
 40
0.7723747711751871
 41
2.309253997163829
 42
2.532123987147071
  0
ELLIPSE
  5
6BF
330
1F
100
AcDbEntity
  8
0
  6
Continuous
100
AcDbEllipse
 10
1556.348337712801
 20
700.6665703278042
 30
0.0
 11
-12.94708265106163
 21
-0.0000000000052902
 31
0.0
210
0.0
220
0.0
230
1.0
 40
0.7723747711751872
 41
0.0000000000009928
 42
0.8323386564271149
  0
ELLIPSE
  5
6C0
330
1F
100
AcDbEntity
  8
0
  6
Continuous
100
AcDbEllipse
 10
1556.348337712801
 20
620.7997436724274
 30
0.0
 11
-12.94708265106163
 21
-0.0000000000052902
 31
0.0
210
0.0
220
0.0
230
1.0
 40
0.7723747711751872
 41
5.45084665075356
 42
6.283185307180579
  0
LINE
  5
6C1
330
1F
100
AcDbEntity
  8
0
  6
Continuous
100
AcDbLine
 10
1687.894795966586
 20
737.2331570001231
 30
0.0
 11
1663.8376198135
 21
737.2331570001194
 31
0.0
  0
LINE
  5
6C2
330
1F
100
AcDbEntity
  8
0
  6
Continuous
100
AcDbLine
 10
1687.894795966586
 20
584.2331570001231
 30
0.0
 11
1663.8376198135
 21
584.2331570001195
 31
0.0
  0
LINE
  5
6C3
330
1F
100
AcDbEntity
  8
0
  6
Continuous
100
AcDbLine
 10
1730.663109127628
 20
685.7331570001295
 30
0.0
 11
1726.208076506686
 21
685.733157000129
 31
0.0
  0
LINE
  5
6C4
330
1F
100
AcDbEntity
  8
0
  6
Continuous
100
AcDbLine
 10
1730.663109127628
 20
635.7331570001304
 30
0.0
 11
1726.208076506686
 21
635.7331570001295
 31
0.0
  0
LINE
  5
6C5
330
1F
100
AcDbEntity
  8
0
  6
Continuous
100
AcDbLine
 10
1726.338069898157
 20
726.3058034521329
 30
0.0
 11
1692.627435917844
 21
736.5195612265808
 31
0.0
  0
LINE
  5
6C6
330
1F
100
AcDbEntity
  8
0
  6
Continuous
100
AcDbLine
 10
1726.338069898157
 20
595.1605105481196
 30
0.0
 11
1692.627435917844
 21
584.9467527736594
 31
0.0
  0
LINE
  5
6C7
330
1F
100
AcDbEntity
  8
0
  6
Continuous
100
AcDbLine
 10
1758.729814639561
 20
670.733157000134
 30
0.0
 11
1730.663109127628
 21
670.7331570001294
 31
0.0
  0
LINE
  5
6C8
330
1F
100
AcDbEntity
  8
0
  6
Continuous
100
AcDbLine
 10
1758.729814639561
 20
650.7331570001345
 30
0.0
 11
1730.663109127628
 21
650.7331570001299
 31
0.0
  0
ELLIPSE
  5
6C9
330
1F
100
AcDbEntity
  8
0
  6
Continuous
100
AcDbEllipse
 10
1601.645364425154
 20
660.7331570001104
 30
0.0
 11
-0.0000000000048531
 21
45.49999999999984
 31
0.0
210
0.0
220
0.0
230
1.0
 40
0.4539904997395434
 41
0.5593502410043714
 42
2.582242412586074
  0
ELLIPSE
  5
6CA
330
1F
100
AcDbEntity
  8
0
  6
Continuous
100
AcDbEllipse
 10
1626.41534579759
 20
660.733157000114
 30
0.0
 11
-0.0000000000117545
 21
76.49999999999983
 31
0.0
210
0.0
220
0.0
230
1.0
 40
0.4539904997395436
 41
1.291317265859564
 42
1.850275387729562
  0
ELLIPSE
  5
6CB
330
1F
100
AcDbEntity
  8
0
  6
Continuous
100
AcDbEllipse
 10
1626.41534579759
 20
660.733157000114
 30
0.0
 11
-0.0000000000117545
 21
76.49999999999962
 31
0.0
210
0.0
220
0.0
230
1.0
 40
0.4539904997395436
 41
0.2441197146629612
 42
0.803077836532946
  0
ELLIPSE
  5
6CC
330
1F
100
AcDbEntity
  8
0
  6
Continuous
100
AcDbEllipse
 10
1626.41534579759
 20
660.733157000114
 30
0.0
 11
0.0000000000117545
 21
-76.49999999999963
 31
0.0
210
0.0
220
0.0
230
1.0
 40
0.4539904997395437
 41
5.48010747064594
 42
6.03906559251595
  0
ELLIPSE
  5
6CD
330
1F
100
AcDbEntity
  8
0
  6
Continuous
100
AcDbEllipse
 10
1730.663109127628
 20
660.7331570001295
 30
0.0
 11
0.0000000000038414
 21
-24.9999999999999
 31
0.0
210
0.0
220
0.0
230
1.0
 40
0.4539904997395436
 41
1.982313172862046
 42
7.442464787906664
  0
ELLIPSE
  5
6CE
330
1F
100
AcDbEntity
  8
0
  6
Continuous
100
AcDbEllipse
 10
1687.894795966586
 20
660.7331570001231
 30
0.0
 11
0.0000000000117531
 21
-76.49999999999971
 31
0.0
210
0.0
220
0.0
230
1.0
 40
0.4539904997395436
 41
3.004898925909589
 42
6.419879034859112
  0
ELLIPSE
  5
6CF
330
1F
100
AcDbEntity
  8
0
  6
Continuous
100
AcDbEllipse
 10
1726.208076506686
 20
660.733157000129
 30
0.0
 11
0.0000000000000401
 21
-24.99999999999991
 31
0.0
210
0.0
220
0.0
230
1.0
 40
0.4539904997395436
 41
3.141592653592393
 42
6.283185307182186
  0
ELLIPSE
  5
6D0
330
1F
100
AcDbEntity
  8
0
  6
Continuous
100
AcDbEllipse
 10
1730.663109127628
 20
660.7331570001295
 30
0.0
 11
0.0000000000000486
 21
-9.999999999999959
 31
0.0
210
0.0
220
0.0
230
1.0
 40
0.4539904997395435
 41
3.141592653592296
 42
6.28318530718209
  0
LINE
  5
6D1
330
1F
100
AcDbEntity
  8
0
  6
Continuous
100
AcDbLine
 10
1762.032541990135
 20
668.0470294852768
 30
0.0
 11
1761.043011774021
 21
669.3377128650074
 31
0.0
  0
LINE
  5
6D2
330
1F
100
AcDbEntity
  8
0
  6
Continuous
100
AcDbLine
 10
1762.032541990135
 20
653.4192845149898
 30
0.0
 11
1761.043011774021
 21
652.1286011352574
 31
0.0
  0
ELLIPSE
  5
6D3
330
1F
100
AcDbEntity
  8
0
  6
Continuous
100
AcDbEllipse
 10
1758.729814639561
 20
660.7331570001336
 30
0.0
 11
-0.0000000000015349
 21
9.999999999999957
 31
0.0
210
0.0
220
0.0
230
1.0
 40
0.4539904997395434
 41
5.748552117767345
 42
9.959411150180939
  0
ELLIPSE
  5
6D4
330
1F
100
AcDbEntity
  8
0
  6
Continuous
100
AcDbEllipse
 10
1760.066324425844
 20
660.7331570001345
 30
0.0
 11
-0.0000000000000132
 21
8.499999999999957
 31
0.0
210
0.0
220
0.0
230
1.0
 40
0.4539904997395436
 41
0.0
 42
6.283185307179585
  0
LINE
  5
6D5
330
1F
100
AcDbEntity
  8
0
  6
Continuous
100
AcDbLine
 10
1626.41534579759
 20
751.7331570001135
 30
0.0
 11
1656.378488392947
 21
751.7331570001176
 31
0.0
  0
LINE
  5
6D6
330
1F
100
AcDbEntity
  8
0
  6
Continuous
100
AcDbLine
 10
1626.41534579759
 20
569.733157000114
 30
0.0
 11
1656.378488392948
 21
569.733157000119
 31
0.0
  0
ELLIPSE
  5
6D7
330
1F
100
AcDbEntity
  8
0
  6
Continuous
100
AcDbEllipse
 10
1592.996124800235
 20
618.2331570001336
 30
0.0
 11
0.0000000000009217
 21
-5.999999999999954
 31
0.0
210
0.0
220
0.0
230
1.0
 40
0.4539904997395436
 41
4.424409653805408
 42
6.047565858160139
  0
LINE
  5
6D8
330
1F
100
AcDbEntity
  8
0
  6
Continuous
100
AcDbLine
 10
1638.849291057515
 20
607.6042506325231
 30
0.0
 11
1601.427017041604
 21
607.6042506325168
 31
0.0
  0
LINE
  5
6D9
330
1F
100
AcDbEntity
  8
0
  6
Continuous
100
AcDbLine
 10
1601.427017041604
 20
607.6042506325168
 30
0.0
 11
1592.360232935841
 21
612.3989374777481
 31
0.0
  0
LINE
  5
6DA
330
1F
100
AcDbEntity
  8
0
  6
Continuous
100
AcDbLine
 10
1630.454906456131
 20
681.8360614223113
 30
0.0
 11
1593.03263244022
 21
681.8360614223049
 31
0.0
  0
LINE
  5
6DB
330
1F
100
AcDbEntity
  8
0
  6
Continuous
100
AcDbLine
 10
1593.03263244022
 20
681.8360614223053
 30
0.0
 11
1590.384354496676
 21
701.5290649319115
 31
0.0
  0
LINE
  5
6DC
330
1F
100
AcDbEntity
  8
0
  6
Continuous
100
AcDbLine
 10
1655.443235212117
 20
734.9649677899076
 30
0.0
 11
1618.020961196206
 21
734.9649677899017
 31
0.0
  0
LINE
  5
6DD
330
1F
100
AcDbEntity
  8
0
  6
Continuous
100
AcDbLine
 10
1618.020961196206
 20
734.9649677899017
 30
0.0
 11
1624.439467358424
 21
749.8632844542769
 31
0.0
  0
ELLIPSE
  5
6DE
330
1F
100
AcDbEntity
  8
0
  6
Continuous
100
AcDbEllipse
 10
1626.41534579759
 20
745.733157000114
 30
0.0
 11
-0.0000000000009217
 21
5.999999999999847
 31
0.0
210
0.0
220
0.0
230
1.0
 40
0.4539904997395436
 41
0.0
 42
0.8115781021770231
  0
LINE
  5
6DF
330
1F
100
AcDbEntity
  8
0
  6
Continuous
100
AcDbLine
 10
1624.439467358425
 20
571.6030295459534
 30
0.0
 11
1618.020961196206
 21
586.5013462103359
 31
0.0
  0
LINE
  5
6E0
330
1F
100
AcDbEntity
  8
0
  6
Continuous
100
AcDbLine
 10
1618.020961196206
 20
586.5013462103359
 30
0.0
 11
1655.443235212117
 21
586.5013462103413
 31
0.0
  0
ELLIPSE
  5
6E1
330
1F
100
AcDbEntity
  8
0
  6
Continuous
100
AcDbEllipse
 10
1626.41534579759
 20
575.7331570001144
 30
0.0
 11
-0.0000000000000691
 21
-5.999999999999937
 31
0.0
210
0.0
220
0.0
230
1.0
 40
0.4539904997395436
 41
5.471607205004192
 42
6.283185307182316
  0
LINE
  5
6E2
330
1F
100
AcDbEntity
  8
0
  6
Continuous
100
AcDbLine
 10
1592.360232935841
 20
709.0673765225199
 30
0.0
 11
1601.427017041604
 21
713.8620633677398
 31
0.0
  0
LINE
  5
6E3
330
1F
100
AcDbEntity
  8
0
  6
Continuous
100
AcDbLine
 10
1601.427017041604
 20
713.8620633677398
 30
0.0
 11
1638.849291057515
 21
713.8620633677458
 31
0.0
  0
ELLIPSE
  5
6E4
330
1F
100
AcDbEntity
  8
0
  6
Continuous
100
AcDbEllipse
 10
1592.996124800235
 20
703.2331570001336
 30
0.0
 11
-0.0000000000009218
 21
5.999999999999972
 31
0.0
210
0.0
220
0.0
230
1.0
 40
0.4539904997395437
 41
0.2356194490187704
 42
1.858775653373694
  0
LINE
  5
6E5
330
1F
100
AcDbEntity
  8
0
  6
Continuous
100
AcDbLine
 10
1590.384354496676
 20
619.9372490683588
 30
0.0
 11
1593.03263244022
 21
639.6302525779613
 31
0.0
  0
LINE
  5
6E6
330
1F
100
AcDbEntity
  8
0
  6
Continuous
100
AcDbLine
 10
1593.03263244022
 20
639.6302525779613
 30
0.0
 11
1630.454906456131
 21
639.6302525779677
 31
0.0
  0
ELLIPSE
  5
6E7
330
1F
100
AcDbEntity
  8
0
  6
Continuous
100
AcDbEllipse
 10
1663.8376198135
 20
660.7331570001194
 30
0.0
 11
0.0000000000117517
 21
-76.49999999999934
 31
0.0
210
0.0
220
0.0
230
1.0
 40
0.4539904997395436
 41
4.991868041319346
 42
5.480107470645954
  0
SPLINE
  5
6E8
330
1F
100
AcDbEntity
  8
0
  6
Continuous
100
AcDbSpline
210
0.0
220
0.0
230
1.0
 70
    12
 71
     2
 72
     6
 73
     3
 74
     0
 42
0.0000000001
 43
0.0000000001
 40
0.0
 40
0.0
 40
0.0
 40
2.285361866379776
 40
2.285361866379776
 40
2.285361866379776
 10
1638.849291057515
 20
607.6042506325227
 30
0.0
 41
1.0
 10
1632.043018046284
 20
609.8173656153765
 30
0.0
 41
1.011342813077101
 10
1623.230650355891
 20
612.3989374777527
 30
0.0
 41
1.007106630171223
  0
SPLINE
  5
6E9
330
1F
100
AcDbEntity
  8
0
  6
Continuous
100
AcDbSpline
210
0.0
220
0.0
230
1.0
 70
     8
 71
     3
 72
    14
 73
    10
 74
     0
 42
0.0000000001
 43
0.0000000001
 40
0.5371471316248521
 40
0.5371471316248521
 40
0.5371471316248521
 40
0.5371471316248521
 40
0.7756900856282975
 40
0.7756900856282975
 40
1.020133699573842
 40
1.020133699573842
 40
1.264577313519387
 40
1.264577313519387
 40
1.503120267522837
 40
1.503120267522837
 40
1.503120267522837
 40
1.503120267522837
 10
1621.254771916726
 20
619.9372490683633
 30
0.0
 10
1620.895885271173
 20
619.2268332021728
 30
0.0
 10
1620.619828252204
 20
618.4105093674677
 30
0.0
 10
1620.375283720928
 20
616.7664444769927
 30
0.0
 10
1620.415305096397
 20
615.9388049317056
 30
0.0
 10
1620.785222024575
 20
614.5275090685738
 30
0.0
 10
1621.132860795163
 20
613.8761593631436
 30
0.0
 10
1622.063494479951
 20
612.9026776902303
 30
0.0
 10
1622.640219110621
 20
612.5719035571326
 30
0.0
 10
1623.230650355891
 20
612.3989374777527
 30
0.0
  0
SPLINE
  5
6EA
330
1F
100
AcDbEntity
  8
0
  6
Continuous
100
AcDbSpline
210
0.0
220
0.0
230
1.0
 70
    12
 71
     2
 72
     6
 73
     3
 74
     0
 42
0.0000000001
 43
0.0000000001
 40
1.042507592243017
 40
1.042507592243017
 40
1.042507592243017
 40
3.327869458622813
 40
3.327869458622813
 40
3.327869458622813
 10
1621.254771916726
 20
619.9372490683633
 30
0.0
 41
1.007106630171227
 10
1626.611265335923
 20
630.5404240800223
 30
0.0
 41
1.011342813077106
 10
1630.454906456131
 20
639.6302525779677
 30
0.0
 41
1.0
  0
ELLIPSE
  5
6EB
330
1F
100
AcDbEntity
  8
0
  6
Continuous
100
AcDbEllipse
 10
1663.8376198135
 20
660.7331570001194
 30
0.0
 11
0.0000000000117503
 21
-76.49999999999952
 31
0.0
210
0.0
220
0.0
230
1.0
 40
0.4539904997395435
 41
6.039065592515949
 42
6.283185307179268
  0
SPLINE
  5
6EC
330
1F
100
AcDbEntity
  8
0
  6
Continuous
100
AcDbSpline
210
0.0
220
0.0
230
1.0
 70
    12
 71
     2
 72
     6
 73
     3
 74
     0
 42
0.0000000001
 43
0.0000000001
 40
0.3691905138763081
 40
0.3691905138763081
 40
0.3691905138763081
 40
2.285361866379782
 40
2.285361866379782
 40
2.285361866379782
 10
1670.367366884986
 20
584.2331570001154
 30
0.0
 41
1.003258201108468
 10
1665.459054606597
 20
578.333330878085
 30
0.0
 41
1.010658475700644
 10
1659.261641656803
 20
571.6030295459557
 30
0.0
 41
1.007106630171224
  0
SPLINE
  5
6ED
330
1F
100
AcDbEntity
  8
0
  6
Continuous
100
AcDbSpline
210
0.0
220
0.0
230
1.0
 70
     8
 71
     3
 72
    14
 73
    10
 74
     0
 42
0.0000000001
 43
0.0000000001
 40
0.537147131624853
 40
0.537147131624853
 40
0.537147131624853
 40
0.537147131624853
 40
0.7756900856282986
 40
0.7756900856282986
 40
1.020133699573844
 40
1.020133699573844
 40
1.264577313519389
 40
1.264577313519389
 40
1.503120267522838
 40
1.503120267522838
 40
1.503120267522838
 40
1.503120267522838
 10
1655.309884778474
 20
571.6030295459579
 30
0.0
 10
1655.278078117491
 20
571.0655797591464
 30
0.0
 10
1655.34325717241
 20
570.5800300575385
 30
0.0
 10
1655.705408614887
 20
569.9094468399764
 30
0.0
 10
1656.008571464771
 20
569.733157000119
 30
0.0
 10
1656.748405321126
 20
569.7331570001185
 30
0.0
 10
1657.220562763359
 20
569.909446839976
 30
0.0
 10
1658.230589627905
 20
570.5800300575372
 30
0.0
 10
1658.766745796385
 20
571.0655797591446
 30
0.0
 10
1659.261641656803
 20
571.6030295459557
 30
0.0
  0
SPLINE
  5
6EE
330
1F
100
AcDbEntity
  8
0
  6
Continuous
100
AcDbSpline
210
0.0
220
0.0
230
1.0
 70
    12
 71
     2
 72
     6
 73
     3
 74
     0
 42
0.0000000001
 43
0.0000000001
 40
1.042507592243063
 40
1.042507592243063
 40
1.042507592243063
 40
3.327869458622811
 40
3.327869458622811
 40
3.327869458622811
 10
1655.309884778474
 20
571.6030295459579
 30
0.0
 41
1.007106630171207
 10
1655.784608963261
 20
579.6246326952452
 30
0.0
 41
1.011342813077074
 10
1655.443235212117
 20
586.5013462103413
 30
0.0
 41
1.0
  0
SPLINE
  5
6EF
330
1F
100
AcDbEntity
  8
0
  6
Continuous
100
AcDbSpline
210
0.0
220
0.0
230
1.0
 70
     8
 71
     3
 72
    14
 73
    10
 74
     0
 42
0.0000000001
 43
0.0000000001
 40
0.5371471316248499
 40
0.5371471316248499
 40
0.5371471316248499
 40
0.5371471316248499
 40
0.7756900856282983
 40
0.7756900856282983
 40
1.020133699573842
 40
1.020133699573842
 40
1.264577313519387
 40
1.264577313519387
 40
1.503120267522835
 40
1.503120267522835
 40
1.503120267522835
 40
1.503120267522835
 10
1623.230650355891
 20
709.0673765225244
 30
0.0
 10
1622.640219110619
 20
708.894410443145
 30
0.0
 10
1622.063494479951
 20
708.5636363100473
 30
0.0
 10
1621.132860795163
 20
707.5901546371349
 30
0.0
 10
1620.785222024574
 20
706.9388049317051
 30
0.0
 10
1620.415305096397
 20
705.5275090685734
 30
0.0
 10
1620.375283720928
 20
704.6998695232862
 30
0.0
 10
1620.619828252204
 20
703.0558046328121
 30
0.0
 10
1620.895885271173
 20
702.239480798106
 30
0.0
 10
1621.254771916726
 20
701.5290649319156
 30
0.0
  0
SPLINE
  5
6F0
330
1F
100
AcDbEntity
  8
0
  6
Continuous
100
AcDbSpline
210
0.0
220
0.0
230
1.0
 70
    12
 71
     2
 72
     6
 73
     3
 74
     0
 42
0.0000000001
 43
0.0000000001
 40
1.042507592243061
 40
1.042507592243061
 40
1.042507592243061
 40
3.327869458622811
 40
3.327869458622811
 40
3.327869458622811
 10
1623.230650355891
 20
709.0673765225244
 30
0.0
 41
1.007106630171201
 10
1632.043018046283
 20
711.6489483848961
 30
0.0
 41
1.011342813077065
 10
1638.849291057515
 20
713.8620633677458
 30
0.0
 41
1.0
  0
ELLIPSE
  5
6F1
330
1F
100
AcDbEntity
  8
0
  6
Continuous
100
AcDbEllipse
 10
1663.8376198135
 20
660.7331570001194
 30
0.0
 11
0.0000000000153461
 21
-76.49999999999967
 31
0.0
210
0.0
220
0.0
230
1.0
 40
0.4539904997395436
 41
3.944670490122341
 42
4.432909919449155
  0
SPLINE
  5
6F2
330
1F
100
AcDbEntity
  8
0
  6
Continuous
100
AcDbSpline
210
0.0
220
0.0
230
1.0
 70
    12
 71
     2
 72
     6
 73
     3
 74
     0
 42
0.0000000001
 43
0.0000000001
 40
0.0
 40
0.0
 40
0.0
 40
2.285361866379756
 40
2.285361866379756
 40
2.285361866379756
 10
1630.454906456131
 20
681.8360614223113
 30
0.0
 41
1.0
 10
1626.611265335923
 20
690.9258899202566
 30
0.0
 41
1.01134281307709
 10
1621.254771916726
 20
701.5290649319156
 30
0.0
 41
1.007106630171217
  0
SPLINE
  5
6F3
330
1F
100
AcDbEntity
  8
0
  6
Continuous
100
AcDbSpline
210
0.0
220
0.0
230
1.0
 70
     8
 71
     3
 72
    14
 73
    10
 74
     0
 42
0.0000000001
 43
0.0000000001
 40
0.537147131624851
 40
0.537147131624851
 40
0.537147131624851
 40
0.537147131624851
 40
0.7756900856282984
 40
0.7756900856282984
 40
1.020133699573843
 40
1.020133699573843
 40
1.264577313519387
 40
1.264577313519387
 40
1.503120267522837
 40
1.503120267522837
 40
1.503120267522837
 40
1.503120267522837
 10
1659.261641656803
 20
749.8632844542801
 30
0.0
 10
1658.766745796384
 20
750.4007342410902
 30
0.0
 10
1658.230589627904
 20
750.8862839426986
 30
0.0
 10
1657.220562763358
 20
751.5568671602602
 30
0.0
 10
1656.748405321125
 20
751.7331570001176
 30
0.0
 10
1656.008571464771
 20
751.7331570001186
 30
0.0
 10
1655.705408614887
 20
751.5568671602616
 30
0.0
 10
1655.343257172409
 20
750.8862839427004
 30
0.0
 10
1655.278078117491
 20
750.4007342410925
 30
0.0
 10
1655.309884778474
 20
749.8632844542819
 30
0.0
  0
SPLINE
  5
6F4
330
1F
100
AcDbEntity
  8
0
  6
Continuous
100
AcDbSpline
210
0.0
220
0.0
230
1.0
 70
    12
 71
     2
 72
     6
 73
     3
 74
     0
 42
0.0000000001
 43
0.0000000001
 40
1.042507592243038
 40
1.042507592243038
 40
1.042507592243038
 40
2.958678944746528
 40
2.958678944746528
 40
2.958678944746528
 10
1659.261641656803
 20
749.8632844542801
 30
0.0
 41
1.007106630171217
 10
1665.459054606596
 20
743.1329831221476
 30
0.0
 41
1.010658475700633
 10
1670.367366884986
 20
737.2331570001144
 30
0.0
 41
1.003258201108465
  0
ELLIPSE
  5
6F5
330
1F
100
AcDbEntity
  8
0
  6
Continuous
100
AcDbEllipse
 10
1663.837619813502
 20
660.7331570001194
 30
0.0
 11
-0.0000000000001155
 21
76.49999999999973
 31
0.0
210
0.0
220
0.0
230
1.0
 40
0.4539904997395436
 41
0.0000000000025761
 42
0.2441197146657804
  0
SPLINE
  5
6F6
330
1F
100
AcDbEntity
  8
0
  6
Continuous
100
AcDbSpline
210
0.0
220
0.0
230
1.0
 70
    12
 71
     2
 72
     6
 73
     3
 74
     0
 42
0.0000000001
 43
0.0000000001
 40
0.0
 40
0.0
 40
0.0
 40
2.285361866379774
 40
2.285361866379774
 40
2.285361866379774
 10
1655.443235212117
 20
734.9649677899076
 30
0.0
 41
1.0
 10
1655.784608963261
 20
741.8416813049991
 30
0.0
 41
1.011342813077075
 10
1655.309884778474
 20
749.8632844542819
 30
0.0
 41
1.007106630171207
  0
LINE
  5
6F7
330
1F
100
AcDbEntity
  8
0
  6
Continuous
100
AcDbLine
 10
1626.177825885493
 20
38.10680466922917
 30
0.0
 11
1621.544591959714
 21
35.74605407058311
 31
0.0
  0
LINE
  5
6F8
330
1F
100
AcDbEntity
  8
0
  6
Continuous
100
AcDbLine
 10
1613.857313384251
 20
62.28717193737589
 30
0.0
 11
1609.224079458471
 21
59.92642133872982
 31
0.0
  0
LINE
  5
6F9
330
1F
100
AcDbEntity
  8
0
  6
Continuous
100
AcDbLine
 10
1587.651402415907
 20
113.7191681101787
 30
0.0
 11
1583.018168490129
 21
111.3584175115331
 31
0.0
  0
LINE
  5
6FA
330
1F
100
AcDbEntity
  8
0
  6
Continuous
100
AcDbLine
 10
1575.330889914665
 20
137.8995353783254
 30
0.0
 11
1570.697655988885
 21
135.5387847796798
 31
0.0
  0
LINE
  5
6FB
330
1F
100
AcDbEntity
  8
0
  6
Continuous
100
AcDbLine
 10
1609.224079458471
 20
59.92642133872982
 30
0.0
 11
1621.544591959714
 21
35.74605407058311
 31
0.0
  0
LINE
  5
6FC
330
1F
100
AcDbEntity
  8
0
  6
Continuous
100
AcDbLine
 10
1609.224079458471
 20
59.92642133872982
 30
0.0
 11
1583.018168490128
 21
111.3584175115331
 31
0.0
  0
SPLINE
  5
6FD
330
1F
100
AcDbEntity
  8
0
  6
Continuous
100
AcDbSpline
210
0.0
220
0.0
230
1.0
 70
     8
 71
     3
 72
     8
 73
     4
 74
     0
 42
0.0000000001
 43
0.0000000001
 40
-0.1435004111845683
 40
-0.1435004111845683
 40
-0.1435004111845683
 40
-0.1435004111845683
 40
0.0
 40
0.0
 40
0.0
 40
0.0
 10
1608.222497493283
 20
59.68944736114622
 30
0.0
 10
1608.556466989992
 20
59.76811954802565
 30
0.0
 10
1608.890340836247
 20
59.84711682195961
 30
0.0
 10
1609.224079458471
 20
59.92642133873028
 30
0.0
  0
SPLINE
  5
6FE
330
1F
100
AcDbEntity
  8
0
  6
Continuous
100
AcDbSpline
210
0.0
220
0.0
230
1.0
 70
     8
 71
     3
 72
     8
 73
     4
 74
     0
 42
0.0000000001
 43
0.0000000001
 40
-0.1435004111860922
 40
-0.1435004111860922
 40
-0.1435004111860922
 40
-0.1435004111860922
 40
0.0
 40
0.0
 40
0.0
 40
0.0
 10
1582.237737406939
 20
110.6874104896385
 30
0.0
 10
1582.497686887988
 20
110.9113551368629
 30
0.0
 10
1582.757843148064
 20
111.1350313198706
 30
0.0
 10
1583.018168490129
 20
111.3584175115331
 30
0.0
  0
SPLINE
  5
6FF
330
1F
100
AcDbEntity
  8
0
  6
Continuous
100
AcDbSpline
210
0.0
220
0.0
230
1.0
 70
    24
 71
     3
 72
     8
 73
     4
 74
     0
 42
0.0000000001
 43
0.0000000001
 40
-0.1435004111850182
 40
-0.1435004111850182
 40
-0.1435004111850182
 40
-0.1435004111850182
 40
0.0
 40
0.0
 40
0.0
 40
0.0
 10
1570.260639964437
 20
134.1937877557522
 30
0.0
 10
1570.406291036262
 20
134.6420556616833
 30
0.0
 10
1570.551969360958
 20
135.0904074433212
 30
0.0
 10
1570.697655988885
 20
135.5387847796798
 30
0.0
  0
SPLINE
  5
700
330
1F
100
AcDbEntity
  8
0
  6
Continuous
100
AcDbSpline
210
0.0
220
0.0
230
1.0
 70
    24
 71
     3
 72
     8
 73
     4
 74
     0
 42
0.0000000001
 43
0.0000000001
 40
-0.1435004111860922
 40
-0.1435004111860922
 40
-0.1435004111860922
 40
-0.1435004111860922
 40
0.0
 40
0.0
 40
0.0
 40
0.0
 10
1620.199594935786
 20
36.18307009503246
 30
0.0
 10
1620.647862841716
 20
36.03741902320621
 30
0.0
 10
1621.096214623352
 20
35.89174069851174
 30
0.0
 10
1621.544591959714
 20
35.74605407058311
 30
0.0
  0
LINE
  5
701
330
1F
100
AcDbEntity
  8
0
  6
Continuous
100
AcDbLine
 10
1570.697655988885
 20
135.5387847796798
 30
0.0
 11
1583.018168490128
 21
111.3584175115331
 31
0.0
  0
LINE
  5
702
330
1F
100
AcDbEntity
  8
0
  6
Continuous
100
AcDbLine
 10
1614.637744467439
 20
62.95817895927098
 30
0.0
 11
1588.652984381095
 21
113.9561420877628
 31
0.0
  0
LINE
  5
703
330
1F
100
AcDbEntity
  8
0
  6
Continuous
100
AcDbLine
 10
1587.651402415907
 20
113.7191681101787
 30
0.0
 11
1613.857313384251
 21
62.28717193737589
 31
0.0
  0
LINE
  5
704
330
1F
100
AcDbEntity
  8
0
  6
Continuous
100
AcDbLine
 10
1576.675886938592
 20
137.4625193538765
 30
0.0
 11
1588.652984381095
 21
113.9561420877628
 31
0.0
  0
SPLINE
  5
705
330
1F
100
AcDbEntity
  8
0
  6
Continuous
100
AcDbSpline
210
0.0
220
0.0
230
1.0
 70
     8
 71
     3
 72
     8
 73
     4
 74
     0
 42
0.0000000001
 43
0.0000000001
 40
-0.1435004186553732
 40
-0.1435004186553732
 40
-0.1435004186553732
 40
-0.1435004186553732
 40
0.0
 40
0.0
 40
0.0
 40
0.0
 10
1587.651402415907
 20
113.7191681101787
 30
0.0
 10
1587.985141038132
 20
113.7984726269494
 30
0.0
 10
1588.319014884388
 20
113.8774699008834
 30
0.0
 10
1588.652984381095
 20
113.9561420877628
 30
0.0
  0
LINE
  5
706
330
1F
100
AcDbEntity
  8
0
  6
Continuous
100
AcDbLine
 10
1587.651402415907
 20
113.7191681101787
 30
0.0
 11
1575.330889914665
 21
137.8995353783259
 31
0.0
  0
SPLINE
  5
707
330
1F
100
AcDbEntity
  8
0
  6
Continuous
100
AcDbSpline
210
0.0
220
0.0
230
1.0
 70
    24
 71
     3
 72
     8
 73
     4
 74
     0
 42
0.0000000001
 43
0.0000000001
 40
-0.1435004186556224
 40
-0.1435004186556224
 40
-0.1435004186556224
 40
-0.1435004186556224
 40
0.0
 40
0.0
 40
0.0
 40
0.0
 10
1575.330889914665
 20
137.8995353783254
 30
0.0
 10
1575.779267251023
 20
137.7538487503986
 30
0.0
 10
1576.227619032661
 20
137.6081704257033
 30
0.0
 10
1576.675886938592
 20
137.4625193538765
 30
0.0
  0
SPLINE
  5
708
330
1F
100
AcDbEntity
  8
0
  6
Continuous
100
AcDbSpline
210
0.0
220
0.0
230
1.0
 70
     8
 71
     3
 72
     8
 73
     4
 74
     0
 42
0.0000000001
 43
0.0000000001
 40
-0.1435004186556224
 40
-0.1435004186556224
 40
-0.1435004186556224
 40
-0.1435004186556224
 40
0.0
 40
0.0
 40
0.0
 40
0.0
 10
1613.857313384251
 20
62.28717193737589
 30
0.0
 10
1614.117638726312
 20
62.51055812903564
 30
0.0
 10
1614.377794986389
 20
62.73423431204514
 30
0.0
 10
1614.637744467439
 20
62.95817895927098
 30
0.0
  0
LINE
  5
709
330
1F
100
AcDbEntity
  8
0
  6
Continuous
100
AcDbLine
 10
1614.637744467439
 20
62.95817895927098
 30
0.0
 11
1626.614841909942
 21
39.45180169315676
 31
0.0
  0
SPLINE
  5
70A
330
1F
100
AcDbEntity
  8
0
  6
Continuous
100
AcDbSpline
210
0.0
220
0.0
230
1.0
 70
    24
 71
     3
 72
     8
 73
     4
 74
     0
 42
0.0000000001
 43
0.0000000001
 40
-0.1435004186553732
 40
-0.1435004186553732
 40
-0.1435004186553732
 40
-0.1435004186553732
 40
0.0
 40
0.0
 40
0.0
 40
0.0
 10
1626.177825885493
 20
38.10680466922917
 30
0.0
 10
1626.323512513421
 20
38.55518200558822
 30
0.0
 10
1626.469190838116
 20
39.0035337872257
 30
0.0
 10
1626.614841909942
 20
39.45180169315676
 30
0.0
  0
LINE
  5
70B
330
1F
100
AcDbEntity
  8
0
  6
Continuous
100
AcDbLine
 10
1626.177825885493
 20
38.10680466922872
 30
0.0
 11
1613.857313384251
 21
62.28717193737589
 31
0.0
  0
CIRCLE
  5
70C
330
1F
100
AcDbEntity
  8
0
  6
Continuous
100
AcDbCircle
 10
1561.460970183372
 20
67.98218898526352
 30
0.0
 40
23.89999999999982
  0
CIRCLE
  5
70D
330
1F
100
AcDbEntity
  8
0
  6
Continuous
100
AcDbCircle
 10
1561.460970183372
 20
67.98218898526352
 30
0.0
 40
31.99999999999975
  0
LINE
  5
70E
330
1F
100
AcDbEntity
  8
0
  6
Continuous
100
AcDbLine
 10
1597.944084451925
 20
45.72028517496733
 30
0.0
 11
1589.034019210041
 21
41.18038017757157
 31
0.0
  0
LINE
  5
70F
330
1F
100
AcDbEntity
  8
0
  6
Continuous
100
AcDbLine
 10
1603.845960948539
 20
34.13720036051859
 30
0.0
 11
1594.935895706655
 21
29.59729536312329
 31
0.0
  0
LINE
  5
710
330
1F
100
AcDbEntity
  8
0
  6
Continuous
100
AcDbLine
 10
1594.935895706655
 20
29.59729536312284
 30
0.0
 11
1589.034019210041
 21
41.18038017757203
 31
0.0
  0
LINE
  5
711
330
1F
100
AcDbEntity
  8
0
  6
Continuous
100
AcDbLine
 10
1555.984882956575
 20
106.0429621864952
 30
0.0
 11
1564.894948198459
 21
110.5828671838905
 31
0.0
  0
LINE
  5
712
330
1F
100
AcDbEntity
  8
0
  6
Continuous
100
AcDbLine
 10
1550.083006459961
 20
117.626047000944
 30
0.0
 11
1558.993071701845
 21
122.1659519983397
 31
0.0
  0
LINE
  5
713
330
1F
100
AcDbEntity
  8
0
  6
Continuous
100
AcDbLine
 10
1550.083006459961
 20
117.6260470009444
 30
0.0
 11
1555.984882956575
 21
106.0429621864952
 31
0.0
  0
LINE
  5
714
330
1F
100
AcDbEntity
  8
0
  6
Continuous
100
AcDbLine
 10
1620.653585435525
 20
35.29206357084399
 30
0.0
 11
1606.842984310605
 21
28.2552108248808
 31
0.0
  0
LINE
  5
715
330
1F
100
AcDbEntity
  8
0
  6
Continuous
100
AcDbLine
 10
1569.806649464697
 20
135.0847942799402
 30
0.0
 11
1555.996048339777
 21
128.0479415339775
 31
0.0
  0
LINE
  5
716
330
1F
100
AcDbEntity
  8
0
  6
Continuous
100
AcDbLine
 10
1608.333072934283
 20
59.47243083899071
 30
0.0
 11
1620.653585435525
 21
35.29206357084399
 31
0.0
  0
LINE
  5
717
330
1F
100
AcDbEntity
  8
0
  6
Continuous
100
AcDbLine
 10
1569.806649464697
 20
135.0847942799402
 30
0.0
 11
1582.12716196594
 21
110.9044270117935
 31
0.0
  0
LINE
  5
718
330
1F
100
AcDbEntity
  8
0
  6
Continuous
100
AcDbLine
 10
1582.12716196594
 20
110.9044270117935
 30
0.0
 11
1568.31656084102
 21
103.8675742658303
 31
0.0
  0
LINE
  5
719
330
1F
100
AcDbEntity
  8
0
  6
Continuous
100
AcDbLine
 10
1608.333072934283
 20
59.47243083899071
 30
0.0
 11
1582.12716196594
 21
110.9044270117931
 31
0.0
  0
LINE
  5
71A
330
1F
100
AcDbEntity
  8
0
  6
Continuous
100
AcDbLine
 10
1608.333072934283
 20
59.47243083899071
 30
0.0
 11
1594.522471809363
 21
52.43557809302751
 31
0.0
  0
LINE
  5
71B
330
1F
100
AcDbEntity
  8
0
  6
Continuous
100
AcDbLine
 10
1593.382165993329
 20
54.67355426706603
 30
0.0
 11
1594.522471809363
 21
52.43557809302751
 31
0.0
  0
LINE
  5
71C
330
1F
100
AcDbEntity
  8
0
  6
Continuous
100
AcDbLine
 10
1606.842984310605
 20
28.2552108248808
 30
0.0
 11
1594.522471809363
 21
52.43557809302751
 31
0.0
  0
LINE
  5
71D
330
1F
100
AcDbEntity
  8
0
  6
Continuous
100
AcDbLine
 10
1568.31656084102
 20
103.8675742658308
 30
0.0
 11
1555.996048339777
 21
128.0479415339775
 31
0.0
  0
LINE
  5
71E
330
1F
100
AcDbEntity
  8
0
  6
Continuous
100
AcDbLine
 10
1568.31656084102
 20
103.8675742658303
 30
0.0
 11
1569.456866657055
 21
101.6295980917923
 31
0.0
  0
LINE
  5
71F
330
1F
100
AcDbEntity
  8
0
  6
Continuous
100
AcDbLine
 10
1589.601646191466
 20
52.74728321569887
 30
0.0
 11
1593.382165993329
 21
54.67355426706558
 31
0.0
  0
LINE
  5
720
330
1F
100
AcDbEntity
  8
0
  6
Continuous
100
AcDbLine
 10
1569.456866657055
 20
101.6295980917923
 30
0.0
 11
1565.676346855191
 21
99.70332704042561
 31
0.0
  0
LINE
  5
721
330
1F
100
AcDbEntity
  8
0
  6
Continuous
100
AcDbLine
 10
1579.272689505792
 20
41.39755705665925
 30
0.0
 11
1589.460252834491
 21
41.39755705665925
 31
0.0
  0
LINE
  5
722
330
1F
100
AcDbEntity
  8
0
  6
Continuous
100
AcDbLine
 10
1556.411116581024
 20
106.2601390655825
 30
0.0
 11
1550.423017099619
 21
98.01822720139421
 31
0.0
  0
LINE
  5
723
330
1F
100
AcDbEntity
  8
0
  6
Continuous
100
AcDbLine
 10
1605.758778058555
 20
141.6188932668467
 30
0.0
 11
1580.988796686118
 21
128.9979573740872
 31
0.0
  0
LINE
  5
724
330
1F
100
AcDbEntity
  8
0
  6
Continuous
100
AcDbLine
 10
1647.071913534853
 20
60.53729956570555
 30
0.0
 11
1622.301932162417
 21
47.91636367294609
 31
0.0
  0
LINE
  5
725
330
1F
100
AcDbEntity
  8
0
  6
Continuous
100
AcDbLine
 10
1653.164522735625
 20
200.565439998714
 30
0.0
 11
1625.975077071585
 21
186.7117254752395
 31
0.0
  0
LINE
  5
726
330
1F
100
AcDbEntity
  8
0
  6
Continuous
100
AcDbLine
 10
1722.625069195776
 20
64.24144179789505
 30
0.0
 11
1695.435623531735
 21
50.38772727442005
 31
0.0
  0
LINE
  5
727
330
1F
100
AcDbEntity
  8
0
  6
Continuous
100
AcDbLine
 10
1719.313346633253
 20
176.4701479905118
 30
0.0
 11
1714.858314012311
 21
174.2001954918139
 31
0.0
  0
LINE
  5
728
330
1F
100
AcDbEntity
  8
0
  6
Continuous
100
AcDbLine
 10
1742.01287162023
 20
131.9198217810937
 30
0.0
 11
1737.557838999288
 21
129.6498692823959
 31
0.0
  0
LINE
  5
729
330
1F
100
AcDbEntity
  8
0
  6
Continuous
100
AcDbLine
 10
1692.193586062499
 20
208.8806368681473
 30
0.0
 11
1653.164522735625
 21
200.565439998714
 31
0.0
  0
LINE
  5
72A
330
1F
100
AcDbEntity
  8
0
  6
Continuous
100
AcDbLine
 10
1752.292912609046
 20
90.92906721411077
 30
0.0
 11
1722.625069195776
 21
64.24144179789505
 31
0.0
  0
LINE
  5
72B
330
1F
100
AcDbEntity
  8
0
  6
Continuous
100
AcDbLine
 10
1754.189909641279
 20
177.405750869482
 30
0.0
 11
1726.123204129347
 21
163.1050501276861
 31
0.0
  0
LINE
  5
72C
330
1F
100
AcDbEntity
  8
0
  6
Continuous
100
AcDbLine
 10
1763.26971963607
 20
159.5856203857149
 30
0.0
 11
1735.203014124137
 21
145.284919643919
 31
0.0
  0
LINE
  5
72D
330
1F
100
AcDbEntity
  8
0
  6
Continuous
100
AcDbLine
 10
1634.809730398088
 20
84.60318901035021
 30
0.0
 11
1651.40367455269
 21
52.03573988476069
 31
0.0
  0
LINE
  5
72E
330
1F
100
AcDbEntity
  8
0
  6
Continuous
100
AcDbLine
 10
1601.427017040718
 20
150.1204529477915
 30
0.0
 11
1618.020961195321
 21
117.5530038222016
 31
0.0
  0
LINE
  5
72F
330
1F
100
AcDbEntity
  8
0
  6
Continuous
100
AcDbLine
 10
1719.313346633253
 20
176.4701479905113
 30
0.0
 11
1742.01287162023
 21
131.9198217810937
 31
0.0
  0
LINE
  5
730
330
1F
100
AcDbEntity
  8
0
  6
Continuous
100
AcDbLine
 10
1653.164522735625
 20
200.5654399987145
 30
0.0
 11
1722.625069195776
 21
64.24144179789505
 31
0.0
  0
ARC
  5
731
330
1F
100
AcDbEntity
  8
0
  6
Continuous
100
AcDbCircle
 10
1748.280240281261
 20
95.38983629464315
 30
0.0
 40
5.999999999999957
100
AcDbArc
 50
311.972875766793
 51
27.00000000001179
  0
ARC
  5
732
330
1F
100
AcDbEntity
  8
0
  6
Continuous
100
AcDbCircle
 10
1693.443834440079
 20
203.0123424826922
 30
0.0
 40
5.999999999999962
100
AcDbArc
 50
27.00000000001179
 51
102.0271242332129
  0
LINE
  5
733
330
1F
100
AcDbEntity
  8
0
  6
Continuous
100
AcDbLine
 10
1698.789873585209
 20
205.7362854811301
 30
0.0
 11
1753.626279426391
 21
98.11377929308015
 31
0.0
  0
LINE
  5
734
330
1F
100
AcDbEntity
  8
0
  6
Continuous
100
AcDbLine
 10
1756.207405177172
 20
176.7502268328087
 30
0.0
 11
1754.189909641279
 21
177.405750869482
 31
0.0
  0
LINE
  5
735
330
1F
100
AcDbEntity
  8
0
  6
Continuous
100
AcDbLine
 10
1763.925243672743
 20
161.6031159216065
 30
0.0
 11
1763.269719636071
 21
159.5856203857149
 31
0.0
  0
LINE
  5
736
330
1F
100
AcDbEntity
  8
0
  6
Continuous
100
AcDbLine
 10
1763.269719636071
 20
159.5856203857149
 30
0.0
 11
1754.18990964128
 21
177.405750869482
 31
0.0
  0
LINE
  5
737
330
1F
100
AcDbEntity
  8
0
  6
Continuous
100
AcDbLine
 10
1756.207405177172
 20
176.7502268328087
 30
0.0
 11
1763.925243672743
 21
161.6031159216065
 31
0.0
  0
LINE
  5
738
330
1F
100
AcDbEntity
  8
0
  6
Continuous
100
AcDbLine
 10
1662.558509792496
 20
30.14314305593802
 30
0.0
 11
1692.909511842906
 21
45.60775101828016
 31
0.0
  0
LINE
  5
739
330
1F
100
AcDbEntity
  8
0
  6
Continuous
100
AcDbLine
 10
1590.272181800912
 20
172.0130497766137
 30
0.0
 11
1620.623183851322
 21
187.4776577389554
 31
0.0
  0
LINE
  5
73A
330
1F
100
AcDbEntity
  8
0
  6
Continuous
100
AcDbLine
 10
1660.470458658453
 20
34.24117414764555
 30
0.0
 11
1662.558509792496
 21
30.14314305593802
 31
0.0
  0
LINE
  5
73B
330
1F
100
AcDbEntity
  8
0
  6
Continuous
100
AcDbLine
 10
1672.232004413998
 20
103.6707899994109
 30
0.0
 11
1634.809730398087
 21
84.60318901035021
 31
0.0
  0
LINE
  5
73C
330
1F
100
AcDbEntity
  8
0
  6
Continuous
100
AcDbLine
 10
1634.809730398087
 20
84.60318901035021
 30
0.0
 11
1628.391224235869
 21
97.20021663397005
 31
0.0
  0
LINE
  5
73D
330
1F
100
AcDbEntity
  8
0
  6
Continuous
100
AcDbLine
 10
1590.272181800912
 20
172.0130497766142
 30
0.0
 11
1592.360232934956
 21
167.9150186849067
 31
0.0
  0
LINE
  5
73E
330
1F
100
AcDbEntity
  8
0
  6
Continuous
100
AcDbLine
 10
1638.849291056629
 20
169.1880539368519
 30
0.0
 11
1601.427017040718
 21
150.1204529477911
 31
0.0
  0
LINE
  5
73F
330
1F
100
AcDbEntity
  8
0
  6
Continuous
100
AcDbLine
 10
1601.427017040718
 20
150.1204529477911
 30
0.0
 11
1592.360232934955
 21
167.9150186849062
 31
0.0
  0
LINE
  5
740
330
1F
100
AcDbEntity
  8
0
  6
Continuous
100
AcDbLine
 10
1660.470458658452
 20
34.24117414764555
 30
0.0
 11
1651.40367455269
 21
52.03573988476069
 31
0.0
  0
LINE
  5
741
330
1F
100
AcDbEntity
  8
0
  6
Continuous
100
AcDbLine
 10
1651.40367455269
 20
52.03573988476069
 30
0.0
 11
1688.825948568602
 21
71.10334087382148
 31
0.0
  0
LINE
  5
742
330
1F
100
AcDbEntity
  8
0
  6
Continuous
100
AcDbLine
 10
1624.439467357539
 20
104.9559761985822
 30
0.0
 11
1618.02096119532
 21
117.5530038222016
 31
0.0
  0
LINE
  5
743
330
1F
100
AcDbEntity
  8
0
  6
Continuous
100
AcDbLine
 10
1618.02096119532
 20
117.5530038222016
 30
0.0
 11
1655.443235211231
 21
136.6206048112624
 31
0.0
  0
LINE
  5
744
330
1F
100
AcDbEntity
  8
0
  6
Continuous
100
AcDbLine
 10
1624.439467357539
 20
104.9559761985817
 30
0.0
 11
1628.391224235869
 21
97.20021663397005
 31
0.0
  0
LINE
  5
745
330
1F
100
AcDbEntity
  8
0
  6
Continuous
100
AcDbLine
 10
1638.849291056629
 20
169.1880539368523
 30
0.0
 11
1630.454906455245
 21
185.6629613427778
 31
0.0
  0
SPLINE
  5
746
330
1F
100
AcDbEntity
  8
0
  6
Continuous
100
AcDbSpline
210
0.0
220
0.0
230
1.0
 70
    12
 71
     2
 72
     6
 73
     3
 74
     0
 42
0.0000000001
 43
0.0000000001
 40
0.0
 40
0.0
 40
0.0
 40
2.285361866379776
 40
2.285361866379776
 40
2.285361866379776
 10
1638.849291056629
 20
169.1880539368523
 30
0.0
 41
1.0
 10
1632.043018045398
 20
176.0660103570987
 30
0.0
 41
1.011342813077101
 10
1623.230650355005
 20
183.6442819969377
 30
0.0
 41
1.007106630171223
  0
SPLINE
  5
747
330
1F
100
AcDbEntity
  8
0
  6
Continuous
100
AcDbSpline
210
0.0
220
0.0
230
1.0
 70
     8
 71
     3
 72
    14
 73
    10
 74
     0
 42
0.0000000001
 43
0.0000000001
 40
0.5371471316248521
 40
0.5371471316248521
 40
0.5371471316248521
 40
0.5371471316248521
 40
0.7756900856282975
 40
0.7756900856282975
 40
1.020133699573842
 40
1.020133699573842
 40
1.264577313519387
 40
1.264577313519387
 40
1.503120267522837
 40
1.503120267522837
 40
1.503120267522837
 40
1.503120267522837
 10
1621.25477191584
 20
187.5221617792437
 30
0.0
 10
1620.895885270287
 20
187.5754763597171
 30
0.0
 10
1620.619828251318
 20
187.5351090370561
 30
0.0
 10
1620.375283720042
 20
187.2142366405744
 30
0.0
 10
1620.415305095511
 20
186.9268014646611
 30
0.0
 10
1620.785222023689
 20
186.2007986152555
 30
0.0
 10
1621.132860794277
 20
185.727407915949
 30
0.0
 10
1622.063494479065
 20
184.7017545320361
 30
0.0
 10
1622.640219109734
 20
184.1520284413111
 30
0.0
 10
1623.230650355005
 20
183.6442819969377
 30
0.0
  0
SPLINE
  5
748
330
1F
100
AcDbEntity
  8
0
  6
Continuous
100
AcDbSpline
210
0.0
220
0.0
230
1.0
 70
    12
 71
     2
 72
     6
 73
     3
 74
     0
 42
0.0000000001
 43
0.0000000001
 40
1.042507592243017
 40
1.042507592243017
 40
1.042507592243017
 40
3.327869458622813
 40
3.327869458622813
 40
3.327869458622813
 10
1621.25477191584
 20
187.5221617792437
 30
0.0
 41
1.007106630171227
 10
1626.611265335037
 20
186.7264252897591
 30
0.0
 41
1.011342813077106
 10
1630.454906455245
 20
185.6629613427778
 30
0.0
 41
1.0
  0
LINE
  5
749
330
1F
100
AcDbEntity
  8
0
  6
Continuous
100
AcDbLine
 10
1672.232004413998
 20
103.6707899994109
 30
0.0
 11
1655.443235211232
 21
136.6206048112624
 31
0.0
  0
SPLINE
  5
74A
330
1F
100
AcDbEntity
  8
0
  6
Continuous
100
AcDbSpline
210
0.0
220
0.0
230
1.0
 70
    12
 71
     2
 72
     6
 73
     3
 74
     0
 42
0.0000000001
 43
0.0000000001
 40
0.0
 40
0.0
 40
0.0
 40
2.285361866379782
 40
2.285361866379782
 40
2.285361866379782
 10
1672.232004413998
 20
103.6707899994114
 30
0.0
 41
1.0
 10
1666.648114383097
 20
108.1496847407136
 30
0.0
 41
1.011342813077102
 10
1659.261641655917
 20
112.929479946001
 30
0.0
 41
1.007106630171224
  0
SPLINE
  5
74B
330
1F
100
AcDbEntity
  8
0
  6
Continuous
100
AcDbSpline
210
0.0
220
0.0
230
1.0
 70
     8
 71
     3
 72
    14
 73
    10
 74
     0
 42
0.0000000001
 43
0.0000000001
 40
0.537147131624853
 40
0.537147131624853
 40
0.537147131624853
 40
0.537147131624853
 40
0.7756900856282986
 40
0.7756900856282986
 40
1.020133699573844
 40
1.020133699573844
 40
1.264577313519389
 40
1.264577313519389
 40
1.503120267522838
 40
1.503120267522838
 40
1.503120267522838
 40
1.503120267522838
 10
1655.309884777588
 20
120.6852395106132
 30
0.0
 10
1655.278078116605
 20
120.0966234772292
 30
0.0
 10
1655.343257171525
 20
119.386542651099
 30
0.0
 10
1655.705408614
 20
117.8749623628812
 30
0.0
 10
1656.008571463884
 20
117.0710829648471
 30
0.0
 10
1656.74840532024
 20
115.6190772660363
 30
0.0
 10
1657.220562762472
 20
114.9013049136308
 30
0.0
 10
1658.230589627019
 20
113.7198336410594
 30
0.0
 10
1658.766745795498
 20
113.2497276404176
 30
0.0
 10
1659.261641655917
 20
112.929479946001
 30
0.0
  0
SPLINE
  5
74C
330
1F
100
AcDbEntity
  8
0
  6
Continuous
100
AcDbSpline
210
0.0
220
0.0
230
1.0
 70
    12
 71
     2
 72
     6
 73
     3
 74
     0
 42
0.0000000001
 43
0.0000000001
 40
1.042507592243063
 40
1.042507592243063
 40
1.042507592243063
 40
3.327869458622811
 40
3.327869458622811
 40
3.327869458622811
 10
1655.309884777588
 20
120.6852395106132
 30
0.0
 41
1.007106630171207
 10
1655.784608962374
 20
129.4705146060343
 30
0.0
 41
1.011342813077074
 10
1655.443235211231
 20
136.6206048112624
 30
0.0
 41
1.0
  0
LINE
  5
74D
330
1F
100
AcDbEntity
  8
0
  6
Continuous
100
AcDbLine
 10
1697.220333169984
 20
54.62843346789646
 30
0.0
 11
1688.825948568602
 21
71.10334087382148
 31
0.0
  0
SPLINE
  5
74E
330
1F
100
AcDbEntity
  8
0
  6
Continuous
100
AcDbSpline
210
0.0
220
0.0
230
1.0
 70
    12
 71
     2
 72
     6
 73
     3
 74
     0
 42
0.0000000001
 43
0.0000000001
 40
0.0
 40
0.0
 40
0.0
 40
2.28536186637976
 40
2.28536186637976
 40
2.28536186637976
 10
1697.220333169984
 20
54.628433467896
 30
0.0
 41
1.0
 10
1695.821458010434
 20
50.89377405698883
 30
0.0
 41
1.011342813077099
 10
1693.316754517665
 20
46.0925576773709
 30
0.0
 41
1.007106630171222
  0
SPLINE
  5
74F
330
1F
100
AcDbEntity
  8
0
  6
Continuous
100
AcDbSpline
210
0.0
220
0.0
230
1.0
 70
     8
 71
     3
 72
    14
 73
    10
 74
     0
 42
0.0000000001
 43
0.0000000001
 40
0.5371471316248521
 40
0.5371471316248521
 40
0.5371471316248521
 40
0.5371471316248521
 40
0.7756900856282988
 40
0.7756900856282988
 40
1.020133699573844
 40
1.020133699573844
 40
1.264577313519389
 40
1.264577313519389
 40
1.503120267522837
 40
1.503120267522837
 40
1.503120267522837
 40
1.503120267522837
 10
1691.3408760785
 20
49.97043745967653
 30
0.0
 10
1691.404604802369
 20
49.19432267633578
 30
0.0
 10
1691.510352319476
 20
48.40462176012238
 30
0.0
 10
1691.793110582196
 20
47.04885936056302
 30
0.0
 10
1691.971754760436
 20
46.48936161562801
 30
0.0
 10
1692.341671688613
 20
45.76335876622238
 30
0.0
 10
1692.550687656431
 20
45.56203063593762
 30
0.0
 10
1692.954018547224
 20
45.57126725510238
 30
0.0
 10
1693.148938641817
 20
45.77087475792973
 30
0.0
 10
1693.316754517665
 20
46.0925576773709
 30
0.0
  0
SPLINE
  5
750
330
1F
100
AcDbEntity
  8
0
  6
Continuous
100
AcDbSpline
210
0.0
220
0.0
230
1.0
 70
    12
 71
     2
 72
     6
 73
     3
 74
     0
 42
0.0000000001
 43
0.0000000001
 40
1.042507592243018
 40
1.042507592243018
 40
1.042507592243018
 40
3.327869458622809
 40
3.327869458622809
 40
3.327869458622809
 10
1691.3408760785
 20
49.97043745967653
 30
0.0
 41
1.007106630171232
 10
1690.389705300073
 20
61.55418898964876
 30
0.0
 41
1.011342813077115
 10
1688.825948568602
 20
71.10334087382148
 30
0.0
 41
1.0
  0
VIEWPORT
  5
71
330
55
100
AcDbEntity
 67
     1
  8
0
100
AcDbViewport
 10
133.3499908447265
 20
101.5999970436096
 30
0.0
 40
381.3957395593834
 41
218.2856291881582
 68
     1
 69
     1
 12
133.3499908447265
 22
101.5999970436096
 13
0.0
 23
0.0
 14
10.0
 24
10.0
 15
10.0
 25
10.0
 16
0.0
 26
0.0
 36
1.0
 17
0.0
 27
0.0
 37
0.0
 42
50.0
 43
0.0
 44
0.0
 45
218.2856291881582
 50
0.0
 51
0.0
 72
   100
 90
    32800
  1

281
     0
 71
     1
 74
     0
110
0.0
120
0.0
130
0.0
111
1.0
121
0.0
131
0.0
112
0.0
122
1.0
132
0.0
 79
     0
146
0.0
  0
VIEWPORT
  5
73
330
55
100
AcDbEntity
 67
     1
  8
0
100
AcDbViewport
 10
133.349993944168
 20
101.599993944168
 30
0.0
 40
213.3599903106689
 41
162.5599903106689
 68
     2
 69
     2
 12
210.0
 22
148.5
 13
0.0
 23
0.0
 14
10.0
 24
10.0
 15
10.0
 25
10.0
 16
0.0
 26
0.0
 36
1.0
 17
0.0
 27
0.0
 37
0.0
 42
50.0
 43
0.0
 44
0.0
 45
324.0677920111345
 50
0.0
 51
0.0
 72
   100
 90
    32864
  1

281
     0
 71
     1
 74
     0
110
0.0
120
0.0
130
0.0
111
1.0
121
0.0
131
0.0
112
0.0
122
1.0
132
0.0
 79
     0
146
0.0
  0
ENDSEC
  0
SECTION
  2
OBJECTS
  0
DICTIONARY
  5
C
330
0
100
AcDbDictionary
281
     1
  3
ACAD_GROUP
350
D
  3
ACAD_LAYOUT
350
1A
  3
ACAD_MLINESTYLE
350
17
  3
ACAD_PLOTSETTINGS
350
19
  3
ACAD_PLOTSTYLENAME
350
E
  3
AcDbVariableDictionary
350
5E
  0
DICTIONARY
  5
395
330
2
100
AcDbDictionary
280
     1
281
     1
  3
ACAD_LAYERSTATES
360
396
  0
DICTIONARY
  5
34D
330
1F
100
AcDbDictionary
280
     1
281
     1
  3
ACAD_LAYOUTSELFREF
360
384
  0
DICTIONARY
  5
34F
330
55
100
AcDbDictionary
280
     1
281
     1
  3
ACAD_LAYOUTSELFREF
360
388
  0
DICTIONARY
  5
351
330
50
100
AcDbDictionary
280
     1
281
     1
  3
ACAD_LAYOUTSELFREF
360
387
  0
DICTIONARY
  5
D
102
{ACAD_REACTORS
330
C
102
}
330
C
100
AcDbDictionary
281
     1
  0
DICTIONARY
  5
1A
102
{ACAD_REACTORS
330
C
102
}
330
C
100
AcDbDictionary
281
     1
  3
Model
350
22
  3
ﾚｲｱｳﾄ1
350
51
  3
ﾚｲｱｳﾄ2
350
56
  0
DICTIONARY
  5
17
102
{ACAD_REACTORS
330
C
102
}
330
C
100
AcDbDictionary
281
     1
  3
Standard
350
18
  0
DICTIONARY
  5
19
102
{ACAD_REACTORS
330
C
102
}
330
C
100
AcDbDictionary
281
     1
  0
ACDBDICTIONARYWDFLT
  5
E
102
{ACAD_REACTORS
330
C
102
}
330
C
100
AcDbDictionary
281
     1
  3
Normal
350
F
100
AcDbDictionaryWithDefault
340
F
  0
DICTIONARY
  5
5E
102
{ACAD_REACTORS
330
C
102
}
330
C
100
AcDbDictionary
281
     1
  3
DIMASSOC
350
5F
  3
HIDETEXT
350
63
  0
DICTIONARY
  5
396
102
{ACAD_REACTORS
330
395
102
}
330
395
100
AcDbDictionary
281
     1
  0
XRECORD
  5
384
102
{ACAD_REACTORS
330
34D
102
}
330
34D
100
AcDbXrecord
280
     1
340
1F
  0
XRECORD
  5
388
102
{ACAD_REACTORS
330
34F
102
}
330
34F
100
AcDbXrecord
280
     1
340
55
  0
XRECORD
  5
387
102
{ACAD_REACTORS
330
351
102
}
330
351
100
AcDbXrecord
280
     1
340
50
  0
LAYOUT
  5
22
102
{ACAD_REACTORS
330
1A
102
}
330
1A
100
AcDbPlotSettings
  1

  2
none_device
  4
ANSI_A_(8.50_x_11.00_Inches)
  6

 40
6.349999904632568
 41
19.04999923706054
 42
6.350006103515625
 43
19.04998779296875
 44
215.8999938964843
 45
279.3999938964843
 46
0.0
 47
0.0
 48
0.0
 49
0.0
140
0.0
141
0.0
142
1.0
143
78.436453180766
 70
 11952
 72
     0
 73
     1
 74
     0
  7

 75
     0
147
0.0127491741332998
148
0.0
149
0.0
100
AcDbLayout
  1
Model
 70
     1
 71
     0
 10
0.0
 20
0.0
 11
12.0
 21
9.0
 12
0.0
 22
0.0
 32
0.0
 14
0.0
 24
0.0
 34
0.0
 15
0.0
 25
0.0
 35
0.0
146
0.0
 13
0.0
 23
0.0
 33
0.0
 16
1.0
 26
0.0
 36
0.0
 17
0.0
 27
1.0
 37
0.0
 76
     0
330
1F
  0
LAYOUT
  5
51
102
{ACAD_REACTORS
330
1A
102
}
330
1A
100
AcDbPlotSettings
  1

  2
none_device
  4
Letter_(8.50_x_11.00_Inches)
  6

 40
6.349999904632568
 41
6.349999904632568
 42
6.350006103515625
 43
6.350006103515625
 44
215.8999938964843
 45
279.3999938964843
 46
0.0
 47
0.0
 48
0.0
 49
0.0
140
0.0
141
0.0
142
1.0
143
1.0
 70
   688
 72
     1
 73
     1
 74
     5
  7

 75
    16
147
1.0
148
0.0
149
0.0
100
AcDbLayout
  1
ﾚｲｱｳﾄ1
 70
     1
 71
     1
 10
-6.350006103515625
 20
-6.349999904632568
 11
273.0499877929687
 21
209.5499939918517
 12
0.0
 22
0.0
 32
0.0
 14
26.66076962115562
 24
20.31135699206657
 34
-0.0015258207003583
 15
240.039213369355
 25
182.8886381005154
 35
0.0000000349246037
146
0.0
 13
0.0
 23
0.0
 33
0.0
 16
1.0
 26
0.0
 36
0.0
 17
0.0
 27
1.0
 37
0.0
 76
     0
330
50
331
6B
  0
LAYOUT
  5
56
102
{ACAD_REACTORS
330
1A
102
}
330
1A
100
AcDbPlotSettings
  1

  2
none_device
  4
Letter_(8.50_x_11.00_Inches)
  6

 40
6.349999904632568
 41
6.349999904632568
 42
6.350006103515625
 43
6.350006103515625
 44
215.8999938964843
 45
279.3999938964843
 46
0.0
 47
0.0
 48
0.0
 49
0.0
140
0.0
141
0.0
142
1.0
143
1.0
 70
   688
 72
     1
 73
     1
 74
     5
  7

 75
    16
147
1.0
148
0.0
149
0.0
100
AcDbLayout
  1
ﾚｲｱｳﾄ2
 70
     1
 71
     2
 10
-6.350006103515625
 20
-6.349999904632568
 11
273.0499877929687
 21
209.5499939918517
 12
0.0
 22
0.0
 32
0.0
 14
26.66076962115562
 24
20.31135699206657
 34
-0.0015258207003583
 15
240.039213369355
 25
182.8886381005154
 35
0.0000000349246037
146
0.0
 13
0.0
 23
0.0
 33
0.0
 16
1.0
 26
0.0
 36
0.0
 17
0.0
 27
1.0
 37
0.0
 76
     0
330
55
331
71
  0
MLINESTYLE
  5
18
102
{ACAD_REACTORS
330
17
102
}
330
17
100
AcDbMlineStyle
  2
STANDARD
 70
     0
  3

 62
   256
 51
90.0
 52
90.0
 71
     2
 49
0.5
 62
   256
  6
BYLAYER
 49
-0.5
 62
   256
  6
BYLAYER
  0
ACDBPLACEHOLDER
  5
F
102
{ACAD_REACTORS
330
E
102
}
330
E
  0
DICTIONARYVAR
  5
5F
102
{ACAD_REACTORS
330
5E
102
}
330
5E
100
DictionaryVariables
280
     0
  1
2
  0
DICTIONARYVAR
  5
63
102
{ACAD_REACTORS
330
5E
102
}
330
5E
100
DictionaryVariables
280
     0
  1
1
  0
ENDSEC
  0
EOF
