  0
SECTION
  2
HEADER
  9
$ACADVER
  1
AC1015
  9
$ACADMAINTVER
 70
    14
  9
$DWGCODEPAGE
  3
ANSI_932
  9
$INSBASE
 10
0.0
 20
0.0
 30
0.0
  9
$EXTMIN
 10
32.71452998489349
 20
72.08485828808671
 30
-0.0000000000112498
  9
$EXTMAX
 10
2055.494709829696
 20
873.5090403857084
 30
0.0000000000002956
  9
$LIMMIN
 10
0.0
 20
0.0
  9
$LIMMAX
 10
420.0
 20
297.0
  9
$ORTHOMODE
 70
     0
  9
$REGENMODE
 70
     1
  9
$FILLMODE
 70
     1
  9
$QTEXTMODE
 70
     0
  9
$MIRRTEXT
 70
     1
  9
$LTSCALE
 40
1.0
  9
$ATTMODE
 70
     1
  9
$TEXTSIZE
 40
2.5
  9
$TRACEWID
 40
1.0
  9
$TEXTSTYLE
  7
Standard
  9
$CLAYER
  8
0
  9
$CELTYPE
  6
ByLayer
  9
$CECOLOR
 62
   256
  9
$CELTSCALE
 40
1.0
  9
$DISPSILH
 70
     0
  9
$DIMSCALE
 40
1.0
  9
$DIMASZ
 40
2.5
  9
$DIMEXO
 40
0.625
  9
$DIMDLI
 40
3.75
  9
$DIMRND
 40
0.0
  9
$DIMDLE
 40
0.0
  9
$DIMEXE
 40
1.25
  9
$DIMTP
 40
0.0
  9
$DIMTM
 40
0.0
  9
$DIMTXT
 40
2.5
  9
$DIMCEN
 40
2.5
  9
$DIMTSZ
 40
0.0
  9
$DIMTOL
 70
     0
  9
$DIMLIM
 70
     0
  9
$DIMTIH
 70
     0
  9
$DIMTOH
 70
     0
  9
$DIMSE1
 70
     0
  9
$DIMSE2
 70
     0
  9
$DIMTAD
 70
     1
  9
$DIMZIN
 70
     8
  9
$DIMBLK
  1

  9
$DIMASO
 70
     1
  9
$DIMSHO
 70
     1
  9
$DIMPOST
  1

  9
$DIMAPOST
  1

  9
$DIMALT
 70
     0
  9
$DIMALTD
 70
     3
  9
$DIMALTF
 40
0.03937007874016
  9
$DIMLFAC
 40
1.0
  9
$DIMTOFL
 70
     1
  9
$DIMTVP
 40
0.0
  9
$DIMTIX
 70
     0
  9
$DIMSOXD
 70
     0
  9
$DIMSAH
 70
     0
  9
$DIMBLK1
  1

  9
$DIMBLK2
  1

  9
$DIMSTYLE
  2
ISO-25
  9
$DIMCLRD
 70
     0
  9
$DIMCLRE
 70
     0
  9
$DIMCLRT
 70
     0
  9
$DIMTFAC
 40
1.0
  9
$DIMGAP
 40
0.625
  9
$DIMJUST
 70
     0
  9
$DIMSD1
 70
     0
  9
$DIMSD2
 70
     0
  9
$DIMTOLJ
 70
     0
  9
$DIMTZIN
 70
     8
  9
$DIMALTZ
 70
     0
  9
$DIMALTTZ
 70
     0
  9
$DIMUPT
 70
     0
  9
$DIMDEC
 70
     2
  9
$DIMTDEC
 70
     2
  9
$DIMALTU
 70
     2
  9
$DIMALTTD
 70
     3
  9
$DIMTXSTY
  7
Standard
  9
$DIMAUNIT
 70
     0
  9
$DIMADEC
 70
     0
  9
$DIMALTRND
 40
0.0
  9
$DIMAZIN
 70
     0
  9
$DIMDSEP
 70
    44
  9
$DIMATFIT
 70
     3
  9
$DIMFRAC
 70
     0
  9
$DIMLDRBLK
  1

  9
$DIMLUNIT
 70
     2
  9
$DIMLWD
 70
    -2
  9
$DIMLWE
 70
    -2
  9
$DIMTMOVE
 70
     0
  9
$LUNITS
 70
     2
  9
$LUPREC
 70
     4
  9
$SKETCHINC
 40
1.0
  9
$FILLETRAD
 40
10.0
  9
$AUNITS
 70
     0
  9
$AUPREC
 70
     0
  9
$MENU
  1
.
  9
$ELEVATION
 40
0.0
  9
$PELEVATION
 40
0.0
  9
$THICKNESS
 40
0.0
  9
$LIMCHECK
 70
     0
  9
$CHAMFERA
 40
10.0
  9
$CHAMFERB
 40
10.0
  9
$CHAMFERC
 40
20.0
  9
$CHAMFERD
 40
0.0
  9
$SKPOLY
 70
     0
  9
$TDCREATE
 40
2454284.642806713
  9
$TDUCREATE
 40
2454284.267806713
  9
$TDUPDATE
 40
2456899.672560451
  9
$TDUUPDATE
 40
2456899.297560451
  9
$TDINDWG
 40
0.0016765394
  9
$TDUSRTIMER
 40
0.0016765394
  9
$USRTIMER
 70
     1
  9
$ANGBASE
 50
0.0
  9
$ANGDIR
 70
     0
  9
$PDMODE
 70
     0
  9
$PDSIZE
 40
0.0
  9
$PLINEWID
 40
0.0
  9
$SPLFRAME
 70
     0
  9
$SPLINETYPE
 70
     6
  9
$SPLINESEGS
 70
     8
  9
$HANDSEED
  5
613
  9
$SURFTAB1
 70
     6
  9
$SURFTAB2
 70
     6
  9
$SURFTYPE
 70
     6
  9
$SURFU
 70
     6
  9
$SURFV
 70
     6
  9
$UCSBASE
  2

  9
$UCSNAME
  2

  9
$UCSORG
 10
0.0
 20
0.0
 30
0.0
  9
$UCSXDIR
 10
1.0
 20
0.0
 30
0.0
  9
$UCSYDIR
 10
0.0
 20
1.0
 30
0.0
  9
$UCSORTHOREF
  2

  9
$UCSORTHOVIEW
 70
     0
  9
$UCSORGTOP
 10
0.0
 20
0.0
 30
0.0
  9
$UCSORGBOTTOM
 10
0.0
 20
0.0
 30
0.0
  9
$UCSORGLEFT
 10
0.0
 20
0.0
 30
0.0
  9
$UCSORGRIGHT
 10
0.0
 20
0.0
 30
0.0
  9
$UCSORGFRONT
 10
0.0
 20
0.0
 30
0.0
  9
$UCSORGBACK
 10
0.0
 20
0.0
 30
0.0
  9
$PUCSBASE
  2

  9
$PUCSNAME
  2

  9
$PUCSORG
 10
0.0
 20
0.0
 30
0.0
  9
$PUCSXDIR
 10
1.0
 20
0.0
 30
0.0
  9
$PUCSYDIR
 10
0.0
 20
1.0
 30
0.0
  9
$PUCSORTHOREF
  2

  9
$PUCSORTHOVIEW
 70
     0
  9
$PUCSORGTOP
 10
0.0
 20
0.0
 30
0.0
  9
$PUCSORGBOTTOM
 10
0.0
 20
0.0
 30
0.0
  9
$PUCSORGLEFT
 10
0.0
 20
0.0
 30
0.0
  9
$PUCSORGRIGHT
 10
0.0
 20
0.0
 30
0.0
  9
$PUCSORGFRONT
 10
0.0
 20
0.0
 30
0.0
  9
$PUCSORGBACK
 10
0.0
 20
0.0
 30
0.0
  9
$USERI1
 70
     0
  9
$USERI2
 70
     0
  9
$USERI3
 70
     0
  9
$USERI4
 70
     0
  9
$USERI5
 70
     0
  9
$USERR1
 40
0.0
  9
$USERR2
 40
0.0
  9
$USERR3
 40
0.0
  9
$USERR4
 40
0.0
  9
$USERR5
 40
0.0
  9
$WORLDVIEW
 70
     1
  9
$SHADEDGE
 70
     3
  9
$SHADEDIF
 70
    70
  9
$TILEMODE
 70
     1
  9
$MAXACTVP
 70
    48
  9
$PINSBASE
 10
0.0
 20
0.0
 30
0.0
  9
$PLIMCHECK
 70
     0
  9
$PEXTMIN
 10
26.66076962115562
 20
20.31135699206657
 30
-0.0015258207003583
  9
$PEXTMAX
 10
240.039213369355
 20
182.8886381005154
 30
0.0000000349246037
  9
$PLIMMIN
 10
-6.350006103515625
 20
-6.349999904632568
  9
$PLIMMAX
 10
273.0499877929687
 20
209.5499939918517
  9
$UNITMODE
 70
     0
  9
$VISRETAIN
 70
     1
  9
$PLINEGEN
 70
     0
  9
$PSLTSCALE
 70
     1
  9
$TREEDEPTH
 70
  3020
  9
$CMLSTYLE
  2
Standard
  9
$CMLJUST
 70
     0
  9
$CMLSCALE
 40
20.0
  9
$PROXYGRAPHICS
 70
     1
  9
$MEASUREMENT
 70
     1
  9
$CELWEIGHT
370
    -1
  9
$ENDCAPS
280
     0
  9
$JOINSTYLE
280
     0
  9
$LWDISPLAY
290
     0
  9
$INSUNITS
 70
     4
  9
$HYPERLINKBASE
  1

  9
$STYLESHEET
  1

  9
$XEDIT
290
     1
  9
$CEPSNTYPE
380
     0
  9
$PSTYLEMODE
290
     1
  9
$FINGERPRINTGUID
  2
{FDEAD578-A652-11D2-9A35-0060089B3A3F}
  9
$VERSIONGUID
  2
{FD4EE7C3-C567-491A-B00D-B6144722D30E}
  9
$EXTNAMES
290
     1
  9
$PSVPSCALE
 40
0.0
  9
$OLESTARTUP
290
     0
  0
ENDSEC
  0
SECTION
  2
CLASSES
  0
CLASS
  1
ACDBDICTIONARYWDFLT
  2
AcDbDictionaryWithDefault
  3
AutoCAD 2000
 90
        0
280
     0
281
     0
  0
CLASS
  1
ACDBPLACEHOLDER
  2
AcDbPlaceHolder
  3
AutoCAD 2000
 90
        0
280
     0
281
     0
  0
CLASS
  1
LAYOUT
  2
AcDbLayout
  3
AutoCAD 2000
 90
        0
280
     0
281
     0
  0
CLASS
  1
DICTIONARYVAR
  2
AcDbDictionaryVar
  3
AutoCAD 2000
 90
        0
280
     0
281
     0
  0
CLASS
  1
LONG_TRANSACTION
  2
AcDbLongTransaction
  3
AutoCAD 2000
 90
    32768
280
     0
281
     0
  0
CLASS
  1
LWPOLYLINE
  2
AcDbPolyline
  3
AutoCAD 2000
 90
    32768
280
     0
281
     1
  0
CLASS
  1
HATCH
  2
AcDbHatch
  3
AutoCAD 2000
 90
    32768
280
     0
281
     1
  0
CLASS
  1
XRECORD
  2
AcDbXrecord
  3
AutoCAD 2000
 90
    32768
280
     0
281
     0
  0
ENDSEC
  0
SECTION
  2
TABLES
  0
TABLE
  2
VPORT
  5
8
330
0
100
AcDbSymbolTable
 70
     2
  0
VPORT
  5
612
330
8
100
AcDbSymbolTableRecord
100
AcDbViewportTableRecord
  2
*Active
 70
     0
 10
0.0
 20
0.0
 11
1.0
 21
1.0
 12
1044.104619907294
 22
472.7969493368975
 13
0.0
 23
0.0
 14
10.0
 24
10.0
 15
10.0
 25
10.0
 16
0.0
 26
0.0
 36
1.0
 17
0.0
 27
0.0
 37
0.0
 40
1275.528407027228
 41
1.592161016949152
 42
50.0
 43
0.0
 44
0.0
 50
0.0
 51
0.0
 71
     0
 72
   100
 73
     1
 74
     3
 75
     0
 76
     0
 77
     0
 78
     0
281
     0
 65
     1
110
0.0
120
0.0
130
0.0
111
1.0
121
0.0
131
0.0
112
0.0
122
1.0
132
0.0
 79
     0
146
0.0
  0
ENDTAB
  0
TABLE
  2
LTYPE
  5
5
330
0
100
AcDbSymbolTable
 70
     3
  0
LTYPE
  5
14
330
5
100
AcDbSymbolTableRecord
100
AcDbLinetypeTableRecord
  2
ByBlock
 70
     0
  3

 72
    65
 73
     0
 40
0.0
  0
LTYPE
  5
15
330
5
100
AcDbSymbolTableRecord
100
AcDbLinetypeTableRecord
  2
ByLayer
 70
     0
  3

 72
    65
 73
     0
 40
0.0
  0
LTYPE
  5
16
330
5
100
AcDbSymbolTableRecord
100
AcDbLinetypeTableRecord
  2
Continuous
 70
     0
  3
Solid line
 72
    65
 73
     0
 40
0.0
  0
LTYPE
  5
86
330
5
100
AcDbSymbolTableRecord
100
AcDbLinetypeTableRecord
  2
HIDDEN
 70
     0
  3
Hidden __ __ __ __ __ __ __ __ __ __ __ __ __ _
 72
    65
 73
     2
 40
0.375
 49
0.25
 74
     0
 49
-0.125
 74
     0
  0
LTYPE
  5
313
330
5
100
AcDbSymbolTableRecord
100
AcDbLinetypeTableRecord
  2
CENTER
 70
     0
  3
Center ____ _ ____ _ ____ _ ____ _ ____ _ ____
 72
    65
 73
     4
 40
50.8
 49
31.75
 74
     0
 49
-6.349999999999999
 74
     0
 49
6.349999999999999
 74
     0
 49
-6.349999999999999
 74
     0
  0
ENDTAB
  0
TABLE
  2
LAYER
  5
2
102
{ACAD_XDICTIONARY
360
316
102
}
330
0
100
AcDbSymbolTable
 70
     2
  0
LAYER
  5
10
330
2
100
AcDbSymbolTableRecord
100
AcDbLayerTableRecord
  2
0
 70
     0
 62
     7
  6
Continuous
370
    -3
390
F
  0
LAYER
  5
314
330
2
100
AcDbSymbolTableRecord
100
AcDbLayerTableRecord
  2
Visible (ISO)
 70
     0
 62
     7
  6
Continuous
370
    35
390
F
  0
ENDTAB
  0
TABLE
  2
STYLE
  5
3
330
0
100
AcDbSymbolTable
 70
     1
  0
STYLE
  5
11
330
3
100
AcDbSymbolTableRecord
100
AcDbTextStyleTableRecord
  2
Standard
 70
     0
 40
0.0
 41
1.0
 50
0.0
 71
     0
 42
2.5
  3
txt
  4

  0
ENDTAB
  0
TABLE
  2
VIEW
  5
6
330
0
100
AcDbSymbolTable
 70
     0
  0
ENDTAB
  0
TABLE
  2
UCS
  5
7
330
0
100
AcDbSymbolTable
 70
     0
  0
ENDTAB
  0
TABLE
  2
APPID
  5
9
330
0
100
AcDbSymbolTable
 70
     1
  0
APPID
  5
12
330
9
100
AcDbSymbolTableRecord
100
AcDbRegAppTableRecord
  2
ACAD
 70
     0
  0
ENDTAB
  0
TABLE
  2
DIMSTYLE
  5
A
330
0
100
AcDbSymbolTable
 70
     1
100
AcDbDimStyleTable
 71
     0
  0
DIMSTYLE
105
27
330
A
100
AcDbSymbolTableRecord
100
AcDbDimStyleTableRecord
  2
ISO-25
 70
     0
 41
2.5
 42
0.625
 43
3.75
 44
1.25
 73
     0
 74
     0
 77
     1
 78
     8
140
2.5
141
2.5
143
0.03937007874016
147
0.625
171
     3
172
     1
271
     2
272
     2
274
     3
278
    44
283
     0
284
     8
340
11
  0
ENDTAB
  0
TABLE
  2
BLOCK_RECORD
  5
1
330
0
100
AcDbSymbolTable
 70
     1
  0
BLOCK_RECORD
  5
1F
102
{ACAD_XDICTIONARY
360
2CC
102
}
330
1
100
AcDbSymbolTableRecord
100
AcDbBlockTableRecord
  2
*Model_Space
340
22
  0
BLOCK_RECORD
  5
55
102
{ACAD_XDICTIONARY
360
2CE
102
}
330
1
100
AcDbSymbolTableRecord
100
AcDbBlockTableRecord
  2
*Paper_Space
340
56
  0
BLOCK_RECORD
  5
50
102
{ACAD_XDICTIONARY
360
2D0
102
}
330
1
100
AcDbSymbolTableRecord
100
AcDbBlockTableRecord
  2
*Paper_Space0
340
51
  0
ENDTAB
  0
ENDSEC
  0
SECTION
  2
BLOCKS
  0
BLOCK
  5
20
330
1F
100
AcDbEntity
  8
0
100
AcDbBlockBegin
  2
*Model_Space
 70
     0
 10
0.0
 20
0.0
 30
0.0
  3
*Model_Space
  1

  0
ENDBLK
  5
21
330
1F
100
AcDbEntity
  8
0
100
AcDbBlockEnd
  0
BLOCK
  5
57
330
55
100
AcDbEntity
 67
     1
  8
0
100
AcDbBlockBegin
  2
*Paper_Space
 70
     0
 10
0.0
 20
0.0
 30
0.0
  3
*Paper_Space
  1

  0
ENDBLK
  5
58
330
55
100
AcDbEntity
 67
     1
  8
0
100
AcDbBlockEnd
  0
BLOCK
  5
52
330
50
100
AcDbEntity
  8
0
100
AcDbBlockBegin
  2
*Paper_Space0
 70
     0
 10
0.0
 20
0.0
 30
0.0
  3
*Paper_Space0
  1

  0
VIEWPORT
  5
6B
330
50
100
AcDbEntity
  8
0
100
AcDbViewport
 10
133.3499908447265
 20
101.5999970436096
 30
0.0
 40
381.3957395593834
 41
218.2856291881582
 69
     0
 12
133.3499908447265
 22
101.5999970436096
 13
0.0
 23
0.0
 14
10.0
 24
10.0
 15
10.0
 25
10.0
 16
0.0
 26
0.0
 36
1.0
 17
0.0
 27
0.0
 37
0.0
 42
50.0
 43
0.0
 44
0.0
 45
218.2856291881582
 50
0.0
 51
0.0
 72
   100
 90
    32800
  1

281
     0
 71
     1
 74
     0
110
0.0
120
0.0
130
0.0
111
1.0
121
0.0
131
0.0
112
0.0
122
1.0
132
0.0
 79
     0
146
0.0
  0
VIEWPORT
  5
6D
330
50
100
AcDbEntity
  8
0
100
AcDbViewport
 10
133.349993944168
 20
101.599993944168
 30
0.0
 40
213.3599903106689
 41
162.5599903106689
 69
     0
 12
210.0
 22
148.5
 13
0.0
 23
0.0
 14
10.0
 24
10.0
 15
10.0
 25
10.0
 16
0.0
 26
0.0
 36
1.0
 17
0.0
 27
0.0
 37
0.0
 42
50.0
 43
0.0
 44
0.0
 45
324.0677920111345
 50
0.0
 51
0.0
 72
   100
 90
    32864
  1

281
     0
 71
     1
 74
     0
110
0.0
120
0.0
130
0.0
111
1.0
121
0.0
131
0.0
112
0.0
122
1.0
132
0.0
 79
     0
146
0.0
  0
ENDBLK
  5
53
330
50
100
AcDbEntity
  8
0
100
AcDbBlockEnd
  0
ENDSEC
  0
SECTION
  2
ENTITIES
  0
LINE
  5
1A7
330
1F
100
AcDbEntity
  8
0
100
AcDbLine
 10
500.8236196814984
 20
170.327637164666
 30
0.0
 11
500.8236196814984
 21
171.827637164666
 31
0.0
  0
LINE
  5
1A8
330
1F
100
AcDbEntity
  8
0
100
AcDbLine
 10
636.8236246814984
 20
170.327637164666
 30
0.0
 11
636.8236246814984
 21
171.827637164666
 31
0.0
  0
LINE
  5
1A9
330
1F
100
AcDbEntity
  8
0
  6
Continuous
100
AcDbLine
 10
342.9924173182722
 20
575.9809087664179
 30
0.0
 11
340.992393327599
 21
575.9808981976521
 31
0.0
  0
LINE
  5
1AA
330
1F
100
AcDbEntity
  8
0
  6
Continuous
100
AcDbLine
 10
342.9924181979972
 20
576.2308931212775
 30
0.0
 11
342.9924071644929
 21
566.2308951348588
 31
0.0
  0
LINE
  5
1AB
330
1F
100
AcDbEntity
  8
0
  6
Continuous
100
AcDbLine
 10
355.4923716657209
 20
576.2308721423683
 30
0.0
 11
342.9924181979972
 21
576.2308931212775
 31
0.0
  0
LINE
  5
1AC
330
1F
100
AcDbEntity
  8
0
  6
Continuous
100
AcDbLine
 10
342.9924093022238
 20
566.4808786727596
 30
0.0
 11
340.9923934811361
 21
566.4808806840524
 31
0.0
  0
LINE
  5
1AD
330
1F
100
AcDbEntity
  8
0
  6
Continuous
100
AcDbLine
 10
340.9923581183401
 20
575.9808852919136
 30
0.0
 11
337.7495828592426
 21
575.879558467518
 31
0.0
  0
LINE
  5
1AE
330
1F
100
AcDbEntity
  8
0
  6
Continuous
100
AcDbLine
 10
340.9937938905741
 20
566.4808834054489
 30
0.0
 11
337.7495882584315
 21
566.5822822342363
 31
0.0
  0
LINE
  5
1AF
330
1F
100
AcDbEntity
  8
0
  6
Continuous
100
AcDbLine
 10
339.9284623554742
 20
575.9477127454819
 30
0.0
 11
339.9284574595812
 21
566.5141608409628
 31
0.0
  0
LINE
  5
1B0
330
1F
100
AcDbEntity
  8
0
  6
Continuous
100
AcDbLine
 10
355.4923782293935
 20
566.230898499108
 30
0.0
 11
342.9924071644929
 21
566.2308951348588
 31
0.0
  0
LINE
  5
1B1
330
1F
100
AcDbEntity
  8
0
  6
Continuous
100
AcDbLine
 10
355.4923716657209
 20
576.2308721423683
 30
0.0
 11
355.4923782293935
 21
566.230898499108
 31
0.0
  0
ARC
  5
1B2
330
1F
100
AcDbEntity
  8
0
  6
Continuous
100
AcDbCircle
 10
277.4285109543998
 20
571.2308853207381
 30
0.0
 40
68.49999421623016
100
AcDbArc
 50
4.185899364463987
 51
355.8141121544329
  0
CIRCLE
  5
1B3
330
1F
100
AcDbEntity
  8
0
  6
Continuous
100
AcDbCircle
 10
277.428510954401
 20
571.2308853207381
 30
0.0
 40
60.49993287413355
  0
CIRCLE
  5
1B4
330
1F
100
AcDbEntity
  8
0
  6
Continuous
100
AcDbCircle
 10
277.428510954401
 20
571.2308853207381
 30
0.0
 40
24.9999937135928
  0
CIRCLE
  5
1B5
330
1F
100
AcDbEntity
  8
0
  6
Continuous
100
AcDbCircle
 10
277.4285109543998
 20
571.2308853207381
 30
0.0
 40
7.999999514751436
  0
CIRCLE
  5
1B6
330
1F
100
AcDbEntity
  8
0
  6
Continuous
100
AcDbCircle
 10
277.4285364182262
 20
571.2308853207381
 30
0.0
 40
7.500036780200503
  0
ARC
  5
1B7
330
1F
100
AcDbEntity
  8
0
  6
HIDDEN
 48
10.0
100
AcDbCircle
 10
277.4285364182262
 20
571.2308853207381
 30
0.0
 40
58.000002
100
AcDbArc
 50
28.44068399038273
 51
61.55928100000478
  0
ARC
  5
1B8
330
1F
100
AcDbEntity
  8
0
  6
HIDDEN
 48
10.0
100
AcDbCircle
 10
277.4285364182262
 20
571.2308853207381
 30
0.0
 40
58.000002
100
AcDbArc
 50
208.440715104097
 51
241.5592799999938
  0
ARC
  5
1B9
330
1F
100
AcDbEntity
  8
0
  6
HIDDEN
 48
10.0
100
AcDbCircle
 10
277.4285364182262
 20
571.2308853207381
 30
0.0
 40
58.000002
100
AcDbArc
 50
118.4407200000062
 51
151.5592848959029
  0
ARC
  5
1BA
330
1F
100
AcDbEntity
  8
0
  6
HIDDEN
 48
10.0
100
AcDbCircle
 10
277.4285364182262
 20
571.2308853207381
 30
0.0
 40
58.000002
100
AcDbArc
 50
298.4407099999933
 51
331.5593160096172
  0
LINE
  5
1BB
330
1F
100
AcDbEntity
  8
0
  6
HIDDEN
 48
10.0
100
AcDbLine
 10
226.4285334182261
 20
543.6084320263618
 30
0.0
 11
226.4285334182261
 21
598.8533386151145
 31
0.0
  0
LINE
  5
1BC
330
1F
100
AcDbEntity
  8
0
  6
HIDDEN
 48
10.0
100
AcDbLine
 10
328.4285544182262
 20
543.608459721242
 30
0.0
 11
328.4285544182262
 21
598.8533109202343
 31
0.0
  0
LINE
  5
1BD
330
1F
100
AcDbEntity
  8
0
  6
HIDDEN
 48
10.0
100
AcDbLine
 10
249.8061039182262
 20
520.230885320738
 30
0.0
 11
305.0509929182262
 21
520.230885320738
 31
0.0
  0
LINE
  5
1BE
330
1F
100
AcDbEntity
  8
0
  6
HIDDEN
 48
10.0
100
AcDbLine
 10
249.8061039182262
 20
622.2308853207381
 30
0.0
 11
305.0509929182262
 21
622.2308853207381
 31
0.0
  0
LINE
  5
1BF
330
1F
100
AcDbEntity
  8
0
  6
Continuous
100
AcDbLine
 10
284.928579279728
 20
291.8276741691983
 30
0.0
 11
284.9285212455027
 21
271.19370599385
 31
0.0
  0
LINE
  5
1C0
330
1F
100
AcDbEntity
  8
0
  6
Continuous
100
AcDbLine
 10
285.4285403201351
 20
269.3276529377636
 30
0.0
 11
284.9285375846182
 21
271.1936808336969
 31
0.0
  0
LINE
  5
1C1
330
1F
100
AcDbEntity
  8
0
  6
Continuous
100
AcDbLine
 10
285.428511400943
 20
269.3276699283592
 30
0.0
 11
285.4285095457846
 21
268.3276767956594
 31
0.0
  0
ARC
  5
1C2
330
1F
100
AcDbEntity
  8
0
  6
Continuous
100
AcDbCircle
 10
318.3284183345547
 20
163.8277017834979
 30
0.0
 40
2.000000099999999
100
AcDbArc
 50
90.00003499999047
 51
180.0003599999971
  0
ARC
  5
1C3
330
1F
100
AcDbEntity
  8
0
  6
Continuous
100
AcDbCircle
 10
236.5286113574697
 20
163.8276695138724
 30
0.0
 40
2.000000099999999
100
AcDbArc
 50
0.0004499999996975
 51
90.00017300000179
  0
ARC
  5
1C4
330
1F
100
AcDbEntity
  8
0
  6
Continuous
100
AcDbCircle
 10
236.9285711108232
 20
235.0740308262407
 30
0.0
 40
19.999998
100
AcDbArc
 50
160.0000499999994
 51
179.9999500000014
  0
ARC
  5
1C5
330
1F
100
AcDbEntity
  8
0
  6
Continuous
100
AcDbCircle
 10
317.92846068111
 20
235.0740526561654
 30
0.0
 40
19.999998
100
AcDbArc
 50
0.0000100000075202
 51
19.99999000000286
  0
ARC
  5
1C6
330
1F
100
AcDbEntity
  8
0
  6
Continuous
100
AcDbCircle
 10
211.9285694492812
 20
199.3332294134573
 30
0.0
 40
4.9999995
100
AcDbArc
 50
299.9999599999933
 51
359.9999400000069
  0
ARC
  5
1C7
330
1F
100
AcDbEntity
  8
0
  6
Continuous
100
AcDbCircle
 10
253.4285214513875
 20
267.3276641390046
 30
0.0
 40
1.000000035
100
AcDbArc
 50
89.99989800000015
 51
180.0004499999996
  0
ARC
  5
1C8
330
1F
100
AcDbEntity
  8
0
  6
Continuous
100
AcDbCircle
 10
213.928514426587
 20
188.9409151536702
 30
0.0
 40
4.9999995
100
AcDbArc
 50
119.9999569999991
 51
179.999940000007
  0
ARC
  5
1C9
330
1F
100
AcDbEntity
  8
0
  6
Continuous
100
AcDbCircle
 10
321.9264385249364
 20
253.3276981163015
 30
0.0
 40
9.999999
100
AcDbArc
 50
19.99999000000286
 51
89.99999099999389
  0
ARC
  5
1CA
330
1F
100
AcDbEntity
  8
0
  6
Continuous
100
AcDbCircle
 10
232.9305906835227
 20
253.3277013221989
 30
0.0
 40
9.999999
100
AcDbArc
 50
90.00006300000373
 51
159.9999299999957
  0
ARC
  5
1CB
330
1F
100
AcDbEntity
  8
0
  6
Continuous
100
AcDbCircle
 10
342.9284420102718
 20
199.3332542399999
 30
0.0
 40
4.9999995
100
AcDbArc
 50
180.0001899999995
 51
240.0000199999976
  0
ARC
  5
1CC
330
1F
100
AcDbEntity
  8
0
  6
Continuous
100
AcDbCircle
 10
301.4285037170739
 20
267.3276593434128
 30
0.0
 40
1.000000035
100
AcDbArc
 50
0.0004499999996975
 51
89.99989800000015
  0
ARC
  5
1CD
330
1F
100
AcDbEntity
  8
0
  6
Continuous
100
AcDbCircle
 10
340.9285150823352
 20
188.9409118102184
 30
0.0
 40
4.9999995
100
AcDbArc
 50
359.9999699999969
 51
60.00000869999731
  0
LINE
  5
1CE
330
1F
100
AcDbEntity
  8
0
  6
Continuous
100
AcDbLine
 10
269.9284933874157
 20
291.8276907195532
 30
0.0
 11
284.9284985366293
 21
291.8276867493551
 31
0.0
  0
LINE
  5
1CF
330
1F
100
AcDbEntity
  8
0
  6
Continuous
100
AcDbLine
 10
269.9285058886357
 20
271.193722544127
 30
0.0
 11
284.928521245505
 21
271.1937201368883
 31
0.0
  0
LINE
  5
1D0
330
1F
100
AcDbEntity
  8
0
  6
Continuous
100
AcDbLine
 10
283.4285175344548
 20
293.3276895557576
 30
0.0
 11
284.9285148758003
 21
291.8277119094724
 31
0.0
  0
LINE
  5
1D1
330
1F
100
AcDbEntity
  8
0
  6
Continuous
100
AcDbLine
 10
271.4285043634038
 20
293.3276843017864
 30
0.0
 11
269.9285059674743
 21
291.8276825499677
 31
0.0
  0
LINE
  5
1D2
330
1F
100
AcDbEntity
  8
0
  6
Continuous
100
AcDbLine
 10
269.9284933874157
 20
291.8276907195532
 30
0.0
 11
269.9285058886357
 21
271.193722544127
 31
0.0
  0
LINE
  5
1D3
330
1F
100
AcDbEntity
  8
0
  6
Continuous
100
AcDbLine
 10
269.4284826961827
 20
269.3276705914379
 30
0.0
 11
269.9284895494647
 21
271.19369738401
 31
0.0
  0
LINE
  5
1D4
330
1F
100
AcDbEntity
  8
0
  6
Continuous
100
AcDbLine
 10
269.4285116154123
 20
269.3276875819697
 30
0.0
 11
269.4285112638845
 21
268.3276944492682
 31
0.0
  0
LINE
  5
1D5
330
1F
100
AcDbEntity
  8
0
  6
Continuous
100
AcDbLine
 10
269.4285116154123
 20
269.3276875819697
 30
0.0
 11
285.4285403201347
 21
269.3276877967825
 31
0.0
  0
LINE
  5
1D6
330
1F
100
AcDbEntity
  8
0
  6
Continuous
100
AcDbLine
 10
269.4285112638845
 20
268.3276944492682
 30
0.0
 11
285.4285221258578
 21
268.3276819579571
 31
0.0
  0
LINE
  5
1D7
330
1F
100
AcDbEntity
  8
0
  6
Continuous
100
AcDbLine
 10
271.4284917833452
 20
293.3276924713719
 30
0.0
 11
283.4285049543963
 21
293.3276977253431
 31
0.0
  0
LINE
  5
1D8
330
1F
100
AcDbEntity
  8
0
  6
Continuous
100
AcDbLine
 10
336.7282613122032
 20
238.6005800423021
 30
0.0
 11
218.1315365441748
 21
238.6005689933889
 31
0.0
  0
LINE
  5
1D9
330
1F
100
AcDbEntity
  8
0
  6
Continuous
100
AcDbLine
 10
236.5341482968783
 20
165.8276733661273
 30
0.0
 11
272.4285193826456
 21
165.8276845378277
 31
0.0
  0
LINE
  5
1DA
330
1F
100
AcDbEntity
  8
0
  6
Continuous
100
AcDbLine
 10
282.4285085630233
 20
165.8276792230334
 30
0.0
 11
318.3228985188784
 21
165.8276781403557
 31
0.0
  0
LINE
  5
1DB
330
1F
100
AcDbEntity
  8
0
  6
Continuous
100
AcDbLine
 10
327.6809033225522
 20
164.3276556595133
 30
0.0
 11
326.9880748910109
 21
164.7276475290355
 31
0.0
  0
LINE
  5
1DC
330
1F
100
AcDbEntity
  8
0
  6
Continuous
100
AcDbLine
 10
326.9881144958376
 20
164.7276754657085
 30
0.0
 11
336.9880986441919
 21
164.7276734187483
 31
0.0
  0
LINE
  5
1DD
330
1F
100
AcDbEntity
  8
0
  6
Continuous
100
AcDbLine
 10
327.6808995485346
 20
164.3276581103891
 30
0.0
 11
336.2952576119139
 21
164.3276573199562
 31
0.0
  0
LINE
  5
1DE
330
1F
100
AcDbEntity
  8
0
  6
Continuous
100
AcDbLine
 10
326.9881134272939
 20
170.3276819062305
 30
0.0
 11
336.9880975756482
 21
170.3276798592702
 31
0.0
  0
LINE
  5
1DF
330
1F
100
AcDbEntity
  8
0
  6
Continuous
100
AcDbLine
 10
336.9880986441919
 20
164.7276734187483
 30
0.0
 11
336.9880975756482
 21
170.3276798592702
 31
0.0
  0
LINE
  5
1E0
330
1F
100
AcDbEntity
  8
0
  6
Continuous
100
AcDbLine
 10
326.988110890604
 20
169.5276674022478
 30
0.0
 11
336.9880950389585
 21
169.5276653552877
 31
0.0
  0
LINE
  5
1E1
330
1F
100
AcDbEntity
  8
0
  6
Continuous
100
AcDbLine
 10
326.9881134272939
 20
170.3276819062305
 30
0.0
 11
326.988096668184
 21
171.8276560030289
 31
0.0
  0
LINE
  5
1E2
330
1F
100
AcDbEntity
  8
0
  6
Continuous
100
AcDbLine
 10
336.9880975756482
 20
170.3276798592702
 30
0.0
 11
336.9880808165385
 21
171.8276539560686
 31
0.0
  0
LINE
  5
1E3
330
1F
100
AcDbEntity
  8
0
  6
Continuous
100
AcDbLine
 10
336.2952626439372
 20
164.3276540521221
 30
0.0
 11
336.9880640713886
 21
164.7276422142411
 31
0.0
  0
LINE
  5
1E4
330
1F
100
AcDbEntity
  8
0
  6
Continuous
100
AcDbLine
 10
227.1760626074167
 20
164.3276430937098
 30
0.0
 11
227.8689281484514
 21
164.7276969326774
 31
0.0
  0
LINE
  5
1E5
330
1F
100
AcDbEntity
  8
0
  6
Continuous
100
AcDbLine
 10
218.5617428908585
 20
164.3276726377741
 30
0.0
 11
217.868906911282
 21
164.7276694090476
 31
0.0
  0
LINE
  5
1E6
330
1F
100
AcDbEntity
  8
0
  6
Continuous
100
AcDbLine
 10
217.8689194913405
 20
164.7276612394621
 30
0.0
 11
227.8689225097825
 21
164.7276469381237
 31
0.0
  0
LINE
  5
1E7
330
1F
100
AcDbEntity
  8
0
  6
Continuous
100
AcDbLine
 10
218.5617428908585
 20
164.3276726377741
 30
0.0
 11
227.1760871161732
 21
164.3276808338854
 31
0.0
  0
LINE
  5
1E8
330
1F
100
AcDbEntity
  8
0
  6
Continuous
100
AcDbLine
 10
217.8689209181303
 20
169.5276499081673
 30
0.0
 11
227.8689201625547
 21
169.5276380577045
 31
0.0
  0
LINE
  5
1E9
330
1F
100
AcDbEntity
  8
0
  6
Continuous
100
AcDbLine
 10
227.8689225097825
 20
164.7276469381237
 30
0.0
 11
227.8689176672212
 21
170.3276558295212
 31
0.0
  0
LINE
  5
1EA
330
1F
100
AcDbEntity
  8
0
  6
Continuous
100
AcDbLine
 10
217.8689194913405
 20
164.7276612394621
 30
0.0
 11
217.8689209388085
 21
170.327666046067
 31
0.0
  0
LINE
  5
1EB
330
1F
100
AcDbEntity
  8
0
  6
Continuous
100
AcDbLine
 10
282.4284884480243
 20
170.3276534675801
 30
0.0
 11
282.4284961976711
 21
171.8276653045541
 31
0.0
  0
LINE
  5
1EC
330
1F
100
AcDbEntity
  8
0
  6
Continuous
100
AcDbLine
 10
281.7356767670641
 20
164.3276662175658
 30
0.0
 11
282.4284744204978
 21
164.7276568305606
 31
0.0
  0
LINE
  5
1ED
330
1F
100
AcDbEntity
  8
0
  6
Continuous
100
AcDbLine
 10
273.1213187036849
 20
164.3276670079987
 30
0.0
 11
272.4284953041669
 21
164.7276556096866
 31
0.0
  0
LINE
  5
1EE
330
1F
100
AcDbEntity
  8
0
  6
Continuous
100
AcDbLine
 10
272.4285041102077
 20
164.7276498909768
 30
0.0
 11
282.4284844845447
 21
164.7276502948922
 31
0.0
  0
LINE
  5
1EF
330
1F
100
AcDbEntity
  8
0
  6
Continuous
100
AcDbLine
 10
273.1213187036849
 20
164.3276670079987
 30
0.0
 11
281.7356767670641
 21
164.3276662175658
 31
0.0
  0
LINE
  5
1F0
330
1F
100
AcDbEntity
  8
0
  6
Continuous
100
AcDbLine
 10
272.4285017629802
 20
169.5276410105577
 30
0.0
 11
282.4284808793111
 21
169.5276422314316
 31
0.0
  0
LINE
  5
1F1
330
1F
100
AcDbEntity
  8
0
  6
Continuous
100
AcDbLine
 10
217.8689209388085
 20
170.327666046067
 30
0.0
 11
217.8689274304494
 21
171.8276786999997
 31
0.0
  0
LINE
  5
1F2
330
1F
100
AcDbEntity
  8
0
  6
Continuous
100
AcDbLine
 10
217.8689209388085
 20
170.327666046067
 30
0.0
 11
227.8689176672212
 21
170.3276558295212
 31
0.0
  0
LINE
  5
1F3
330
1F
100
AcDbEntity
  8
0
  6
Continuous
100
AcDbLine
 10
272.4285093316934
 20
170.3276522467061
 30
0.0
 11
272.4285158233342
 21
171.8276649006385
 31
0.0
  0
LINE
  5
1F4
330
1F
100
AcDbEntity
  8
0
  6
Continuous
100
AcDbLine
 10
272.4285093316934
 20
170.3276522467061
 30
0.0
 11
282.4284884480243
 21
170.3276534675801
 31
0.0
  0
LINE
  5
1F5
330
1F
100
AcDbEntity
  8
0
  6
Continuous
100
AcDbLine
 10
227.8689176672212
 20
170.3276558295212
 30
0.0
 11
227.868925416868
 21
171.8276676664954
 31
0.0
  0
LINE
  5
1F6
330
1F
100
AcDbEntity
  8
0
  6
Continuous
100
AcDbLine
 10
282.4284844845447
 20
164.7276502948922
 30
0.0
 11
282.4284884480243
 21
170.3276534675801
 31
0.0
  0
LINE
  5
1F7
330
1F
100
AcDbEntity
  8
0
  6
Continuous
100
AcDbLine
 10
272.4285041102077
 20
164.7276498909768
 30
0.0
 11
272.4285093316934
 21
170.3276522467061
 31
0.0
  0
LINE
  5
1F8
330
1F
100
AcDbEntity
  8
0
  6
Continuous
100
AcDbLine
 10
345.9285233940248
 20
171.8276715945987
 30
0.0
 11
277.4285060105025
 21
171.8276651025963
 31
0.0
  0
LINE
  5
1F9
330
1F
100
AcDbEntity
  8
0
  6
Continuous
100
AcDbLine
 10
326.9881090335363
 20
165.8276699215083
 30
0.0
 11
318.328393270848
 21
165.8276511256837
 31
0.0
  0
LINE
  5
1FA
330
1F
100
AcDbEntity
  8
0
  6
Continuous
100
AcDbLine
 10
227.8689377822204
 20
165.8276815849747
 30
0.0
 11
236.5341482968783
 21
165.8276733661273
 31
0.0
  0
LINE
  5
1FB
330
1F
100
AcDbEntity
  8
0
  6
Continuous
100
AcDbLine
 10
208.9285192788549
 20
171.8276520042144
 30
0.0
 11
277.4285060105025
 21
171.8276651025963
 31
0.0
  0
LINE
  5
1FC
330
1F
100
AcDbEntity
  8
0
  6
Continuous
100
AcDbLine
 10
345.9285184772223
 20
176.8276519326066
 30
0.0
 11
208.9285179841114
 21
176.8276384638192
 31
0.0
  0
LINE
  5
1FD
330
1F
100
AcDbEntity
  8
0
  6
Continuous
100
AcDbLine
 10
238.5286120824873
 20
163.8276773060823
 30
0.0
 11
238.5286090169683
 21
150.8277006387866
 31
0.0
  0
LINE
  5
1FE
330
1F
100
AcDbEntity
  8
0
  6
Continuous
100
AcDbLine
 10
316.328414471975
 20
163.8276781433953
 30
0.0
 11
316.3283943178047
 21
150.8277006387866
 31
0.0
  0
LINE
  5
1FF
330
1F
100
AcDbEntity
  8
0
  6
Continuous
100
AcDbLine
 10
208.9285154333775
 20
188.9409206704223
 30
0.0
 11
208.9285192788549
 21
171.8276520042144
 31
0.0
  0
LINE
  5
200
330
1F
100
AcDbEntity
  8
0
  6
Continuous
100
AcDbLine
 10
277.4285048880897
 20
263.327693295196
 30
0.0
 11
232.9305935474412
 21
263.3276867285593
 31
0.0
  0
LINE
  5
201
330
1F
100
AcDbEntity
  8
0
  6
Continuous
100
AcDbLine
 10
253.4285255620279
 20
268.3276906014087
 30
0.0
 11
277.4285104048419
 21
268.3276922884054
 31
0.0
  0
LINE
  5
202
330
1F
100
AcDbEntity
  8
0
  6
Continuous
100
AcDbLine
 10
252.4285143325158
 20
263.3277001293125
 30
0.0
 11
252.4285201491005
 21
267.3276519104741
 31
0.0
  0
LINE
  5
203
330
1F
100
AcDbEntity
  8
0
  6
Continuous
100
AcDbLine
 10
277.4285115272548
 20
176.8276640958056
 30
0.0
 11
209.4285314240798
 21
176.8276385129767
 31
0.0
  0
LINE
  5
204
330
1F
100
AcDbEntity
  8
0
  6
Continuous
100
AcDbLine
 10
343.4383354818517
 20
191.8276815766567
 30
0.0
 11
211.42855057891
 21
191.8276599496659
 31
0.0
  0
LINE
  5
205
330
1F
100
AcDbEntity
  8
0
  6
Continuous
100
AcDbLine
 10
342.9924224055135
 20
238.5777025815056
 30
0.0
 11
340.9923984148404
 21
238.5776920127398
 31
0.0
  0
LINE
  5
206
330
1F
100
AcDbEntity
  8
0
  6
Continuous
100
AcDbLine
 10
337.9284488823278
 20
196.4464907595001
 30
0.0
 11
216.9285805828801
 21
196.4464865952388
 31
0.0
  0
LINE
  5
207
330
1F
100
AcDbEntity
  8
0
  6
Continuous
100
AcDbLine
 10
331.3233691015609
 20
256.7478846690156
 30
0.0
 11
336.7223117703126
 21
241.9144322972618
 31
0.0
  0
LINE
  5
208
330
1F
100
AcDbEntity
  8
0
  6
Continuous
100
AcDbLine
 10
214.4285560320042
 20
195.0031140871721
 30
0.0
 11
211.4285234333909
 21
193.2710512295995
 31
0.0
  0
LINE
  5
209
330
1F
100
AcDbEntity
  8
0
  6
Continuous
100
AcDbLine
 10
340.4284396787372
 20
195.0031021142202
 30
0.0
 11
343.4285149127631
 21
193.2710297893369
 31
0.0
  0
LINE
  5
20A
330
1F
100
AcDbEntity
  8
0
  6
Continuous
100
AcDbLine
 10
345.9285103015271
 20
188.940908744342
 30
0.0
 11
345.9285233940248
 21
171.8276715945987
 31
0.0
  0
LINE
  5
20B
330
1F
100
AcDbEntity
  8
0
  6
Continuous
100
AcDbLine
 10
326.9881144958376
 20
164.7276754657085
 30
0.0
 11
326.9881134272939
 21
170.3276819062305
 31
0.0
  0
LINE
  5
20C
330
1F
100
AcDbEntity
  8
0
  6
Continuous
100
AcDbLine
 10
277.4285048880897
 20
263.327693295196
 30
0.0
 11
321.9264231552228
 21
263.3276774782717
 31
0.0
  0
LINE
  5
20D
330
1F
100
AcDbEntity
  8
0
  6
Continuous
100
AcDbLine
 10
337.9284491059123
 20
235.0740354909079
 30
0.0
 11
337.9284436535178
 21
199.3332414579836
 31
0.0
  0
LINE
  5
20E
330
1F
100
AcDbEntity
  8
0
  6
Continuous
100
AcDbLine
 10
301.4285009161345
 20
268.3276724087996
 30
0.0
 11
277.4285104048419
 21
268.3276922884054
 31
0.0
  0
LINE
  5
20F
330
1F
100
AcDbEntity
  8
0
  6
Continuous
100
AcDbLine
 10
216.9285877180443
 20
235.0740447236637
 30
0.0
 11
216.9285684424905
 21
199.333223896705
 31
0.0
  0
LINE
  5
210
330
1F
100
AcDbEntity
  8
0
  6
Continuous
100
AcDbLine
 10
223.5336642790588
 20
256.7478737220263
 30
0.0
 11
218.1347346410666
 21
241.9144007860123
 31
0.0
  0
LINE
  5
211
330
1F
100
AcDbEntity
  8
0
  6
Continuous
100
AcDbLine
 10
302.4285086452725
 20
263.3276957733035
 30
0.0
 11
302.4285094298338
 21
267.3276508222993
 31
0.0
  0
LINE
  5
212
330
1F
100
AcDbEntity
  8
0
  6
Continuous
100
AcDbLine
 10
342.9924232852386
 20
238.8276869363652
 30
0.0
 11
342.9924122517343
 21
228.8276889499465
 31
0.0
  0
LINE
  5
213
330
1F
100
AcDbEntity
  8
0
  6
Continuous
100
AcDbLine
 10
355.4923767529623
 20
238.8276659574559
 30
0.0
 11
342.9924232852386
 21
238.8276869363652
 31
0.0
  0
LINE
  5
214
330
1F
100
AcDbEntity
  8
0
  6
Continuous
100
AcDbLine
 10
342.9924143894652
 20
229.0776724878473
 30
0.0
 11
340.9923985683775
 21
229.0776744991402
 31
0.0
  0
LINE
  5
215
330
1F
100
AcDbEntity
  8
0
  6
Continuous
100
AcDbLine
 10
337.9284412232509
 20
238.4819162517732
 30
0.0
 11
337.9284421795366
 21
235.0891531936858
 31
0.0
  0
LINE
  5
216
330
1F
100
AcDbEntity
  8
0
  6
Continuous
100
AcDbLine
 10
340.9923632055815
 20
238.5776791070012
 30
0.0
 11
337.9284575624219
 21
238.4819414118902
 31
0.0
  0
LINE
  5
217
330
1F
100
AcDbEntity
  8
0
  6
Continuous
100
AcDbLine
 10
340.9937989778155
 20
229.0776772205366
 30
0.0
 11
337.9284728715424
 21
229.1734851045831
 31
0.0
  0
LINE
  5
218
330
1F
100
AcDbEntity
  8
0
  6
Continuous
100
AcDbLine
 10
339.9284674427156
 20
238.5445065605695
 30
0.0
 11
339.9284625468226
 21
229.1109546560505
 31
0.0
  0
LINE
  5
219
330
1F
100
AcDbEntity
  8
0
  6
Continuous
100
AcDbLine
 10
355.4923833166349
 20
228.8276923141956
 30
0.0
 11
342.9924122517343
 21
228.8276889499465
 31
0.0
  0
LINE
  5
21A
330
1F
100
AcDbEntity
  8
0
  6
Continuous
100
AcDbLine
 10
355.4923767529623
 20
238.8276659574559
 30
0.0
 11
355.4923833166349
 21
228.8276923141956
 31
0.0
  0
CIRCLE
  5
21B
330
1F
100
AcDbEntity
  8
0
100
AcDbCircle
 10
568.8236146814984
 20
233.8276771646659
 30
0.0
 40
4.999969499999998
  0
ARC
  5
21C
330
1F
100
AcDbEntity
  8
0
100
AcDbCircle
 10
609.7235146814985
 20
163.8276421646661
 30
0.0
 40
2.000000099999999
100
AcDbArc
 50
90.0
 51
180.0
  0
ARC
  5
21D
330
1F
100
AcDbEntity
  8
0
100
AcDbCircle
 10
620.8236046814984
 20
170.8276321646661
 30
0.0
 40
4.9999995
100
AcDbArc
 50
270.0
 51
0.0
  0
ARC
  5
21E
330
1F
100
AcDbEntity
  8
0
100
AcDbCircle
 10
516.8236246814983
 20
170.8276321646661
 30
0.0
 40
4.9999995
100
AcDbArc
 50
180.0
 51
270.0
  0
ARC
  5
21F
330
1F
100
AcDbEntity
  8
0
100
AcDbCircle
 10
527.9237146814982
 20
163.8276421646661
 30
0.0
 40
2.000000099999999
100
AcDbArc
 50
0.0
 51
90.0
  0
ARC
  5
220
330
1F
100
AcDbEntity
  8
0
100
AcDbCircle
 10
528.3237046814983
 20
235.074027164666
 30
0.0
 40
19.999998
100
AcDbArc
 50
159.9999900000065
 51
180.0
  0
ARC
  5
221
330
1F
100
AcDbEntity
  8
0
100
AcDbCircle
 10
609.3235696814984
 20
235.074027164666
 30
0.0
 40
19.999998
100
AcDbArc
 50
0.0
 51
20.00000999999349
  0
ARC
  5
222
330
1F
100
AcDbEntity
  8
0
100
AcDbCircle
 10
503.3236996814983
 20
199.3332121646661
 30
0.0
 40
4.9999995
100
AcDbArc
 50
300.0000940000019
 51
0.0
  0
ARC
  5
223
330
1F
100
AcDbEntity
  8
0
100
AcDbCircle
 10
544.8236446814982
 20
267.3276421646661
 30
0.0
 40
1.000000035
100
AcDbArc
 50
90.0
 51
180.0
  0
ARC
  5
224
330
1F
100
AcDbEntity
  8
0
100
AcDbCircle
 10
505.3236496814983
 20
188.940882164666
 30
0.0
 40
4.9999995
100
AcDbArc
 50
120.0000899999888
 51
180.0
  0
ARC
  5
225
330
1F
100
AcDbEntity
  8
0
100
AcDbCircle
 10
613.3215346814984
 20
253.3276771646659
 30
0.0
 40
9.999999
100
AcDbArc
 50
19.99988999998877
 51
90.0
  0
ARC
  5
226
330
1F
100
AcDbEntity
  8
0
100
AcDbCircle
 10
524.3256946814983
 20
253.3276771646659
 30
0.0
 40
9.999999
100
AcDbArc
 50
90.0
 51
160.0001100000112
  0
ARC
  5
227
330
1F
100
AcDbEntity
  8
0
100
AcDbCircle
 10
634.3235596814984
 20
199.3332121646661
 30
0.0
 40
4.9999995
100
AcDbArc
 50
180.0
 51
239.9999100000115
  0
ARC
  5
228
330
1F
100
AcDbEntity
  8
0
100
AcDbCircle
 10
592.8236146814984
 20
267.3276421646661
 30
0.0
 40
1.000000035
100
AcDbArc
 50
0.0
 51
90.0
  0
ARC
  5
229
330
1F
100
AcDbEntity
  8
0
100
AcDbCircle
 10
632.3236246814984
 20
188.940882164666
 30
0.0
 40
4.9999995
100
AcDbArc
 50
0.0
 51
59.9999100000112
  0
CIRCLE
  5
22A
330
1F
100
AcDbEntity
  8
0
100
AcDbCircle
 10
568.8236146814984
 20
185.8276321646661
 30
0.0
 40
4.7935878
  0
CIRCLE
  5
22B
330
1F
100
AcDbEntity
  8
0
100
AcDbCircle
 10
568.8236146814984
 20
185.8276321646661
 30
0.0
 40
4.193888849999999
  0
LINE
  5
22C
330
1F
100
AcDbEntity
  8
0
100
AcDbLine
 10
561.3236146814983
 20
291.8276671646662
 30
0.0
 11
576.3236146814984
 21
291.8276671646662
 31
0.0
  0
LINE
  5
22D
330
1F
100
AcDbEntity
  8
0
100
AcDbLine
 10
561.3236146814983
 20
271.1936971646661
 30
0.0
 11
576.3236146814984
 21
271.1936971646661
 31
0.0
  0
LINE
  5
22E
330
1F
100
AcDbEntity
  8
0
100
AcDbLine
 10
574.8236146814983
 20
293.3276671646662
 30
0.0
 11
576.3236146814984
 21
291.8276671646662
 31
0.0
  0
LINE
  5
22F
330
1F
100
AcDbEntity
  8
0
100
AcDbLine
 10
562.8236146814983
 20
293.3276671646662
 30
0.0
 11
561.3236146814983
 21
291.8276671646662
 31
0.0
  0
LINE
  5
230
330
1F
100
AcDbEntity
  8
0
100
AcDbLine
 10
576.3236146814984
 20
291.8276671646662
 30
0.0
 11
576.3236146814984
 21
271.1936971646661
 31
0.0
  0
LINE
  5
231
330
1F
100
AcDbEntity
  8
0
100
AcDbLine
 10
561.3236146814983
 20
291.8276671646662
 30
0.0
 11
561.3236146814983
 21
271.1936971646661
 31
0.0
  0
LINE
  5
232
330
1F
100
AcDbEntity
  8
0
100
AcDbLine
 10
576.3235846814985
 20
271.1936971646661
 30
0.0
 11
576.8236096814982
 21
269.3276671646661
 31
0.0
  0
LINE
  5
233
330
1F
100
AcDbEntity
  8
0
100
AcDbLine
 10
560.8236196814984
 20
269.3276671646661
 30
0.0
 11
561.3236146814983
 21
271.1936971646661
 31
0.0
  0
LINE
  5
234
330
1F
100
AcDbEntity
  8
0
100
AcDbLine
 10
560.8236196814984
 20
269.3276671646661
 30
0.0
 11
560.8236196814984
 21
268.3276771646659
 31
0.0
  0
LINE
  5
235
330
1F
100
AcDbEntity
  8
0
100
AcDbLine
 10
576.8236096814982
 20
269.3276671646661
 30
0.0
 11
576.8236096814982
 21
268.3276771646659
 31
0.0
  0
LINE
  5
236
330
1F
100
AcDbEntity
  8
0
100
AcDbLine
 10
560.8236196814984
 20
269.3276671646661
 30
0.0
 11
576.8236096814982
 21
269.3276671646661
 31
0.0
  0
LINE
  5
237
330
1F
100
AcDbEntity
  8
0
100
AcDbLine
 10
560.8236196814984
 20
268.3276771646659
 30
0.0
 11
576.8236096814982
 21
268.3276771646659
 31
0.0
  0
LINE
  5
238
330
1F
100
AcDbEntity
  8
0
100
AcDbLine
 10
562.8236146814983
 20
293.3276671646662
 30
0.0
 11
574.8236146814983
 21
293.3276671646662
 31
0.0
  0
LINE
  5
239
330
1F
100
AcDbEntity
  8
0
100
AcDbLine
 10
605.3236096814982
 20
170.327637164666
 30
0.0
 11
605.3236096814982
 21
171.827637164666
 31
0.0
  0
LINE
  5
23A
330
1F
100
AcDbEntity
  8
0
100
AcDbLine
 10
567.3338446814985
 20
238.6005571646661
 30
0.0
 11
509.5266496814984
 21
238.6005571646661
 31
0.0
  0
LINE
  5
23B
330
1F
100
AcDbEntity
  8
0
100
AcDbLine
 10
542.3236246814983
 20
165.827637164666
 30
0.0
 11
568.8236146814984
 21
165.827637164666
 31
0.0
  0
LINE
  5
23C
330
1F
100
AcDbEntity
  8
0
100
AcDbLine
 10
605.3236096814982
 20
164.7276271646661
 30
0.0
 11
595.3236046814984
 21
164.7276271646661
 31
0.0
  0
LINE
  5
23D
330
1F
100
AcDbEntity
  8
0
100
AcDbLine
 10
604.6307746814984
 20
164.327637164666
 30
0.0
 11
605.3236096814982
 21
164.7276271646661
 31
0.0
  0
LINE
  5
23E
330
1F
100
AcDbEntity
  8
0
100
AcDbLine
 10
596.0164546814983
 20
164.327637164666
 30
0.0
 11
595.3236496814984
 21
164.7276271646661
 31
0.0
  0
LINE
  5
23F
330
1F
100
AcDbEntity
  8
0
100
AcDbLine
 10
636.1307746814982
 20
164.3276221646659
 30
0.0
 11
636.8235796814984
 21
164.727612164666
 31
0.0
  0
LINE
  5
240
330
1F
100
AcDbEntity
  8
0
100
AcDbLine
 10
627.5164246814983
 20
164.3276221646659
 30
0.0
 11
626.8236046814983
 21
164.727612164666
 31
0.0
  0
LINE
  5
241
330
1F
100
AcDbEntity
  8
0
100
AcDbLine
 10
626.8236196814984
 20
164.7276271646661
 30
0.0
 11
636.8236246814984
 21
164.7276271646661
 31
0.0
  0
LINE
  5
242
330
1F
100
AcDbEntity
  8
0
100
AcDbLine
 10
627.5164246814983
 20
164.327637164666
 30
0.0
 11
636.1307746814982
 21
164.327637164666
 31
0.0
  0
LINE
  5
243
330
1F
100
AcDbEntity
  8
0
100
AcDbLine
 10
626.8236196814984
 20
169.5276271646661
 30
0.0
 11
636.8236246814984
 21
169.5276271646661
 31
0.0
  0
LINE
  5
244
330
1F
100
AcDbEntity
  8
0
100
AcDbLine
 10
636.8236246814984
 20
164.7276271646661
 30
0.0
 11
636.8236246814984
 21
170.327637164666
 31
0.0
  0
LINE
  5
245
330
1F
100
AcDbEntity
  8
0
100
AcDbLine
 10
626.8236196814984
 20
164.7276271646661
 30
0.0
 11
626.8236196814984
 21
170.327637164666
 31
0.0
  0
LINE
  5
246
330
1F
100
AcDbEntity
  8
0
100
AcDbLine
 10
626.8236196814984
 20
170.327637164666
 30
0.0
 11
626.8236196814984
 21
171.827637164666
 31
0.0
  0
LINE
  5
247
330
1F
100
AcDbEntity
  8
0
100
AcDbLine
 10
626.8236196814984
 20
170.327637164666
 30
0.0
 11
636.8236246814984
 21
170.327637164666
 31
0.0
  0
LINE
  5
248
330
1F
100
AcDbEntity
  8
0
100
AcDbLine
 10
510.1307746814984
 20
164.327637164666
 30
0.0
 11
510.8236096814983
 21
164.7276271646661
 31
0.0
  0
LINE
  5
249
330
1F
100
AcDbEntity
  8
0
100
AcDbLine
 10
501.5164546814983
 20
164.3276671646662
 30
0.0
 11
500.8236196814984
 21
164.727657164666
 31
0.0
  0
LINE
  5
24A
330
1F
100
AcDbEntity
  8
0
100
AcDbLine
 10
500.8236196814984
 20
164.7276271646661
 30
0.0
 11
510.8236246814983
 21
164.7276271646661
 31
0.0
  0
LINE
  5
24B
330
1F
100
AcDbEntity
  8
0
100
AcDbLine
 10
501.5164546814983
 20
164.327637164666
 30
0.0
 11
510.1307746814984
 21
164.327637164666
 31
0.0
  0
LINE
  5
24C
330
1F
100
AcDbEntity
  8
0
100
AcDbLine
 10
500.8236196814984
 20
169.5276271646661
 30
0.0
 11
510.8236246814983
 21
169.5276271646661
 31
0.0
  0
LINE
  5
24D
330
1F
100
AcDbEntity
  8
0
100
AcDbLine
 10
510.8236246814983
 20
164.7276271646661
 30
0.0
 11
510.8236246814983
 21
170.327637164666
 31
0.0
  0
LINE
  5
24E
330
1F
100
AcDbEntity
  8
0
100
AcDbLine
 10
500.8236196814984
 20
164.7276271646661
 30
0.0
 11
500.8236196814984
 21
170.327637164666
 31
0.0
  0
LINE
  5
24F
330
1F
100
AcDbEntity
  8
0
100
AcDbLine
 10
542.3236246814983
 20
170.327637164666
 30
0.0
 11
542.3236246814983
 21
171.827637164666
 31
0.0
  0
LINE
  5
250
330
1F
100
AcDbEntity
  8
0
100
AcDbLine
 10
541.6307746814984
 20
164.3276221646659
 30
0.0
 11
542.3235796814983
 21
164.727612164666
 31
0.0
  0
LINE
  5
251
330
1F
100
AcDbEntity
  8
0
100
AcDbLine
 10
533.0164546814983
 20
164.3276671646662
 30
0.0
 11
532.3236196814985
 21
164.727657164666
 31
0.0
  0
LINE
  5
252
330
1F
100
AcDbEntity
  8
0
100
AcDbLine
 10
532.3236196814985
 20
164.7276271646661
 30
0.0
 11
542.3236246814983
 21
164.7276271646661
 31
0.0
  0
LINE
  5
253
330
1F
100
AcDbEntity
  8
0
100
AcDbLine
 10
533.0164246814984
 20
164.327637164666
 30
0.0
 11
541.6307746814984
 21
164.327637164666
 31
0.0
  0
LINE
  5
254
330
1F
100
AcDbEntity
  8
0
100
AcDbLine
 10
532.3236196814985
 20
169.5276271646661
 30
0.0
 11
542.3236246814983
 21
169.5276271646661
 31
0.0
  0
LINE
  5
255
330
1F
100
AcDbEntity
  8
0
100
AcDbLine
 10
500.8236196814984
 20
170.327637164666
 30
0.0
 11
510.8236246814983
 21
170.327637164666
 31
0.0
  0
LINE
  5
256
330
1F
100
AcDbEntity
  8
0
100
AcDbLine
 10
532.3236196814985
 20
170.327637164666
 30
0.0
 11
532.3236196814985
 21
171.827637164666
 31
0.0
  0
LINE
  5
257
330
1F
100
AcDbEntity
  8
0
100
AcDbLine
 10
532.3236196814985
 20
170.327637164666
 30
0.0
 11
542.3236246814983
 21
170.327637164666
 31
0.0
  0
LINE
  5
258
330
1F
100
AcDbEntity
  8
0
100
AcDbLine
 10
510.8236246814983
 20
170.327637164666
 30
0.0
 11
510.8236246814983
 21
171.827637164666
 31
0.0
  0
LINE
  5
259
330
1F
100
AcDbEntity
  8
0
100
AcDbLine
 10
542.3236246814983
 20
164.7276271646661
 30
0.0
 11
542.3236246814983
 21
170.327637164666
 31
0.0
  0
LINE
  5
25A
330
1F
100
AcDbEntity
  8
0
100
AcDbLine
 10
532.3236196814985
 20
164.7276271646661
 30
0.0
 11
532.3236196814985
 21
170.327637164666
 31
0.0
  0
LINE
  5
25B
330
1F
100
AcDbEntity
  8
0
100
AcDbLine
 10
636.3236146814983
 20
171.827637164666
 30
0.0
 11
625.8236146814984
 21
171.827637164666
 31
0.0
  0
LINE
  5
25C
330
1F
100
AcDbEntity
  8
0
100
AcDbLine
 10
620.8236046814984
 20
165.827637164666
 30
0.0
 11
605.3236096814982
 21
165.827637164666
 31
0.0
  0
LINE
  5
25D
330
1F
100
AcDbEntity
  8
0
100
AcDbLine
 10
625.8236146814984
 20
171.827637164666
 30
0.0
 11
625.8236146814984
 21
170.8276321646661
 31
0.0
  0
LINE
  5
25E
330
1F
100
AcDbEntity
  8
0
100
AcDbLine
 10
516.8236246814983
 20
165.827637164666
 30
0.0
 11
532.3236196814985
 21
165.827637164666
 31
0.0
  0
LINE
  5
25F
330
1F
100
AcDbEntity
  8
0
100
AcDbLine
 10
568.8236146814984
 20
191.8276321646661
 30
0.0
 11
634.8235846814985
 21
191.8276321646661
 31
0.0
  0
LINE
  5
260
330
1F
100
AcDbEntity
  8
0
100
AcDbLine
 10
570.3133846814982
 20
238.6005571646661
 30
0.0
 11
628.1205796814983
 21
238.6005571646661
 31
0.0
  0
LINE
  5
261
330
1F
100
AcDbEntity
  8
0
100
AcDbLine
 10
500.3236246814983
 20
171.827637164666
 30
0.0
 11
568.8236146814984
 21
171.827637164666
 31
0.0
  0
LINE
  5
262
330
1F
100
AcDbEntity
  8
0
100
AcDbLine
 10
568.8236146814984
 20
176.8276321646661
 30
0.0
 11
500.3236246814984
 21
176.8276321646661
 31
0.0
  0
LINE
  5
263
330
1F
100
AcDbEntity
  8
0
100
AcDbLine
 10
511.8236146814983
 20
171.827637164666
 30
0.0
 11
511.8236146814983
 21
170.8276321646661
 31
0.0
  0
LINE
  5
264
330
1F
100
AcDbEntity
  8
0
100
AcDbLine
 10
529.9237246814985
 20
163.8276421646661
 30
0.0
 11
529.9237246814985
 21
150.8277006387867
 31
0.0
  0
LINE
  5
265
330
1F
100
AcDbEntity
  8
0
100
AcDbLine
 10
607.7235196814983
 20
163.8276421646661
 30
0.0
 11
607.7235196814983
 21
150.8277006387871
 31
0.0
  0
LINE
  5
266
330
1F
100
AcDbEntity
  8
0
100
AcDbLine
 10
500.3236246814983
 20
188.940882164666
 30
0.0
 11
500.3236246814983
 21
171.827637164666
 31
0.0
  0
LINE
  5
267
330
1F
100
AcDbEntity
  8
0
100
AcDbLine
 10
568.8236146814984
 20
263.3276671646661
 30
0.0
 11
524.3256946814983
 21
263.3276671646661
 31
0.0
  0
LINE
  5
268
330
1F
100
AcDbEntity
  8
0
100
AcDbLine
 10
605.3236096814982
 20
169.5276271646661
 30
0.0
 11
595.3236046814984
 21
169.5276271646661
 31
0.0
  0
LINE
  5
269
330
1F
100
AcDbEntity
  8
0
100
AcDbLine
 10
605.3236096814982
 20
164.7276271646661
 30
0.0
 11
605.3236096814982
 21
170.327637164666
 31
0.0
  0
LINE
  5
26A
330
1F
100
AcDbEntity
  8
0
100
AcDbLine
 10
544.8236446814982
 20
268.3276771646659
 30
0.0
 11
568.8236146814984
 21
268.3276771646659
 31
0.0
  0
LINE
  5
26B
330
1F
100
AcDbEntity
  8
0
100
AcDbLine
 10
543.8236246814983
 20
263.3276671646661
 30
0.0
 11
543.8236246814983
 21
267.3276421646661
 31
0.0
  0
LINE
  5
26C
330
1F
100
AcDbEntity
  8
0
100
AcDbLine
 10
568.8236146814984
 20
176.8276321646661
 30
0.0
 11
500.8236496814983
 21
176.8276321646661
 31
0.0
  0
LINE
  5
26D
330
1F
100
AcDbEntity
  8
0
100
AcDbLine
 10
568.8236146814984
 20
191.8276321646661
 30
0.0
 11
502.8236446814982
 21
191.8276321646661
 31
0.0
  0
LINE
  5
26E
330
1F
100
AcDbEntity
  8
0
100
AcDbLine
 10
595.3236046814984
 20
170.327637164666
 30
0.0
 11
595.3236046814984
 21
171.827637164666
 31
0.0
  0
LINE
  5
26F
330
1F
100
AcDbEntity
  8
0
100
AcDbLine
 10
637.3236196814982
 20
171.827637164666
 30
0.0
 11
568.8236146814984
 21
171.827637164666
 31
0.0
  0
LINE
  5
270
330
1F
100
AcDbEntity
  8
0
100
AcDbLine
 10
568.8236146814984
 20
196.446462164666
 30
0.0
 11
508.3236946814984
 21
196.446462164666
 31
0.0
  0
LINE
  5
271
330
1F
100
AcDbEntity
  8
0
100
AcDbLine
 10
622.7184646814983
 20
256.747857164666
 30
0.0
 11
628.1173996814985
 21
241.9144321646661
 31
0.0
  0
LINE
  5
272
330
1F
100
AcDbEntity
  8
0
100
AcDbLine
 10
595.3236046814984
 20
165.827637164666
 30
0.0
 11
568.8236146814984
 21
165.827637164666
 31
0.0
  0
LINE
  5
273
330
1F
100
AcDbEntity
  8
0
100
AcDbLine
 10
568.8236146814984
 20
176.8276321646661
 30
0.0
 11
637.3236196814982
 21
176.8276321646661
 31
0.0
  0
LINE
  5
274
330
1F
100
AcDbEntity
  8
0
100
AcDbLine
 10
505.8236896814983
 20
195.003087164666
 30
0.0
 11
502.8236146814983
 21
193.271007164666
 31
0.0
  0
LINE
  5
275
330
1F
100
AcDbEntity
  8
0
100
AcDbLine
 10
568.8236146814984
 20
196.446462164666
 30
0.0
 11
629.3235346814983
 21
196.446462164666
 31
0.0
  0
LINE
  5
276
330
1F
100
AcDbEntity
  8
0
100
AcDbLine
 10
631.8235696814983
 20
195.003087164666
 30
0.0
 11
634.8236146814984
 21
193.271007164666
 31
0.0
  0
LINE
  5
277
330
1F
100
AcDbEntity
  8
0
100
AcDbLine
 10
637.3236196814982
 20
188.940882164666
 30
0.0
 11
637.3236196814982
 21
171.827637164666
 31
0.0
  0
LINE
  5
278
330
1F
100
AcDbEntity
  8
0
100
AcDbLine
 10
568.8236146814984
 20
263.3276671646661
 30
0.0
 11
613.3215346814984
 21
263.3276671646661
 31
0.0
  0
LINE
  5
279
330
1F
100
AcDbEntity
  8
0
100
AcDbLine
 10
629.3235646814984
 20
235.074027164666
 30
0.0
 11
629.3235646814984
 21
199.3332121646661
 31
0.0
  0
LINE
  5
27A
330
1F
100
AcDbEntity
  8
0
100
AcDbLine
 10
592.8236146814984
 20
268.3276771646659
 30
0.0
 11
568.8236146814984
 21
268.3276771646659
 31
0.0
  0
LINE
  5
27B
330
1F
100
AcDbEntity
  8
0
100
AcDbLine
 10
593.8236196814984
 20
263.3276671646661
 30
0.0
 11
593.8236196814984
 21
267.3276421646661
 31
0.0
  0
LINE
  5
27C
330
1F
100
AcDbEntity
  8
0
100
AcDbLine
 10
514.9287646814984
 20
256.747857164666
 30
0.0
 11
509.5298296814982
 21
241.9143871646659
 31
0.0
  0
LINE
  5
27D
330
1F
100
AcDbEntity
  8
0
100
AcDbLine
 10
508.3236946814984
 20
235.074027164666
 30
0.0
 11
508.3236946814984
 21
199.3332121646661
 31
0.0
  0
LINE
  5
27E
330
1F
100
AcDbEntity
  8
0
100
AcDbLine
 10
605.3236096814982
 20
170.327637164666
 30
0.0
 11
595.3236046814984
 21
170.327637164666
 31
0.0
  0
LINE
  5
27F
330
1F
100
AcDbEntity
  8
0
100
AcDbLine
 10
595.3236046814984
 20
164.7276271646661
 30
0.0
 11
595.3236046814984
 21
170.327637164666
 31
0.0
  0
LINE
  5
280
330
1F
100
AcDbEntity
  8
0
100
AcDbLine
 10
604.6308046814983
 20
164.327637164666
 30
0.0
 11
596.0164546814983
 21
164.327637164666
 31
0.0
  0
TEXT
  5
281
330
1F
100
AcDbEntity
  8
0
100
AcDbText
 10
32.85499999999899
 20
825.4957054246359
 30
0.0
 40
48.000002
  1
DHC2S11RD000 1.5S
 41
1.32095
100
AcDbText
  0
CIRCLE
  5
282
330
1F
100
AcDbEntity
  8
0
100
AcDbCircle
 10
568.8236146814984
 20
146.8277311563648
 30
0.0
 40
3.500015258788379
  0
LINE
  5
283
330
1F
100
AcDbEntity
  8
0
  6
Continuous
100
AcDbLine
 10
336.4285259037234
 20
143.3277158975758
 30
0.0
 11
328.4285106449351
 21
143.3277166049259
 31
0.0
  0
LINE
  5
284
330
1F
100
AcDbEntity
  8
0
  6
Continuous
100
AcDbLine
 10
336.4285259037234
 20
143.3277158975758
 30
0.0
 11
336.428526522656
 21
150.3277464151538
 31
0.0
  0
LINE
  5
285
330
1F
100
AcDbEntity
  8
0
  6
Continuous
100
AcDbLine
 10
336.428526522656
 20
150.3277464151538
 30
0.0
 11
328.4285112638669
 21
150.3277471225023
 31
0.0
  0
LINE
  5
286
330
1F
100
AcDbEntity
  8
0
  6
Continuous
100
AcDbLine
 10
296.47849874737
 20
637.0286601517403
 30
0.0
 11
296.47849874737
 21
645.6242870119512
 31
0.0
  0
LINE
  5
287
330
1F
100
AcDbEntity
  8
0
  6
HIDDEN
 48
10.0
100
AcDbLine
 10
296.47849874737
 20
622.2308853207381
 30
0.0
 11
296.47849874737
 21
637.0286601517403
 31
0.0
  0
LINE
  5
288
330
1F
100
AcDbEntity
  8
0
  6
Continuous
100
AcDbLine
 10
302.6785109544011
 20
647.880906988204
 30
0.0
 11
296.47849874737
 21
645.6242870119512
 31
0.0
  0
LINE
  5
289
330
1F
100
AcDbEntity
  8
0
  6
Continuous
100
AcDbLine
 10
302.6785109544011
 20
650.7308853207381
 30
0.0
 11
302.6785109544011
 21
647.880906988204
 31
0.0
  0
LINE
  5
28A
330
1F
100
AcDbEntity
  8
0
  6
HIDDEN
 48
10.0
100
AcDbLine
 10
258.3785231614326
 20
637.0286601517411
 30
0.0
 11
258.3785231614326
 21
622.2308853207381
 31
0.0
  0
LINE
  5
28B
330
1F
100
AcDbEntity
  8
0
  6
Continuous
100
AcDbLine
 10
258.3785231614326
 20
645.624292826404
 30
0.0
 11
258.3785231614326
 21
637.0286601517411
 31
0.0
  0
LINE
  5
28C
330
1F
100
AcDbEntity
  8
0
  6
Continuous
100
AcDbLine
 10
252.1785109544011
 20
647.8809128026568
 30
0.0
 11
258.3785231614326
 21
645.624292826404
 31
0.0
  0
LINE
  5
28D
330
1F
100
AcDbEntity
  8
0
  6
Continuous
100
AcDbLine
 10
252.1785109544009
 20
650.7308853207381
 30
0.0
 11
252.1785109544011
 21
647.8809128026568
 31
0.0
  0
LINE
  5
28E
330
1F
100
AcDbEntity
  8
0
  6
Continuous
100
AcDbLine
 10
252.1785109544009
 20
650.7308853207381
 30
0.0
 11
302.6785109544011
 21
650.7308853207381
 31
0.0
  0
LINE
  5
28F
330
1F
100
AcDbEntity
  8
0
100
AcDbLine
 10
643.2169445351226
 20
92.4277220010914
 30
0.0
 11
619.8236146814977
 21
92.42772200109195
 31
0.0
  0
LINE
  5
290
330
1F
100
AcDbEntity
  8
0
100
AcDbLine
 10
643.2169585664926
 20
130.5276823282397
 30
0.0
 11
619.8236146814983
 21
130.5276823282403
 31
0.0
  0
LINE
  5
291
330
1F
100
AcDbEntity
  8
0
100
AcDbLine
 10
619.8236146814983
 20
150.8277006387871
 30
0.0
 11
619.8236146814986
 21
90.62770369054518
 31
0.0
  0
LINE
  5
292
330
1F
100
AcDbEntity
  8
0
100
AcDbLine
 10
645.4735785427458
 20
136.727694535271
 30
0.0
 11
643.2169585664926
 21
130.5276823282397
 31
0.0
  0
LINE
  5
293
330
1F
100
AcDbEntity
  8
0
100
AcDbLine
 10
648.3236146814983
 20
136.7276945352714
 30
0.0
 11
645.4735785427458
 21
136.727694535271
 31
0.0
  0
ARC
  5
294
330
1F
100
AcDbEntity
  8
0
100
AcDbCircle
 10
592.5690065272014
 20
98.62770369054446
 30
0.0
 40
8.0
100
AcDbArc
 50
210.0000051605363
 51
269.9999974955178
  0
LINE
  5
295
330
1F
100
AcDbEntity
  8
0
100
AcDbLine
 10
596.4460817225138
 20
150.8277006387871
 30
0.0
 11
596.4460817225138
 21
127.8277006387871
 31
0.0
  0
LINE
  5
296
330
1F
100
AcDbEntity
  8
0
100
AcDbLine
 10
619.8236146814986
 20
90.62770369054518
 30
0.0
 11
592.5690065272013
 21
90.62770369054518
 31
0.0
  0
LINE
  5
297
330
1F
100
AcDbEntity
  8
0
100
AcDbLine
 10
558.299582407819
 20
105.5277282155972
 30
0.0
 11
552.0064609852154
 21
94.62772236908355
 31
0.0
  0
ARC
  5
298
330
1F
100
AcDbEntity
  8
0
100
AcDbCircle
 10
545.0782228357952
 20
98.62770369054446
 30
0.0
 40
8.0
100
AcDbArc
 50
269.9999974955178
 51
330.0000016696561
  0
ARC
  5
299
330
1F
100
AcDbEntity
  8
0
100
AcDbCircle
 10
568.6918702967327
 20
99.52769758702885
 30
0.0
 40
12.0
100
AcDbArc
 50
90.00000865142791
 51
149.9999966606942
  0
LINE
  5
29A
330
1F
100
AcDbEntity
  8
0
100
AcDbLine
 10
568.6918702967327
 20
111.5276823282402
 30
0.0
 11
568.9553895838419
 21
111.5276823282402
 31
0.0
  0
LINE
  5
29B
330
1F
100
AcDbEntity
  8
0
100
AcDbLine
 10
541.2011476404825
 20
150.8277006387871
 30
0.0
 11
541.2011476404825
 21
127.8277006387871
 31
0.0
  0
LINE
  5
29C
330
1F
100
AcDbEntity
  8
0
100
AcDbLine
 10
517.8236146814988
 20
150.8277006387866
 30
0.0
 11
517.8236146814981
 21
90.62770369054518
 31
0.0
  0
LINE
  5
29D
330
1F
100
AcDbEntity
  8
0
100
AcDbLine
 10
517.8136049158731
 20
90.62770369054518
 30
0.0
 11
545.0782228357952
 21
90.62770369054518
 31
0.0
  0
LINE
  5
29E
330
1F
100
AcDbEntity
  8
0
100
AcDbLine
 10
619.8236146814983
 20
142.8277006387871
 30
0.0
 11
517.8236146814988
 21
142.8277006387871
 31
0.0
  0
LINE
  5
29F
330
1F
100
AcDbEntity
  8
0
100
AcDbLine
 10
517.8236146814988
 20
150.8277006387866
 30
0.0
 11
619.8236146814983
 21
150.8277006387871
 31
0.0
  0
LINE
  5
2A0
330
1F
100
AcDbEntity
  8
0
100
AcDbLine
 10
619.8236146814986
 20
127.8277006387871
 30
0.0
 11
517.8236146814981
 21
127.8277006387871
 31
0.0
  0
LINE
  5
2A1
330
1F
100
AcDbEntity
  8
0
100
AcDbLine
 10
579.3476705116652
 20
105.5276926974492
 30
0.0
 11
585.6407919342689
 21
94.62768685093536
 31
0.0
  0
ARC
  5
2A2
330
1F
100
AcDbEntity
  8
0
100
AcDbCircle
 10
568.9553895838423
 20
99.52769758702885
 30
0.0
 40
12.0
100
AcDbArc
 50
30.0000033393057
 51
90.00000500895042
  0
LINE
  5
2A3
330
1F
100
AcDbEntity
  8
0
100
AcDbLine
 10
648.3236146814983
 20
86.2277097940607
 30
0.0
 11
645.4735645113751
 21
86.2277097940607
 31
0.0
  0
LINE
  5
2A4
330
1F
100
AcDbEntity
  8
0
100
AcDbLine
 10
648.3236146814983
 20
136.7276945352714
 30
0.0
 11
648.3236146814983
 21
86.2277097940607
 31
0.0
  0
LINE
  5
2A5
330
1F
100
AcDbEntity
  8
0
100
AcDbLine
 10
645.4735645113751
 20
86.2277097940607
 30
0.0
 11
643.2169445351226
 21
92.4277220010914
 31
0.0
  0
LINE
  5
2A6
330
1F
100
AcDbEntity
  8
0
  6
Continuous
100
AcDbLine
 10
302.6785109544011
 20
494.580889059314
 30
0.0
 11
296.47849874737
 21
496.8375090355658
 31
0.0
  0
LINE
  5
2A7
330
1F
100
AcDbEntity
  8
0
  6
Continuous
100
AcDbLine
 10
302.6785109544011
 20
491.730885320738
 30
0.0
 11
302.6785109544011
 21
494.580889059314
 31
0.0
  0
LINE
  5
2A8
330
1F
100
AcDbEntity
  8
0
  6
HIDDEN
 48
10.0
100
AcDbLine
 10
296.47849874737
 20
505.433110489736
 30
0.0
 11
296.47849874737
 21
520.2308853207378
 31
0.0
  0
LINE
  5
2A9
330
1F
100
AcDbEntity
  8
0
  6
Continuous
100
AcDbLine
 10
296.47849874737
 20
496.8375090355658
 30
0.0
 11
296.47849874737
 21
505.433110489736
 31
0.0
  0
LINE
  5
2AA
330
1F
100
AcDbEntity
  8
0
100
AcDbLine
 10
492.1735625598419
 20
136.7276945352714
 30
0.0
 11
494.4301825360934
 21
130.5276823282403
 31
0.0
  0
LINE
  5
2AB
330
1F
100
AcDbEntity
  8
0
100
AcDbLine
 10
489.3236146814984
 20
136.7276945352714
 30
0.0
 11
492.1735625598419
 21
136.7276945352714
 31
0.0
  0
LINE
  5
2AC
330
1F
100
AcDbEntity
  8
0
  6
Continuous
100
AcDbLine
 10
328.428510954401
 20
150.8277006387866
 30
0.0
 11
328.4285109544008
 21
127.827792191522
 31
0.0
  0
LINE
  5
2AD
330
1F
100
AcDbEntity
  8
0
  6
Continuous
100
AcDbLine
 10
305.0509779954162
 20
150.8277006387866
 30
0.0
 11
305.0509779954169
 21
127.8277921915214
 31
0.0
  0
LINE
  5
2AE
330
1F
100
AcDbEntity
  8
0
  6
Continuous
100
AcDbLine
 10
313.0597221666011
 20
127.8277311563652
 30
0.0
 11
302.6737167181276
 21
111.9690767004607
 31
0.0
  0
LINE
  5
2AF
330
1F
100
AcDbEntity
  8
0
  6
Continuous
100
AcDbLine
 10
296.6701078728107
 20
127.8277311563644
 30
0.0
 11
328.4284499192448
 21
127.8277311563654
 31
0.0
  0
LINE
  5
2B0
330
1F
100
AcDbEntity
  8
0
  6
Continuous
100
AcDbLine
 10
252.1785109544009
 20
494.5808670067959
 30
0.0
 11
258.3785231614326
 21
496.837486983048
 31
0.0
  0
LINE
  5
2B1
330
1F
100
AcDbEntity
  8
0
  6
Continuous
100
AcDbLine
 10
252.1785109544009
 20
491.730885320738
 30
0.0
 11
252.1785109544009
 21
494.5808670067959
 31
0.0
  0
LINE
  5
2B2
330
1F
100
AcDbEntity
  8
0
  6
HIDDEN
 48
10.0
100
AcDbLine
 10
258.3785231614326
 20
505.4331104897352
 30
0.0
 11
258.3785231614325
 21
520.230885320738
 31
0.0
  0
LINE
  5
2B3
330
1F
100
AcDbEntity
  8
0
  6
Continuous
100
AcDbLine
 10
258.3785231614326
 20
496.837486983048
 30
0.0
 11
258.3785231614326
 21
505.4331104897352
 31
0.0
  0
LINE
  5
2B4
330
1F
100
AcDbEntity
  8
0
  6
Continuous
100
AcDbLine
 10
249.8060439133851
 20
150.8277006387872
 30
0.0
 11
249.8060439133853
 21
127.827792191521
 31
0.0
  0
LINE
  5
2B5
330
1F
100
AcDbEntity
  8
0
  6
Continuous
100
AcDbLine
 10
226.4285109544009
 20
150.8277006387866
 30
0.0
 11
226.4285109544009
 21
127.8277311563637
 31
0.0
  0
LINE
  5
2B6
330
1F
100
AcDbEntity
  8
0
  6
Continuous
100
AcDbLine
 10
226.4285109544009
 20
127.8277311563637
 30
0.0
 11
258.1869140359882
 21
127.8277311563644
 31
0.0
  0
LINE
  5
2B7
330
1F
100
AcDbEntity
  8
0
  6
Continuous
100
AcDbLine
 10
241.7972112200402
 20
127.8277311563644
 30
0.0
 11
252.1832593337732
 21
111.9690145758309
 31
0.0
  0
LINE
  5
2B8
330
1F
100
AcDbEntity
  8
0
  6
Continuous
100
AcDbLine
 10
328.428510954401
 20
142.8277311563654
 30
0.0
 11
226.4284499192448
 21
142.8277311563648
 31
0.0
  0
LINE
  5
2B9
330
1F
100
AcDbEntity
  8
0
  6
Continuous
100
AcDbLine
 10
226.4285109544009
 20
150.8277006387866
 30
0.0
 11
328.428510954401
 21
150.8277006387866
 31
0.0
  0
CIRCLE
  5
2BA
330
1F
100
AcDbEntity
  8
0
  6
Continuous
100
AcDbCircle
 10
277.4285109543998
 20
111.4777021646661
 30
0.0
 40
17.85003662109351
  0
LINE
  5
2BB
330
1F
100
AcDbEntity
  8
0
  6
Continuous
100
AcDbLine
 10
252.1785109544009
 20
491.730885320738
 30
0.0
 11
302.6785109544011
 21
491.730885320738
 31
0.0
  0
LINE
  5
2BC
330
1F
100
AcDbEntity
  8
0
100
AcDbLine
 10
489.3236146814984
 20
86.2277097940607
 30
0.0
 11
492.1736253054039
 21
86.2277097940607
 31
0.0
  0
LINE
  5
2BD
330
1F
100
AcDbEntity
  8
0
100
AcDbLine
 10
489.3236146814984
 20
136.7276945352714
 30
0.0
 11
489.3236146814984
 21
86.2277097940607
 31
0.0
  0
LINE
  5
2BE
330
1F
100
AcDbEntity
  8
0
100
AcDbLine
 10
492.1736253054039
 20
86.2277097940607
 30
0.0
 11
494.4302452816566
 21
92.42772200109195
 31
0.0
  0
CIRCLE
  5
2BF
330
1F
100
AcDbEntity
  8
0
  6
Continuous
100
AcDbCircle
 10
277.4285109543998
 20
111.4777021646661
 30
0.0
 40
25.25
  0
LINE
  5
2C0
330
1F
100
AcDbEntity
  8
0
100
AcDbLine
 10
494.4301825360934
 20
130.5276823282403
 30
0.0
 11
517.8236146814988
 21
130.5276823282403
 31
0.0
  0
LINE
  5
2C1
330
1F
100
AcDbEntity
  8
0
100
AcDbLine
 10
494.4302452816566
 20
92.42772200109195
 30
0.0
 11
517.8136049158731
 21
92.42772200109195
 31
0.0
  0
LINE
  5
2C2
330
1F
100
AcDbEntity
  8
0
  6
Continuous
100
AcDbLine
 10
317.8284132981512
 20
150.8277006387866
 30
0.0
 11
237.028608610651
 21
150.8277006387866
 31
0.0
  0
LINE
  5
48A
330
1F
100
AcDbEntity
  8
Visible (ISO)
100
AcDbLine
 10
1660.574448136163
 20
215.5523340898209
 30
0.0
 11
1667.110116556343
 21
205.4882872744758
 31
0.0
  0
LINE
  5
48B
330
1F
100
AcDbEntity
  8
Visible (ISO)
100
AcDbLine
 10
1666.669069256948
 20
203.4133228700354
 30
0.0
 11
1658.499483731723
 21
215.9933813892168
 31
0.0
  0
LINE
  5
48C
330
1F
100
AcDbEntity
  8
Visible (ISO)
100
AcDbLine
 10
1667.110116556343
 20
205.4882872744758
 30
0.0
 11
1666.669069256948
 21
203.4133228700354
 31
0.0
  0
LINE
  5
48D
330
1F
100
AcDbEntity
  8
Visible (ISO)
100
AcDbLine
 10
1660.574448136163
 20
215.5523340898209
 30
0.0
 11
1658.499483731723
 21
215.9933813892168
 31
0.0
  0
LINE
  5
48E
330
1F
100
AcDbEntity
  8
Visible (ISO)
100
AcDbLine
 10
1612.876359567547
 20
233.9185957542579
 30
0.0
 11
1664.487971048234
 21
154.443683509138
 31
0.0
  0
ARC
  5
48F
330
1F
100
AcDbEntity
  8
Visible (ISO)
100
AcDbCircle
 10
1607.844336159875
 20
230.6507615441676
 30
0.0
 40
5.999999999999976
100
AcDbArc
 50
32.99999999997555
 51
102.9999999999707
  0
ARC
  5
490
330
1F
100
AcDbEntity
  8
Visible (ISO)
100
AcDbCircle
 10
1659.455947640561
 20
151.1758492990477
 30
0.0
 40
5.999999999999975
100
AcDbArc
 50
323.0000000000007
 51
32.99999999997555
  0
LINE
  5
491
330
1F
100
AcDbEntity
  8
Visible (ISO)
100
AcDbLine
 10
1585.184074774819
 20
231.5770526345275
 30
0.0
 11
1651.085398011637
 21
130.0979139131325
 31
0.0
  0
LINE
  5
492
330
1F
100
AcDbEntity
  8
Visible (ISO)
100
AcDbLine
 10
1629.259542272242
 20
217.8710990054085
 30
0.0
 11
1656.491494022994
 21
175.9375706081375
 31
0.0
  0
LINE
  5
493
330
1F
100
AcDbEntity
  8
Visible (ISO)
100
AcDbLine
 10
1552.475922624948
 20
210.3361302689415
 30
0.0
 11
1618.377245861766
 21
108.8569915475461
 31
0.0
  0
LINE
  5
494
330
1F
100
AcDbEntity
  8
Visible (ISO)
100
AcDbLine
 10
1541.409445801264
 20
212.688382532385
 30
0.0
 11
1616.024993598323
 21
97.79051472386278
 31
0.0
  0
LINE
  5
495
330
1F
100
AcDbEntity
  8
Visible (ISO)
100
AcDbLine
 10
1524.636034442356
 20
201.7956018320844
 30
0.0
 11
1599.251582239414
 21
86.8977340235622
 31
0.0
  0
LINE
  5
496
330
1F
100
AcDbEntity
  8
Visible (ISO)
100
AcDbLine
 10
1666.669069256948
 20
203.4133228700354
 30
0.0
 11
1646.96031091023
 21
190.6143055471823
 31
0.0
  0
LINE
  5
497
330
1F
100
AcDbEntity
  8
Visible (ISO)
100
AcDbLine
 10
1658.499483731723
 20
215.9933813892168
 30
0.0
 11
1638.790725385004
 21
203.1943640663637
 31
0.0
  0
LINE
  5
498
330
1F
100
AcDbEntity
  8
Visible (ISO)
100
AcDbLine
 10
1664.247760700846
 20
147.5649591601356
 30
0.0
 11
1651.085398011637
 21
130.097913913132
 31
0.0
  0
LINE
  5
499
330
1F
100
AcDbEntity
  8
Visible (ISO)
100
AcDbLine
 10
1606.494629833811
 20
236.4969819328791
 30
0.0
 11
1585.184074774819
 21
231.5770526345275
 31
0.0
  0
LINE
  5
49A
330
1F
100
AcDbEntity
  8
Visible (ISO)
100
AcDbLine
 10
1656.491494022994
 20
175.9375706081375
 30
0.0
 11
1652.298141183266
 21
173.2143754330625
 31
0.0
  0
LINE
  5
49B
330
1F
100
AcDbEntity
  8
Visible (ISO)
100
AcDbLine
 10
1629.259542272242
 20
217.8710990054085
 30
0.0
 11
1625.066189432515
 21
215.1479038303334
 31
0.0
  0
LINE
  5
49C
330
1F
100
AcDbEntity
  8
Visible (ISO)
100
AcDbLine
 10
1651.085398011637
 20
130.097913913132
 30
0.0
 11
1618.377245861766
 21
108.8569915475461
 31
0.0
  0
LINE
  5
49D
330
1F
100
AcDbEntity
  8
Visible (ISO)
100
AcDbLine
 10
1585.184074774819
 20
231.5770526345275
 30
0.0
 11
1552.475922624948
 21
210.336130268942
 31
0.0
  0
LINE
  5
49E
330
1F
100
AcDbEntity
  8
Visible (ISO)
100
AcDbLine
 10
1618.377245861766
 20
108.8569915475461
 30
0.0
 11
1616.024993598323
 21
97.79051472386234
 31
0.0
  0
LINE
  5
49F
330
1F
100
AcDbEntity
  8
Visible (ISO)
100
AcDbLine
 10
1552.475922624948
 20
210.336130268942
 30
0.0
 11
1541.409445801264
 21
212.688382532385
 31
0.0
  0
LINE
  5
4A0
330
1F
100
AcDbEntity
  8
Visible (ISO)
100
AcDbLine
 10
1616.024993598322
 20
97.79051472386234
 30
0.0
 11
1599.251582239413
 21
86.8977340235622
 31
0.0
  0
LINE
  5
4A1
330
1F
100
AcDbEntity
  8
Visible (ISO)
100
AcDbLine
 10
1541.409445801264
 20
212.688382532385
 30
0.0
 11
1524.636034442356
 21
201.7956018320844
 31
0.0
  0
LINE
  5
4A2
330
1F
100
AcDbEntity
  8
Visible (ISO)
100
AcDbLine
 10
1583.130266802969
 20
111.7223828347462
 30
0.0
 11
1565.518184876115
 21
100.2849630994308
 31
0.0
  0
LINE
  5
4A3
330
1F
100
AcDbEntity
  8
Visible (ISO)
100
AcDbLine
 10
1540.7573498788
 20
176.9709530208999
 30
0.0
 11
1523.145267951946
 21
165.5335332855845
 31
0.0
  0
LINE
  5
4A4
330
1F
100
AcDbEntity
  8
Visible (ISO)
100
AcDbLine
 10
1503.324482051171
 20
145.1120379311844
 30
0.0
 11
1497.857567216906
 21
132.8331461736222
 31
0.0
  0
LINE
  5
4A5
330
1F
100
AcDbEntity
  8
Visible (ISO)
100
AcDbLine
 10
1525.359460258751
 20
90.48394463990804
 30
0.0
 11
1538.800380636428
 21
90.48394463990804
 31
0.0
  0
LINE
  5
4A6
330
1F
100
AcDbEntity
  8
Visible (ISO)
100
AcDbLine
 10
1513.98613094048
 20
137.4075629164542
 30
0.0
 11
1512.867127807715
 21
136.680873785224
 31
0.0
  0
LINE
  5
4A7
330
1F
100
AcDbEntity
  8
Visible (ISO)
100
AcDbLine
 10
1534.979472629324
 20
102.6308487266394
 30
0.0
 11
1536.098475762091
 21
103.35753785787
 31
0.0
  0
LINE
  5
4A8
330
1F
100
AcDbEntity
  8
Visible (ISO)
100
AcDbLine
 10
1509.998036314751
 20
143.5486901029933
 30
0.0
 11
1513.98613094048
 21
137.4075629164542
 31
0.0
  0
LINE
  5
4A9
330
1F
100
AcDbEntity
  8
Visible (ISO)
100
AcDbLine
 10
1509.998036314752
 20
143.5486901029937
 30
0.0
 11
1497.26571256552
 21
163.1547493523787
 31
0.0
  0
LINE
  5
4AA
330
1F
100
AcDbEntity
  8
Visible (ISO)
100
AcDbLine
 10
1552.818894137053
 20
77.61035142194602
 30
0.0
 11
1540.086570387821
 21
97.21641067133102
 31
0.0
  0
LINE
  5
4AB
330
1F
100
AcDbEntity
  8
Visible (ISO)
100
AcDbLine
 10
1536.098475762091
 20
103.35753785787
 30
0.0
 11
1540.086570387821
 21
97.21641067133102
 31
0.0
  0
LINE
  5
4AC
330
1F
100
AcDbEntity
  8
Visible (ISO)
100
AcDbLine
 10
1552.666628907002
 20
105.3859961965565
 30
0.0
 11
1540.086570387821
 21
97.21641067133102
 31
0.0
  0
LINE
  5
4AD
330
1F
100
AcDbEntity
  8
Visible (ISO)
100
AcDbLine
 10
1552.666628907002
 20
105.3859961965565
 30
0.0
 11
1522.578094833932
 21
151.7182756282188
 31
0.0
  0
LINE
  5
4AE
330
1F
100
AcDbEntity
  8
Visible (ISO)
100
AcDbLine
 10
1522.578094833932
 20
151.7182756282188
 30
0.0
 11
1509.998036314751
 21
143.5486901029933
 31
0.0
  0
LINE
  5
4AF
330
1F
100
AcDbEntity
  8
Visible (ISO)
100
AcDbLine
 10
1509.845771084702
 20
171.3243348776043
 30
0.0
 11
1522.578094833932
 21
151.7182756282188
 31
0.0
  0
LINE
  5
4B0
330
1F
100
AcDbEntity
  8
Visible (ISO)
100
AcDbLine
 10
1552.666628907002
 20
105.3859961965561
 30
0.0
 11
1565.398952656234
 21
85.77993694717113
 31
0.0
  0
LINE
  5
4B1
330
1F
100
AcDbEntity
  8
Visible (ISO)
100
AcDbLine
 10
1509.845771084702
 20
171.3243348776038
 30
0.0
 11
1497.26571256552
 21
163.1547493523783
 31
0.0
  0
LINE
  5
4B2
330
1F
100
AcDbEntity
  8
Visible (ISO)
100
AcDbLine
 10
1565.398952656234
 20
85.77993694717113
 30
0.0
 11
1552.818894137052
 21
77.61035142194602
 31
0.0
  0
LINE
  5
4B3
330
1F
100
AcDbEntity
  8
Visible (ISO)
100
AcDbLine
 10
1491.837340924009
 20
153.1529240659408
 30
0.0
 11
1498.917648379204
 21
142.2502066826502
 31
0.0
  0
LINE
  5
4B4
330
1F
100
AcDbEntity
  8
Visible (ISO)
100
AcDbLine
 10
1491.837340924009
 20
153.1529240659404
 30
0.0
 11
1500.224046603462
 21
158.5993144160909
 31
0.0
  0
LINE
  5
4B5
330
1F
100
AcDbEntity
  8
Visible (ISO)
100
AcDbLine
 10
1498.917648379204
 20
142.2502066826502
 30
0.0
 11
1507.304354058658
 21
147.6965970327998
 31
0.0
  0
LINE
  5
4B6
330
1F
100
AcDbEntity
  8
Visible (ISO)
100
AcDbLine
 10
1541.473854419655
 20
76.71939600808333
 30
0.0
 11
1534.39354696446
 21
87.6221133913739
 31
0.0
  0
LINE
  5
4B7
330
1F
100
AcDbEntity
  8
Visible (ISO)
100
AcDbLine
 10
1549.860560099109
 20
82.1657863582334
 30
0.0
 11
1541.473854419655
 21
76.71939600808333
 31
0.0
  0
LINE
  5
4B8
330
1F
100
AcDbEntity
  8
Visible (ISO)
100
AcDbLine
 10
1542.780252643915
 20
93.06850374152443
 30
0.0
 11
1534.39354696446
 21
87.6221133913739
 31
0.0
  0
CIRCLE
  5
4B9
330
1F
100
AcDbEntity
  8
Visible (ISO)
100
AcDbCircle
 10
1511.330039565379
 20
111.4777021646666
 30
0.0
 40
25.24999999999987
  0
CIRCLE
  5
4BA
330
1F
100
AcDbEntity
  8
Visible (ISO)
100
AcDbCircle
 10
1511.330039565379
 20
111.4777021646666
 30
0.0
 40
17.84999999999992
  0
LINE
  5
4BB
330
1F
100
AcDbEntity
  8
Visible (ISO)
100
AcDbLine
 10
1571.269646631851
 20
89.59241019227626
 30
0.0
 11
1558.53732288262
 21
109.1984694416617
 31
0.0
  0
SPLINE
  5
4BC
330
1F
100
AcDbEntity
  8
Visible (ISO)
100
AcDbSpline
210
0.0
220
0.0
230
1.0
 70
    24
 71
     3
 72
     8
 73
     4
 74
     0
 42
0.0000000001
 43
0.0000000001
 40
-0.1436911213494927
 40
-0.1436911213494927
 40
-0.1436911213494927
 40
-0.1436911213494927
 40
0.0
 40
0.0
 40
0.0
 40
0.0
 10
1571.269646631851
 20
89.59241019227626
 30
0.0
 10
1571.367668854986
 20
90.05356849463057
 30
0.0
 10
1571.465684423376
 20
90.51469548887714
 30
0.0
 10
1571.563678164782
 20
90.97571979523698
 30
0.0
  0
LINE
  5
4BD
330
1F
100
AcDbEntity
  8
Visible (ISO)
100
AcDbLine
 10
1559.237333653191
 20
109.9566258405436
 30
0.0
 11
1571.563678164782
 21
90.97571979523698
 31
0.0
  0
SPLINE
  5
4BE
330
1F
100
AcDbEntity
  8
Visible (ISO)
100
AcDbSpline
210
0.0
220
0.0
230
1.0
 70
     8
 71
     3
 72
     8
 73
     4
 74
     0
 42
0.0000000001
 43
0.0000000001
 40
-0.1436911213494072
 40
-0.1436911213494072
 40
-0.1436911213494072
 40
-0.1436911213494072
 40
0.0
 40
0.0
 40
0.0
 40
0.0
 10
1558.537322882621
 20
109.1984694416617
 30
0.0
 10
1558.77090071475
 20
109.4508904110764
 30
0.0
 10
1559.004251597826
 20
109.7036192958714
 30
0.0
 10
1559.237333653191
 20
109.9566258405436
 30
0.0
  0
SPLINE
  5
4BF
330
1F
100
AcDbEntity
  8
Visible (ISO)
100
AcDbSpline
210
0.0
220
0.0
230
1.0
 70
    24
 71
     3
 72
     8
 73
     4
 74
     0
 42
0.0000000001
 43
0.0000000001
 40
-0.1436911213494072
 40
-0.1436911213494072
 40
-0.1436911213494072
 40
-0.1436911213494072
 40
0.0
 40
0.0
 40
0.0
 40
0.0
 10
1515.716465060319
 20
175.136808122709
 30
0.0
 10
1516.177623362674
 20
175.0387858995752
 30
0.0
 10
1516.63875035692
 20
174.9407703311846
 30
0.0
 10
1517.099774663279
 20
174.8427765897788
 30
0.0
  0
LINE
  5
4C0
330
1F
100
AcDbEntity
  8
Visible (ISO)
100
AcDbLine
 10
1528.44878880955
 20
155.5307488733244
 30
0.0
 11
1515.716465060319
 21
175.1368081227094
 31
0.0
  0
SPLINE
  5
4C1
330
1F
100
AcDbEntity
  8
Visible (ISO)
100
AcDbSpline
210
0.0
220
0.0
230
1.0
 70
     8
 71
     3
 72
     8
 73
     4
 74
     0
 42
0.0000000001
 43
0.0000000001
 40
-0.1436911213494927
 40
-0.1436911213494927
 40
-0.1436911213494927
 40
-0.1436911213494927
 40
0.0
 40
0.0
 40
0.0
 40
0.0
 10
1528.44878880955
 20
155.530748873324
 30
0.0
 10
1528.77439150291
 20
155.6414639831293
 30
0.0
 10
1529.100183182471
 20
155.7518465241908
 30
0.0
 10
1529.42611917487
 20
155.8618705444721
 30
0.0
  0
LINE
  5
4C2
330
1F
100
AcDbEntity
  8
Visible (ISO)
100
AcDbLine
 10
1517.099774663279
 20
174.8427765897788
 30
0.0
 11
1529.42611917487
 21
155.8618705444721
 31
0.0
  0
LINE
  5
4C3
330
1F
100
AcDbEntity
  8
Visible (ISO)
100
AcDbLine
 10
1528.44878880955
 20
155.530748873324
 30
0.0
 11
1558.53732288262
 21
109.1984694416617
 31
0.0
  0
LINE
  5
4C4
330
1F
100
AcDbEntity
  8
Visible (ISO)
100
AcDbLine
 10
1559.237333653191
 20
109.9566258405436
 30
0.0
 11
1529.42611917487
 21
155.8618705444716
 31
0.0
  0
LINE
  5
4C5
330
1F
100
AcDbEntity
  8
Visible (ISO)
100
AcDbLine
 10
1510.684441652647
 20
171.8689739126186
 30
0.0
 11
1523.416765401878
 21
152.2629146632336
 31
0.0
  0
SPLINE
  5
4C6
330
1F
100
AcDbEntity
  8
Visible (ISO)
100
AcDbSpline
210
0.0
220
0.0
230
1.0
 70
    24
 71
     3
 72
     8
 73
     4
 74
     0
 42
0.0000000001
 43
0.0000000001
 40
-0.1436911116726756
 40
-0.1436911116726756
 40
-0.1436911116726756
 40
-0.1436911116726756
 40
0.0
 40
0.0
 40
0.0
 40
0.0
 10
1564.854313621219
 20
86.61860751511655
 30
0.0
 10
1565.315337927581
 20
86.5206137737098
 30
0.0
 10
1565.77646492183
 20
86.42259820531878
 30
0.0
 10
1566.237623224179
 20
86.32457598218641
 30
0.0
  0
SPLINE
  5
4C7
330
1F
100
AcDbEntity
  8
Visible (ISO)
100
AcDbSpline
210
0.0
220
0.0
230
1.0
 70
    24
 71
     3
 72
     8
 73
     4
 74
     0
 42
0.0000000001
 43
0.0000000001
 40
-0.143691111674144
 40
-0.143691111674144
 40
-0.143691111674144
 40
-0.143691111674144
 40
0.0
 40
0.0
 40
0.0
 40
0.0
 10
1510.390410119717
 20
170.4856643096584
 30
0.0
 10
1510.488403861123
 20
170.9466886160187
 30
0.0
 10
1510.586419429512
 20
171.4078156102657
 30
0.0
 10
1510.684441652647
 20
171.8689739126186
 30
0.0
  0
SPLINE
  5
4C8
330
1F
100
AcDbEntity
  8
Visible (ISO)
100
AcDbSpline
210
0.0
220
0.0
230
1.0
 70
     8
 71
     3
 72
     8
 73
     4
 74
     0
 42
0.0000000001
 43
0.0000000001
 40
-0.1436911116726756
 40
-0.1436911116726756
 40
-0.1436911116726756
 40
-0.1436911116726756
 40
0.0
 40
0.0
 40
0.0
 40
0.0
 10
1522.716754631307
 20
151.5047582643517
 30
0.0
 10
1522.949836686675
 20
151.7577648090252
 30
0.0
 10
1523.183187569752
 20
152.0104936938221
 30
0.0
 10
1523.416765401878
 20
152.2629146632336
 30
0.0
  0
SPLINE
  5
4C9
330
1F
100
AcDbEntity
  8
Visible (ISO)
100
AcDbSpline
210
0.0
220
0.0
230
1.0
 70
     8
 71
     3
 72
     8
 73
     4
 74
     0
 42
0.0000000001
 43
0.0000000001
 40
-0.143691111674144
 40
-0.143691111674144
 40
-0.143691111674144
 40
-0.143691111674144
 40
0.0
 40
0.0
 40
0.0
 40
0.0
 10
1552.527969109628
 20
105.5995135604237
 30
0.0
 10
1552.853905102029
 20
105.709537580705
 30
0.0
 10
1553.179696781589
 20
105.8199201217664
 30
0.0
 10
1553.505299474948
 20
105.9306352315714
 30
0.0
  0
LINE
  5
4CA
330
1F
100
AcDbEntity
  8
Visible (ISO)
100
AcDbLine
 10
1553.505299474948
 20
105.9306352315714
 30
0.0
 11
1523.416765401877
 21
152.2629146632336
 31
0.0
  0
LINE
  5
4CB
330
1F
100
AcDbEntity
  8
Visible (ISO)
100
AcDbLine
 10
1553.505299474948
 20
105.9306352315714
 30
0.0
 11
1566.237623224179
 21
86.32457598218641
 31
0.0
  0
LINE
  5
4CC
330
1F
100
AcDbEntity
  8
Visible (ISO)
100
AcDbLine
 10
1515.716465060319
 20
175.136808122709
 30
0.0
 11
1510.684441652647
 21
171.8689739126186
 31
0.0
  0
LINE
  5
4CD
330
1F
100
AcDbEntity
  8
Visible (ISO)
100
AcDbLine
 10
1528.44878880955
 20
155.530748873324
 30
0.0
 11
1523.416765401877
 21
152.2629146632336
 31
0.0
  0
LINE
  5
4CE
330
1F
100
AcDbEntity
  8
Visible (ISO)
100
AcDbLine
 10
1558.53732288262
 20
109.1984694416617
 30
0.0
 11
1553.505299474948
 21
105.9306352315714
 31
0.0
  0
LINE
  5
4CF
330
1F
100
AcDbEntity
  8
Visible (ISO)
100
AcDbLine
 10
1571.269646631851
 20
89.59241019227626
 30
0.0
 11
1566.237623224179
 21
86.32457598218641
 31
0.0
  0
ELLIPSE
  5
4D0
330
1F
100
AcDbEntity
  8
Visible (ISO)
100
AcDbEllipse
 10
1663.842282346251
 20
571.2308853207725
 30
0.0
 11
-0.0000000000000066
 21
5.999999999999981
 31
0.0
210
0.0
220
0.0
230
1.0
 40
0.5446390350150253
 41
0.0
 42
6.283185307179585
  0
ELLIPSE
  5
4D1
330
1F
100
AcDbEntity
  8
Visible (ISO)
100
AcDbEllipse
 10
1662.584276494335
 20
571.2308853207725
 30
0.0
 11
-0.0000000000014603
 21
7.499999999999981
 31
0.0
210
0.0
220
0.0
230
1.0
 40
0.5446390350150253
 41
5.576380160932016
 42
10.13158310701639
  0
LINE
  5
4D2
330
1F
100
AcDbEntity
  8
Visible (ISO)
100
AcDbLine
 10
1665.964438695595
 20
566.6682422266542
 30
0.0
 11
1665.236971931014
 21
565.5275814531234
 31
0.0
  0
LINE
  5
4D3
330
1F
100
AcDbEntity
  8
Visible (ISO)
100
AcDbLine
 10
1665.964438695595
 20
575.7935284148909
 30
0.0
 11
1665.236971931014
 21
576.9341891884198
 31
0.0
  0
ELLIPSE
  5
4D4
330
1F
100
AcDbEntity
  8
Visible (ISO)
100
AcDbEllipse
 10
1642.875518147617
 20
571.2308853207689
 30
0.0
 11
0.0000000000000465
 21
-7.499999999999981
 31
0.0
210
0.0
220
0.0
230
1.0
 40
0.5446390350150253
 41
3.141592653591471
 42
6.283185307181264
  0
ELLIPSE
  5
4D5
330
1F
100
AcDbEntity
  8
Visible (ISO)
100
AcDbEllipse
 10
1638.68216530789
 20
571.230885320768
 30
0.0
 11
-0.0000000000000073
 21
-24.99999999999994
 31
0.0
210
0.0
220
0.0
230
1.0
 40
0.5446390350150253
 41
3.141592653591477
 42
6.28318530718127
  0
ELLIPSE
  5
4D6
330
1F
100
AcDbEntity
  8
Visible (ISO)
100
AcDbEllipse
 10
1618.134736393227
 20
571.2308853207644
 30
0.0
 11
0.0000000000117809
 21
-60.49999999999987
 31
0.0
210
0.0
220
0.0
230
1.0
 40
0.5446390350150251
 41
2.902969484056324
 42
6.52180847671234
  0
ELLIPSE
  5
4D7
330
1F
100
AcDbEntity
  8
Visible (ISO)
100
AcDbEllipse
 10
1642.875518147617
 20
571.2308853207689
 30
0.0
 11
0.0000000000048711
 21
-24.99999999999994
 31
0.0
210
0.0
220
0.0
230
1.0
 40
0.5446390350150255
 41
1.875488980809954
 42
7.54928897995876
  0
ELLIPSE
  5
4D8
330
1F
100
AcDbEntity
  8
Visible (ISO)
100
AcDbEllipse
 10
1585.426584243356
 20
571.230885320758
 30
0.0
 11
0.0000000000000433
 21
-60.49999999999987
 31
0.0
210
0.0
220
0.0
230
1.0
 40
0.5446390350150252
 41
3.141592653591477
 42
6.28318530718127
  0
ELLIPSE
  5
4D9
330
1F
100
AcDbEntity
  8
Visible (ISO)
100
AcDbEllipse
 10
1578.717219699793
 20
571.2308853207562
 30
0.0
 11
0.000000000013331
 21
-68.49999999999987
 31
0.0
210
0.0
220
0.0
230
1.0
 40
0.5446390350150255
 41
2.653463278438477
 42
6.771314682330185
  0
ELLIPSE
  5
4DA
330
1F
100
AcDbEntity
  8
Visible (ISO)
100
AcDbEllipse
 10
1561.943808340884
 20
571.2308853207535
 30
0.0
 11
0.0000000000001482
 21
-68.49999999999986
 31
0.0
210
0.0
220
0.0
230
1.0
 40
0.5446390350150252
 41
3.141592653591465
 42
6.283185307181258
  0
ELLIPSE
  5
4DB
330
1F
100
AcDbEntity
  8
Visible (ISO)
100
AcDbEllipse
 10
1544.33172641403
 20
571.2308853207498
 30
0.0
 11
-0.0000000000053887
 21
38.89999999999992
 31
0.0
210
0.0
220
0.0
230
1.0
 40
0.5446390350150253
 41
1.012142316562765
 42
2.129450337026558
  0
LINE
  5
4DC
330
1F
100
AcDbEntity
  8
Visible (ISO)
100
AcDbLine
 10
1662.584276494333
 20
563.7308853207725
 30
0.0
 11
1642.875518147616
 21
563.7308853207689
 31
0.0
  0
LINE
  5
4DD
330
1F
100
AcDbEntity
  8
Visible (ISO)
100
AcDbLine
 10
1662.584276494335
 20
578.7308853207726
 30
0.0
 11
1642.875518147616
 21
578.7308853207689
 31
0.0
  0
LINE
  5
4DE
330
1F
100
AcDbEntity
  8
Visible (ISO)
100
AcDbLine
 10
1642.196605632925
 20
519.713592564429
 30
0.0
 11
1625.923120641395
 21
512.4451933374541
 31
0.0
  0
LINE
  5
4DF
330
1F
100
AcDbEntity
  8
Visible (ISO)
100
AcDbLine
 10
1642.196605632925
 20
622.7481780770997
 30
0.0
 11
1625.923120641395
 21
630.0165773040673
 31
0.0
  0
LINE
  5
4E0
330
1F
100
AcDbEntity
  8
Visible (ISO)
100
AcDbLine
 10
1642.875518147616
 20
546.2308853207689
 30
0.0
 11
1638.68216530789
 21
546.2308853207689
 31
0.0
  0
LINE
  5
4E1
330
1F
100
AcDbEntity
  8
Visible (ISO)
100
AcDbLine
 10
1642.875518147616
 20
596.2308853207689
 30
0.0
 11
1638.68216530789
 21
596.230885320768
 31
0.0
  0
LINE
  5
4E2
330
1F
100
AcDbEntity
  8
Visible (ISO)
100
AcDbLine
 10
1618.134736393227
 20
510.7308853207643
 30
0.0
 11
1585.426584243356
 21
510.730885320758
 31
0.0
  0
LINE
  5
4E3
330
1F
100
AcDbEntity
  8
Visible (ISO)
100
AcDbLine
 10
1618.134736393227
 20
631.7308853207643
 30
0.0
 11
1585.426584243355
 21
631.730885320758
 31
0.0
  0
LINE
  5
4E4
330
1F
100
AcDbEntity
  8
Visible (ISO)
100
AcDbLine
 10
1578.717219699793
 20
502.730885320757
 30
0.0
 11
1561.943808340884
 21
502.7308853207535
 31
0.0
  0
LINE
  5
4E5
330
1F
100
AcDbEntity
  8
Visible (ISO)
100
AcDbLine
 10
1578.717219699792
 20
639.7308853207571
 30
0.0
 11
1561.943808340883
 21
639.7308853207534
 31
0.0
  0
ELLIPSE
  5
4E6
330
1F
100
AcDbEntity
  8
Visible (ISO)
100
AcDbEllipse
 10
1525.042303351285
 20
571.2308853207462
 30
0.0
 11
0.0000000000112882
 21
-57.99999999999976
 31
0.0
210
0.0
220
0.0
230
1.0
 40
0.5446390350150252
 41
5.208773145513465
 42
5.786801142050104
  0
LINE
  5
4E7
330
1F
100
AcDbEntity
  8
Visible (ISO)
100
AcDbLine
 10
1497.265712565519
 20
598.8533399546252
 30
0.0
 11
1497.265712565519
 21
543.6084306868926
 31
0.0
  0
ELLIPSE
  5
4E8
330
1F
100
AcDbEntity
  8
Visible (ISO)
100
AcDbEllipse
 10
1525.042303351285
 20
571.2308853207462
 30
0.0
 11
0.000000000014555
 21
-57.99999999999976
 31
0.0
210
0.0
220
0.0
230
1.0
 40
0.5446390350150251
 41
3.637976818718101
 42
4.216004815254924
  0
LINE
  5
4E9
330
1F
100
AcDbEntity
  8
Visible (ISO)
100
AcDbLine
 10
1523.416765401877
 20
520.2308853207552
 30
0.0
 11
1522.578094833932
 21
520.2308853207561
 31
0.0
  0
LINE
  5
4EA
330
1F
100
AcDbEntity
  8
Visible (ISO)
100
AcDbLine
 10
1522.578094833932
 20
520.2308853207561
 30
0.0
 11
1509.99803631475
 21
520.2308853207535
 31
0.0
  0
LINE
  5
4EB
330
1F
100
AcDbEntity
  8
Visible (ISO)
100
AcDbLine
 10
1522.578094833932
 20
622.2308853207553
 30
0.0
 11
1509.99803631475
 21
622.2308853207534
 31
0.0
  0
LINE
  5
4EC
330
1F
100
AcDbEntity
  8
Visible (ISO)
100
AcDbLine
 10
1522.578094833932
 20
622.2308853207553
 30
0.0
 11
1523.416765401877
 21
622.2308853207553
 31
0.0
  0
LINE
  5
4ED
330
1F
100
AcDbEntity
  8
Visible (ISO)
100
AcDbLine
 10
1509.8457710847
 20
543.6084306868954
 30
0.0
 11
1509.8457710847
 21
598.8533399546279
 31
0.0
  0
ELLIPSE
  5
4EE
330
1F
100
AcDbEntity
  8
Visible (ISO)
100
AcDbEllipse
 10
1537.622361870466
 20
571.2308853207489
 30
0.0
 11
-0.0000000000080214
 21
57.99999999999974
 31
0.0
210
0.0
220
0.0
230
1.0
 40
0.5446390350150252
 41
2.067180491923936
 42
2.645208488460767
  0
ELLIPSE
  5
4EF
330
1F
100
AcDbEntity
  8
Visible (ISO)
100
AcDbEllipse
 10
1537.622361870466
 20
571.2308853207489
 30
0.0
 11
-0.000000000011291
 21
57.99999999999974
 31
0.0
210
0.0
220
0.0
230
1.0
 40
0.5446390350150252
 41
0.4963841651287649
 42
1.074412161665428
  0
ELLIPSE
  5
4F0
330
1F
100
AcDbEntity
  8
Visible (ISO)
100
AcDbEllipse
 10
1537.622361870466
 20
571.2308853207489
 30
0.0
 11
0.0000000000110967
 21
-56.99999999999955
 31
0.0
210
0.0
220
0.0
230
1.0
 40
0.5446390350150252
 41
5.213200973355686
 42
5.576380160931942
  0
LINE
  5
4F1
330
1F
100
AcDbEntity
  8
Visible (ISO)
100
AcDbLine
 10
1510.390410119715
 20
598.5987496875688
 30
0.0
 11
1510.390410119715
 21
543.8630209539535
 31
0.0
  0
ELLIPSE
  5
4F2
330
1F
100
AcDbEntity
  8
Visible (ISO)
100
AcDbEllipse
 10
1537.622361870466
 20
571.2308853207489
 30
0.0
 11
0.000000000014308
 21
-56.9999999999998
 31
0.0
210
0.0
220
0.0
230
1.0
 40
0.5446390350150253
 41
3.848397799836391
 42
4.211576987412758
  0
LINE
  5
4F3
330
1F
100
AcDbEntity
  8
Visible (ISO)
100
AcDbLine
 10
1509.8457710847
 20
543.6084306868954
 30
0.0
 11
1497.265712565519
 21
543.6084306868926
 31
0.0
  0
LINE
  5
4F4
330
1F
100
AcDbEntity
  8
Visible (ISO)
100
AcDbLine
 10
1509.8457710847
 20
598.8533399546279
 30
0.0
 11
1497.265712565519
 21
598.8533399546252
 31
0.0
  0
ELLIPSE
  5
4F5
330
1F
100
AcDbEntity
  8
Visible (ISO)
100
AcDbEllipse
 10
1495.377494651605
 20
604.0130534147685
 30
0.0
 11
0.0000000000000074
 21
6.499999999999984
 31
0.0
210
0.0
220
0.0
230
1.0
 40
0.5446390350150253
 41
0.0000000000016574
 42
3.14159265359145
  0
ELLIPSE
  5
4F6
330
1F
100
AcDbEntity
  8
Visible (ISO)
100
AcDbEllipse
 10
1495.377494651605
 20
538.4487172267411
 30
0.0
 11
-0.0000000000000558
 21
-6.499999999999984
 31
0.0
210
0.0
220
0.0
230
1.0
 40
0.5446390350150253
 41
3.141592653591496
 42
6.283185307181289
  0
LINE
  5
4F7
330
1F
100
AcDbEntity
  8
Visible (ISO)
100
AcDbLine
 10
1497.265712565519
 20
597.5130534147677
 30
0.0
 11
1495.377494651605
 21
597.5130534147677
 31
0.0
  0
LINE
  5
4F8
330
1F
100
AcDbEntity
  8
Visible (ISO)
100
AcDbLine
 10
1501.801391873864
 20
610.5130534147686
 30
0.0
 11
1495.377494651605
 21
610.5130534147686
 31
0.0
  0
LINE
  5
4F9
330
1F
100
AcDbEntity
  8
Visible (ISO)
100
AcDbLine
 10
1495.377494651605
 20
544.9487172267411
 30
0.0
 11
1497.265712565519
 21
544.948717226742
 31
0.0
  0
LINE
  5
4FA
330
1F
100
AcDbEntity
  8
Visible (ISO)
100
AcDbLine
 10
1495.377494651605
 20
531.9487172267411
 30
0.0
 11
1501.801391873864
 21
531.948717226742
 31
0.0
  0
LINE
  5
4FB
330
1F
100
AcDbEntity
  8
Visible (ISO)
100
AcDbLine
 10
1494.162535785739
 20
622.230885320748
 30
0.0
 11
1509.99803631475
 21
622.2308853207508
 31
0.0
  0
LINE
  5
4FC
330
1F
100
AcDbEntity
  8
Visible (ISO)
100
AcDbLine
 10
1494.162535785739
 20
610.1182733703528
 30
0.0
 11
1494.162535785739
 21
622.230885320748
 31
0.0
  0
LINE
  5
4FD
330
1F
100
AcDbEntity
  8
Visible (ISO)
100
AcDbLine
 10
1494.162535785739
 20
520.2308853207471
 30
0.0
 11
1494.162535785739
 21
532.3434972711423
 31
0.0
  0
LINE
  5
4FE
330
1F
100
AcDbEntity
  8
Visible (ISO)
100
AcDbLine
 10
1509.99803631475
 20
520.2308853207507
 30
0.0
 11
1494.162535785739
 21
520.2308853207471
 31
0.0
  0
LINE
  5
4FF
330
1F
100
AcDbEntity
  8
Visible (ISO)
100
AcDbLine
 10
1488.247265927186
 20
520.2308853207443
 30
0.0
 11
1494.162535785739
 21
520.2308853207471
 31
0.0
  0
LINE
  5
500
330
1F
100
AcDbEntity
  8
Visible (ISO)
100
AcDbLine
 10
1494.162535785739
 20
622.230885320748
 30
0.0
 11
1488.247265927186
 21
622.2308853207435
 31
0.0
  0
LINE
  5
501
330
1F
100
AcDbEntity
  8
Visible (ISO)
100
AcDbLine
 10
1488.247265927187
 20
520.2308853207443
 30
0.0
 11
1487.987902300115
 21
520.2308853207434
 31
0.0
  0
LINE
  5
502
330
1F
100
AcDbEntity
  8
Visible (ISO)
100
AcDbLine
 10
1487.987902300115
 20
622.2308853207435
 30
0.0
 11
1488.247265927187
 21
622.2308853207444
 31
0.0
  0
LINE
  5
503
330
1F
100
AcDbEntity
  8
Visible (ISO)
100
AcDbLine
 10
1487.987902300115
 20
520.2308853207434
 30
0.0
 11
1487.987902300115
 21
548.6667837056058
 31
0.0
  0
SPLINE
  5
504
330
1F
100
AcDbEntity
  8
Visible (ISO)
100
AcDbSpline
210
0.0
220
0.0
230
1.0
 70
     8
 71
     3
 72
    16
 73
    12
 74
     0
 42
0.0000000001
 43
0.0000000001
 40
0.0
 40
0.0
 40
0.0
 40
0.0
 40
0.2094395102393196
 40
0.2094395102393196
 40
0.4188790204786393
 40
0.4188790204786393
 40
0.6283185307179588
 40
0.6283185307179588
 40
0.8377580409572784
 40
0.8377580409572784
 40
1.047197551196598
 40
1.047197551196598
 40
1.047197551196598
 40
1.047197551196598
 10
1487.987902300115
 20
548.6667837056058
 30
0.0
 10
1487.987902300115
 20
548.9777967377706
 30
0.0
 10
1488.003620039824
 20
549.288788880651
 30
0.0
 10
1488.06739997727
 20
549.9074996493584
 30
0.0
 10
1488.115412444628
 20
550.2151796547679
 30
0.0
 10
1488.247127091538
 20
550.8251785338054
 30
0.0
 10
1488.330698668851
 20
551.1274854028799
 30
0.0
 10
1488.541862374323
 20
551.7267744438815
 30
0.0
 10
1488.669188078659
 20
552.023888516672
 30
0.0
 10
1488.986930759531
 20
552.6138057654718
 30
0.0
 10
1489.177080622512
 20
552.9073265939316
 30
0.0
 10
1489.418261557708
 20
553.194444613556
 30
0.0
  0
LINE
  5
505
330
1F
100
AcDbEntity
  8
Visible (ISO)
100
AcDbLine
 10
1495.277846509636
 20
560.1700889605774
 30
0.0
 11
1489.418261557708
 21
553.194444613556
 31
0.0
  0
SPLINE
  5
506
330
1F
100
AcDbEntity
  8
Visible (ISO)
100
AcDbSpline
210
0.0
220
0.0
230
1.0
 70
     8
 71
     3
 72
    10
 73
     6
 74
     0
 42
0.0000000001
 43
0.0000000001
 40
-1.047197551196597
 40
-1.047197551196597
 40
-1.047197551196597
 40
-1.047197551196597
 40
-0.7521453485970218
 40
-0.7521453485970218
 40
-0.5493699394649451
 40
-0.5493699394649451
 40
-0.5493699394649451
 40
-0.5493699394649451
 10
1495.277846509636
 20
582.2916816809176
 30
0.0
 10
1495.681615019879
 20
581.8110084678685
 30
0.0
 10
1496.120985880192
 20
581.1140018478438
 30
0.0
 10
1496.79059030044
 20
579.6382927410897
 30
0.0
 10
1497.044077773256
 20
578.9546206580054
 30
0.0
 10
1497.265712565519
 20
578.2091340344334
 30
0.0
  0
SPLINE
  5
507
330
1F
100
AcDbEntity
  8
Visible (ISO)
100
AcDbSpline
210
0.0
220
0.0
230
1.0
 70
     8
 71
     3
 72
    10
 73
     6
 74
     0
 42
0.0000000001
 43
0.0000000001
 40
0.5494390464926664
 40
0.5494390464926664
 40
0.5494390464926664
 40
0.5494390464926664
 40
0.8091219319492896
 40
0.8091219319492896
 40
1.047197551196597
 40
1.047197551196597
 40
1.047197551196597
 40
1.047197551196597
 10
1497.265712565519
 20
564.2517947557009
 30
0.0
 10
1496.982079817142
 20
563.2970672447038
 30
0.0
 10
1496.644516017837
 20
562.4443855423162
 30
0.0
 10
1495.953568521623
 20
561.085730483501
 30
0.0
 10
1495.603644579475
 20
560.5579409130261
 30
0.0
 10
1495.277846509636
 20
560.1700889605774
 30
0.0
  0
LINE
  5
508
330
1F
100
AcDbEntity
  8
Visible (ISO)
100
AcDbLine
 10
1489.418261557708
 20
589.2673260279318
 30
0.0
 11
1495.277846509636
 21
582.2916816809176
 31
0.0
  0
SPLINE
  5
509
330
1F
100
AcDbEntity
  8
Visible (ISO)
100
AcDbSpline
210
0.0
220
0.0
230
1.0
 70
     8
 71
     3
 72
    16
 73
    12
 74
     0
 42
0.0000000001
 43
0.0000000001
 40
-1.047197551196598
 40
-1.047197551196598
 40
-1.047197551196598
 40
-1.047197551196598
 40
-0.8377580409572786
 40
-0.8377580409572786
 40
-0.6283185307179591
 40
-0.6283185307179591
 40
-0.4188790204786394
 40
-0.4188790204786394
 40
-0.2094395102393197
 40
-0.2094395102393197
 40
0.0
 40
0.0
 40
0.0
 40
0.0
 10
1489.418261557708
 20
589.2673260279318
 30
0.0
 10
1489.177080622511
 20
589.5544440475561
 30
0.0
 10
1488.986930759531
 20
589.847964876016
 30
0.0
 10
1488.669188078659
 20
590.4378821248157
 30
0.0
 10
1488.541862374323
 20
590.7349961976053
 30
0.0
 10
1488.330698668851
 20
591.334285238606
 30
0.0
 10
1488.247127091538
 20
591.6365921076815
 30
0.0
 10
1488.115412444628
 20
592.2465909867189
 30
0.0
 10
1488.06739997727
 20
592.5542709921276
 30
0.0
 10
1488.003620039824
 20
593.1729817608359
 30
0.0
 10
1487.987902300115
 20
593.4839739037154
 30
0.0
 10
1487.987902300115
 20
593.794986935881
 30
0.0
  0
LINE
  5
50A
330
1F
100
AcDbEntity
  8
Visible (ISO)
100
AcDbLine
 10
1487.987902300115
 20
593.794986935881
 30
0.0
 11
1487.987902300115
 21
622.2308853207435
 31
0.0
  0
LINE
  5
50B
330
1F
100
AcDbEntity
  8
Visible (ISO)
100
AcDbLine
 10
1536.580039565377
 20
650.7308853207434
 30
0.0
 11
1486.080039565378
 21
650.7308853207434
 31
0.0
  0
LINE
  5
50C
330
1F
100
AcDbEntity
  8
Visible (ISO)
100
AcDbLine
 10
1536.580039565377
 20
647.880885320744
 30
0.0
 11
1486.080039565378
 21
647.880885320744
 31
0.0
  0
LINE
  5
50D
330
1F
100
AcDbEntity
  8
Visible (ISO)
100
AcDbLine
 10
1530.380039565378
 20
645.6242698682928
 30
0.0
 11
1492.280039565378
 21
645.6242698682928
 31
0.0
  0
LINE
  5
50E
330
1F
100
AcDbEntity
  8
Visible (ISO)
100
AcDbLine
 10
1486.080039565378
 20
647.880885320744
 30
0.0
 11
1486.080039565378
 21
650.7308853207434
 31
0.0
  0
LINE
  5
50F
330
1F
100
AcDbEntity
  8
Visible (ISO)
100
AcDbLine
 10
1536.580039565377
 20
647.880885320744
 30
0.0
 11
1536.580039565377
 21
650.7308853207434
 31
0.0
  0
LINE
  5
510
330
1F
100
AcDbEntity
  8
Visible (ISO)
100
AcDbLine
 10
1492.280039565378
 20
645.6242698682928
 30
0.0
 11
1486.080039565378
 21
647.880885320744
 31
0.0
  0
LINE
  5
511
330
1F
100
AcDbEntity
  8
Visible (ISO)
100
AcDbLine
 10
1530.380039565378
 20
645.6242698682928
 30
0.0
 11
1536.580039565377
 21
647.880885320744
 31
0.0
  0
LINE
  5
512
330
1F
100
AcDbEntity
  8
Visible (ISO)
100
AcDbLine
 10
1492.280039565378
 20
622.2308853207435
 30
0.0
 11
1492.280039565378
 21
645.6242698682928
 31
0.0
  0
LINE
  5
513
330
1F
100
AcDbEntity
  8
Visible (ISO)
100
AcDbLine
 10
1530.380039565378
 20
622.2308853207435
 30
0.0
 11
1530.380039565378
 21
645.6242698682928
 31
0.0
  0
LINE
  5
514
330
1F
100
AcDbEntity
  8
Visible (ISO)
100
AcDbLine
 10
1536.580039565377
 20
491.7308853207443
 30
0.0
 11
1486.080039565378
 21
491.7308853207443
 31
0.0
  0
LINE
  5
515
330
1F
100
AcDbEntity
  8
Visible (ISO)
100
AcDbLine
 10
1536.580039565377
 20
494.5808853207438
 30
0.0
 11
1486.080039565378
 21
494.5808853207438
 31
0.0
  0
LINE
  5
516
330
1F
100
AcDbEntity
  8
Visible (ISO)
100
AcDbLine
 10
1530.380039565378
 20
496.837500773194
 30
0.0
 11
1492.280039565378
 21
496.837500773194
 31
0.0
  0
LINE
  5
517
330
1F
100
AcDbEntity
  8
Visible (ISO)
100
AcDbLine
 10
1486.080039565378
 20
491.7308853207443
 30
0.0
 11
1486.080039565378
 21
494.5808853207438
 31
0.0
  0
LINE
  5
518
330
1F
100
AcDbEntity
  8
Visible (ISO)
100
AcDbLine
 10
1536.580039565377
 20
491.7308853207434
 30
0.0
 11
1536.580039565377
 21
494.5808853207438
 31
0.0
  0
LINE
  5
519
330
1F
100
AcDbEntity
  8
Visible (ISO)
100
AcDbLine
 10
1530.380039565378
 20
496.837500773194
 30
0.0
 11
1536.580039565377
 21
494.5808853207438
 31
0.0
  0
LINE
  5
51A
330
1F
100
AcDbEntity
  8
Visible (ISO)
100
AcDbLine
 10
1492.280039565378
 20
496.8375007731949
 30
0.0
 11
1486.080039565378
 21
494.5808853207438
 31
0.0
  0
LINE
  5
51B
330
1F
100
AcDbEntity
  8
Visible (ISO)
100
AcDbLine
 10
1492.280039565378
 20
496.837500773194
 30
0.0
 11
1492.280039565378
 21
520.2308853207443
 31
0.0
  0
LINE
  5
51C
330
1F
100
AcDbEntity
  8
Visible (ISO)
100
AcDbLine
 10
1530.380039565378
 20
496.837500773194
 30
0.0
 11
1530.380039565378
 21
520.2308853207443
 31
0.0
  0
LINE
  5
51D
330
1F
100
AcDbEntity
  8
Visible (ISO)
100
AcDbLine
 10
1537.037363440339
 20
622.2308853207525
 30
0.0
 11
1528.448788809549
 21
622.2308853207571
 31
0.0
  0
SPLINE
  5
51E
330
1F
100
AcDbEntity
  8
Visible (ISO)
100
AcDbSpline
210
0.0
220
0.0
230
1.0
 70
     8
 71
     3
 72
     8
 73
     4
 74
     0
 42
0.0000000001
 43
0.0000000001
 40
-0.1436911213494072
 40
-0.1436911213494072
 40
-0.1436911213494072
 40
-0.1436911213494072
 40
0.0
 40
0.0
 40
0.0
 40
0.0
 10
1528.448788809549
 20
622.2308853207571
 30
0.0
 10
1528.77439150291
 20
621.8975121544255
 30
0.0
 10
1529.10018318247
 20
621.5641616208515
 30
0.0
 10
1529.42611917487
 20
621.2308853207562
 30
0.0
  0
LINE
  5
51F
330
1F
100
AcDbEntity
  8
Visible (ISO)
100
AcDbLine
 10
1529.42611917487
 20
621.2308853207562
 30
0.0
 11
1536.443008410126
 21
621.2308853207535
 31
0.0
  0
ELLIPSE
  5
520
330
1F
100
AcDbEntity
  8
Visible (ISO)
100
AcDbEllipse
 10
1543.493055846084
 20
571.2308853207498
 30
0.0
 11
0.000000000014555
 21
-57.99999999999974
 31
0.0
210
0.0
220
0.0
230
1.0
 40
0.5446390350150252
 41
3.637976818718101
 42
4.216004815254924
  0
SPLINE
  5
521
330
1F
100
AcDbEntity
  8
Visible (ISO)
100
AcDbSpline
210
0.0
220
0.0
230
1.0
 70
     8
 71
     3
 72
     8
 73
     4
 74
     0
 42
0.0000000001
 43
0.0000000001
 40
-0.1436911213494927
 40
-0.1436911213494927
 40
-0.1436911213494927
 40
-0.1436911213494927
 40
0.0
 40
0.0
 40
0.0
 40
0.0
 10
1515.716465060318
 20
598.8533399546288
 30
0.0
 10
1516.177623362674
 20
598.7688575219401
 30
0.0
 10
1516.63875035692
 20
598.6839932443711
 30
0.0
 10
1517.099774663279
 20
598.5987496875707
 30
0.0
  0
ELLIPSE
  5
522
330
1F
100
AcDbEntity
  8
Visible (ISO)
100
AcDbEllipse
 10
1544.33172641403
 20
571.2308853207498
 30
0.0
 11
-0.0000000000111022
 21
56.99999999999992
 31
0.0
210
0.0
220
0.0
230
1.0
 40
0.5446390350150253
 41
0.5008119929710145
 42
1.069984333823178
  0
LINE
  5
523
330
1F
100
AcDbEntity
  8
Visible (ISO)
100
AcDbLine
 10
1515.716465060318
 20
598.8533399546288
 30
0.0
 11
1515.716465060318
 21
543.6084306868963
 31
0.0
  0
SPLINE
  5
524
330
1F
100
AcDbEntity
  8
Visible (ISO)
100
AcDbSpline
210
0.0
220
0.0
230
1.0
 70
     8
 71
     3
 72
     8
 73
     4
 74
     0
 42
0.0000000001
 43
0.0000000001
 40
-0.1436911213494072
 40
-0.1436911213494072
 40
-0.1436911213494072
 40
-0.1436911213494072
 40
0.0
 40
0.0
 40
0.0
 40
0.0
 10
1515.716465060318
 20
543.6084306868963
 30
0.0
 10
1516.177623362674
 20
543.6929131195859
 30
0.0
 10
1516.63875035692
 20
543.7777773971549
 30
0.0
 10
1517.099774663279
 20
543.8630209539544
 30
0.0
  0
LINE
  5
525
330
1F
100
AcDbEntity
  8
Visible (ISO)
100
AcDbLine
 10
1517.099774663279
 20
543.8630209539544
 30
0.0
 11
1517.099774663279
 21
598.5987496875707
 31
0.0
  0
ELLIPSE
  5
526
330
1F
100
AcDbEntity
  8
Visible (ISO)
100
AcDbEllipse
 10
1543.493055846084
 20
571.2308853207498
 30
0.0
 11
0.0000000000112937
 21
-57.99999999999976
 31
0.0
210
0.0
220
0.0
230
1.0
 40
0.5446390350150251
 41
5.208773145513465
 42
5.786801142050104
  0
SPLINE
  5
527
330
1F
100
AcDbEntity
  8
Visible (ISO)
100
AcDbSpline
210
0.0
220
0.0
230
1.0
 70
     8
 71
     3
 72
     8
 73
     4
 74
     0
 42
0.0000000001
 43
0.0000000001
 40
-0.1436911213494927
 40
-0.1436911213494927
 40
-0.1436911213494927
 40
-0.1436911213494927
 40
0.0
 40
0.0
 40
0.0
 40
0.0
 10
1528.448788809549
 20
520.2308853207571
 30
0.0
 10
1528.77439150291
 20
520.5642584870868
 30
0.0
 10
1529.10018318247
 20
520.8976090206626
 30
0.0
 10
1529.42611917487
 20
521.2308853207571
 30
0.0
  0
ELLIPSE
  5
528
330
1F
100
AcDbEntity
  8
Visible (ISO)
100
AcDbEllipse
 10
1544.33172641403
 20
571.2308853207498
 30
0.0
 11
-0.0000000000078798
 21
56.99999999999993
 31
0.0
210
0.0
220
0.0
230
1.0
 40
0.5446390350150252
 41
2.071608319766172
 42
2.640780660618538
  0
LINE
  5
529
330
1F
100
AcDbEntity
  8
Visible (ISO)
100
AcDbLine
 10
1528.448788809549
 20
520.2308853207571
 30
0.0
 11
1537.037363440339
 21
520.2308853207535
 31
0.0
  0
LINE
  5
52A
330
1F
100
AcDbEntity
  8
Visible (ISO)
100
AcDbLine
 10
1536.443008410126
 20
521.2308853207535
 30
0.0
 11
1529.42611917487
 21
521.2308853207571
 31
0.0
  0
ELLIPSE
  5
52B
330
1F
100
AcDbEntity
  8
Visible (ISO)
100
AcDbEllipse
 10
1538.461032438412
 20
571.2308853207489
 30
0.0
 11
-0.0000000000080241
 21
57.99999999999974
 31
0.0
210
0.0
220
0.0
230
1.0
 40
0.5446390350150253
 41
2.067180491923936
 42
2.645208488460767
  0
LINE
  5
52C
330
1F
100
AcDbEntity
  8
Visible (ISO)
100
AcDbLine
 10
1510.684441652646
 20
543.6084306868954
 30
0.0
 11
1510.684441652646
 21
598.8533399546279
 31
0.0
  0
ELLIPSE
  5
52D
330
1F
100
AcDbEntity
  8
Visible (ISO)
100
AcDbEllipse
 10
1538.461032438412
 20
571.2308853207498
 30
0.0
 11
-0.0000000000112937
 21
57.99999999999976
 31
0.0
210
0.0
220
0.0
230
1.0
 40
0.5446390350150252
 41
0.4963841651287631
 42
1.074412161665428
  0
SPLINE
  5
52E
330
1F
100
AcDbEntity
  8
Visible (ISO)
100
AcDbSpline
210
0.0
220
0.0
230
1.0
 70
     8
 71
     3
 72
     8
 73
     4
 74
     0
 42
0.0000000001
 43
0.0000000001
 40
-0.1436911116726756
 40
-0.1436911116726756
 40
-0.1436911116726756
 40
-0.1436911116726756
 40
0.0
 40
0.0
 40
0.0
 40
0.0
 10
1510.390410119715
 20
598.5987496875688
 30
0.0
 10
1510.488403861122
 20
598.6839932443711
 30
0.0
 10
1510.586419429514
 20
598.7688575219401
 30
0.0
 10
1510.684441652646
 20
598.8533399546279
 30
0.0
  0
SPLINE
  5
52F
330
1F
100
AcDbEntity
  8
Visible (ISO)
100
AcDbSpline
210
0.0
220
0.0
230
1.0
 70
     8
 71
     3
 72
     8
 73
     4
 74
     0
 42
0.0000000001
 43
0.0000000001
 40
-0.143691111674144
 40
-0.143691111674144
 40
-0.143691111674144
 40
-0.143691111674144
 40
0.0
 40
0.0
 40
0.0
 40
0.0
 10
1510.390410119715
 20
543.8630209539535
 30
0.0
 10
1510.488403861122
 20
543.7777773971531
 30
0.0
 10
1510.586419429512
 20
543.692913119584
 30
0.0
 10
1510.684441652646
 20
543.6084306868954
 30
0.0
  0
LINE
  5
530
330
1F
100
AcDbEntity
  8
Visible (ISO)
100
AcDbLine
 10
1517.461876551707
 20
614.5759947148828
 30
0.0
 11
1517.946854394762
 21
615.33643523057
 31
0.0
  0
LINE
  5
531
330
1F
100
AcDbEntity
  8
Visible (ISO)
100
AcDbLine
 10
1517.461876551706
 20
527.8857759266331
 30
0.0
 11
1517.946854394762
 21
527.1253354109469
 31
0.0
  0
LINE
  5
532
330
1F
100
AcDbEntity
  8
Visible (ISO)
100
AcDbLine
 10
1515.716465060318
 20
543.6084306868963
 30
0.0
 11
1510.684441652646
 21
543.6084306868954
 31
0.0
  0
LINE
  5
533
330
1F
100
AcDbEntity
  8
Visible (ISO)
100
AcDbLine
 10
1528.448788809549
 20
520.2308853207571
 30
0.0
 11
1523.416765401877
 21
520.2308853207561
 31
0.0
  0
LINE
  5
534
330
1F
100
AcDbEntity
  8
Visible (ISO)
100
AcDbLine
 10
1515.716465060318
 20
598.8533399546288
 30
0.0
 11
1510.684441652646
 21
598.8533399546279
 31
0.0
  0
LINE
  5
535
330
1F
100
AcDbEntity
  8
Visible (ISO)
100
AcDbLine
 10
1528.448788809549
 20
622.2308853207571
 30
0.0
 11
1523.416765401877
 21
622.2308853207553
 31
0.0
  0
SPLINE
  5
536
330
1F
100
AcDbEntity
  8
Visible (ISO)
100
AcDbSpline
210
0.0
220
0.0
230
1.0
 70
     8
 71
     3
 72
    14
 73
    10
 74
     0
 42
0.0000000001
 43
0.0000000001
 40
3.380215823122906
 40
3.380215823122906
 40
3.380215823122906
 40
3.380215823122906
 40
3.661411136336749
 40
3.661411136336749
 40
3.989909006669527
 40
3.989909006669527
 40
4.331408115185015
 40
4.331408115185015
 40
4.60107856586182
 40
4.60107856586182
 40
4.60107856586182
 40
4.60107856586182
 10
1642.196605632925
 20
622.7481780770997
 30
0.0
 10
1645.379426507401
 20
621.3266010273348
 30
0.0
 10
1648.266505259284
 20
619.1678847789737
 30
0.0
 10
1653.792030378765
 20
613.3615195919803
 30
0.0
 10
1656.32566292794
 20
609.5163929188559
 30
0.0
 10
1660.592748699279
 20
600.6281184837182
 30
0.0
 10
1662.287706447607
 20
595.5371043365468
 30
0.0
 10
1664.399694064154
 20
585.8559908083082
 30
0.0
 10
1665.009481101945
 20
581.3871734736769
 30
0.0
 10
1665.28515884153
 20
576.8586325838935
 30
0.0
  0
SPLINE
  5
537
330
1F
100
AcDbEntity
  8
Visible (ISO)
100
AcDbSpline
210
0.0
220
0.0
230
1.0
 70
     8
 71
     3
 72
    16
 73
    12
 74
     0
 42
0.0000000001
 43
0.0000000001
 40
4.823699394907559
 40
4.823699394907559
 40
4.823699394907559
 40
4.823699394907559
 40
5.003916582430688
 40
5.003916582430688
 40
5.340376826513813
 40
5.340376826513813
 40
5.681064997618349
 40
5.681064997618349
 40
6.01680226506315
 40
6.01680226506315
 40
6.044562137646472
 40
6.044562137646472
 40
6.044562137646472
 40
6.044562137646472
 10
1665.28515884153
 20
565.6031380576179
 30
0.0
 10
1665.100927062461
 20
562.5767742098462
 30
0.0
 10
1664.767707290458
 20
559.5768487002827
 30
0.0
 10
1663.393932624122
 20
551.1711510187853
 30
0.0
 10
1661.990485353356
 20
545.9373314449769
 30
0.0
 10
1658.210120616508
 20
536.3771542684928
 30
0.0
 10
1655.825244127027
 20
532.0599966610391
 30
0.0
 10
1650.153711649879
 20
524.9033601333697
 30
0.0
 10
1646.86380711339
 20
522.0263583958578
 30
0.0
 10
1642.822318386132
 20
520.0015439192759
 30
0.0
 10
1642.51081678005
 20
519.8539320221454
 30
0.0
 10
1642.196605632925
 20
519.713592564429
 30
0.0
  0
ELLIPSE
  5
538
330
1F
100
AcDbEntity
  8
Visible (ISO)
100
AcDbEllipse
 10
1953.796234344532
 20
210.5203106821484
 30
0.0
 11
5.999999999999981
 21
-0.0000000000000001
 31
0.0
210
0.0
220
0.0
230
1.0
 40
0.8386705679454205
 41
0.0
 42
6.283185307179586
  0
ELLIPSE
  5
539
330
1F
100
AcDbEntity
  8
Visible (ISO)
100
AcDbEllipse
 10
1953.796234344532
 20
209.7033521296259
 30
0.0
 11
-7.49999999999998
 21
0.0000000000000001
 31
0.0
210
0.0
220
0.0
230
1.0
 40
0.8386705679454205
 41
0.0
 42
6.283185307179586
  0
ELLIPSE
  5
53A
330
1F
100
AcDbEntity
  8
Visible (ISO)
100
AcDbEllipse
 10
1953.796234344525
 20
196.9043348067728
 30
0.0
 11
7.499999999999981
 21
-0.0000000000000001
 31
0.0
210
0.0
220
0.0
230
1.0
 40
0.8386705679454205
 41
3.141592653589338
 42
6.283185307179131
  0
ELLIPSE
  5
53B
330
1F
100
AcDbEntity
  8
Visible (ISO)
100
AcDbEllipse
 10
1953.796234344525
 20
194.1811396316977
 30
0.0
 11
24.99999999999994
 21
-0.0000000000000021
 31
0.0
210
0.0
220
0.0
230
1.0
 40
0.8386705679454205
 41
3.141592653589327
 42
6.283185307179137
  0
ELLIPSE
  5
53C
330
1F
100
AcDbEntity
  8
Visible (ISO)
100
AcDbEllipse
 10
1953.796234344518
 20
180.8374832738297
 30
0.0
 11
60.49999999999987
 21
-0.0000000000275141
 31
0.0
210
0.0
220
0.0
230
1.0
 40
0.8386705679454204
 41
2.546645472739374
 42
6.878132488031094
  0
ELLIPSE
  5
53D
330
1F
100
AcDbEntity
  8
Visible (ISO)
100
AcDbEllipse
 10
1953.796234344525
 20
196.9043348067728
 30
0.0
 11
24.99999999999994
 21
-0.0000000000000003
 31
0.0
210
0.0
220
0.0
230
1.0
 40
0.8386705679454205
 41
0.0
 42
6.283185307179586
  0
ELLIPSE
  5
53E
330
1F
100
AcDbEntity
  8
Visible (ISO)
100
AcDbEllipse
 10
1953.79623434451
 20
159.5965609082434
 30
0.0
 11
60.49999999999987
 21
-0.0000000000000006
 31
0.0
210
0.0
220
0.0
230
1.0
 40
0.8386705679454204
 41
3.141592653589333
 42
6.283185307179126
  0
ELLIPSE
  5
53F
330
1F
100
AcDbEntity
  8
Visible (ISO)
100
AcDbEllipse
 10
1953.796234344507
 20
155.2394486281234
 30
0.0
 11
68.49999999999986
 21
-0.0000000000311362
 31
0.0
210
0.0
220
0.0
230
1.0
 40
0.8386705679454205
 41
2.652767725983009
 42
6.772010234787446
  0
ELLIPSE
  5
540
330
1F
100
AcDbEntity
  8
Visible (ISO)
100
AcDbEllipse
 10
1953.796234344502
 20
144.3466679278228
 30
0.0
 11
68.49999999999986
 21
0.000000000000003
 31
0.0
210
0.0
220
0.0
230
1.0
 40
0.8386705679454205
 41
3.141592653589334
 42
6.283185307179128
  0
LINE
  5
541
330
1F
100
AcDbEntity
  8
Visible (ISO)
100
AcDbLine
 10
1961.296234344532
 20
209.7033521296259
 30
0.0
 11
1961.296234344525
 21
196.9043348067728
 31
0.0
  0
LINE
  5
542
330
1F
100
AcDbEntity
  8
Visible (ISO)
100
AcDbLine
 10
1946.296234344533
 20
209.7033521296259
 30
0.0
 11
1946.296234344526
 21
196.9043348067728
 31
0.0
  0
LINE
  5
543
330
1F
100
AcDbEntity
  8
Visible (ISO)
100
AcDbLine
 10
1997.705939034167
 20
216.9526141347716
 30
0.0
 11
2003.901009592943
 21
209.2752366050606
 31
0.0
  0
LINE
  5
544
330
1F
100
AcDbEntity
  8
Visible (ISO)
100
AcDbLine
 10
1909.88652965487
 20
216.9526141347716
 30
0.0
 11
1903.691459096086
 21
209.275236605061
 31
0.0
  0
LINE
  5
545
330
1F
100
AcDbEntity
  8
Visible (ISO)
100
AcDbLine
 10
1978.796234344525
 20
196.9043348067728
 30
0.0
 11
1978.796234344525
 21
194.1811396316977
 31
0.0
  0
LINE
  5
546
330
1F
100
AcDbEntity
  8
Visible (ISO)
100
AcDbLine
 10
1928.796234344527
 20
196.9043348067728
 30
0.0
 11
1928.796234344525
 21
194.1811396316977
 31
0.0
  0
LINE
  5
547
330
1F
100
AcDbEntity
  8
Visible (ISO)
100
AcDbLine
 10
2014.296234344519
 20
180.8374832738293
 30
0.0
 11
2014.296234344509
 21
159.5965609082434
 31
0.0
  0
LINE
  5
548
330
1F
100
AcDbEntity
  8
Visible (ISO)
100
AcDbLine
 10
1893.296234344519
 20
180.8374832738297
 30
0.0
 11
1893.296234344509
 21
159.5965609082434
 31
0.0
  0
LINE
  5
549
330
1F
100
AcDbEntity
  8
Visible (ISO)
100
AcDbLine
 10
2022.296234344507
 20
155.239448628123
 30
0.0
 11
2022.296234344501
 21
144.3466679278228
 31
0.0
  0
LINE
  5
54A
330
1F
100
AcDbEntity
  8
Visible (ISO)
100
AcDbLine
 10
1885.296234344507
 20
155.2394486281234
 30
0.0
 11
1885.296234344503
 21
144.3466679278228
 31
0.0
  0
ELLIPSE
  5
54B
330
1F
100
AcDbEntity
  8
Visible (ISO)
100
AcDbEllipse
 10
1953.796234344492
 20
120.3825503871619
 30
0.0
 11
57.99999999999976
 21
-0.0000000000263845
 31
0.0
210
0.0
220
0.0
230
1.0
 40
0.8386705679454205
 41
5.20877314551435
 42
5.786801142051005
  0
LINE
  5
54C
330
1F
100
AcDbEntity
  8
Visible (ISO)
100
AcDbLine
 10
1926.173779710633
 20
77.61035142194557
 30
0.0
 11
1981.418688978365
 21
77.61035142194557
 31
0.0
  0
ELLIPSE
  5
54D
330
1F
100
AcDbEntity
  8
Visible (ISO)
100
AcDbEllipse
 10
1953.796234344492
 20
120.3825503871619
 30
0.0
 11
57.99999999999976
 21
-0.0000000000213191
 31
0.0
210
0.0
220
0.0
230
1.0
 40
0.8386705679454205
 41
3.637976818719316
 42
4.216004815255983
  0
LINE
  5
54E
330
1F
100
AcDbEntity
  8
Visible (ISO)
100
AcDbLine
 10
1902.796234344499
 20
105.3859961965561
 30
0.0
 11
1902.796234344496
 21
97.21641067133056
 31
0.0
  0
LINE
  5
54F
330
1F
100
AcDbEntity
  8
Visible (ISO)
100
AcDbLine
 10
1902.796234344499
 20
105.3859961965561
 30
0.0
 11
1902.796234344499
 21
105.9306352315709
 31
0.0
  0
LINE
  5
550
330
1F
100
AcDbEntity
  8
Visible (ISO)
100
AcDbLine
 10
2004.796234344499
 20
105.9306352315709
 30
0.0
 11
2004.796234344499
 21
105.3859961965556
 31
0.0
  0
LINE
  5
551
330
1F
100
AcDbEntity
  8
Visible (ISO)
100
AcDbLine
 10
2004.796234344499
 20
105.3859961965561
 30
0.0
 11
2004.796234344496
 21
97.21641067133056
 31
0.0
  0
ELLIPSE
  5
552
330
1F
100
AcDbEntity
  8
Visible (ISO)
100
AcDbEllipse
 10
1953.796234344495
 20
128.552135912387
 30
0.0
 11
-57.99999999999974
 21
0.0000000000263706
 31
0.0
210
0.0
220
0.0
230
1.0
 40
0.8386705679454204
 41
0.4963841651296681
 42
1.074412161666308
  0
LINE
  5
553
330
1F
100
AcDbEntity
  8
Visible (ISO)
100
AcDbLine
 10
1981.41868897837
 20
85.77993694717067
 30
0.0
 11
1926.173779710637
 21
85.77993694717067
 31
0.0
  0
ELLIPSE
  5
554
330
1F
100
AcDbEntity
  8
Visible (ISO)
100
AcDbEllipse
 10
1953.796234344495
 20
128.552135912387
 30
0.0
 11
-57.99999999999974
 21
0.0000000000313805
 31
0.0
210
0.0
220
0.0
230
1.0
 40
0.8386705679454205
 41
2.067180491924696
 42
2.645208488461378
  0
LINE
  5
555
330
1F
100
AcDbEntity
  8
Visible (ISO)
100
AcDbLine
 10
1926.173779710637
 20
85.77993694717067
 30
0.0
 11
1926.173779710633
 21
77.61035142194557
 31
0.0
  0
LINE
  5
556
330
1F
100
AcDbEntity
  8
Visible (ISO)
100
AcDbLine
 10
1981.41868897837
 20
85.77993694717067
 30
0.0
 11
1981.418688978365
 21
77.61035142194557
 31
0.0
  0
LINE
  5
557
330
1F
100
AcDbEntity
  8
Visible (ISO)
100
AcDbLine
 10
1902.796234344489
 20
90.48394463990758
 30
0.0
 11
1902.796234344492
 21
97.21641067133056
 31
0.0
  0
LINE
  5
558
330
1F
100
AcDbEntity
  8
Visible (ISO)
100
AcDbLine
 10
2004.796234344489
 20
90.48394463990804
 30
0.0
 11
1999.546398278622
 21
90.48394463990804
 31
0.0
  0
LINE
  5
559
330
1F
100
AcDbEntity
  8
Visible (ISO)
100
AcDbLine
 10
2004.796234344492
 20
97.21641067133056
 30
0.0
 11
2004.796234344489
 21
90.48394463990804
 31
0.0
  0
LINE
  5
55A
330
1F
100
AcDbEntity
  8
Visible (ISO)
100
AcDbLine
 10
1908.046070410357
 20
90.48394463990804
 30
0.0
 11
1902.796234344489
 21
90.48394463990804
 31
0.0
  0
ELLIPSE
  5
55B
330
1F
100
AcDbEntity
  8
Visible (ISO)
100
AcDbEllipse
 10
1986.578402438508
 20
82.17075469972838
 30
0.0
 11
6.499999999999984
 21
-0.0000000000000299
 31
0.0
210
0.0
220
0.0
230
1.0
 40
0.8386705679454205
 41
4.00204716386377
 42
6.283185307179169
  0
LINE
  5
55C
330
1F
100
AcDbEntity
  8
Visible (ISO)
100
AcDbLine
 10
1993.078402438509
 20
82.17075469972838
 30
0.0
 11
1993.07840243851
 21
84.59468507596536
 31
0.0
  0
ELLIPSE
  5
55D
330
1F
100
AcDbEntity
  8
Visible (ISO)
100
AcDbEllipse
 10
1921.014066250482
 20
82.17075469972838
 30
0.0
 11
-6.499999999999984
 21
0.0000000000000299
 31
0.0
210
0.0
220
0.0
230
1.0
 40
0.8386705679454205
 41
0.0
 42
2.281138143315462
  0
LINE
  5
55E
330
1F
100
AcDbEntity
  8
Visible (ISO)
100
AcDbLine
 10
1914.514066250482
 20
84.59468507596536
 30
0.0
 11
1914.514066250481
 21
82.17075469972838
 31
0.0
  0
LINE
  5
55F
330
1F
100
AcDbEntity
  8
Visible (ISO)
100
AcDbLine
 10
2033.296234344487
 20
86.22770216466621
 30
0.0
 11
2033.296234344487
 21
136.7277021646657
 31
0.0
  0
LINE
  5
560
330
1F
100
AcDbEntity
  8
Visible (ISO)
100
AcDbLine
 10
2030.446234344487
 20
86.22770216466621
 30
0.0
 11
2030.446234344487
 21
136.7277021646657
 31
0.0
  0
LINE
  5
561
330
1F
100
AcDbEntity
  8
Visible (ISO)
100
AcDbLine
 10
2028.189618892036
 20
92.42770216466603
 30
0.0
 11
2028.189618892036
 21
130.5277021646659
 31
0.0
  0
LINE
  5
562
330
1F
100
AcDbEntity
  8
Visible (ISO)
100
AcDbLine
 10
2030.446234344487
 20
136.7277021646657
 30
0.0
 11
2033.296234344487
 21
136.7277021646657
 31
0.0
  0
LINE
  5
563
330
1F
100
AcDbEntity
  8
Visible (ISO)
100
AcDbLine
 10
2030.446234344487
 20
86.22770216466621
 30
0.0
 11
2033.296234344487
 21
86.22770216466621
 31
0.0
  0
LINE
  5
564
330
1F
100
AcDbEntity
  8
Visible (ISO)
100
AcDbLine
 10
2028.189618892036
 20
130.5277021646659
 30
0.0
 11
2030.446234344487
 21
136.7277021646657
 31
0.0
  0
LINE
  5
565
330
1F
100
AcDbEntity
  8
Visible (ISO)
100
AcDbLine
 10
2028.189618892036
 20
92.42770216466649
 30
0.0
 11
2030.446234344487
 21
86.22770216466621
 31
0.0
  0
LINE
  5
566
330
1F
100
AcDbEntity
  8
Visible (ISO)
100
AcDbLine
 10
2020.28496251117
 20
130.5277021646659
 30
0.0
 11
2028.189618892036
 21
130.5277021646659
 31
0.0
  0
LINE
  5
567
330
1F
100
AcDbEntity
  8
Visible (ISO)
100
AcDbLine
 10
2004.796234344487
 20
92.42770216466649
 30
0.0
 11
2028.189618892036
 21
92.42770216466649
 31
0.0
  0
LINE
  5
568
330
1F
100
AcDbEntity
  8
Visible (ISO)
100
AcDbLine
 10
1874.296234344487
 20
86.22770216466621
 30
0.0
 11
1874.296234344487
 21
136.7277021646657
 31
0.0
  0
LINE
  5
569
330
1F
100
AcDbEntity
  8
Visible (ISO)
100
AcDbLine
 10
1877.146234344487
 20
86.22770216466621
 30
0.0
 11
1877.146234344487
 21
136.7277021646657
 31
0.0
  0
LINE
  5
56A
330
1F
100
AcDbEntity
  8
Visible (ISO)
100
AcDbLine
 10
1879.402849796937
 20
92.42770216466603
 30
0.0
 11
1879.402849796937
 21
130.5277021646659
 31
0.0
  0
LINE
  5
56B
330
1F
100
AcDbEntity
  8
Visible (ISO)
100
AcDbLine
 10
1874.296234344487
 20
136.7277021646657
 30
0.0
 11
1877.146234344487
 21
136.7277021646657
 31
0.0
  0
LINE
  5
56C
330
1F
100
AcDbEntity
  8
Visible (ISO)
100
AcDbLine
 10
1874.296234344487
 20
86.22770216466621
 30
0.0
 11
1877.146234344487
 21
86.22770216466621
 31
0.0
  0
LINE
  5
56D
330
1F
100
AcDbEntity
  8
Visible (ISO)
100
AcDbLine
 10
1879.402849796937
 20
92.42770216466649
 30
0.0
 11
1877.146234344487
 21
86.22770216466621
 31
0.0
  0
LINE
  5
56E
330
1F
100
AcDbEntity
  8
Visible (ISO)
100
AcDbLine
 10
1879.402849796937
 20
130.5277021646659
 30
0.0
 11
1877.146234344487
 21
136.7277021646657
 31
0.0
  0
LINE
  5
56F
330
1F
100
AcDbEntity
  8
Visible (ISO)
100
AcDbLine
 10
1879.402849796937
 20
130.5277021646659
 30
0.0
 11
1887.307506177805
 21
130.5277021646659
 31
0.0
  0
LINE
  5
570
330
1F
100
AcDbEntity
  8
Visible (ISO)
100
AcDbLine
 10
1879.402849796937
 20
92.42770216466649
 30
0.0
 11
1902.796234344488
 21
92.42770216466649
 31
0.0
  0
ELLIPSE
  5
571
330
1F
100
AcDbEntity
  8
Visible (ISO)
100
AcDbEllipse
 10
1953.796234344495
 20
132.3646091574921
 30
0.0
 11
57.99999999999894
 21
-0.0000000000213995
 31
0.0
210
0.0
220
0.0
230
1.0
 40
0.8386705679454205
 41
3.887034282659628
 42
4.216004815256003
  0
SPLINE
  5
572
330
1F
100
AcDbEntity
  8
Visible (ISO)
100
AcDbSpline
210
0.0
220
0.0
230
1.0
 70
     8
 71
     3
 72
     8
 73
     4
 74
     0
 42
0.0000000001
 43
0.0000000001
 40
-0.1436911213494927
 40
-0.1436911213494927
 40
-0.1436911213494927
 40
-0.1436911213494927
 40
0.0
 40
0.0
 40
0.0
 40
0.0
 10
1926.173779710639
 20
89.59241019227626
 30
0.0
 10
1926.258262143328
 20
90.0535684946301
 30
0.0
 10
1926.343126420897
 20
90.51469548887714
 30
0.0
 10
1926.428369977698
 20
90.97571979523651
 30
0.0
  0
ELLIPSE
  5
573
330
1F
100
AcDbEntity
  8
Visible (ISO)
100
AcDbEllipse
 10
1953.796234344497
 20
132.909248192507
 30
0.0
 11
-56.9999999999994
 21
0.0000000000259265
 31
0.0
210
0.0
220
0.0
230
1.0
 40
0.8386705679454205
 41
0.9419341201274358
 42
1.069984333824087
  0
LINE
  5
574
330
1F
100
AcDbEntity
  8
Visible (ISO)
100
AcDbLine
 10
1926.173779710639
 20
89.59241019227626
 30
0.0
 11
1933.063122340584
 21
89.59241019227626
 31
0.0
  0
LINE
  5
575
330
1F
100
AcDbEntity
  8
Visible (ISO)
100
AcDbLine
 10
1974.529346348425
 20
89.59241019227626
 30
0.0
 11
1981.41868897837
 21
89.59241019227626
 31
0.0
  0
SPLINE
  5
576
330
1F
100
AcDbEntity
  8
Visible (ISO)
100
AcDbSpline
210
0.0
220
0.0
230
1.0
 70
     8
 71
     3
 72
     8
 73
     4
 74
     0
 42
0.0000000001
 43
0.0000000001
 40
-0.1436911213494072
 40
-0.1436911213494072
 40
-0.1436911213494072
 40
-0.1436911213494072
 40
0.0
 40
0.0
 40
0.0
 40
0.0
 10
1981.41868897837
 20
89.59241019227626
 30
0.0
 10
1981.334206545682
 20
90.05356849463057
 30
0.0
 10
1981.249342268114
 20
90.51469548887714
 30
0.0
 10
1981.164098711313
 20
90.97571979523651
 30
0.0
  0
LINE
  5
577
330
1F
100
AcDbEntity
  8
Visible (ISO)
100
AcDbLine
 10
1981.164098711313
 20
90.97571979523651
 30
0.0
 11
1979.144035557588
 21
90.97571979523651
 31
0.0
  0
LINE
  5
578
330
1F
100
AcDbEntity
  8
Visible (ISO)
100
AcDbLine
 10
1928.448433131422
 20
90.97571979523651
 30
0.0
 11
1926.428369977698
 21
90.97571979523651
 31
0.0
  0
ELLIPSE
  5
579
330
1F
100
AcDbEntity
  8
Visible (ISO)
100
AcDbEllipse
 10
1953.796234344497
 20
132.3646091574921
 30
0.0
 11
57.99999999999998
 21
-0.0000000000263817
 31
0.0
210
0.0
220
0.0
230
1.0
 40
0.8386705679454205
 41
5.208773145514346
 42
5.537743678110703
  0
ELLIPSE
  5
57A
330
1F
100
AcDbEntity
  8
Visible (ISO)
100
AcDbEllipse
 10
1953.796234344495
 20
132.9092481925092
 30
0.0
 11
-57.00000000000223
 21
0.0000000000309003
 31
0.0
210
0.0
220
0.0
230
1.0
 40
0.8386705679454205
 41
2.071608319766873
 42
2.199658533463551
  0
LINE
  5
57B
330
1F
100
AcDbEntity
  8
Visible (ISO)
100
AcDbLine
 10
1981.41868897837
 20
86.32457598218595
 30
0.0
 11
1926.173779710637
 21
86.32457598218595
 31
0.0
  0
ELLIPSE
  5
57C
330
1F
100
AcDbEntity
  8
Visible (ISO)
100
AcDbEllipse
 10
1953.796234344495
 20
129.0967749474023
 30
0.0
 11
-57.99999999999976
 21
0.000000000031411
 31
0.0
210
0.0
220
0.0
230
1.0
 40
0.8386705679454205
 41
2.067180491924696
 42
2.64520848846138
  0
ELLIPSE
  5
57D
330
1F
100
AcDbEntity
  8
Visible (ISO)
100
AcDbEllipse
 10
1953.796234344495
 20
129.0967749474023
 30
0.0
 11
-57.99999999999974
 21
0.00000000002639
 31
0.0
210
0.0
220
0.0
230
1.0
 40
0.8386705679454205
 41
0.4963841651296681
 42
1.074412161666309
  0
LINE
  5
57E
330
1F
100
AcDbEntity
  8
Visible (ISO)
100
AcDbLine
 10
2004.7962343445
 20
105.9941060522962
 30
0.0
 11
2004.7962343445
 21
105.9306352315709
 31
0.0
  0
LINE
  5
57F
330
1F
100
AcDbEntity
  8
Visible (ISO)
100
AcDbLine
 10
1902.796234344499
 20
105.9941060522962
 30
0.0
 11
1902.796234344499
 21
105.9306352315709
 31
0.0
  0
LINE
  5
580
330
1F
100
AcDbEntity
  8
Visible (ISO)
100
AcDbLine
 10
1926.173779710639
 20
89.59241019227626
 30
0.0
 11
1926.173779710637
 21
86.32457598218595
 31
0.0
  0
LINE
  5
581
330
1F
100
AcDbEntity
  8
Visible (ISO)
100
AcDbLine
 10
1981.41868897837
 20
89.59241019227626
 30
0.0
 11
1981.41868897837
 21
86.32457598218595
 31
0.0
  0
SPLINE
  5
582
330
1F
100
AcDbEntity
  8
Visible (ISO)
100
AcDbSpline
210
0.0
220
0.0
230
1.0
 70
     8
 71
     3
 72
    18
 73
    14
 74
     0
 42
0.0000000001
 43
0.0000000001
 40
0.594947180850967
 40
0.594947180850967
 40
0.594947180850967
 40
0.594947180850967
 40
0.9130402421331574
 40
0.9130402421331574
 40
1.237937684768824
 40
1.237937684768824
 40
1.566125053996938
 40
1.566125053996938
 40
1.89517011102903
 40
1.89517011102903
 40
2.22340433929032
 40
2.22340433929032
 40
2.54664547273883
 40
2.54664547273883
 40
2.54664547273883
 40
2.54664547273883
 10
1909.88652965487
 20
216.9526141347716
 30
0.0
 10
1913.122890681462
 20
220.963345762095
 30
0.0
 10
1917.088103520944
 20
224.4935789776007
 30
0.0
 10
1926.142654314827
 20
230.3598968923981
 30
0.0
 10
1931.253406069117
 20
232.6694290289276
 30
0.0
 10
1942.088485742299
 20
235.8110267335439
 30
0.0
 10
1947.817637541317
 20
236.6278188700919
 30
0.0
 10
1959.300141852503
 20
236.6728037337718
 30
0.0
 10
1965.052370782348
 20
235.896809508062
 30
0.0
 10
1975.986027297903
 20
232.8134803883137
 30
0.0
 10
1981.167915685204
 20
230.5099286482989
 30
0.0
 10
1990.375740343816
 20
224.6075360168863
 30
0.0
 10
1994.417200190675
 20
221.0282561244082
 30
0.0
 10
1997.705939034167
 20
216.9526141347716
 30
0.0
  0
ELLIPSE
  5
583
330
1F
100
AcDbEntity
  8
Visible (ISO)
100
AcDbEllipse
 10
1176.791247166664
 20
180.8374832738297
 30
0.0
 11
60.49999999999987
 21
-0.0000000000277381
 31
0.0
210
0.0
220
0.0
230
1.0
 40
0.8386705679454204
 41
0.0271880283581396
 42
3.114404625232753
  0
ELLIPSE
  5
584
330
1F
100
AcDbEntity
  8
Visible (ISO)
100
AcDbEllipse
 10
1176.791247166652
 20
155.2394486281234
 30
0.0
 11
68.49999999999986
 21
0.0000000000000957
 31
0.0
210
0.0
220
0.0
230
1.0
 40
0.8386705679454205
 41
0.0
 42
3.141592653589325
  0
ELLIPSE
  5
585
330
1F
100
AcDbEntity
  8
Visible (ISO)
100
AcDbEllipse
 10
1176.791247166647
 20
144.3466679278228
 30
0.0
 11
68.49999999999983
 21
-0.0000000000314193
 31
0.0
210
0.0
220
0.0
230
1.0
 40
0.8386705679454204
 41
6.0402595877018
 42
9.667703680248257
  0
ELLIPSE
  5
586
330
1F
100
AcDbEntity
  8
Visible (ISO)
100
AcDbEllipse
 10
1176.791247166647
 20
144.3466679278228
 30
0.0
 11
-38.89999999999988
 21
0.0000000000178191
 31
0.0
210
0.0
220
0.0
230
1.0
 40
0.8386705679454209
 41
4.375476345857003
 42
5.04930161491346
  0
LINE
  5
587
330
1F
100
AcDbEntity
  8
Visible (ISO)
100
AcDbLine
 10
1220.700951856313
 20
216.9526141347716
 30
0.0
 11
1226.896022415086
 21
209.275236605061
 31
0.0
  0
LINE
  5
588
330
1F
100
AcDbEntity
  8
Visible (ISO)
100
AcDbLine
 10
1132.881542477015
 20
216.9526141347716
 30
0.0
 11
1126.686471918229
 21
209.2752366050606
 31
0.0
  0
LINE
  5
589
330
1F
100
AcDbEntity
  8
Visible (ISO)
100
AcDbLine
 10
1245.291247166652
 20
155.2394486281234
 30
0.0
 11
1245.291247166647
 21
144.3466679278228
 31
0.0
  0
LINE
  5
58A
330
1F
100
AcDbEntity
  8
Visible (ISO)
100
AcDbLine
 10
1108.291247166652
 20
155.239448628123
 30
0.0
 11
1108.291247166647
 21
144.3466679278228
 31
0.0
  0
ELLIPSE
  5
58B
330
1F
100
AcDbEntity
  8
Visible (ISO)
100
AcDbEllipse
 10
1215.299817641267
 20
145.794268595908
 30
0.0
 11
9.999999999999992
 21
-0.0000000000037151
 31
0.0
210
0.0
220
0.0
230
1.0
 40
0.8386705679454205
 41
3.808256194963892
 42
4.712388980385143
  0
ELLIPSE
  5
58C
330
1F
100
AcDbEntity
  8
Visible (ISO)
100
AcDbEllipse
 10
1215.299817641265
 20
141.3073810573998
 30
0.0
 11
-0.000000000002222
 21
-16.77341135890837
 31
0.0
210
0.0
220
0.0
230
1.0
 40
0.5961816464179761
 41
5.379052521758092
 42
6.283185307179124
  0
ELLIPSE
  5
58D
330
1F
100
AcDbEntity
  8
Visible (ISO)
100
AcDbEllipse
 10
1138.282676691995
 20
145.794268595908
 30
0.0
 11
9.999999999999992
 21
0.0000000000000076
 31
0.0
210
0.0
220
0.0
230
1.0
 40
0.8386705679454205
 41
4.712388980385008
 42
5.616521765805984
  0
ELLIPSE
  5
58E
330
1F
100
AcDbEntity
  8
Visible (ISO)
100
AcDbEllipse
 10
1138.282676691994
 20
141.3073810573998
 30
0.0
 11
-0.0000000000022231
 21
-16.77341135890837
 31
0.0
210
0.0
220
0.0
230
1.0
 40
0.5961816464179761
 41
0.0
 42
0.9041327854209404
  0
ELLIPSE
  5
58F
330
1F
100
AcDbEntity
  8
Visible (ISO)
100
AcDbEllipse
 10
1176.791247166636
 20
120.3825503871619
 30
0.0
 11
-38.99999999999998
 21
0.0000000000145051
 31
0.0
210
0.0
220
0.0
230
1.0
 40
0.8386705679454204
 41
3.808256194963892
 42
4.294881771938745
  0
ELLIPSE
  5
590
330
1F
100
AcDbEntity
  8
Visible (ISO)
100
AcDbEllipse
 10
1176.791247166622
 20
90.48394463990804
 30
0.0
 11
-0.000000000008668
 21
-65.41630429974266
 31
0.0
210
0.0
220
0.0
230
1.0
 40
0.5961816464179761
 41
2.237459868168318
 42
2.724085445143005
  0
LINE
  5
591
330
1F
100
AcDbEntity
  8
Visible (ISO)
100
AcDbLine
 10
1227.791247166632
 20
137.4075629164537
 30
0.0
 11
1215.299817641269
 21
137.4075629164537
 31
0.0
  0
LINE
  5
592
330
1F
100
AcDbEntity
  8
Visible (ISO)
100
AcDbLine
 10
1125.791247166633
 20
137.4075629164537
 30
0.0
 11
1138.282676691997
 21
137.4075629164537
 31
0.0
  0
ELLIPSE
  5
593
330
1F
100
AcDbEntity
  8
Visible (ISO)
100
AcDbEllipse
 10
1176.791247166636
 20
120.3825503871619
 30
0.0
 11
38.99999999999999
 21
-0.0000000000212691
 31
0.0
210
0.0
220
0.0
230
1.0
 40
0.8386705679454202
 41
1.988303535241932
 42
2.474929112216788
  0
ELLIPSE
  5
594
330
1F
100
AcDbEntity
  8
Visible (ISO)
100
AcDbEllipse
 10
1176.791247166622
 20
90.48394463990804
 30
0.0
 11
-0.000000000008668
 21
-65.41630429974266
 31
0.0
210
0.0
220
0.0
230
1.0
 40
0.5961816464179761
 41
3.559099862035786
 42
4.045725439010745
  0
LINE
  5
595
330
1F
100
AcDbEntity
  8
Visible (ISO)
100
AcDbLine
 10
1125.791247166627
 20
124.5339696984913
 30
0.0
 11
1125.791247166633
 21
137.4075629164537
 31
0.0
  0
LINE
  5
596
330
1F
100
AcDbEntity
  8
Visible (ISO)
100
AcDbLine
 10
1138.282676691991
 20
124.5339696984913
 30
0.0
 11
1125.791247166627
 21
124.5339696984913
 31
0.0
  0
LINE
  5
597
330
1F
100
AcDbEntity
  8
Visible (ISO)
100
AcDbLine
 10
1227.791247166627
 20
124.5339696984913
 30
0.0
 11
1215.299817641262
 21
124.5339696984913
 31
0.0
  0
LINE
  5
598
330
1F
100
AcDbEntity
  8
Visible (ISO)
100
AcDbLine
 10
1227.791247166632
 20
137.4075629164537
 30
0.0
 11
1227.791247166627
 21
124.5339696984917
 31
0.0
  0
LINE
  5
599
330
1F
100
AcDbEntity
  8
Visible (ISO)
100
AcDbLine
 10
1227.791247166631
 20
143.5486901029928
 30
0.0
 11
1227.791247166632
 21
137.4075629164537
 31
0.0
  0
ELLIPSE
  5
59A
330
1F
100
AcDbEntity
  8
Visible (ISO)
100
AcDbEllipse
 10
1176.791247166636
 20
120.3825503871623
 30
0.0
 11
57.99999999999976
 21
-0.0000000000266065
 31
0.0
210
0.0
220
0.0
230
1.0
 40
0.8386705679454205
 41
0.496384165129669
 42
1.074412161666317
  0
LINE
  5
59B
330
1F
100
AcDbEntity
  8
Visible (ISO)
100
AcDbLine
 10
1149.168792532762
 20
163.1547493523783
 30
0.0
 11
1204.413701800494
 21
163.1547493523783
 31
0.0
  0
ELLIPSE
  5
59C
330
1F
100
AcDbEntity
  8
Visible (ISO)
100
AcDbEllipse
 10
1176.791247166636
 20
120.3825503871623
 30
0.0
 11
57.99999999999976
 21
-0.0000000000316497
 31
0.0
210
0.0
220
0.0
230
1.0
 40
0.8386705679454202
 41
2.067180491924684
 42
2.645208488461374
  0
LINE
  5
59D
330
1F
100
AcDbEntity
  8
Visible (ISO)
100
AcDbLine
 10
1125.791247166633
 20
137.4075629164537
 30
0.0
 11
1125.791247166631
 21
143.5486901029928
 31
0.0
  0
ELLIPSE
  5
59E
330
1F
100
AcDbEntity
  8
Visible (ISO)
100
AcDbEllipse
 10
1176.791247166506
 20
120.3825503869645
 30
0.0
 11
-57.99999999973126
 21
0.0000000000266009
 31
0.0
210
0.0
220
0.0
230
1.0
 40
0.8386705679454205
 41
1.056260979517672
 42
1.074412161666358
  0
ELLIPSE
  5
59F
330
1F
100
AcDbEntity
  8
Visible (ISO)
100
AcDbEllipse
 10
1176.791247166635
 20
120.3825503871605
 30
0.0
 11
-57.99999999999799
 21
0.0000000000265787
 31
0.0
210
0.0
220
0.0
230
1.0
 40
0.8386705679454207
 41
0.661948735101495
 42
0.8267387300820718
  0
LINE
  5
5A0
330
1F
100
AcDbEntity
  8
Visible (ISO)
100
AcDbLine
 10
1204.41370180051
 20
77.61035142194557
 30
0.0
 11
1149.168792532778
 21
77.61035142194557
 31
0.0
  0
ELLIPSE
  5
5A1
330
1F
100
AcDbEntity
  8
Visible (ISO)
100
AcDbEllipse
 10
1176.791247166637
 20
120.382550387161
 30
0.0
 11
-57.9999999999984
 21
0.0000000000316275
 31
0.0
210
0.0
220
0.0
230
1.0
 40
0.8386705679454205
 41
2.314853923508941
 42
2.479643918489532
  0
ELLIPSE
  5
5A2
330
1F
100
AcDbEntity
  8
Visible (ISO)
100
AcDbEllipse
 10
1176.791247166627
 20
120.3825503871751
 30
0.0
 11
-58.00000000001802
 21
0.0000000000316414
 31
0.0
210
0.0
220
0.0
230
1.0
 40
0.8386705679454205
 41
2.067180491924656
 42
2.085331674073252
  0
LINE
  5
5A3
330
1F
100
AcDbEntity
  8
Visible (ISO)
100
AcDbLine
 10
1227.791247166635
 20
151.7182756282184
 30
0.0
 11
1227.791247166631
 21
143.5486901029928
 31
0.0
  0
LINE
  5
5A4
330
1F
100
AcDbEntity
  8
Visible (ISO)
100
AcDbLine
 10
1125.791247166635
 20
151.7182756282184
 30
0.0
 11
1125.791247166631
 21
143.5486901029928
 31
0.0
  0
LINE
  5
5A5
330
1F
100
AcDbEntity
  8
Visible (ISO)
100
AcDbLine
 10
1204.413701800498
 20
171.3243348776034
 30
0.0
 11
1149.168792532765
 21
171.3243348776034
 31
0.0
  0
ELLIPSE
  5
5A6
330
1F
100
AcDbEntity
  8
Visible (ISO)
100
AcDbEllipse
 10
1176.79124716664
 20
128.5521359123874
 30
0.0
 11
-57.99999999999974
 21
0.0000000000215661
 31
0.0
210
0.0
220
0.0
230
1.0
 40
0.8386705679454205
 41
3.637976818719312
 42
4.216004815255995
  0
ELLIPSE
  5
5A7
330
1F
100
AcDbEntity
  8
Visible (ISO)
100
AcDbEllipse
 10
1176.79124716664
 20
128.5521359123874
 30
0.0
 11
-57.99999999999974
 21
0.0000000000265926
 31
0.0
210
0.0
220
0.0
230
1.0
 40
0.8386705679454204
 41
5.208773145514362
 42
5.786801142051005
  0
LINE
  5
5A8
330
1F
100
AcDbEntity
  8
Visible (ISO)
100
AcDbLine
 10
1204.413701800498
 20
171.3243348776034
 30
0.0
 11
1204.413701800494
 21
163.1547493523783
 31
0.0
  0
LINE
  5
5A9
330
1F
100
AcDbEntity
  8
Visible (ISO)
100
AcDbLine
 10
1149.168792532765
 20
171.3243348776034
 30
0.0
 11
1149.168792532762
 21
163.1547493523783
 31
0.0
  0
LINE
  5
5AA
330
1F
100
AcDbEntity
  8
Visible (ISO)
100
AcDbLine
 10
1160.977408290507
 20
150.2811561344162
 30
0.0
 11
1192.605086042754
 21
150.2811561344162
 31
0.0
  0
LINE
  5
5AB
330
1F
100
AcDbEntity
  8
Visible (ISO)
100
AcDbLine
 10
1227.791247166625
 20
111.2480560686156
 30
0.0
 11
1227.791247166627
 21
124.5339696984913
 31
0.0
  0
LINE
  5
5AC
330
1F
100
AcDbEntity
  8
Visible (ISO)
100
AcDbLine
 10
1227.791247166628
 20
91.85002753486266
 30
0.0
 11
1227.791247166625
 21
108.393929034343
 31
0.0
  0
LINE
  5
5AD
330
1F
100
AcDbEntity
  8
Visible (ISO)
100
AcDbLine
 10
1125.791247166627
 20
124.5339696984913
 30
0.0
 11
1125.791247166625
 21
111.2480560686156
 31
0.0
  0
LINE
  5
5AE
330
1F
100
AcDbEntity
  8
Visible (ISO)
100
AcDbLine
 10
1125.791247166625
 20
108.393929034343
 30
0.0
 11
1125.791247166629
 21
91.85002753486266
 31
0.0
  0
ELLIPSE
  5
5AF
330
1F
100
AcDbEntity
  8
Visible (ISO)
100
AcDbEllipse
 10
1209.573415260643
 20
153.1479557244454
 30
0.0
 11
-6.499999999999984
 21
0.0000000000000037
 31
0.0
210
0.0
220
0.0
230
1.0
 40
0.8386705679454205
 41
3.141592653589302
 42
6.283185307179095
  0
ELLIPSE
  5
5B0
330
1F
100
AcDbEntity
  8
Visible (ISO)
100
AcDbEllipse
 10
1144.009079072616
 20
153.1479557244454
 30
0.0
 11
-6.499999999999984
 21
-0.0000000000000224
 31
0.0
210
0.0
220
0.0
230
1.0
 40
0.8386705679454205
 41
3.141592653589295
 42
6.283185307179088
  0
ELLIPSE
  5
5B1
330
1F
100
AcDbEntity
  8
Visible (ISO)
100
AcDbEllipse
 10
1144.009079072614
 20
147.7015653742948
 30
0.0
 11
6.499999999999986
 21
0.0000000000000001
 31
0.0
210
0.0
220
0.0
230
1.0
 40
0.8386705679454205
 41
0.0
 42
6.283185307179586
  0
ELLIPSE
  5
5B2
330
1F
100
AcDbEntity
  8
Visible (ISO)
100
AcDbEllipse
 10
1209.57341526064
 20
147.7015653742948
 30
0.0
 11
-6.499999999999986
 21
-0.0000000000000001
 31
0.0
210
0.0
220
0.0
230
1.0
 40
0.8386705679454205
 41
0.0
 42
6.283185307179586
  0
LINE
  5
5B3
330
1F
100
AcDbEntity
  8
Visible (ISO)
100
AcDbLine
 10
1150.509079072616
 20
153.1479557244449
 30
0.0
 11
1150.509079072614
 21
147.7015653742948
 31
0.0
  0
LINE
  5
5B4
330
1F
100
AcDbEntity
  8
Visible (ISO)
100
AcDbLine
 10
1137.509079072616
 20
153.1479557244449
 30
0.0
 11
1137.509079072614
 21
147.7015653742948
 31
0.0
  0
LINE
  5
5B5
330
1F
100
AcDbEntity
  8
Visible (ISO)
100
AcDbLine
 10
1203.073415260641
 20
147.7015653742948
 30
0.0
 11
1203.073415260643
 21
153.1479557244449
 31
0.0
  0
LINE
  5
5B6
330
1F
100
AcDbEntity
  8
Visible (ISO)
100
AcDbLine
 10
1216.073415260641
 20
147.7015653742948
 30
0.0
 11
1216.073415260644
 21
153.1479557244449
 31
0.0
  0
ELLIPSE
  5
5B7
330
1F
100
AcDbEntity
  8
Visible (ISO)
100
AcDbEllipse
 10
1209.573415260656
 20
87.61714504987846
 30
0.0
 11
-6.499999999999998
 21
-0.0000000000000001
 31
0.0
210
0.0
220
0.0
230
1.0
 40
0.8386705679454204
 41
5.729427481910818
 42
6.283185307179095
  0
ELLIPSE
  5
5B8
330
1F
100
AcDbEntity
  8
Visible (ISO)
100
AcDbEllipse
 10
1209.573415260656
 20
87.61714504987846
 30
0.0
 11
6.500000000000022
 21
-0.0000000000029806
 31
0.0
210
0.0
220
0.0
230
1.0
 40
0.8386705679454205
 41
0.0
 42
0.5537578252690212
  0
ELLIPSE
  5
5B9
330
1F
100
AcDbEntity
  8
Visible (ISO)
100
AcDbEllipse
 10
1209.573415260653
 20
82.17075469972838
 30
0.0
 11
6.499999999999986
 21
0.0000000000000001
 31
0.0
210
0.0
220
0.0
230
1.0
 40
0.8386705679454205
 41
0.0
 42
6.283185307179586
  0
LINE
  5
5BA
330
1F
100
AcDbEntity
  8
Visible (ISO)
100
AcDbLine
 10
1216.073415260656
 20
87.61714504987846
 30
0.0
 11
1216.073415260654
 21
82.17075469972838
 31
0.0
  0
LINE
  5
5BB
330
1F
100
AcDbEntity
  8
Visible (ISO)
100
AcDbLine
 10
1203.073415260656
 20
87.61714504987846
 30
0.0
 11
1203.073415260653
 21
82.17075469972838
 31
0.0
  0
ELLIPSE
  5
5BC
330
1F
100
AcDbEntity
  8
Visible (ISO)
100
AcDbEllipse
 10
1144.009079072629
 20
87.61714504987846
 30
0.0
 11
-6.499999999999992
 21
0.000000000000026
 31
0.0
210
0.0
220
0.0
230
1.0
 40
0.8386705679454205
 41
5.729427481910768
 42
6.283185307179167
  0
ELLIPSE
  5
5BD
330
1F
100
AcDbEntity
  8
Visible (ISO)
100
AcDbEllipse
 10
1144.009079072629
 20
87.61714504987846
 30
0.0
 11
6.499999999999975
 21
-0.0000000000029799
 31
0.0
210
0.0
220
0.0
230
1.0
 40
0.8386705679454205
 41
0.0
 42
0.5537578252690354
  0
ELLIPSE
  5
5BE
330
1F
100
AcDbEntity
  8
Visible (ISO)
100
AcDbEllipse
 10
1144.009079072626
 20
82.17075469972838
 30
0.0
 11
-6.499999999999986
 21
-0.0000000000000001
 31
0.0
210
0.0
220
0.0
230
1.0
 40
0.8386705679454205
 41
0.0
 42
6.283185307179586
  0
LINE
  5
5BF
330
1F
100
AcDbEntity
  8
Visible (ISO)
100
AcDbLine
 10
1137.509079072626
 20
82.17075469972838
 30
0.0
 11
1137.509079072629
 21
87.61714504987846
 31
0.0
  0
LINE
  5
5C0
330
1F
100
AcDbEntity
  8
Visible (ISO)
100
AcDbLine
 10
1150.509079072626
 20
82.17075469972838
 30
0.0
 11
1150.509079072629
 21
87.61714504987846
 31
0.0
  0
LINE
  5
5C1
330
1F
100
AcDbEntity
  8
Visible (ISO)
100
AcDbLine
 10
1227.791247166625
 20
111.248056068616
 30
0.0
 11
1227.791247166625
 21
108.3939290343435
 31
0.0
  0
LINE
  5
5C2
330
1F
100
AcDbEntity
  8
Visible (ISO)
100
AcDbLine
 10
1227.791247166628
 20
91.85002753486266
 30
0.0
 11
1227.791247166629
 21
90.48394463990758
 31
0.0
  0
LINE
  5
5C3
330
1F
100
AcDbEntity
  8
Visible (ISO)
100
AcDbLine
 10
1125.79124716663
 20
90.48394463990758
 30
0.0
 11
1125.791247166629
 21
91.85002753486266
 31
0.0
  0
LINE
  5
5C4
330
1F
100
AcDbEntity
  8
Visible (ISO)
100
AcDbLine
 10
1125.791247166625
 20
108.3939290343435
 30
0.0
 11
1125.791247166625
 21
111.248056068616
 31
0.0
  0
LINE
  5
5C5
330
1F
100
AcDbEntity
  8
Visible (ISO)
100
AcDbLine
 10
1199.355348781767
 20
90.48394463990758
 30
0.0
 11
1227.79124716663
 21
90.48394463990758
 31
0.0
  0
LINE
  5
5C6
330
1F
100
AcDbEntity
  8
Visible (ISO)
100
AcDbLine
 10
1199.355348781767
 20
90.48394463990804
 30
0.0
 11
1196.757272570414
 21
90.48394463990804
 31
0.0
  0
LINE
  5
5C7
330
1F
100
AcDbEntity
  8
Visible (ISO)
100
AcDbLine
 10
1189.781628223401
 20
90.48394463990758
 30
0.0
 11
1196.757272570414
 21
90.48394463990758
 31
0.0
  0
LINE
  5
5C8
330
1F
100
AcDbEntity
  8
Visible (ISO)
100
AcDbLine
 10
1163.800866109867
 20
90.48394463990804
 30
0.0
 11
1189.781628223401
 21
90.48394463990804
 31
0.0
  0
LINE
  5
5C9
330
1F
100
AcDbEntity
  8
Visible (ISO)
100
AcDbLine
 10
1156.825221762845
 20
90.48394463990758
 30
0.0
 11
1163.800866109867
 21
90.48394463990758
 31
0.0
  0
LINE
  5
5CA
330
1F
100
AcDbEntity
  8
Visible (ISO)
100
AcDbLine
 10
1156.825221762845
 20
90.48394463990804
 30
0.0
 11
1154.227145551491
 21
90.48394463990804
 31
0.0
  0
LINE
  5
5CB
330
1F
100
AcDbEntity
  8
Visible (ISO)
100
AcDbLine
 10
1125.79124716663
 20
90.48394463990804
 30
0.0
 11
1154.227145551491
 21
90.48394463990804
 31
0.0
  0
LINE
  5
5CC
330
1F
100
AcDbEntity
  8
Visible (ISO)
100
AcDbLine
 10
1097.291247166632
 20
136.7277021646657
 30
0.0
 11
1097.291247166632
 21
86.22770216466621
 31
0.0
  0
LINE
  5
5CD
330
1F
100
AcDbEntity
  8
Visible (ISO)
100
AcDbLine
 10
1100.141247166632
 20
136.7277021646657
 30
0.0
 11
1100.141247166632
 21
86.22770216466621
 31
0.0
  0
LINE
  5
5CE
330
1F
100
AcDbEntity
  8
Visible (ISO)
100
AcDbLine
 10
1102.397862619083
 20
130.5277021646659
 30
0.0
 11
1102.397862619083
 21
92.42770216466603
 31
0.0
  0
LINE
  5
5CF
330
1F
100
AcDbEntity
  8
Visible (ISO)
100
AcDbLine
 10
1100.141247166632
 20
86.22770216466621
 30
0.0
 11
1097.291247166632
 21
86.22770216466621
 31
0.0
  0
LINE
  5
5D0
330
1F
100
AcDbEntity
  8
Visible (ISO)
100
AcDbLine
 10
1100.141247166632
 20
136.7277021646657
 30
0.0
 11
1097.291247166632
 21
136.7277021646657
 31
0.0
  0
LINE
  5
5D1
330
1F
100
AcDbEntity
  8
Visible (ISO)
100
AcDbLine
 10
1102.397862619083
 20
92.42770216466649
 30
0.0
 11
1100.141247166632
 21
86.22770216466621
 31
0.0
  0
LINE
  5
5D2
330
1F
100
AcDbEntity
  8
Visible (ISO)
100
AcDbLine
 10
1102.397862619083
 20
130.5277021646659
 30
0.0
 11
1100.141247166632
 21
136.7277021646657
 31
0.0
  0
LINE
  5
5D3
330
1F
100
AcDbEntity
  8
Visible (ISO)
100
AcDbLine
 10
1125.791247166632
 20
92.42770216466649
 30
0.0
 11
1102.397862619083
 21
92.42770216466649
 31
0.0
  0
LINE
  5
5D4
330
1F
100
AcDbEntity
  8
Visible (ISO)
100
AcDbLine
 10
1125.791247166632
 20
130.5277021646659
 30
0.0
 11
1102.397862619083
 21
130.5277021646659
 31
0.0
  0
LINE
  5
5D5
330
1F
100
AcDbEntity
  8
Visible (ISO)
100
AcDbLine
 10
1256.291247166632
 20
136.7277021646657
 30
0.0
 11
1256.291247166632
 21
86.22770216466621
 31
0.0
  0
LINE
  5
5D6
330
1F
100
AcDbEntity
  8
Visible (ISO)
100
AcDbLine
 10
1253.441247166632
 20
136.7277021646657
 30
0.0
 11
1253.441247166632
 21
86.22770216466621
 31
0.0
  0
LINE
  5
5D7
330
1F
100
AcDbEntity
  8
Visible (ISO)
100
AcDbLine
 10
1251.184631714181
 20
130.5277021646659
 30
0.0
 11
1251.184631714181
 21
92.42770216466603
 31
0.0
  0
LINE
  5
5D8
330
1F
100
AcDbEntity
  8
Visible (ISO)
100
AcDbLine
 10
1256.291247166632
 20
86.22770216466621
 30
0.0
 11
1253.441247166632
 21
86.22770216466621
 31
0.0
  0
LINE
  5
5D9
330
1F
100
AcDbEntity
  8
Visible (ISO)
100
AcDbLine
 10
1256.291247166632
 20
136.7277021646657
 30
0.0
 11
1253.441247166632
 21
136.7277021646657
 31
0.0
  0
LINE
  5
5DA
330
1F
100
AcDbEntity
  8
Visible (ISO)
100
AcDbLine
 10
1251.184631714182
 20
130.5277021646659
 30
0.0
 11
1253.441247166632
 21
136.7277021646657
 31
0.0
  0
LINE
  5
5DB
330
1F
100
AcDbEntity
  8
Visible (ISO)
100
AcDbLine
 10
1251.184631714182
 20
92.42770216466649
 30
0.0
 11
1253.441247166632
 21
86.22770216466621
 31
0.0
  0
LINE
  5
5DC
330
1F
100
AcDbEntity
  8
Visible (ISO)
100
AcDbLine
 10
1251.184631714182
 20
92.42770216466649
 30
0.0
 11
1227.791247166632
 21
92.42770216466649
 31
0.0
  0
LINE
  5
5DD
330
1F
100
AcDbEntity
  8
Visible (ISO)
100
AcDbLine
 10
1251.184631714182
 20
130.5277021646659
 30
0.0
 11
1227.791247166632
 21
130.5277021646659
 31
0.0
  0
ELLIPSE
  5
5DE
330
1F
100
AcDbEntity
  8
Visible (ISO)
100
AcDbEllipse
 10
1176.791247166641
 20
132.3646091574926
 30
0.0
 11
57.99999999999976
 21
-0.0000000000316636
 31
0.0
210
0.0
220
0.0
230
1.0
 40
0.8386705679454202
 41
2.067180491924684
 42
2.645208488461374
  0
LINE
  5
5DF
330
1F
100
AcDbEntity
  8
Visible (ISO)
100
AcDbLine
 10
1149.168792532767
 20
175.1368081227085
 30
0.0
 11
1204.4137018005
 21
175.1368081227085
 31
0.0
  0
ELLIPSE
  5
5E0
330
1F
100
AcDbEntity
  8
Visible (ISO)
100
AcDbEllipse
 10
1176.791247166641
 20
132.3646091574926
 30
0.0
 11
57.99999999999976
 21
-0.0000000000265982
 31
0.0
210
0.0
220
0.0
230
1.0
 40
0.8386705679454205
 41
0.496384165129669
 42
1.074412161666317
  0
ELLIPSE
  5
5E1
330
1F
100
AcDbEntity
  8
Visible (ISO)
100
AcDbEllipse
 10
1176.791247166641
 20
129.0967749474023
 30
0.0
 11
-57.99999999999976
 21
0.0000000000215578
 31
0.0
210
0.0
220
0.0
230
1.0
 40
0.8386705679454205
 41
3.637976818719311
 42
4.216004815255995
  0
LINE
  5
5E2
330
1F
100
AcDbEntity
  8
Visible (ISO)
100
AcDbLine
 10
1204.413701800498
 20
171.8689739126186
 30
0.0
 11
1149.168792532766
 21
171.8689739126186
 31
0.0
  0
ELLIPSE
  5
5E3
330
1F
100
AcDbEntity
  8
Visible (ISO)
100
AcDbEllipse
 10
1176.79124716664
 20
129.0967749474023
 30
0.0
 11
-57.99999999999976
 21
0.0000000000265871
 31
0.0
210
0.0
220
0.0
230
1.0
 40
0.8386705679454205
 41
5.208773145514362
 42
5.786801142051005
  0
LINE
  5
5E4
330
1F
100
AcDbEntity
  8
Visible (ISO)
100
AcDbLine
 10
1125.791247166636
 20
152.2629146632336
 30
0.0
 11
1125.791247166636
 21
151.7182756282184
 31
0.0
  0
SPLINE
  5
5E5
330
1F
100
AcDbEntity
  8
Visible (ISO)
100
AcDbSpline
210
0.0
220
0.0
230
1.0
 70
     8
 71
     3
 72
     8
 73
     4
 74
     0
 42
0.0000000001
 43
0.0000000001
 40
-0.0341682691596728
 40
-0.0341682691596728
 40
-0.0341682691596728
 40
-0.0341682691596728
 40
0.0
 40
0.0
 40
0.0
 40
0.0
 10
1126.029060768869
 20
152.082793503135
 30
0.0
 10
1125.949791310404
 20
152.1428510293851
 30
0.0
 10
1125.870519878392
 20
152.2028915516855
 30
0.0
 10
1125.791247166636
 20
152.2629146632336
 30
0.0
  0
SPLINE
  5
5E6
330
1F
100
AcDbEntity
  8
Visible (ISO)
100
AcDbSpline
210
0.0
220
0.0
230
1.0
 70
     8
 71
     3
 72
     8
 73
     4
 74
     0
 42
0.0000000001
 43
0.0000000001
 40
-0.0565695160843051
 40
-0.0565695160843051
 40
-0.0565695160843051
 40
-0.0565695160843051
 40
0.0
 40
0.0
 40
0.0
 40
0.0
 10
1149.268749170782
 20
171.3243348776038
 30
0.0
 10
1149.235371213476
 20
171.5058734665174
 30
0.0
 10
1149.202052281954
 20
171.687421263339
 30
0.0
 10
1149.168792532766
 20
171.8689739126186
 30
0.0
  0
SPLINE
  5
5E7
330
1F
100
AcDbEntity
  8
Visible (ISO)
100
AcDbSpline
210
0.0
220
0.0
230
1.0
 70
     8
 71
     3
 72
     8
 73
     4
 74
     0
 42
0.0000000001
 43
0.0000000001
 40
-0.056569516084603
 40
-0.056569516084603
 40
-0.056569516084603
 40
-0.056569516084603
 40
0.0
 40
0.0
 40
0.0
 40
0.0
 10
1204.313745162482
 20
171.3243348776038
 30
0.0
 10
1204.347123119787
 20
171.5058734665169
 30
0.0
 10
1204.38044205131
 20
171.6874212633381
 30
0.0
 10
1204.413701800498
 20
171.8689739126186
 30
0.0
  0
SPLINE
  5
5E8
330
1F
100
AcDbEntity
  8
Visible (ISO)
100
AcDbSpline
210
0.0
220
0.0
230
1.0
 70
     8
 71
     3
 72
     8
 73
     4
 74
     0
 42
0.0000000001
 43
0.0000000001
 40
-0.0341682691595605
 40
-0.0341682691595605
 40
-0.0341682691595605
 40
-0.0341682691595605
 40
0.0
 40
0.0
 40
0.0
 40
0.0
 10
1227.553433564402
 20
152.082793503135
 30
0.0
 10
1227.632703022868
 20
152.1428510293851
 30
0.0
 10
1227.711974454879
 20
152.2028915516855
 30
0.0
 10
1227.791247166635
 20
152.2629146632336
 30
0.0
  0
LINE
  5
5E9
330
1F
100
AcDbEntity
  8
Visible (ISO)
100
AcDbLine
 10
1227.791247166636
 20
151.7182756282184
 30
0.0
 11
1227.791247166635
 21
152.2629146632336
 31
0.0
  0
LINE
  5
5EA
330
1F
100
AcDbEntity
  8
Visible (ISO)
100
AcDbLine
 10
1204.4137018005
 20
175.1368081227085
 30
0.0
 11
1204.413701800498
 21
171.8689739126186
 31
0.0
  0
LINE
  5
5EB
330
1F
100
AcDbEntity
  8
Visible (ISO)
100
AcDbLine
 10
1227.791247166637
 20
155.5307488733235
 30
0.0
 11
1227.791247166635
 21
152.2629146632336
 31
0.0
  0
LINE
  5
5EC
330
1F
100
AcDbEntity
  8
Visible (ISO)
100
AcDbLine
 10
1149.168792532767
 20
175.1368081227085
 30
0.0
 11
1149.168792532766
 21
171.8689739126186
 31
0.0
  0
LINE
  5
5ED
330
1F
100
AcDbEntity
  8
Visible (ISO)
100
AcDbLine
 10
1125.791247166637
 20
155.5307488733235
 30
0.0
 11
1125.791247166636
 21
152.2629146632336
 31
0.0
  0
SPLINE
  5
5EE
330
1F
100
AcDbEntity
  8
Visible (ISO)
100
AcDbSpline
210
0.0
220
0.0
230
1.0
 70
     8
 71
     3
 72
    18
 73
    14
 74
     0
 42
0.0000000001
 43
0.0000000001
 40
0.594947180850967
 40
0.594947180850967
 40
0.594947180850967
 40
0.594947180850967
 40
0.9130402421331574
 40
0.9130402421331574
 40
1.237937684768824
 40
1.237937684768824
 40
1.566125053996938
 40
1.566125053996938
 40
1.89517011102903
 40
1.89517011102903
 40
2.22340433929032
 40
2.22340433929032
 40
2.54664547273883
 40
2.54664547273883
 40
2.54664547273883
 40
2.54664547273883
 10
1220.700951856313
 20
216.9526141347716
 30
0.0
 10
1217.46459082972
 20
220.963345762095
 30
0.0
 10
1213.499377990237
 20
224.4935789776007
 30
0.0
 10
1204.444827196352
 20
230.3598968923981
 30
0.0
 10
1199.334075442061
 20
232.6694290289276
 30
0.0
 10
1188.498995768878
 20
235.8110267335439
 30
0.0
 10
1182.76984396986
 20
236.6278188700919
 30
0.0
 10
1171.287339658673
 20
236.6728037337718
 30
0.0
 10
1165.535110728829
 20
235.896809508062
 30
0.0
 10
1154.601454213274
 20
232.8134803883137
 30
0.0
 10
1149.419565825973
 20
230.5099286482989
 30
0.0
 10
1140.211741167365
 20
224.6075360168863
 30
0.0
 10
1136.170281320507
 20
221.0282561244082
 30
0.0
 10
1132.881542477015
 20
216.9526141347716
 30
0.0
  0
LINE
  5
5EF
330
1F
100
AcDbEntity
  8
0
  6
CENTER
100
AcDbLine
 10
1953.7962343445
 20
245.4758762327494
 30
0.0
 11
1953.796234344474
 21
72.1393649199015
 31
0.0
  0
LINE
  5
5F0
330
1F
100
AcDbEntity
  8
0
  6
CENTER
100
AcDbLine
 10
2055.475845845207
 20
111.4777021646666
 30
0.0
 11
1852.116622843753
 21
111.4777021646666
 31
0.0
  0
LINE
  5
5F1
330
1F
100
AcDbEntity
  8
0
  6
CENTER
100
AcDbLine
 10
1481.514021177785
 20
92.11495342484683
 30
0.0
 11
1672.207008511673
 21
215.9524273689896
 31
0.0
  0
LINE
  5
5F2
330
1F
100
AcDbEntity
  8
0
  6
CENTER
 62
     0
370
    25
100
AcDbLine
 10
1511.330039565379
 20
75.53030249831114
 30
0.0
 11
1511.330039565379
 21
147.4251018309985
 31
0.0
  0
LINE
  5
5F3
330
1F
100
AcDbEntity
  8
0
  6
CENTER
 62
     0
370
    25
100
AcDbLine
 10
1475.382639899035
 20
111.4777021646548
 30
0.0
 11
1547.277439231723
 21
111.4777021646548
 31
0.0
  0
LINE
  5
5F4
330
1F
100
AcDbEntity
  8
0
  6
CENTER
100
AcDbLine
 10
1491.989397414122
 20
571.2308853207371
 30
0.0
 11
1680.192083857348
 21
571.2308853207789
 31
0.0
  0
LINE
  5
5F5
330
1F
100
AcDbEntity
  8
0
  6
CENTER
100
AcDbLine
 10
1511.330039565377
 20
480.6597932774559
 30
0.0
 11
1511.330039565384
 21
661.8019773640282
 31
0.0
  0
LINE
  5
5F6
330
1F
100
AcDbEntity
  8
0
  6
CENTER
100
AcDbLine
 10
1176.791247166645
 20
247.7141475290188
 30
0.0
 11
1176.791247166619
 21
72.13936491990104
 31
0.0
  0
LINE
  5
5F7
330
1F
100
AcDbEntity
  8
0
  6
CENTER
100
AcDbLine
 10
1278.470858667351
 20
111.4777021646662
 30
0.0
 11
1075.111635665897
 21
111.4777021646662
 31
0.0
  0
LINE
  5
602
330
1F
100
AcDbEntity
  8
0
  6
CENTER
100
AcDbLine
 10
277.4285109543998
 20
479.1364787661471
 30
0.0
 11
277.4285109543998
 21
663.325291875329
 31
0.0
  0
LINE
  5
603
330
1F
100
AcDbEntity
  8
0
  6
CENTER
100
AcDbLine
 10
370.5669449261131
 20
571.2308853207382
 30
0.0
 11
198.2950535461675
 21
571.230885320738
 31
0.0
  0
LINE
  5
604
330
1F
100
AcDbEntity
  8
0
  6
CENTER
100
AcDbLine
 10
321.3145925495646
 20
111.4777021646662
 30
0.0
 11
233.542429359235
 21
111.4777021646659
 31
0.0
  0
LINE
  5
605
330
1F
100
AcDbEntity
  8
0
  6
CENTER
100
AcDbLine
 10
277.4285109543998
 20
72.27478294858428
 30
0.0
 11
277.4285109543998
 21
313.9083395084637
 31
0.0
  0
LINE
  5
606
330
1F
100
AcDbEntity
  8
0
  6
CENTER
100
AcDbLine
 10
677.4792127938726
 20
111.4777021646662
 30
0.0
 11
460.1680165691241
 21
111.4777021646659
 31
0.0
  0
LINE
  5
607
330
1F
100
AcDbEntity
  8
0
  6
CENTER
100
AcDbLine
 10
568.8236146814984
 20
96.34355845596406
 30
0.0
 11
568.8236146814984
 21
313.9083001103533
 31
0.0
  0
VIEWPORT
  5
71
330
55
100
AcDbEntity
 67
     1
  8
0
100
AcDbViewport
 10
133.3499908447265
 20
101.5999970436096
 30
0.0
 40
381.3957395593834
 41
218.2856291881582
 68
     1
 69
     1
 12
133.3499908447265
 22
101.5999970436096
 13
0.0
 23
0.0
 14
10.0
 24
10.0
 15
10.0
 25
10.0
 16
0.0
 26
0.0
 36
1.0
 17
0.0
 27
0.0
 37
0.0
 42
50.0
 43
0.0
 44
0.0
 45
218.2856291881582
 50
0.0
 51
0.0
 72
   100
 90
    32800
  1

281
     0
 71
     1
 74
     0
110
0.0
120
0.0
130
0.0
111
1.0
121
0.0
131
0.0
112
0.0
122
1.0
132
0.0
 79
     0
146
0.0
  0
VIEWPORT
  5
73
330
55
100
AcDbEntity
 67
     1
  8
0
100
AcDbViewport
 10
133.349993944168
 20
101.599993944168
 30
0.0
 40
213.3599903106689
 41
162.5599903106689
 68
     2
 69
     2
 12
210.0
 22
148.5
 13
0.0
 23
0.0
 14
10.0
 24
10.0
 15
10.0
 25
10.0
 16
0.0
 26
0.0
 36
1.0
 17
0.0
 27
0.0
 37
0.0
 42
50.0
 43
0.0
 44
0.0
 45
324.0677920111345
 50
0.0
 51
0.0
 72
   100
 90
    32864
  1

281
     0
 71
     1
 74
     0
110
0.0
120
0.0
130
0.0
111
1.0
121
0.0
131
0.0
112
0.0
122
1.0
132
0.0
 79
     0
146
0.0
  0
ENDSEC
  0
SECTION
  2
OBJECTS
  0
DICTIONARY
  5
C
330
0
100
AcDbDictionary
281
     1
  3
ACAD_GROUP
350
D
  3
ACAD_LAYOUT
350
1A
  3
ACAD_MLINESTYLE
350
17
  3
ACAD_PLOTSETTINGS
350
19
  3
ACAD_PLOTSTYLENAME
350
E
  3
AcDbVariableDictionary
350
5E
  0
DICTIONARY
  5
316
330
2
100
AcDbDictionary
280
     1
281
     1
  3
ACAD_LAYERSTATES
360
317
  0
DICTIONARY
  5
2CC
330
1F
100
AcDbDictionary
280
     1
281
     1
  3
ACAD_LAYOUTSELFREF
360
303
  0
DICTIONARY
  5
2CE
330
55
100
AcDbDictionary
280
     1
281
     1
  3
ACAD_LAYOUTSELFREF
360
307
  0
DICTIONARY
  5
2D0
330
50
100
AcDbDictionary
280
     1
281
     1
  3
ACAD_LAYOUTSELFREF
360
306
  0
DICTIONARY
  5
D
102
{ACAD_REACTORS
330
C
102
}
330
C
100
AcDbDictionary
281
     1
  0
DICTIONARY
  5
1A
102
{ACAD_REACTORS
330
C
102
}
330
C
100
AcDbDictionary
281
     1
  3
Model
350
22
  3
ﾚｲｱｳﾄ1
350
51
  3
ﾚｲｱｳﾄ2
350
56
  0
DICTIONARY
  5
17
102
{ACAD_REACTORS
330
C
102
}
330
C
100
AcDbDictionary
281
     1
  3
Standard
350
18
  0
DICTIONARY
  5
19
102
{ACAD_REACTORS
330
C
102
}
330
C
100
AcDbDictionary
281
     1
  0
ACDBDICTIONARYWDFLT
  5
E
102
{ACAD_REACTORS
330
C
102
}
330
C
100
AcDbDictionary
281
     1
  3
Normal
350
F
100
AcDbDictionaryWithDefault
340
F
  0
DICTIONARY
  5
5E
102
{ACAD_REACTORS
330
C
102
}
330
C
100
AcDbDictionary
281
     1
  3
DIMASSOC
350
5F
  3
HIDETEXT
350
63
  0
DICTIONARY
  5
317
102
{ACAD_REACTORS
330
316
102
}
330
316
100
AcDbDictionary
281
     1
  0
XRECORD
  5
303
102
{ACAD_REACTORS
330
2CC
102
}
330
2CC
100
AcDbXrecord
280
     1
340
1F
  0
XRECORD
  5
307
102
{ACAD_REACTORS
330
2CE
102
}
330
2CE
100
AcDbXrecord
280
     1
340
55
  0
XRECORD
  5
306
102
{ACAD_REACTORS
330
2D0
102
}
330
2D0
100
AcDbXrecord
280
     1
340
50
  0
LAYOUT
  5
22
102
{ACAD_REACTORS
330
1A
102
}
330
1A
100
AcDbPlotSettings
  1

  2
none_device
  4
ANSI_A_(8.50_x_11.00_Inches)
  6

 40
6.349999904632568
 41
19.04999923706054
 42
6.350006103515625
 43
19.04998779296875
 44
215.8999938964843
 45
279.3999938964843
 46
0.0
 47
0.0
 48
0.0
 49
0.0
140
0.0
141
0.0
142
1.0
143
78.436453180766
 70
 11952
 72
     0
 73
     1
 74
     0
  7

 75
     0
147
0.0127491741332998
148
0.0
149
0.0
100
AcDbLayout
  1
Model
 70
     1
 71
     0
 10
0.0
 20
0.0
 11
12.0
 21
9.0
 12
0.0
 22
0.0
 32
0.0
 14
0.0
 24
0.0
 34
0.0
 15
0.0
 25
0.0
 35
0.0
146
0.0
 13
0.0
 23
0.0
 33
0.0
 16
1.0
 26
0.0
 36
0.0
 17
0.0
 27
1.0
 37
0.0
 76
     0
330
1F
  0
LAYOUT
  5
51
102
{ACAD_REACTORS
330
1A
102
}
330
1A
100
AcDbPlotSettings
  1

  2
none_device
  4
Letter_(8.50_x_11.00_Inches)
  6

 40
6.349999904632568
 41
6.349999904632568
 42
6.350006103515625
 43
6.350006103515625
 44
215.8999938964843
 45
279.3999938964843
 46
0.0
 47
0.0
 48
0.0
 49
0.0
140
0.0
141
0.0
142
1.0
143
1.0
 70
   688
 72
     1
 73
     1
 74
     5
  7

 75
    16
147
1.0
148
0.0
149
0.0
100
AcDbLayout
  1
ﾚｲｱｳﾄ1
 70
     1
 71
     1
 10
-6.350006103515625
 20
-6.349999904632568
 11
273.0499877929687
 21
209.5499939918517
 12
0.0
 22
0.0
 32
0.0
 14
26.66076962115562
 24
20.31135699206657
 34
-0.0015258207003583
 15
240.039213369355
 25
182.8886381005154
 35
0.0000000349246037
146
0.0
 13
0.0
 23
0.0
 33
0.0
 16
1.0
 26
0.0
 36
0.0
 17
0.0
 27
1.0
 37
0.0
 76
     0
330
50
331
6B
  0
LAYOUT
  5
56
102
{ACAD_REACTORS
330
1A
102
}
330
1A
100
AcDbPlotSettings
  1

  2
none_device
  4
Letter_(8.50_x_11.00_Inches)
  6

 40
6.349999904632568
 41
6.349999904632568
 42
6.350006103515625
 43
6.350006103515625
 44
215.8999938964843
 45
279.3999938964843
 46
0.0
 47
0.0
 48
0.0
 49
0.0
140
0.0
141
0.0
142
1.0
143
1.0
 70
   688
 72
     1
 73
     1
 74
     5
  7

 75
    16
147
1.0
148
0.0
149
0.0
100
AcDbLayout
  1
ﾚｲｱｳﾄ2
 70
     1
 71
     2
 10
-6.350006103515625
 20
-6.349999904632568
 11
273.0499877929687
 21
209.5499939918517
 12
0.0
 22
0.0
 32
0.0
 14
26.66076962115562
 24
20.31135699206657
 34
-0.0015258207003583
 15
240.039213369355
 25
182.8886381005154
 35
0.0000000349246037
146
0.0
 13
0.0
 23
0.0
 33
0.0
 16
1.0
 26
0.0
 36
0.0
 17
0.0
 27
1.0
 37
0.0
 76
     0
330
55
331
71
  0
MLINESTYLE
  5
18
102
{ACAD_REACTORS
330
17
102
}
330
17
100
AcDbMlineStyle
  2
STANDARD
 70
     0
  3

 62
   256
 51
90.0
 52
90.0
 71
     2
 49
0.5
 62
   256
  6
BYLAYER
 49
-0.5
 62
   256
  6
BYLAYER
  0
ACDBPLACEHOLDER
  5
F
102
{ACAD_REACTORS
330
E
102
}
330
E
  0
DICTIONARYVAR
  5
5F
102
{ACAD_REACTORS
330
5E
102
}
330
5E
100
DictionaryVariables
280
     0
  1
2
  0
DICTIONARYVAR
  5
63
102
{ACAD_REACTORS
330
5E
102
}
330
5E
100
DictionaryVariables
280
     0
  1
1
  0
ENDSEC
  0
EOF
