  0
SECTION
  2
HEADER
  9
$ACADVER
  1
AC1015
  9
$ACADMAINTVER
 70
    14
  9
$DWGCODEPAGE
  3
ANSI_932
  9
$INSBASE
 10
0.0
 20
0.0
 30
0.0
  9
$EXTMIN
 10
32.74497059738405
 20
50.05082185361994
 30
-0.0000000000112498
  9
$EXTMAX
 10
1557.239421655098
 20
722.7810493751016
 30
0.0000000000002956
  9
$LIMMIN
 10
0.0
 20
0.0
  9
$LIMMAX
 10
420.0
 20
297.0
  9
$ORTHOMODE
 70
     0
  9
$REGENMODE
 70
     1
  9
$FILLMODE
 70
     1
  9
$QTEXTMODE
 70
     0
  9
$MIRRTEXT
 70
     1
  9
$LTSCALE
 40
1.0
  9
$ATTMODE
 70
     1
  9
$TEXTSIZE
 40
2.5
  9
$TRACEWID
 40
1.0
  9
$TEXTSTYLE
  7
Standard
  9
$CLAYER
  8
0
  9
$CELTYPE
  6
ByLayer
  9
$CECOLOR
 62
   256
  9
$CELTSCALE
 40
1.0
  9
$DISPSILH
 70
     0
  9
$DIMSCALE
 40
1.0
  9
$DIMASZ
 40
2.5
  9
$DIMEXO
 40
0.625
  9
$DIMDLI
 40
3.75
  9
$DIMRND
 40
0.0
  9
$DIMDLE
 40
0.0
  9
$DIMEXE
 40
1.25
  9
$DIMTP
 40
0.0
  9
$DIMTM
 40
0.0
  9
$DIMTXT
 40
2.5
  9
$DIMCEN
 40
2.5
  9
$DIMTSZ
 40
0.0
  9
$DIMTOL
 70
     0
  9
$DIMLIM
 70
     0
  9
$DIMTIH
 70
     0
  9
$DIMTOH
 70
     0
  9
$DIMSE1
 70
     0
  9
$DIMSE2
 70
     0
  9
$DIMTAD
 70
     1
  9
$DIMZIN
 70
     8
  9
$DIMBLK
  1

  9
$DIMASO
 70
     1
  9
$DIMSHO
 70
     1
  9
$DIMPOST
  1

  9
$DIMAPOST
  1

  9
$DIMALT
 70
     0
  9
$DIMALTD
 70
     3
  9
$DIMALTF
 40
0.03937007874016
  9
$DIMLFAC
 40
1.0
  9
$DIMTOFL
 70
     1
  9
$DIMTVP
 40
0.0
  9
$DIMTIX
 70
     0
  9
$DIMSOXD
 70
     0
  9
$DIMSAH
 70
     0
  9
$DIMBLK1
  1

  9
$DIMBLK2
  1

  9
$DIMSTYLE
  2
ISO-25
  9
$DIMCLRD
 70
     0
  9
$DIMCLRE
 70
     0
  9
$DIMCLRT
 70
     0
  9
$DIMTFAC
 40
1.0
  9
$DIMGAP
 40
0.625
  9
$DIMJUST
 70
     0
  9
$DIMSD1
 70
     0
  9
$DIMSD2
 70
     0
  9
$DIMTOLJ
 70
     0
  9
$DIMTZIN
 70
     8
  9
$DIMALTZ
 70
     0
  9
$DIMALTTZ
 70
     0
  9
$DIMUPT
 70
     0
  9
$DIMDEC
 70
     2
  9
$DIMTDEC
 70
     2
  9
$DIMALTU
 70
     2
  9
$DIMALTTD
 70
     3
  9
$DIMTXSTY
  7
Standard
  9
$DIMAUNIT
 70
     0
  9
$DIMADEC
 70
     0
  9
$DIMALTRND
 40
0.0
  9
$DIMAZIN
 70
     0
  9
$DIMDSEP
 70
    44
  9
$DIMATFIT
 70
     3
  9
$DIMFRAC
 70
     0
  9
$DIMLDRBLK
  1

  9
$DIMLUNIT
 70
     2
  9
$DIMLWD
 70
    -2
  9
$DIMLWE
 70
    -2
  9
$DIMTMOVE
 70
     0
  9
$LUNITS
 70
     2
  9
$LUPREC
 70
     4
  9
$SKETCHINC
 40
1.0
  9
$FILLETRAD
 40
10.0
  9
$AUNITS
 70
     0
  9
$AUPREC
 70
     0
  9
$MENU
  1
.
  9
$ELEVATION
 40
0.0
  9
$PELEVATION
 40
0.0
  9
$THICKNESS
 40
0.0
  9
$LIMCHECK
 70
     0
  9
$CHAMFERA
 40
10.0
  9
$CHAMFERB
 40
10.0
  9
$CHAMFERC
 40
20.0
  9
$CHAMFERD
 40
0.0
  9
$SKPOLY
 70
     0
  9
$TDCREATE
 40
2454284.638432974
  9
$TDUCREATE
 40
2454284.263432974
  9
$TDUPDATE
 40
2456899.672587071
  9
$TDUUPDATE
 40
2456899.297587071
  9
$TDINDWG
 40
0.0032570023
  9
$TDUSRTIMER
 40
0.0032570023
  9
$USRTIMER
 70
     1
  9
$ANGBASE
 50
0.0
  9
$ANGDIR
 70
     0
  9
$PDMODE
 70
     0
  9
$PDSIZE
 40
0.0
  9
$PLINEWID
 40
0.0
  9
$SPLFRAME
 70
     0
  9
$SPLINETYPE
 70
     6
  9
$SPLINESEGS
 70
     8
  9
$HANDSEED
  5
75A
  9
$SURFTAB1
 70
     6
  9
$SURFTAB2
 70
     6
  9
$SURFTYPE
 70
     6
  9
$SURFU
 70
     6
  9
$SURFV
 70
     6
  9
$UCSBASE
  2

  9
$UCSNAME
  2

  9
$UCSORG
 10
0.0
 20
0.0
 30
0.0
  9
$UCSXDIR
 10
1.0
 20
0.0
 30
0.0
  9
$UCSYDIR
 10
0.0
 20
1.0
 30
0.0
  9
$UCSORTHOREF
  2

  9
$UCSORTHOVIEW
 70
     0
  9
$UCSORGTOP
 10
0.0
 20
0.0
 30
0.0
  9
$UCSORGBOTTOM
 10
0.0
 20
0.0
 30
0.0
  9
$UCSORGLEFT
 10
0.0
 20
0.0
 30
0.0
  9
$UCSORGRIGHT
 10
0.0
 20
0.0
 30
0.0
  9
$UCSORGFRONT
 10
0.0
 20
0.0
 30
0.0
  9
$UCSORGBACK
 10
0.0
 20
0.0
 30
0.0
  9
$PUCSBASE
  2

  9
$PUCSNAME
  2

  9
$PUCSORG
 10
0.0
 20
0.0
 30
0.0
  9
$PUCSXDIR
 10
1.0
 20
0.0
 30
0.0
  9
$PUCSYDIR
 10
0.0
 20
1.0
 30
0.0
  9
$PUCSORTHOREF
  2

  9
$PUCSORTHOVIEW
 70
     0
  9
$PUCSORGTOP
 10
0.0
 20
0.0
 30
0.0
  9
$PUCSORGBOTTOM
 10
0.0
 20
0.0
 30
0.0
  9
$PUCSORGLEFT
 10
0.0
 20
0.0
 30
0.0
  9
$PUCSORGRIGHT
 10
0.0
 20
0.0
 30
0.0
  9
$PUCSORGFRONT
 10
0.0
 20
0.0
 30
0.0
  9
$PUCSORGBACK
 10
0.0
 20
0.0
 30
0.0
  9
$USERI1
 70
     0
  9
$USERI2
 70
     0
  9
$USERI3
 70
     0
  9
$USERI4
 70
     0
  9
$USERI5
 70
     0
  9
$USERR1
 40
0.0
  9
$USERR2
 40
0.0
  9
$USERR3
 40
0.0
  9
$USERR4
 40
0.0
  9
$USERR5
 40
0.0
  9
$WORLDVIEW
 70
     1
  9
$SHADEDGE
 70
     3
  9
$SHADEDIF
 70
    70
  9
$TILEMODE
 70
     1
  9
$MAXACTVP
 70
    48
  9
$PINSBASE
 10
0.0
 20
0.0
 30
0.0
  9
$PLIMCHECK
 70
     0
  9
$PEXTMIN
 10
26.66076962115562
 20
20.31135699206657
 30
-0.0015258207003583
  9
$PEXTMAX
 10
240.039213369355
 20
182.8886381005154
 30
0.0000000349246037
  9
$PLIMMIN
 10
-6.350006103515625
 20
-6.349999904632568
  9
$PLIMMAX
 10
273.0499877929687
 20
209.5499939918517
  9
$UNITMODE
 70
     0
  9
$VISRETAIN
 70
     1
  9
$PLINEGEN
 70
     0
  9
$PSLTSCALE
 70
     1
  9
$TREEDEPTH
 70
  3020
  9
$CMLSTYLE
  2
Standard
  9
$CMLJUST
 70
     0
  9
$CMLSCALE
 40
20.0
  9
$PROXYGRAPHICS
 70
     1
  9
$MEASUREMENT
 70
     1
  9
$CELWEIGHT
370
    -1
  9
$ENDCAPS
280
     0
  9
$JOINSTYLE
280
     0
  9
$LWDISPLAY
290
     0
  9
$INSUNITS
 70
     4
  9
$HYPERLINKBASE
  1

  9
$STYLESHEET
  1

  9
$XEDIT
290
     1
  9
$CEPSNTYPE
380
     0
  9
$PSTYLEMODE
290
     1
  9
$FINGERPRINTGUID
  2
{FDEAD578-A652-11D2-9A35-0060089B3A3F}
  9
$VERSIONGUID
  2
{75FE9936-9EA8-4669-8BCB-3ABBEEACBCBC}
  9
$EXTNAMES
290
     1
  9
$PSVPSCALE
 40
0.0
  9
$OLESTARTUP
290
     0
  0
ENDSEC
  0
SECTION
  2
CLASSES
  0
CLASS
  1
ACDBDICTIONARYWDFLT
  2
AcDbDictionaryWithDefault
  3
AutoCAD 2000
 90
        0
280
     0
281
     0
  0
CLASS
  1
ACDBPLACEHOLDER
  2
AcDbPlaceHolder
  3
AutoCAD 2000
 90
        0
280
     0
281
     0
  0
CLASS
  1
LAYOUT
  2
AcDbLayout
  3
AutoCAD 2000
 90
        0
280
     0
281
     0
  0
CLASS
  1
DICTIONARYVAR
  2
AcDbDictionaryVar
  3
AutoCAD 2000
 90
        0
280
     0
281
     0
  0
CLASS
  1
LONG_TRANSACTION
  2
AcDbLongTransaction
  3
AutoCAD 2000
 90
    32768
280
     0
281
     0
  0
CLASS
  1
LWPOLYLINE
  2
AcDbPolyline
  3
AutoCAD 2000
 90
    32768
280
     0
281
     1
  0
CLASS
  1
HATCH
  2
AcDbHatch
  3
AutoCAD 2000
 90
    32768
280
     0
281
     1
  0
CLASS
  1
XRECORD
  2
AcDbXrecord
  3
AutoCAD 2000
 90
    32768
280
     0
281
     0
  0
ENDSEC
  0
SECTION
  2
TABLES
  0
TABLE
  2
VPORT
  5
8
330
0
100
AcDbSymbolTable
 70
     2
  0
VPORT
  5
759
330
8
100
AcDbSymbolTableRecord
100
AcDbViewportTableRecord
  2
*Active
 70
     0
 10
0.0
 20
0.0
 11
1.0
 21
1.0
 12
794.9921961262412
 22
386.4159356143608
 13
0.0
 23
0.0
 14
10.0
 24
10.0
 15
10.0
 25
10.0
 16
0.0
 26
0.0
 36
1.0
 17
0.0
 27
0.0
 37
0.0
 40
961.318485347572
 41
1.592161016949152
 42
50.0
 43
0.0
 44
0.0
 50
0.0
 51
0.0
 71
     0
 72
   100
 73
     1
 74
     3
 75
     0
 76
     0
 77
     0
 78
     0
281
     0
 65
     1
110
0.0
120
0.0
130
0.0
111
1.0
121
0.0
131
0.0
112
0.0
122
1.0
132
0.0
 79
     0
146
0.0
  0
ENDTAB
  0
TABLE
  2
LTYPE
  5
5
330
0
100
AcDbSymbolTable
 70
     3
  0
LTYPE
  5
14
330
5
100
AcDbSymbolTableRecord
100
AcDbLinetypeTableRecord
  2
ByBlock
 70
     0
  3

 72
    65
 73
     0
 40
0.0
  0
LTYPE
  5
15
330
5
100
AcDbSymbolTableRecord
100
AcDbLinetypeTableRecord
  2
ByLayer
 70
     0
  3

 72
    65
 73
     0
 40
0.0
  0
LTYPE
  5
16
330
5
100
AcDbSymbolTableRecord
100
AcDbLinetypeTableRecord
  2
Continuous
 70
     0
  3
Solid line
 72
    65
 73
     0
 40
0.0
  0
LTYPE
  5
86
330
5
100
AcDbSymbolTableRecord
100
AcDbLinetypeTableRecord
  2
HIDDEN
 70
     0
  3
Hidden __ __ __ __ __ __ __ __ __ __ __ __ __ _
 72
    65
 73
     2
 40
0.375
 49
0.25
 74
     0
 49
-0.125
 74
     0
  0
LTYPE
  5
3C3
330
5
100
AcDbSymbolTableRecord
100
AcDbLinetypeTableRecord
  2
CENTER
 70
     0
  3
Center ____ _ ____ _ ____ _ ____ _ ____ _ ____
 72
    65
 73
     4
 40
50.8
 49
31.75
 74
     0
 49
-6.349999999999999
 74
     0
 49
6.349999999999999
 74
     0
 49
-6.349999999999999
 74
     0
  0
ENDTAB
  0
TABLE
  2
LAYER
  5
2
102
{ACAD_XDICTIONARY
360
3C4
102
}
330
0
100
AcDbSymbolTable
 70
     1
  0
LAYER
  5
10
330
2
100
AcDbSymbolTableRecord
100
AcDbLayerTableRecord
  2
0
 70
     0
 62
     7
  6
Continuous
370
    -3
390
F
  0
ENDTAB
  0
TABLE
  2
STYLE
  5
3
330
0
100
AcDbSymbolTable
 70
     1
  0
STYLE
  5
11
330
3
100
AcDbSymbolTableRecord
100
AcDbTextStyleTableRecord
  2
Standard
 70
     0
 40
0.0
 41
1.0
 50
0.0
 71
     0
 42
2.5
  3
txt
  4

  0
ENDTAB
  0
TABLE
  2
VIEW
  5
6
330
0
100
AcDbSymbolTable
 70
     0
  0
ENDTAB
  0
TABLE
  2
UCS
  5
7
330
0
100
AcDbSymbolTable
 70
     0
  0
ENDTAB
  0
TABLE
  2
APPID
  5
9
330
0
100
AcDbSymbolTable
 70
     1
  0
APPID
  5
12
330
9
100
AcDbSymbolTableRecord
100
AcDbRegAppTableRecord
  2
ACAD
 70
     0
  0
ENDTAB
  0
TABLE
  2
DIMSTYLE
  5
A
330
0
100
AcDbSymbolTable
 70
     1
100
AcDbDimStyleTable
 71
     0
  0
DIMSTYLE
105
27
330
A
100
AcDbSymbolTableRecord
100
AcDbDimStyleTableRecord
  2
ISO-25
 70
     0
 41
2.5
 42
0.625
 43
3.75
 44
1.25
 73
     0
 74
     0
 77
     1
 78
     8
140
2.5
141
2.5
143
0.03937007874016
147
0.625
171
     3
172
     1
271
     2
272
     2
274
     3
278
    44
283
     0
284
     8
340
11
  0
ENDTAB
  0
TABLE
  2
BLOCK_RECORD
  5
1
330
0
100
AcDbSymbolTable
 70
     1
  0
BLOCK_RECORD
  5
1F
102
{ACAD_XDICTIONARY
360
37C
102
}
330
1
100
AcDbSymbolTableRecord
100
AcDbBlockTableRecord
  2
*Model_Space
340
22
  0
BLOCK_RECORD
  5
55
102
{ACAD_XDICTIONARY
360
37E
102
}
330
1
100
AcDbSymbolTableRecord
100
AcDbBlockTableRecord
  2
*Paper_Space
340
56
  0
BLOCK_RECORD
  5
50
102
{ACAD_XDICTIONARY
360
380
102
}
330
1
100
AcDbSymbolTableRecord
100
AcDbBlockTableRecord
  2
*Paper_Space0
340
51
  0
ENDTAB
  0
ENDSEC
  0
SECTION
  2
BLOCKS
  0
BLOCK
  5
20
330
1F
100
AcDbEntity
  8
0
100
AcDbBlockBegin
  2
*Model_Space
 70
     0
 10
0.0
 20
0.0
 30
0.0
  3
*Model_Space
  1

  0
ENDBLK
  5
21
330
1F
100
AcDbEntity
  8
0
100
AcDbBlockEnd
  0
BLOCK
  5
57
330
55
100
AcDbEntity
 67
     1
  8
0
100
AcDbBlockBegin
  2
*Paper_Space
 70
     0
 10
0.0
 20
0.0
 30
0.0
  3
*Paper_Space
  1

  0
ENDBLK
  5
58
330
55
100
AcDbEntity
 67
     1
  8
0
100
AcDbBlockEnd
  0
BLOCK
  5
52
330
50
100
AcDbEntity
  8
0
100
AcDbBlockBegin
  2
*Paper_Space0
 70
     0
 10
0.0
 20
0.0
 30
0.0
  3
*Paper_Space0
  1

  0
VIEWPORT
  5
6B
330
50
100
AcDbEntity
  8
0
100
AcDbViewport
 10
133.3499908447265
 20
101.5999970436096
 30
0.0
 40
381.3957395593834
 41
218.2856291881582
 69
     0
 12
133.3499908447265
 22
101.5999970436096
 13
0.0
 23
0.0
 14
10.0
 24
10.0
 15
10.0
 25
10.0
 16
0.0
 26
0.0
 36
1.0
 17
0.0
 27
0.0
 37
0.0
 42
50.0
 43
0.0
 44
0.0
 45
218.2856291881582
 50
0.0
 51
0.0
 72
   100
 90
    32800
  1

281
     0
 71
     1
 74
     0
110
0.0
120
0.0
130
0.0
111
1.0
121
0.0
131
0.0
112
0.0
122
1.0
132
0.0
 79
     0
146
0.0
  0
VIEWPORT
  5
6D
330
50
100
AcDbEntity
  8
0
100
AcDbViewport
 10
133.349993944168
 20
101.599993944168
 30
0.0
 40
213.3599903106689
 41
162.5599903106689
 69
     0
 12
210.0
 22
148.5
 13
0.0
 23
0.0
 14
10.0
 24
10.0
 15
10.0
 25
10.0
 16
0.0
 26
0.0
 36
1.0
 17
0.0
 27
0.0
 37
0.0
 42
50.0
 43
0.0
 44
0.0
 45
324.0677920111345
 50
0.0
 51
0.0
 72
   100
 90
    32864
  1

281
     0
 71
     1
 74
     0
110
0.0
120
0.0
130
0.0
111
1.0
121
0.0
131
0.0
112
0.0
122
1.0
132
0.0
 79
     0
146
0.0
  0
ENDBLK
  5
53
330
50
100
AcDbEntity
  8
0
100
AcDbBlockEnd
  0
ENDSEC
  0
SECTION
  2
ENTITIES
  0
LINE
  5
1FF
330
1F
100
AcDbEntity
  8
0
100
AcDbLine
 10
309.5317282752075
 20
505.3876102807977
 30
0.0
 11
306.4677861647833
 21
505.2918604969066
 31
0.0
  0
LINE
  5
200
330
1F
100
AcDbEntity
  8
0
100
AcDbLine
 10
309.5331074669882
 20
495.8875735963114
 30
0.0
 11
306.467763763538
 21
495.9833571371994
 31
0.0
  0
LINE
  5
201
330
1F
100
AcDbEntity
  8
0
100
AcDbLine
 10
308.4677495286703
 20
505.3543843118958
 30
0.0
 11
308.467760365303
 21
495.9208043051059
 31
0.0
  0
LINE
  5
202
330
1F
100
AcDbEntity
  8
0
100
AcDbLine
 10
311.5317254095546
 20
495.8875314491268
 30
0.0
 11
309.5317177580525
 21
495.8875460404782
 31
0.0
  0
LINE
  5
203
330
1F
100
AcDbEntity
  8
0
100
AcDbLine
 10
311.5317353200643
 20
505.3875424270585
 30
0.0
 11
309.5317113293911
 21
505.3875318582925
 31
0.0
  0
LINE
  5
204
330
1F
100
AcDbEntity
  8
0
100
AcDbLine
 10
311.5317343053279
 20
505.6375458976448
 30
0.0
 11
311.5317333358705
 21
495.6375413755575
 31
0.0
  0
LINE
  5
205
330
1F
100
AcDbEntity
  8
0
100
AcDbLine
 10
324.0316959426371
 20
505.6375374987941
 30
0.0
 11
311.5317343053279
 21
505.6375458976448
 31
0.0
  0
LINE
  5
206
330
1F
100
AcDbEntity
  8
0
100
AcDbLine
 10
324.0316949731798
 20
495.6375329767069
 30
0.0
 11
311.5317333358705
 21
495.6375413755575
 31
0.0
  0
LINE
  5
207
330
1F
100
AcDbEntity
  8
0
100
AcDbLine
 10
324.0316959426371
 20
505.6375374987941
 30
0.0
 11
324.0316949731798
 21
495.6375329767069
 31
0.0
  0
ARC
  5
208
330
1F
100
AcDbEntity
  8
0
100
AcDbCircle
 10
249.9677579092181
 20
500.6375352377506
 30
0.0
 40
50.04555312627434
100
AcDbArc
 50
348.4736805124524
 51
11.52631352852184
  0
LINE
  5
209
330
1F
100
AcDbEntity
  8
0
100
AcDbLine
 10
306.4677861647833
 20
490.6375302377504
 30
0.0
 11
299.004043328433
 21
490.6375302377504
 31
0.0
  0
LINE
  5
20A
330
1F
100
AcDbEntity
  8
0
100
AcDbLine
 10
306.4677861647833
 20
510.6375351377503
 30
0.0
 11
299.0040443684795
 21
510.6375351377502
 31
0.0
  0
LINE
  5
20B
330
1F
100
AcDbEntity
  8
0
100
AcDbLine
 10
306.4677861647833
 20
510.6375351377503
 30
0.0
 11
306.4677861647833
 21
490.6375302377504
 31
0.0
  0
ARC
  5
20C
330
1F
100
AcDbEntity
  8
0
100
AcDbCircle
 10
311.4677579092181
 20
491.6375352377504
 30
0.0
 40
1.000000035
100
AcDbArc
 50
270.0
 51
0.0
  0
ARC
  5
20D
330
1F
100
AcDbEntity
  8
0
100
AcDbCircle
 10
307.7345879092181
 20
488.6375352377504
 30
0.0
 40
2.000000099999999
100
AcDbArc
 50
90.0
 51
168.2650600000045
  0
ARC
  5
20E
330
1F
100
AcDbEntity
  8
0
100
AcDbCircle
 10
311.4677579092181
 20
509.6375352377505
 30
0.0
 40
1.000000035
100
AcDbArc
 50
0.0
 51
90.0
  0
ARC
  5
20F
330
1F
100
AcDbEntity
  8
0
100
AcDbCircle
 10
307.7345879092181
 20
512.6375352377504
 30
0.0
 40
2.000000099999999
100
AcDbArc
 50
191.7349360000032
 51
270.0
  0
LINE
  5
210
330
1F
100
AcDbEntity
  8
0
100
AcDbLine
 10
311.4677579092181
 20
490.6375302377504
 30
0.0
 11
307.7345879092181
 21
490.6375302377504
 31
0.0
  0
LINE
  5
211
330
1F
100
AcDbEntity
  8
0
100
AcDbLine
 10
311.4677579092181
 20
510.6375402377504
 30
0.0
 11
307.7345879092181
 21
510.6375402377504
 31
0.0
  0
LINE
  5
212
330
1F
100
AcDbEntity
  8
0
100
AcDbLine
 10
312.4677629092179
 20
505.6375452687177
 30
0.0
 11
312.4677629092179
 21
509.6375352377505
 31
0.0
  0
LINE
  5
213
330
1F
100
AcDbEntity
  8
0
100
AcDbLine
 10
312.4677629092179
 20
491.6375352377504
 30
0.0
 11
312.4677629092179
 21
495.6375407466299
 31
0.0
  0
ARC
  5
214
330
1F
100
AcDbEntity
  8
0
100
AcDbCircle
 10
310.2549299092181
 20
486.1646202377505
 30
0.0
 40
5.000000249999999
100
AcDbArc
 50
166.5007799999983
 51
195.0000300000001
  0
ARC
  5
215
330
1F
100
AcDbEntity
  8
0
100
AcDbCircle
 10
303.2283329092181
 20
469.8875352377505
 30
0.0
 40
6.0
100
AcDbArc
 50
285.0000100000021
 51
15.00002500000173
  0
ARC
  5
216
330
1F
100
AcDbEntity
  8
0
100
AcDbCircle
 10
292.6452479092181
 20
455.6637852377505
 30
0.0
 40
5.000000249999999
100
AcDbArc
 50
105.000010000002
 51
133.4993700000009
  0
LINE
  5
217
330
1F
100
AcDbEntity
  8
0
100
AcDbLine
 10
304.7812379092181
 20
464.0920002377505
 30
0.0
 11
291.351161909218
 21
460.4933952377505
 31
0.0
  0
LINE
  5
218
330
1F
100
AcDbEntity
  8
0
100
AcDbLine
 10
309.023878409218
 20
471.4404552377505
 30
0.0
 11
305.4253004092181
 21
484.8705252377506
 31
0.0
  0
ARC
  5
219
330
1F
100
AcDbEntity
  8
0
100
AcDbCircle
 10
249.9677579092181
 20
500.6375352377505
 30
0.0
 40
57.000063
100
AcDbArc
 50
10.104171329024
 51
349.8958234637551
  0
ARC
  5
21A
330
1F
100
AcDbEntity
  8
0
100
AcDbCircle
 10
189.680585909218
 20
515.1104502377505
 30
0.0
 40
5.000000249999999
100
AcDbArc
 50
346.5007799999991
 51
15.00002999999848
  0
ARC
  5
21B
330
1F
100
AcDbEntity
  8
0
100
AcDbCircle
 10
196.707182909218
 20
531.3875352377505
 30
0.0
 40
6.0
100
AcDbArc
 50
105.0000100000013
 51
195.0000250000009
  0
ARC
  5
21C
330
1F
100
AcDbEntity
  8
0
100
AcDbCircle
 10
207.290267909218
 20
545.6112852377505
 30
0.0
 40
5.000000249999999
100
AcDbArc
 50
285.0000100000013
 51
313.4993699999986
  0
LINE
  5
21D
330
1F
100
AcDbEntity
  8
0
100
AcDbLine
 10
195.154277909218
 20
537.1830702377504
 30
0.0
 11
208.5843539092181
 21
540.7816752377505
 31
0.0
  0
LINE
  5
21E
330
1F
100
AcDbEntity
  8
0
100
AcDbLine
 10
190.9116374092182
 20
529.8346152377505
 30
0.0
 11
194.510215409218
 21
516.4045452377504
 31
0.0
  0
ARC
  5
21F
330
1F
100
AcDbEntity
  8
0
100
AcDbCircle
 10
292.6452479092181
 20
545.6112852377505
 30
0.0
 40
5.000000249999999
100
AcDbArc
 50
226.500629999999
 51
254.9999899999979
  0
ARC
  5
220
330
1F
100
AcDbEntity
  8
0
100
AcDbCircle
 10
267.5774318524052
 20
441.1908552634286
 30
0.0
 40
5.000000249999999
100
AcDbArc
 50
106.5007799999971
 51
135.0000299999987
  0
ARC
  5
221
330
1F
100
AcDbEntity
  8
0
100
AcDbCircle
 10
249.9677642428465
 20
439.1375242675842
 30
0.0
 40
6.0
100
AcDbArc
 50
225.0000100000011
 51
315.0000250000028
  0
ARC
  5
222
330
1F
100
AcDbEntity
  8
0
100
AcDbCircle
 10
232.3580929057676
 20
441.1908697279942
 30
0.0
 40
5.000000249999999
100
AcDbArc
 50
45.00001000000112
 51
73.49937000000062
  0
ARC
  5
223
330
1F
100
AcDbEntity
  8
0
100
AcDbCircle
 10
303.2283329092181
 20
531.3875352377506
 30
0.0
 40
6.0
100
AcDbArc
 50
344.9999800000025
 51
74.99998999999788
  0
ARC
  5
224
330
1F
100
AcDbEntity
  8
0
100
AcDbCircle
 10
310.2549299092181
 20
515.1104502377506
 30
0.0
 40
5.000000249999999
100
AcDbArc
 50
164.9999699999998
 51
193.4992200000016
  0
LINE
  5
225
330
1F
100
AcDbEntity
  8
0
100
AcDbLine
 10
304.7812439092181
 20
537.1831002377505
 30
0.0
 11
291.351167909218
 21
540.7816752377505
 31
0.0
  0
LINE
  5
226
330
1F
100
AcDbEntity
  8
0
100
AcDbLine
 10
245.7251362043248
 20
434.8949015879203
 30
0.0
 11
235.893614856139
 21
444.7263860786761
 31
0.0
  0
LINE
  5
227
330
1F
100
AcDbEntity
  8
0
100
AcDbLine
 10
309.0238829092181
 20
529.8346152377505
 30
0.0
 11
305.4253064092181
 21
516.4045452377505
 31
0.0
  0
LINE
  5
228
330
1F
100
AcDbEntity
  8
0
100
AcDbLine
 10
254.2104051628914
 20
434.8948946357957
 30
0.0
 11
264.0418979574948
 21
444.7263896012954
 31
0.0
  0
ARC
  5
229
330
1F
100
AcDbEntity
  8
0
100
AcDbCircle
 10
207.290267909218
 20
455.6637852377504
 30
0.0
 40
5.000000249999999
100
AcDbArc
 50
46.50063000000105
 51
74.99998999999866
  0
ARC
  5
22A
330
1F
100
AcDbEntity
  8
0
100
AcDbCircle
 10
232.358083966031
 20
560.0842152120726
 30
0.0
 40
5.000000249999999
100
AcDbArc
 50
286.5007800000004
 51
315.0000299999987
  0
ARC
  5
22B
330
1F
100
AcDbEntity
  8
0
100
AcDbCircle
 10
249.9677515755895
 20
562.137546207917
 30
0.0
 40
6.0
100
AcDbArc
 50
45.00001000000112
 51
135.0000250000005
  0
ARC
  5
22C
330
1F
100
AcDbEntity
  8
0
100
AcDbCircle
 10
267.5774229126684
 20
560.084200747507
 30
0.0
 40
5.000000249999999
100
AcDbArc
 50
225.0000100000011
 51
253.4993699999972
  0
ARC
  5
22D
330
1F
100
AcDbEntity
  8
0
100
AcDbCircle
 10
196.707182909218
 20
469.8875352377504
 30
0.0
 40
6.0
100
AcDbArc
 50
164.9999800000033
 51
254.9999899999986
  0
ARC
  5
22E
330
1F
100
AcDbEntity
  8
0
100
AcDbCircle
 10
189.680585909218
 20
486.1646202377503
 30
0.0
 40
5.000000249999999
100
AcDbArc
 50
344.9999700000015
 51
13.49922000000078
  0
LINE
  5
22F
330
1F
100
AcDbEntity
  8
0
100
AcDbLine
 10
195.1542719092181
 20
464.0919702377504
 30
0.0
 11
208.5843479092182
 21
460.4933952377505
 31
0.0
  0
LINE
  5
230
330
1F
100
AcDbEntity
  8
0
100
AcDbLine
 10
254.2103796141113
 20
566.3801688875808
 30
0.0
 11
264.0419009622971
 21
556.5486843968251
 31
0.0
  0
LINE
  5
231
330
1F
100
AcDbEntity
  8
0
100
AcDbLine
 10
190.911632909218
 20
471.4404552377504
 30
0.0
 11
194.510209409218
 21
484.8705252377505
 31
0.0
  0
LINE
  5
232
330
1F
100
AcDbEntity
  8
0
100
AcDbLine
 10
245.7251106555447
 20
566.3801758397055
 30
0.0
 11
235.8936178609412
 21
556.5486808742057
 31
0.0
  0
LINE
  5
233
330
1F
100
AcDbEntity
  8
0
100
AcDbLine
 10
257.4677555359026
 20
237.9731716663747
 30
0.0
 11
257.4677518921563
 21
217.3391974465584
 31
0.0
  0
LINE
  5
234
330
1F
100
AcDbEntity
  8
0
100
AcDbLine
 10
257.9677497279285
 20
215.4731830068436
 30
0.0
 11
257.4677518921563
 21
217.3391974465584
 31
0.0
  0
LINE
  5
235
330
1F
100
AcDbEntity
  8
0
100
AcDbLine
 10
257.9677396638787
 20
215.4731764711797
 30
0.0
 11
257.967729496956
 21
214.4731768028147
 31
0.0
  0
ARC
  5
236
330
1F
100
AcDbEntity
  8
0
100
AcDbCircle
 10
285.4676603371622
 20
129.4732617360828
 30
0.0
 40
5.000000249999999
100
AcDbArc
 50
90.00006300000373
 51
179.999940000007
  0
ARC
  5
237
330
1F
100
AcDbEntity
  8
0
100
AcDbCircle
 10
191.7071922999978
 20
136.9732934228125
 30
0.0
 40
1.000000035
100
AcDbArc
 50
180.0004499999996
 51
269.9998999999899
  0
ARC
  5
238
330
1F
100
AcDbEntity
  8
0
100
AcDbCircle
 10
245.4677445605925
 20
125.7731861767734
 30
0.0
 40
2.000000099999999
100
AcDbArc
 50
270.0000399999909
 51
0.0003599999971511
  0
ARC
  5
239
330
1F
100
AcDbEntity
  8
0
100
AcDbCircle
 10
296.5535326067542
 20
135.473259133293
 30
0.0
 40
1.000000035
100
AcDbArc
 50
270.0000399999909
 51
297.2831799999967
  0
ARC
  5
23A
330
1F
100
AcDbEntity
  8
0
100
AcDbCircle
 10
308.2283111642686
 20
136.9732639271932
 30
0.0
 40
1.000000035
100
AcDbArc
 50
270.0000399999909
 51
0.0003599999971511
  0
ARC
  5
23B
330
1F
100
AcDbEntity
  8
0
100
AcDbCircle
 10
214.4678460833913
 20
129.4732680811484
 30
0.0
 40
5.000000249999999
100
AcDbArc
 50
359.9999400000069
 51
90.00000799999821
  0
ARC
  5
23C
330
1F
100
AcDbEntity
  8
0
100
AcDbCircle
 10
203.3819817614367
 20
135.4732931672134
 30
0.0
 40
1.000000035
100
AcDbArc
 50
240.7045999999977
 51
269.9998999999899
  0
ARC
  5
23D
330
1F
100
AcDbEntity
  8
0
100
AcDbCircle
 10
304.2283024597417
 20
163.4003817109755
 30
0.0
 40
5.000000249999999
100
AcDbArc
 50
359.9999400000069
 51
90.00006300000373
  0
ARC
  5
23E
330
1F
100
AcDbEntity
  8
0
100
AcDbCircle
 10
295.0970947868536
 20
163.4004081045138
 30
0.0
 40
5.000000249999999
100
AcDbArc
 50
90.00006300000373
 51
179.999940000007
  0
ARC
  5
23F
330
1F
100
AcDbEntity
  8
0
100
AcDbCircle
 10
196.69205319782
 20
166.9732256161684
 30
0.0
 40
5.000000249999999
100
AcDbArc
 50
202.2316400000006
 51
298.4124800000057
  0
ARC
  5
240
330
1F
100
AcDbEntity
  8
0
100
AcDbCircle
 10
313.25328116389
 20
159.2858988325408
 30
0.0
 40
120.0
100
AcDbArc
 50
174.4255300000056
 51
175.8749900000038
  0
ARC
  5
241
330
1F
100
AcDbEntity
  8
0
100
AcDbCircle
 10
313.25328116389
 20
159.2858988325408
 30
0.0
 40
120.0
100
AcDbArc
 50
165.0000099999983
 51
174.4255300000056
  0
ARC
  5
242
330
1F
100
AcDbEntity
  8
0
100
AcDbCircle
 10
186.6822758774742
 20
159.2859109708891
 30
0.0
 40
120.0
100
AcDbArc
 50
4.125009999996105
 51
15.00000000000037
  0
ARC
  5
243
330
1F
100
AcDbEntity
  8
0
100
AcDbCircle
 10
314.4677604425269
 20
145.4732192595094
 30
0.0
 40
1.000000035
100
AcDbArc
 50
270.0000399999909
 51
0.0003599999971511
  0
ARC
  5
244
330
1F
100
AcDbEntity
  8
0
100
AcDbCircle
 10
305.4677600976635
 20
198.9732205924298
 30
0.0
 40
1.000000035
100
AcDbArc
 50
0.0004499999996975
 51
90.00017300000179
  0
ARC
  5
245
330
1F
100
AcDbEntity
  8
0
100
AcDbCircle
 10
314.4677446510643
 20
161.4731948321829
 30
0.0
 40
1.000000035
100
AcDbArc
 50
0.0003599999971511
 51
90.00003499999047
  0
ARC
  5
246
330
1F
100
AcDbEntity
  8
0
100
AcDbCircle
 10
301.5479006493926
 20
201.9732226951201
 30
0.0
 40
2.000000099999999
100
AcDbArc
 50
195.0000199999958
 51
270.0000399999909
  0
ARC
  5
247
330
1F
100
AcDbEntity
  8
0
100
AcDbCircle
 10
291.3291482368772
 20
201.4732247662342
 30
0.0
 40
8.000000249999999
100
AcDbArc
 50
15.00001999999579
 51
89.99997999999798
  0
ARC
  5
248
330
1F
100
AcDbEntity
  8
0
100
AcDbCircle
 10
225.9677533461577
 20
213.4732071492722
 30
0.0
 40
1.000000035
100
AcDbArc
 50
89.99989800000015
 51
180.0004499999996
  0
ARC
  5
249
330
1F
100
AcDbEntity
  8
0
100
AcDbCircle
 10
225.9677533461577
 20
213.4732071492722
 30
0.0
 40
1.000000035
100
AcDbArc
 50
89.99989800000015
 51
180.0004499999996
  0
ARC
  5
24A
330
1F
100
AcDbEntity
  8
0
100
AcDbCircle
 10
208.6063713273511
 20
201.473216884436
 30
0.0
 40
8.000000249999999
100
AcDbArc
 50
90.00003499999047
 51
165.0001099999984
  0
ARC
  5
24B
330
1F
100
AcDbEntity
  8
0
100
AcDbCircle
 10
273.9677513294648
 20
213.4732100319876
 30
0.0
 40
1.000000035
100
AcDbArc
 50
0.0004499999996975
 51
89.99989800000015
  0
ARC
  5
24C
330
1F
100
AcDbEntity
  8
0
100
AcDbCircle
 10
249.9677600131144
 20
166.9732261531786
 30
0.0
 40
5.000000249999999
100
AcDbArc
 50
245.1715499999931
 51
294.8286299999987
  0
ARC
  5
24D
330
1F
100
AcDbEntity
  8
0
100
AcDbCircle
 10
303.2434467152199
 20
166.9732039809472
 30
0.0
 40
5.000000249999999
100
AcDbArc
 50
241.5874999999979
 51
337.7684699999944
  0
ARC
  5
24E
330
1F
100
AcDbEntity
  8
0
100
AcDbCircle
 10
259.9599213529555
 20
163.4004095737364
 30
0.0
 40
5.000000249999999
100
AcDbArc
 50
359.9999400000069
 51
90.00006300000373
  0
ARC
  5
24F
330
1F
100
AcDbEntity
  8
0
100
AcDbCircle
 10
239.9755738923562
 20
163.4004104278809
 30
0.0
 40
5.000000249999999
100
AcDbArc
 50
90.00000799999821
 51
179.999940000007
  0
ARC
  5
250
330
1F
100
AcDbEntity
  8
0
100
AcDbCircle
 10
195.7071714292806
 20
163.4003806177806
 30
0.0
 40
5.000000249999999
100
AcDbArc
 50
90.00000799999821
 51
179.999940000007
  0
ARC
  5
251
330
1F
100
AcDbEntity
  8
0
100
AcDbCircle
 10
204.8384205865519
 20
163.4003988257667
 30
0.0
 40
5.000000249999999
100
AcDbArc
 50
359.9999400000069
 51
90.00000799999821
  0
ARC
  5
252
330
1F
100
AcDbEntity
  8
0
100
AcDbCircle
 10
196.692039988215
 20
135.7072687461524
 30
0.0
 40
5.416833449999999
100
AcDbArc
 50
301.1866199999979
 51
345.7429800000002
  0
ARC
  5
253
330
1F
100
AcDbEntity
  8
0
100
AcDbCircle
 10
196.692039988215
 20
135.7072687461524
 30
0.0
 40
5.416833449999999
100
AcDbArc
 50
194.2570199999997
 51
238.8132499999954
  0
ARC
  5
254
330
1F
100
AcDbEntity
  8
0
100
AcDbCircle
 10
249.9677468035092
 20
135.7072692831625
 30
0.0
 40
5.416833449999999
100
AcDbArc
 50
194.2569699999955
 51
238.8131899999978
  0
ARC
  5
255
330
1F
100
AcDbEntity
  8
0
100
AcDbCircle
 10
249.9677468035092
 20
135.7072692831625
 30
0.0
 40
5.416833449999999
100
AcDbArc
 50
301.1865999999952
 51
345.7429800000002
  0
ARC
  5
256
330
1F
100
AcDbEntity
  8
0
100
AcDbCircle
 10
303.2434542403539
 20
135.7072873019825
 30
0.0
 40
5.416833449999999
100
AcDbArc
 50
194.2569699999955
 51
238.8131899999978
  0
ARC
  5
257
330
1F
100
AcDbEntity
  8
0
100
AcDbCircle
 10
303.2434542403539
 20
135.7072873019825
 30
0.0
 40
5.416833449999999
100
AcDbArc
 50
301.1865999999952
 51
345.7429800000002
  0
ARC
  5
258
330
1F
100
AcDbEntity
  8
0
100
AcDbCircle
 10
254.4677594634515
 20
125.7732047397071
 30
0.0
 40
2.000000099999999
100
AcDbArc
 50
180.0003599999971
 51
270.0000399999909
  0
LINE
  5
259
330
1F
100
AcDbEntity
  8
0
100
AcDbLine
 10
245.4677551795891
 20
123.7731925587439
 30
0.0
 11
211.4677579092181
 21
123.7732205226862
 31
0.0
  0
LINE
  5
25A
330
1F
100
AcDbEntity
  8
0
100
AcDbLine
 10
249.967769599674
 20
143.9732295413147
 30
0.0
 11
192.967761109076
 21
143.9732231266001
 31
0.0
  0
LINE
  5
25B
330
1F
100
AcDbEntity
  8
0
100
AcDbLine
 10
252.4677763395736
 20
131.0732701629216
 30
0.0
 11
252.4677625124516
 21
125.7731944966214
 31
0.0
  0
LINE
  5
25C
330
1F
100
AcDbEntity
  8
0
100
AcDbLine
 10
254.4677637924191
 20
123.7732152064701
 30
0.0
 11
288.467757909218
 21
123.7731872425303
 31
0.0
  0
LINE
  5
25D
330
1F
100
AcDbEntity
  8
0
100
AcDbLine
 10
247.4677383779928
 20
131.0732294442324
 30
0.0
 11
247.4677584872188
 21
125.7732032812077
 31
0.0
  0
LINE
  5
25E
330
1F
100
AcDbEntity
  8
0
100
AcDbLine
 10
309.22829858808
 20
143.9732029245163
 30
0.0
 11
192.967761109076
 21
143.9732231266001
 31
0.0
  0
LINE
  5
25F
330
1F
100
AcDbEntity
  8
0
100
AcDbLine
 10
309.5317282752075
 20
195.7232249317656
 30
0.0
 11
306.4677861647833
 21
195.6274751478746
 31
0.0
  0
LINE
  5
260
330
1F
100
AcDbEntity
  8
0
100
AcDbLine
 10
309.5331074669882
 20
186.2231882472793
 30
0.0
 11
306.467763763538
 21
186.3189717881674
 31
0.0
  0
LINE
  5
261
330
1F
100
AcDbEntity
  8
0
100
AcDbLine
 10
308.4677495286703
 20
195.6899989628638
 30
0.0
 11
308.467760365303
 21
186.2564189560738
 31
0.0
  0
LINE
  5
262
330
1F
100
AcDbEntity
  8
0
100
AcDbLine
 10
311.5317254095546
 20
186.2231461000948
 30
0.0
 11
309.5317177580525
 21
186.2231606914462
 31
0.0
  0
LINE
  5
263
330
1F
100
AcDbEntity
  8
0
100
AcDbLine
 10
311.5317353200643
 20
195.7231570780264
 30
0.0
 11
309.5317113293911
 21
195.7231465092605
 31
0.0
  0
LINE
  5
264
330
1F
100
AcDbEntity
  8
0
100
AcDbLine
 10
311.5317343053279
 20
195.9731605486127
 30
0.0
 11
311.5317333358705
 21
185.9731560265255
 31
0.0
  0
LINE
  5
265
330
1F
100
AcDbEntity
  8
0
100
AcDbLine
 10
324.0316959426371
 20
195.973152149762
 30
0.0
 11
311.5317343053279
 21
195.9731605486127
 31
0.0
  0
LINE
  5
266
330
1F
100
AcDbEntity
  8
0
100
AcDbLine
 10
324.0316949731798
 20
185.9731476276748
 30
0.0
 11
311.5317333358705
 21
185.9731560265255
 31
0.0
  0
LINE
  5
267
330
1F
100
AcDbEntity
  8
0
100
AcDbLine
 10
324.0316959426371
 20
195.973152149762
 30
0.0
 11
324.0316949731798
 21
185.9731476276748
 31
0.0
  0
LINE
  5
268
330
1F
100
AcDbEntity
  8
0
100
AcDbLine
 10
193.8870577218708
 20
131.073253539508
 30
0.0
 11
199.4970647363017
 21
131.0732668859083
 31
0.0
  0
LINE
  5
269
330
1F
100
AcDbEntity
  8
0
100
AcDbLine
 10
190.6920439027783
 20
134.3732730573867
 30
0.0
 11
202.6920520418059
 21
134.3732815791922
 31
0.0
  0
LINE
  5
26A
330
1F
100
AcDbEntity
  8
0
100
AcDbLine
 10
202.6920690736937
 20
135.9732849357623
 30
0.0
 11
202.6920520418059
 21
134.3732815791922
 31
0.0
  0
LINE
  5
26B
330
1F
100
AcDbEntity
  8
0
100
AcDbLine
 10
190.6920609346661
 20
135.9732764139565
 30
0.0
 11
190.6920439027783
 21
134.3732730573867
 31
0.0
  0
LINE
  5
26C
330
1F
100
AcDbEntity
  8
0
100
AcDbLine
 10
252.7727369787924
 20
131.0732362184111
 30
0.0
 11
247.1627727067507
 21
131.0732666565768
 31
0.0
  0
LINE
  5
26D
330
1F
100
AcDbEntity
  8
0
100
AcDbLine
 10
255.9677538250766
 20
134.3732853840367
 30
0.0
 11
243.9677456860493
 21
134.3732768622311
 31
0.0
  0
LINE
  5
26E
330
1F
100
AcDbEntity
  8
0
100
AcDbLine
 10
243.9677708875226
 20
135.9732927988595
 30
0.0
 11
243.9677456860493
 21
134.3732768622311
 31
0.0
  0
LINE
  5
26F
330
1F
100
AcDbEntity
  8
0
100
AcDbLine
 10
255.967746348208
 20
135.9732510004311
 30
0.0
 11
255.9677538250766
 21
134.3732853840367
 31
0.0
  0
LINE
  5
270
330
1F
100
AcDbEntity
  8
0
100
AcDbLine
 10
306.0484519636722
 20
131.07324933548
 30
0.0
 11
300.4384795220448
 21
131.0732671935869
 31
0.0
  0
LINE
  5
271
330
1F
100
AcDbEntity
  8
0
100
AcDbLine
 10
309.2434662939449
 20
134.3733001350226
 30
0.0
 11
297.2434581549173
 21
134.3732916132169
 31
0.0
  0
LINE
  5
272
330
1F
100
AcDbEntity
  8
0
100
AcDbLine
 10
297.2434531940603
 20
135.9732555956942
 30
0.0
 11
297.2434581549173
 21
134.3732916132169
 31
0.0
  0
LINE
  5
273
330
1F
100
AcDbEntity
  8
0
100
AcDbLine
 10
309.243458817076
 20
135.9732657514169
 30
0.0
 11
309.2434662939449
 21
134.3733001350226
 31
0.0
  0
LINE
  5
274
330
1F
100
AcDbEntity
  8
0
100
AcDbLine
 10
249.967769599674
 20
143.9732295413147
 30
0.0
 11
309.22829858808
 21
143.9732029245163
 31
0.0
  0
LINE
  5
275
330
1F
100
AcDbEntity
  8
0
100
AcDbLine
 10
314.4677531721776
 20
162.4732005449428
 30
0.0
 11
309.2282990673775
 21
162.4731960469239
 31
0.0
  0
LINE
  5
276
330
1F
100
AcDbEntity
  8
0
100
AcDbLine
 10
291.329151655746
 20
209.4732230902331
 30
0.0
 11
208.6063898273851
 21
209.4732411855107
 31
0.0
  0
LINE
  5
277
330
1F
100
AcDbEntity
  8
0
100
AcDbLine
 10
258.6381968352277
 20
165.4755482901868
 30
0.0
 11
252.0672855150944
 21
162.4353972500955
 31
0.0
  0
LINE
  5
278
330
1F
100
AcDbEntity
  8
0
100
AcDbLine
 10
273.9677516809927
 20
214.4732031646889
 30
0.0
 11
225.9677536976858
 21
214.4732002819738
 31
0.0
  0
LINE
  5
279
330
1F
100
AcDbEntity
  8
0
100
AcDbLine
 10
315.4677522433803
 20
161.4732029759208
 30
0.0
 11
315.4677718088605
 21
145.4732249523714
 31
0.0
  0
LINE
  5
27A
330
1F
100
AcDbEntity
  8
0
100
AcDbLine
 10
309.2283158976607
 20
163.4004204700674
 30
0.0
 11
309.2283099505439
 21
136.9732777896411
 31
0.0
  0
LINE
  5
27B
330
1F
100
AcDbEntity
  8
0
100
AcDbLine
 10
224.9677424681738
 20
209.4732098098778
 30
0.0
 11
224.9677394638125
 21
213.4732030903272
 31
0.0
  0
LINE
  5
27C
330
1F
100
AcDbEntity
  8
0
100
AcDbLine
 10
264.9599065081006
 20
163.4004130435282
 30
0.0
 11
264.9599008459111
 21
135.9732589316321
 31
0.0
  0
LINE
  5
27D
330
1F
100
AcDbEntity
  8
0
100
AcDbLine
 10
274.9677682161716
 20
209.4732208104832
 30
0.0
 11
274.9677652118102
 21
213.4732140909328
 31
0.0
  0
LINE
  5
27E
330
1F
100
AcDbEntity
  8
0
100
AcDbLine
 10
241.2973277467991
 20
165.4755711914837
 30
0.0
 11
247.8682635079651
 21
162.4354226402432
 31
0.0
  0
LINE
  5
27F
330
1F
100
AcDbEntity
  8
0
100
AcDbLine
 10
308.0328590957831
 20
165.4756005294326
 30
0.0
 11
307.8717691653191
 21
165.0814956826019
 31
0.0
  0
LINE
  5
280
330
1F
100
AcDbEntity
  8
0
100
AcDbLine
 10
295.5036825484625
 20
165.4755333090763
 30
0.0
 11
300.8643813379792
 21
162.5755140301275
 31
0.0
  0
LINE
  5
281
330
1F
100
AcDbEntity
  8
0
100
AcDbLine
 10
224.9677424681738
 20
209.4732098098778
 30
0.0
 11
224.9677394638125
 21
213.4732030903272
 31
0.0
  0
LINE
  5
282
330
1F
100
AcDbEntity
  8
0
100
AcDbLine
 10
234.9755648351
 20
163.4004224803014
 30
0.0
 11
234.9755591729106
 21
135.9732683684052
 31
0.0
  0
LINE
  5
283
330
1F
100
AcDbEntity
  8
0
100
AcDbLine
 10
306.4677689479856
 20
198.973227919209
 30
0.0
 11
306.4677592840371
 21
167.8708490667608
 31
0.0
  0
LINE
  5
284
330
1F
100
AcDbEntity
  8
0
100
AcDbLine
 10
200.8789714343127
 20
203.5437481362643
 30
0.0
 11
197.3421757185788
 21
190.3442232960677
 31
0.0
  0
LINE
  5
285
330
1F
100
AcDbEntity
  8
0
100
AcDbLine
 10
299.6161080964809
 20
201.4555815798529
 30
0.0
 11
302.5933876928841
 21
190.3441952470954
 31
0.0
  0
LINE
  5
286
330
1F
100
AcDbEntity
  8
0
100
AcDbLine
 10
309.2283217038195
 20
144.4732293070961
 30
0.0
 11
314.4677651230224
 21
144.4732228589738
 31
0.0
  0
LINE
  5
287
330
1F
100
AcDbEntity
  8
0
100
AcDbLine
 10
301.5479020457263
 20
199.9732014661088
 30
0.0
 11
305.4677591911856
 21
199.9732145420897
 31
0.0
  0
LINE
  5
288
330
1F
100
AcDbEntity
  8
0
100
AcDbLine
 10
299.0565901330731
 20
203.5437201059902
 30
0.0
 11
299.6161080964809
 21
201.4555815798529
 31
0.0
  0
LINE
  5
289
330
1F
100
AcDbEntity
  8
0
100
AcDbLine
 10
249.967769599674
 20
143.9732295413147
 30
0.0
 11
190.7071878048325
 21
143.9732189092157
 31
0.0
  0
LINE
  5
28A
330
1F
100
AcDbEntity
  8
0
100
AcDbLine
 10
304.2283261952211
 20
168.4004225291531
 30
0.0
 11
295.0971003036056
 21
168.4004070977231
 31
0.0
  0
LINE
  5
28B
330
1F
100
AcDbEntity
  8
0
100
AcDbLine
 10
290.0970907616206
 20
163.4004168891001
 30
0.0
 11
290.097078809402
 21
135.9732668619967
 31
0.0
  0
LINE
  5
28C
330
1F
100
AcDbEntity
  8
0
100
AcDbLine
 10
259.9599136680988
 20
168.4003992547214
 30
0.0
 11
239.9755794091082
 21
168.4004094210903
 31
0.0
  0
LINE
  5
28D
330
1F
100
AcDbEntity
  8
0
100
AcDbLine
 10
209.8384440885179
 20
163.4004310491901
 30
0.0
 11
209.8384384263285
 21
135.9732769372939
 31
0.0
  0
LINE
  5
28E
330
1F
100
AcDbEntity
  8
0
100
AcDbLine
 10
195.707166881986
 20
168.4003861466584
 30
0.0
 11
204.8384078696717
 21
168.4003917745859
 31
0.0
  0
LINE
  5
28F
330
1F
100
AcDbEntity
  8
0
100
AcDbLine
 10
190.7071724360713
 20
163.4003861345328
 30
0.0
 11
190.7071884816991
 21
136.9732828281991
 31
0.0
  0
LINE
  5
290
330
1F
100
AcDbEntity
  8
0
100
AcDbLine
 10
191.9026623486815
 20
165.4755031043452
 30
0.0
 11
192.0637152383026
 21
165.0814739073994
 31
0.0
  0
LINE
  5
291
330
1F
100
AcDbEntity
  8
0
100
AcDbLine
 10
204.4318244512925
 20
165.4755260488574
 30
0.0
 11
199.0711333408594
 21
162.5755037283432
 31
0.0
  0
LINE
  5
292
330
1F
100
AcDbEntity
  8
0
100
AcDbLine
 10
203.3819833043701
 20
134.4732809187851
 30
0.0
 11
243.4148216905798
 21
134.4732612834496
 31
0.0
  0
LINE
  5
293
330
1F
100
AcDbEntity
  8
0
100
AcDbLine
 10
296.5535385452556
 20
134.4732619157988
 30
0.0
 11
256.7275232679319
 21
134.4732530078141
 31
0.0
  0
LINE
  5
294
330
1F
100
AcDbEntity
  8
0
100
AcDbLine
 10
219.4678450766007
 20
129.4732625643963
 30
0.0
 11
219.4678554721447
 21
123.7732439928083
 31
0.0
  0
LINE
  5
295
330
1F
100
AcDbEntity
  8
0
100
AcDbLine
 10
280.4676550539234
 20
129.4732713376275
 30
0.0
 11
280.4676619289615
 21
123.7731938223609
 31
0.0
  0
LINE
  5
296
330
1F
100
AcDbEntity
  8
0
100
AcDbLine
 10
190.6920609346661
 20
135.9732764139565
 30
0.0
 11
309.243458817076
 21
135.9732657514169
 31
0.0
  0
LINE
  5
297
330
1F
100
AcDbEntity
  8
0
100
AcDbLine
 10
242.4677605212549
 20
237.973175074403
 30
0.0
 11
257.4677650340132
 21
237.9731894029738
 31
0.0
  0
LINE
  5
298
330
1F
100
AcDbEntity
  8
0
100
AcDbLine
 10
242.4677547888426
 20
217.3392008545871
 30
0.0
 11
257.4677518921521
 21
217.3391910723084
 31
0.0
  0
LINE
  5
299
330
1F
100
AcDbEntity
  8
0
100
AcDbLine
 10
255.967765798206
 20
239.4731861649858
 30
0.0
 11
257.4677650340132
 21
237.9731894029738
 31
0.0
  0
LINE
  5
29A
330
1F
100
AcDbEntity
  8
0
100
AcDbLine
 10
243.9677658287641
 20
239.4731902232389
 30
0.0
 11
242.4677504572082
 21
237.9731816100715
 31
0.0
  0
LINE
  5
29B
330
1F
100
AcDbEntity
  8
0
100
AcDbLine
 10
242.4677605212549
 20
237.973175074403
 30
0.0
 11
242.4677547888426
 21
217.3392008545871
 31
0.0
  0
LINE
  5
29C
330
1F
100
AcDbEntity
  8
0
100
AcDbLine
 10
241.9677561051462
 20
215.4731866420735
 30
0.0
 11
242.4677547888426
 21
217.3392008545871
 31
0.0
  0
LINE
  5
29D
330
1F
100
AcDbEntity
  8
0
100
AcDbLine
 10
241.967766169193
 20
215.473180106405
 30
0.0
 11
241.9677758817119
 21
214.4731804380354
 31
0.0
  0
LINE
  5
29E
330
1F
100
AcDbEntity
  8
0
100
AcDbLine
 10
241.967766169193
 20
215.473180106405
 30
0.0
 11
257.9677396638429
 21
215.4732023006707
 31
0.0
  0
LINE
  5
29F
330
1F
100
AcDbEntity
  8
0
100
AcDbLine
 10
243.9677658287641
 20
239.4731902232389
 30
0.0
 11
255.9677576286208
 21
239.4731735849274
 31
0.0
  0
ARC
  5
2A0
330
1F
100
AcDbEntity
  8
0
100
AcDbCircle
 10
511.856851977476
 20
163.4004361442423
 30
0.0
 40
5.000000249999999
100
AcDbArc
 50
90.0
 51
180.0
  0
ARC
  5
2A1
330
1F
100
AcDbEntity
  8
0
100
AcDbCircle
 10
527.8240519774761
 20
163.4004361442423
 30
0.0
 40
5.000000249999999
100
AcDbArc
 50
0.0
 51
90.0
  0
ARC
  5
2A2
330
1F
100
AcDbEntity
  8
0
100
AcDbCircle
 10
516.5869819774759
 20
166.9732561442422
 30
0.0
 40
5.000000249999999
100
AcDbArc
 50
231.0964300000037
 51
292.8868469999903
  0
ARC
  5
2A3
330
1F
100
AcDbEntity
  8
0
100
AcDbCircle
 10
582.8171719774761
 20
163.4004361442423
 30
0.0
 40
5.000000249999999
100
AcDbArc
 50
0.0
 51
90.0
  0
ARC
  5
2A4
330
1F
100
AcDbEntity
  8
0
100
AcDbCircle
 10
566.8499719774761
 20
163.4004361442423
 30
0.0
 40
5.000000249999999
100
AcDbArc
 50
90.0
 51
180.0
  0
ARC
  5
2A5
330
1F
100
AcDbEntity
  8
0
100
AcDbCircle
 10
578.0870419774762
 20
166.9732561442422
 30
0.0
 40
5.000000249999999
100
AcDbArc
 50
247.1131499999985
 51
308.9035690000064
  0
ARC
  5
2A6
330
1F
100
AcDbEntity
  8
0
100
AcDbCircle
 10
603.337066977476
 20
136.9733011442422
 30
0.0
 40
1.000000035
100
AcDbArc
 50
270.0
 51
0.0
  0
ARC
  5
2A7
330
1F
100
AcDbEntity
  8
0
100
AcDbCircle
 10
491.3369569774761
 20
136.9733011442422
 30
0.0
 40
1.000000035
100
AcDbArc
 50
180.0
 51
270.0
  0
ARC
  5
2A8
330
1F
100
AcDbEntity
  8
0
100
AcDbCircle
 10
485.8369369774762
 20
135.7073161442422
 30
0.0
 40
5.416833449999999
100
AcDbArc
 50
194.2570199999922
 51
238.8132400000006
  0
ARC
  5
2A9
330
1F
100
AcDbEntity
  8
0
100
AcDbCircle
 10
485.8369369774762
 20
135.7073161442422
 30
0.0
 40
5.416833449999999
100
AcDbArc
 50
301.1867569999967
 51
345.7429800000078
  0
ARC
  5
2AA
330
1F
100
AcDbEntity
  8
0
100
AcDbCircle
 10
516.5869819774759
 20
135.7073161442422
 30
0.0
 40
5.416833449999999
100
AcDbArc
 50
301.1867569999967
 51
345.7429800000078
  0
ARC
  5
2AB
330
1F
100
AcDbEntity
  8
0
100
AcDbCircle
 10
516.5869819774759
 20
135.7073161442422
 30
0.0
 40
5.416833449999999
100
AcDbArc
 50
194.2570199999922
 51
238.8132400000006
  0
ARC
  5
2AC
330
1F
100
AcDbEntity
  8
0
100
AcDbCircle
 10
578.0870419774762
 20
135.7073161442422
 30
0.0
 40
5.416833449999999
100
AcDbArc
 50
194.2570199999922
 51
238.8132400000006
  0
ARC
  5
2AD
330
1F
100
AcDbEntity
  8
0
100
AcDbCircle
 10
578.0870419774762
 20
135.7073161442422
 30
0.0
 40
5.416833449999999
100
AcDbArc
 50
301.1867569999967
 51
345.7429800000078
  0
ARC
  5
2AE
330
1F
100
AcDbEntity
  8
0
100
AcDbCircle
 10
608.8370119774761
 20
135.7073161442422
 30
0.0
 40
5.416833449999999
100
AcDbArc
 50
301.1867569999967
 51
345.7429800000078
  0
ARC
  5
2AF
330
1F
100
AcDbEntity
  8
0
100
AcDbCircle
 10
608.8370119774761
 20
135.7073161442422
 30
0.0
 40
5.416833449999999
100
AcDbArc
 50
194.2570199999922
 51
238.8132400000006
  0
ARC
  5
2B0
330
1F
100
AcDbEntity
  8
0
100
AcDbCircle
 10
480.8370619774762
 20
136.9733011442422
 30
0.0
 40
1.000000035
100
AcDbArc
 50
180.0
 51
270.0
  0
ARC
  5
2B1
330
1F
100
AcDbEntity
  8
0
100
AcDbCircle
 10
582.8369269774761
 20
129.4733011442422
 30
0.0
 40
5.000000249999999
100
AcDbArc
 50
161.3373799999922
 51
180.0
  0
ARC
  5
2B2
330
1F
100
AcDbEntity
  8
0
100
AcDbCircle
 10
511.8370969774763
 20
129.4733011442422
 30
0.0
 40
5.000000249999999
100
AcDbArc
 50
0.0
 51
18.66262000000777
  0
ARC
  5
2B3
330
1F
100
AcDbEntity
  8
0
100
AcDbCircle
 10
498.422791977476
 20
134.9733211442421
 30
0.0
 40
1.000000035
100
AcDbArc
 50
45.00000000000029
 51
90.0
  0
ARC
  5
2B4
330
1F
100
AcDbEntity
  8
0
100
AcDbCircle
 10
613.836961977476
 20
136.9733011442422
 30
0.0
 40
1.000000035
100
AcDbArc
 50
270.0
 51
0.0
  0
ARC
  5
2B5
330
1F
100
AcDbEntity
  8
0
100
AcDbCircle
 10
505.8370219774761
 20
131.4732961442421
 30
0.0
 40
3.0
100
AcDbArc
 50
0.0
 51
90.0
  0
ARC
  5
2B6
330
1F
100
AcDbEntity
  8
0
100
AcDbCircle
 10
588.8370019774761
 20
131.4732961442421
 30
0.0
 40
3.0
100
AcDbArc
 50
90.0
 51
180.0
  0
ARC
  5
2B7
330
1F
100
AcDbEntity
  8
0
100
AcDbCircle
 10
596.2512319774762
 20
134.9733211442421
 30
0.0
 40
1.000000035
100
AcDbArc
 50
90.0
 51
134.9999999999997
  0
ARC
  5
2B8
330
1F
100
AcDbEntity
  8
0
100
AcDbCircle
 10
593.922796977476
 20
135.4733011442422
 30
0.0
 40
1.000000035
100
AcDbArc
 50
270.0
 51
314.9999999999997
  0
ARC
  5
2B9
330
1F
100
AcDbEntity
  8
0
100
AcDbCircle
 10
500.7512269774761
 20
135.4733011442422
 30
0.0
 40
1.000000035
100
AcDbArc
 50
225.0000000000003
 51
270.0
  0
ARC
  5
2BA
330
1F
100
AcDbEntity
  8
0
100
AcDbCircle
 10
579.8369269774761
 20
125.7732211442423
 30
0.0
 40
2.000000099999999
100
AcDbArc
 50
180.0
 51
270.0
  0
ARC
  5
2BB
330
1F
100
AcDbEntity
  8
0
100
AcDbCircle
 10
514.8371119774763
 20
125.7732211442423
 30
0.0
 40
2.000000099999999
100
AcDbArc
 50
270.0
 51
0.0
  0
ARC
  5
2BC
330
1F
100
AcDbEntity
  8
0
100
AcDbCircle
 10
588.698386977476
 20
201.4732111442422
 30
0.0
 40
8.000000249999999
100
AcDbArc
 50
15.00001000001555
 51
90.0
  0
ARC
  5
2BD
330
1F
100
AcDbEntity
  8
0
100
AcDbCircle
 10
609.8370469774761
 20
159.0864961442423
 30
0.0
 40
5.000000249999999
100
AcDbArc
 50
0.0
 51
59.99991000000535
  0
ARC
  5
2BE
330
1F
100
AcDbEntity
  8
0
100
AcDbCircle
 10
614.437036977476
 20
144.3732361442423
 30
0.0
 40
0.4000000200000001
100
AcDbArc
 50
270.0
 51
0.0
  0
ARC
  5
2BF
330
1F
100
AcDbEntity
  8
0
100
AcDbCircle
 10
608.4603619774759
 20
171.4283311442422
 30
0.0
 40
5.000000249999999
100
AcDbArc
 50
185.5743600000023
 51
239.9999100000053
  0
CIRCLE
  5
2C0
330
1F
100
AcDbEntity
  8
0
100
AcDbCircle
 10
547.337011977476
 20
153.4732411442421
 30
0.0
 40
0.60000006
  0
ARC
  5
2C1
330
1F
100
AcDbEntity
  8
0
100
AcDbCircle
 10
610.622521977476
 20
159.2859211442421
 30
0.0
 40
120.0
100
AcDbArc
 50
174.4255299999991
 51
178.9999999999982
  0
ARC
  5
2C2
330
1F
100
AcDbEntity
  8
0
100
AcDbCircle
 10
610.622521977476
 20
159.2859211442421
 30
0.0
 40
120.0
100
AcDbArc
 50
165.0000000000055
 51
174.4255299999991
  0
ARC
  5
2C3
330
1F
100
AcDbEntity
  8
0
100
AcDbCircle
 10
484.051501977476
 20
159.2859211442421
 30
0.0
 40
120.0
100
AcDbArc
 50
5.574465999994376
 51
14.99999999999445
  0
ARC
  5
2C4
330
1F
100
AcDbEntity
  8
0
100
AcDbCircle
 10
486.2136619774763
 20
171.4283311442422
 30
0.0
 40
5.000000249999999
100
AcDbArc
 50
300.0000940000016
 51
354.4256369999999
  0
ARC
  5
2C5
330
1F
100
AcDbEntity
  8
0
100
AcDbCircle
 10
484.051501977476
 20
159.2859211442421
 30
0.0
 40
120.0
100
AcDbArc
 50
1.000000999992634
 51
5.574465999994376
  0
ARC
  5
2C6
330
1F
100
AcDbEntity
  8
0
100
AcDbCircle
 10
556.337011977476
 20
161.4732511442423
 30
0.0
 40
1.000000035
100
AcDbArc
 50
0.0
 51
90.0
  0
ARC
  5
2C7
330
1F
100
AcDbEntity
  8
0
100
AcDbCircle
 10
538.337011977476
 20
145.4732461442422
 30
0.0
 40
1.000000035
100
AcDbArc
 50
180.0
 51
270.0
  0
ARC
  5
2C8
330
1F
100
AcDbEntity
  8
0
100
AcDbCircle
 10
556.337011977476
 20
145.4732461442422
 30
0.0
 40
1.000000035
100
AcDbArc
 50
270.0
 51
0.0
  0
ARC
  5
2C9
330
1F
100
AcDbEntity
  8
0
100
AcDbCircle
 10
538.337011977476
 20
161.4732511442423
 30
0.0
 40
1.000000035
100
AcDbArc
 50
90.0
 51
180.0
  0
ARC
  5
2CA
330
1F
100
AcDbEntity
  8
0
100
AcDbCircle
 10
556.337011977476
 20
161.4732511442423
 30
0.0
 40
1.000000035
100
AcDbArc
 50
0.0
 51
90.0
  0
ARC
  5
2CB
330
1F
100
AcDbEntity
  8
0
100
AcDbCircle
 10
480.2369869774759
 20
144.3732361442423
 30
0.0
 40
0.4000000200000001
100
AcDbArc
 50
180.0
 51
270.0
  0
ARC
  5
2CC
330
1F
100
AcDbEntity
  8
0
100
AcDbCircle
 10
547.337011977476
 20
190.9732861442421
 30
0.0
 40
9.0
100
AcDbArc
 50
0.0
 51
180.0
  0
ARC
  5
2CD
330
1F
100
AcDbEntity
  8
0
100
AcDbCircle
 10
484.8369769774761
 20
159.0864961442423
 30
0.0
 40
5.000000249999999
100
AcDbArc
 50
120.0000899999946
 51
180.0
  0
CIRCLE
  5
2CE
330
1F
100
AcDbEntity
  8
0
100
AcDbCircle
 10
547.337011977476
 20
153.4732411442421
 30
0.0
 40
4.793668949999999
  0
CIRCLE
  5
2CF
330
1F
100
AcDbEntity
  8
0
100
AcDbCircle
 10
547.337011977476
 20
153.4732411442421
 30
0.0
 40
4.1940036
  0
ARC
  5
2D0
330
1F
100
AcDbEntity
  8
0
100
AcDbCircle
 10
523.337011977476
 20
213.4732111442422
 30
0.0
 40
1.000000035
100
AcDbArc
 50
90.0
 51
180.0
  0
ARC
  5
2D1
330
1F
100
AcDbEntity
  8
0
100
AcDbCircle
 10
523.337011977476
 20
213.4732111442422
 30
0.0
 40
1.000000035
100
AcDbArc
 50
90.0
 51
180.0
  0
ARC
  5
2D2
330
1F
100
AcDbEntity
  8
0
100
AcDbCircle
 10
505.9756369774762
 20
201.4732111442422
 30
0.0
 40
8.000000249999999
100
AcDbArc
 50
90.0
 51
164.9999899999844
  0
ARC
  5
2D3
330
1F
100
AcDbEntity
  8
0
100
AcDbCircle
 10
571.3370119774761
 20
213.4732111442422
 30
0.0
 40
1.000000035
100
AcDbArc
 50
0.0
 51
90.0
  0
CIRCLE
  5
2D4
330
1F
100
AcDbEntity
  8
0
100
AcDbCircle
 10
547.337011977476
 20
190.9732861442421
 30
0.0
 40
4.999969499999998
  0
LINE
  5
2D5
330
1F
100
AcDbEntity
  8
0
100
AcDbLine
 10
510.1892419774761
 20
165.7112011442422
 30
0.0
 11
513.4469419774761
 21
163.0822411442423
 31
0.0
  0
LINE
  5
2D6
330
1F
100
AcDbEntity
  8
0
100
AcDbLine
 10
511.856851977476
 20
168.4004311442422
 30
0.0
 11
527.8240519774761
 21
168.4004311442422
 31
0.0
  0
LINE
  5
2D7
330
1F
100
AcDbEntity
  8
0
100
AcDbLine
 10
506.8568569774759
 20
163.4004361442423
 30
0.0
 11
506.8568569774759
 21
135.9732961442421
 31
0.0
  0
LINE
  5
2D8
330
1F
100
AcDbEntity
  8
0
100
AcDbLine
 10
527.3923219774762
 20
166.1074411442423
 30
0.0
 11
518.531551977476
 21
162.3669061442422
 31
0.0
  0
LINE
  5
2D9
330
1F
100
AcDbEntity
  8
0
100
AcDbLine
 10
532.8240769774761
 20
163.4004361442423
 30
0.0
 11
532.8240769774761
 21
135.9732961442421
 31
0.0
  0
LINE
  5
2DA
330
1F
100
AcDbEntity
  8
0
100
AcDbLine
 10
582.8171719774761
 20
168.4004311442422
 30
0.0
 11
566.8499719774761
 21
168.4004311442422
 31
0.0
  0
LINE
  5
2DB
330
1F
100
AcDbEntity
  8
0
100
AcDbLine
 10
587.8171669774761
 20
163.4004361442423
 30
0.0
 11
587.8171669774761
 21
135.9732961442421
 31
0.0
  0
LINE
  5
2DC
330
1F
100
AcDbEntity
  8
0
100
AcDbLine
 10
561.849946977476
 20
163.4004361442423
 30
0.0
 11
561.849946977476
 21
135.9732961442421
 31
0.0
  0
LINE
  5
2DD
330
1F
100
AcDbEntity
  8
0
100
AcDbLine
 10
567.2817019774758
 20
166.1074411442423
 30
0.0
 11
576.1424719774761
 21
162.3669061442422
 31
0.0
  0
LINE
  5
2DE
330
1F
100
AcDbEntity
  8
0
100
AcDbLine
 10
584.4847819774761
 20
165.7112011442422
 30
0.0
 11
581.2270669774761
 21
163.0822261442422
 31
0.0
  0
LINE
  5
2DF
330
1F
100
AcDbEntity
  8
0
100
AcDbLine
 10
522.935371977476
 20
134.4732961442421
 30
0.0
 11
571.4406019774762
 21
134.4732961442421
 31
0.0
  0
LINE
  5
2E0
330
1F
100
AcDbEntity
  8
0
100
AcDbLine
 10
604.337086977476
 20
143.9732461442422
 30
0.0
 11
604.337086977476
 21
136.9733011442422
 31
0.0
  0
LINE
  5
2E1
330
1F
100
AcDbEntity
  8
0
100
AcDbLine
 10
490.3369369774762
 20
143.9732461442422
 30
0.0
 11
490.3369369774762
 21
136.9733011442422
 31
0.0
  0
LINE
  5
2E2
330
1F
100
AcDbEntity
  8
0
100
AcDbLine
 10
479.8369369774762
 20
135.9732961442421
 30
0.0
 11
479.8369369774762
 21
134.3733211442422
 31
0.0
  0
LINE
  5
2E3
330
1F
100
AcDbEntity
  8
0
100
AcDbLine
 10
483.031951977476
 20
131.0732761442423
 30
0.0
 11
488.6419369774761
 21
131.0732761442423
 31
0.0
  0
LINE
  5
2E4
330
1F
100
AcDbEntity
  8
0
100
AcDbLine
 10
479.8369369774762
 20
134.3733211442422
 30
0.0
 11
491.8369369774762
 21
134.3733211442422
 31
0.0
  0
LINE
  5
2E5
330
1F
100
AcDbEntity
  8
0
100
AcDbLine
 10
491.8369369774762
 20
135.9732961442421
 30
0.0
 11
491.8369369774762
 21
134.3733211442422
 31
0.0
  0
LINE
  5
2E6
330
1F
100
AcDbEntity
  8
0
100
AcDbLine
 10
510.586981977476
 20
135.9732961442421
 30
0.0
 11
510.586981977476
 21
134.3733211442422
 31
0.0
  0
LINE
  5
2E7
330
1F
100
AcDbEntity
  8
0
100
AcDbLine
 10
522.5869819774759
 20
135.9732961442421
 30
0.0
 11
522.5869819774759
 21
134.3733211442422
 31
0.0
  0
LINE
  5
2E8
330
1F
100
AcDbEntity
  8
0
100
AcDbLine
 10
510.586981977476
 20
134.3733211442422
 30
0.0
 11
522.5869819774759
 21
134.3733211442422
 31
0.0
  0
LINE
  5
2E9
330
1F
100
AcDbEntity
  8
0
100
AcDbLine
 10
513.7819969774762
 20
131.0732761442423
 30
0.0
 11
519.3919819774762
 21
131.0732761442423
 31
0.0
  0
LINE
  5
2EA
330
1F
100
AcDbEntity
  8
0
100
AcDbLine
 10
572.0870419774762
 20
135.9732961442421
 30
0.0
 11
572.0870419774762
 21
134.3733211442422
 31
0.0
  0
LINE
  5
2EB
330
1F
100
AcDbEntity
  8
0
100
AcDbLine
 10
584.0870419774762
 20
135.9732961442421
 30
0.0
 11
584.0870419774762
 21
134.3733211442422
 31
0.0
  0
LINE
  5
2EC
330
1F
100
AcDbEntity
  8
0
100
AcDbLine
 10
572.0870419774762
 20
134.3733211442422
 30
0.0
 11
584.0870419774762
 21
134.3733211442422
 31
0.0
  0
LINE
  5
2ED
330
1F
100
AcDbEntity
  8
0
100
AcDbLine
 10
575.2820419774762
 20
131.0732761442423
 30
0.0
 11
580.892026977476
 21
131.0732761442423
 31
0.0
  0
LINE
  5
2EE
330
1F
100
AcDbEntity
  8
0
100
AcDbLine
 10
606.032011977476
 20
131.0732761442423
 30
0.0
 11
611.6420119774761
 21
131.0732761442423
 31
0.0
  0
LINE
  5
2EF
330
1F
100
AcDbEntity
  8
0
100
AcDbLine
 10
602.8370119774761
 20
134.3733211442422
 30
0.0
 11
614.837011977476
 21
134.3733211442422
 31
0.0
  0
LINE
  5
2F0
330
1F
100
AcDbEntity
  8
0
100
AcDbLine
 10
614.837011977476
 20
135.9732961442421
 30
0.0
 11
614.837011977476
 21
134.3733211442422
 31
0.0
  0
LINE
  5
2F1
330
1F
100
AcDbEntity
  8
0
100
AcDbLine
 10
602.8370119774761
 20
135.9732961442421
 30
0.0
 11
602.8370119774761
 21
134.3733211442422
 31
0.0
  0
LINE
  5
2F2
330
1F
100
AcDbEntity
  8
0
100
AcDbLine
 10
593.922796977476
 20
134.4732961442421
 30
0.0
 11
584.401771977476
 21
134.4732961442421
 31
0.0
  0
LINE
  5
2F3
330
1F
100
AcDbEntity
  8
0
100
AcDbLine
 10
595.5441319774761
 20
135.6804211442422
 30
0.0
 11
594.6298969774759
 21
134.7661711442422
 31
0.0
  0
LINE
  5
2F4
330
1F
100
AcDbEntity
  8
0
100
AcDbLine
 10
479.8369369774762
 20
135.9732961442421
 30
0.0
 11
614.837011977476
 21
135.9732961442421
 31
0.0
  0
LINE
  5
2F5
330
1F
100
AcDbEntity
  8
0
100
AcDbLine
 10
614.8369369774761
 20
143.9732461442422
 30
0.0
 11
479.837086977476
 21
143.9732461442422
 31
0.0
  0
LINE
  5
2F6
330
1F
100
AcDbEntity
  8
0
100
AcDbLine
 10
499.1298919774761
 20
135.6804061442423
 30
0.0
 11
500.0440969774762
 21
134.7662011442423
 31
0.0
  0
LINE
  5
2F7
330
1F
100
AcDbEntity
  8
0
100
AcDbLine
 10
614.8369369774761
 20
143.9732461442422
 30
0.0
 11
614.8369369774761
 21
136.9733011442422
 31
0.0
  0
LINE
  5
2F8
330
1F
100
AcDbEntity
  8
0
100
AcDbLine
 10
585.8370019774761
 20
131.4732961442421
 30
0.0
 11
585.8370019774761
 21
123.3732361442423
 31
0.0
  0
LINE
  5
2F9
330
1F
100
AcDbEntity
  8
0
100
AcDbLine
 10
479.837086977476
 20
143.9732461442422
 30
0.0
 11
479.837086977476
 21
136.9733011442422
 31
0.0
  0
LINE
  5
2FA
330
1F
100
AcDbEntity
  8
0
100
AcDbLine
 10
585.4392169774762
 20
123.7732411442423
 30
0.0
 11
579.8369269774761
 21
123.7732411442423
 31
0.0
  0
LINE
  5
2FB
330
1F
100
AcDbEntity
  8
0
100
AcDbLine
 10
585.8370169774764
 20
123.7732411442423
 30
0.0
 11
508.8370169774759
 21
123.7732411442423
 31
0.0
  0
LINE
  5
2FC
330
1F
100
AcDbEntity
  8
0
100
AcDbLine
 10
577.8369169774761
 20
129.4733011442422
 30
0.0
 11
577.8369169774761
 21
125.7732211442423
 31
0.0
  0
LINE
  5
2FD
330
1F
100
AcDbEntity
  8
0
100
AcDbLine
 10
500.7512269774761
 20
134.4732961442421
 30
0.0
 11
510.321856977476
 21
134.4732961442421
 31
0.0
  0
LINE
  5
2FE
330
1F
100
AcDbEntity
  8
0
100
AcDbLine
 10
508.8370219774761
 20
131.4732961442421
 30
0.0
 11
508.8370219774762
 21
123.7732411442423
 31
0.0
  0
LINE
  5
2FF
330
1F
100
AcDbEntity
  8
0
100
AcDbLine
 10
516.8371069774759
 20
129.4733011442422
 30
0.0
 11
516.8371069774759
 21
125.7677161442422
 31
0.0
  0
LINE
  5
300
330
1F
100
AcDbEntity
  8
0
100
AcDbLine
 10
537.3370069774762
 20
161.4732511442423
 30
0.0
 11
537.3370069774762
 21
145.4732461442422
 31
0.0
  0
LINE
  5
301
330
1F
100
AcDbEntity
  8
0
100
AcDbLine
 10
488.7136669774761
 20
167.0982061442421
 30
0.0
 11
482.3369719774762
 21
163.4166211442423
 31
0.0
  0
LINE
  5
302
330
1F
100
AcDbEntity
  8
0
100
AcDbLine
 10
498.2482219774761
 20
203.5437661442422
 30
0.0
 11
494.7114019774761
 21
190.3441861442422
 31
0.0
  0
LINE
  5
303
330
1F
100
AcDbEntity
  8
0
100
AcDbLine
 10
547.337011977476
 20
143.9732461442422
 30
0.0
 11
614.4392569774761
 21
143.9732461442422
 31
0.0
  0
LINE
  5
304
330
1F
100
AcDbEntity
  8
0
100
AcDbLine
 10
479.836981977476
 20
159.0864961442423
 30
0.0
 11
479.836981977476
 21
144.3732361442423
 31
0.0
  0
LINE
  5
305
330
1F
100
AcDbEntity
  8
0
100
AcDbLine
 10
557.337016977476
 20
161.4732511442423
 30
0.0
 11
557.337016977476
 21
145.4732461442422
 31
0.0
  0
LINE
  5
306
330
1F
100
AcDbEntity
  8
0
100
AcDbLine
 10
490.6407769774762
 20
161.3802361442421
 30
0.0
 11
490.3369369774762
 21
143.9732461442422
 31
0.0
  0
LINE
  5
307
330
1F
100
AcDbEntity
  8
0
100
AcDbLine
 10
523.337011977476
 20
214.4732011442422
 30
0.0
 11
547.337011977476
 21
214.4732011442422
 31
0.0
  0
LINE
  5
308
330
1F
100
AcDbEntity
  8
0
100
AcDbLine
 10
522.3370069774762
 20
209.4732361442422
 30
0.0
 11
522.3370069774762
 21
213.4732111442422
 31
0.0
  0
LINE
  5
309
330
1F
100
AcDbEntity
  8
0
100
AcDbLine
 10
556.337011977476
 20
190.9732861442421
 30
0.0
 11
557.335936977476
 21
160.5388711442421
 31
0.0
  0
LINE
  5
30A
330
1F
100
AcDbEntity
  8
0
100
AcDbLine
 10
556.337011977476
 20
162.4732411442421
 30
0.0
 11
538.337011977476
 21
162.4732411442421
 31
0.0
  0
LINE
  5
30B
330
1F
100
AcDbEntity
  8
0
100
AcDbLine
 10
596.425786977476
 20
203.5437661442422
 30
0.0
 11
599.962591977476
 21
190.3441861442422
 31
0.0
  0
LINE
  5
30C
330
1F
100
AcDbEntity
  8
0
100
AcDbLine
 10
604.0332469774759
 20
161.3802361442421
 30
0.0
 11
604.337086977476
 21
143.9732461442422
 31
0.0
  0
LINE
  5
30D
330
1F
100
AcDbEntity
  8
0
100
AcDbLine
 10
605.960356977476
 20
167.0982061442421
 30
0.0
 11
612.3370519774759
 21
163.4166211442423
 31
0.0
  0
LINE
  5
30E
330
1F
100
AcDbEntity
  8
0
100
AcDbLine
 10
588.698386977476
 20
209.4732361442422
 30
0.0
 11
505.9756369774762
 21
209.4732361442422
 31
0.0
  0
LINE
  5
30F
330
1F
100
AcDbEntity
  8
0
100
AcDbLine
 10
556.337011977476
 20
144.4732411442421
 30
0.0
 11
538.337011977476
 21
144.4732411442421
 31
0.0
  0
LINE
  5
310
330
1F
100
AcDbEntity
  8
0
100
AcDbLine
 10
571.3370119774761
 20
214.4732011442422
 30
0.0
 11
547.337011977476
 21
214.4732011442422
 31
0.0
  0
LINE
  5
311
330
1F
100
AcDbEntity
  8
0
100
AcDbLine
 10
523.337011977476
 20
214.4732011442422
 30
0.0
 11
547.337011977476
 21
214.4732011442422
 31
0.0
  0
LINE
  5
312
330
1F
100
AcDbEntity
  8
0
100
AcDbLine
 10
538.337011977476
 20
190.9732861442421
 30
0.0
 11
537.3381019774763
 21
160.5388711442421
 31
0.0
  0
LINE
  5
313
330
1F
100
AcDbEntity
  8
0
100
AcDbLine
 10
572.3370169774759
 20
209.4732361442422
 30
0.0
 11
572.3370169774759
 21
213.4732111442422
 31
0.0
  0
LINE
  5
314
330
1F
100
AcDbEntity
  8
0
100
AcDbLine
 10
522.3370069774762
 20
209.4732361442422
 30
0.0
 11
522.3370069774762
 21
213.4732111442422
 31
0.0
  0
LINE
  5
315
330
1F
100
AcDbEntity
  8
0
100
AcDbLine
 10
547.337011977476
 20
143.9732461442422
 30
0.0
 11
480.2347669774761
 21
143.9732461442422
 31
0.0
  0
LINE
  5
316
330
1F
100
AcDbEntity
  8
0
100
AcDbLine
 10
614.8370419774762
 20
159.0864961442423
 30
0.0
 11
614.8370419774762
 21
144.3732361442423
 31
0.0
  0
LINE
  5
317
330
1F
100
AcDbEntity
  8
0
100
AcDbLine
 10
539.837011977476
 20
237.9732361442422
 30
0.0
 11
554.8370119774761
 21
237.9732361442422
 31
0.0
  0
LINE
  5
318
330
1F
100
AcDbEntity
  8
0
100
AcDbLine
 10
539.837011977476
 20
217.3392661442421
 30
0.0
 11
554.8370119774761
 21
217.3392661442421
 31
0.0
  0
LINE
  5
319
330
1F
100
AcDbEntity
  8
0
100
AcDbLine
 10
553.3370119774761
 20
239.4732361442422
 30
0.0
 11
554.8370119774761
 21
237.9731911442422
 31
0.0
  0
LINE
  5
31A
330
1F
100
AcDbEntity
  8
0
100
AcDbLine
 10
541.3369819774759
 20
239.4731911442422
 30
0.0
 11
539.837011977476
 21
237.9732361442422
 31
0.0
  0
LINE
  5
31B
330
1F
100
AcDbEntity
  8
0
100
AcDbLine
 10
554.8370119774761
 20
237.9732361442422
 30
0.0
 11
554.8370119774761
 21
217.3392661442421
 31
0.0
  0
LINE
  5
31C
330
1F
100
AcDbEntity
  8
0
100
AcDbLine
 10
539.837011977476
 20
237.9732361442422
 30
0.0
 11
539.837011977476
 21
217.3392661442421
 31
0.0
  0
LINE
  5
31D
330
1F
100
AcDbEntity
  8
0
100
AcDbLine
 10
554.8370119774761
 20
217.3392661442421
 30
0.0
 11
555.3370069774762
 21
215.4732361442422
 31
0.0
  0
LINE
  5
31E
330
1F
100
AcDbEntity
  8
0
100
AcDbLine
 10
539.3370169774759
 20
215.4732361442422
 30
0.0
 11
539.837011977476
 21
217.3392661442421
 31
0.0
  0
LINE
  5
31F
330
1F
100
AcDbEntity
  8
0
100
AcDbLine
 10
539.3370169774759
 20
215.4732361442422
 30
0.0
 11
539.3370169774759
 21
214.4732011442422
 31
0.0
  0
LINE
  5
320
330
1F
100
AcDbEntity
  8
0
100
AcDbLine
 10
555.3370069774762
 20
215.4732361442422
 30
0.0
 11
555.3370069774762
 21
214.4732011442422
 31
0.0
  0
LINE
  5
321
330
1F
100
AcDbEntity
  8
0
100
AcDbLine
 10
539.3370169774759
 20
215.4732361442422
 30
0.0
 11
555.3370069774762
 21
215.4732361442422
 31
0.0
  0
LINE
  5
322
330
1F
100
AcDbEntity
  8
0
100
AcDbLine
 10
539.3370169774759
 20
214.4732011442422
 30
0.0
 11
555.3370069774762
 21
214.4732011442422
 31
0.0
  0
LINE
  5
323
330
1F
100
AcDbEntity
  8
0
100
AcDbLine
 10
541.3370119774761
 20
239.4732361442422
 30
0.0
 11
553.3370119774761
 21
239.4732361442422
 31
0.0
  0
CIRCLE
  5
324
330
1F
100
AcDbEntity
  8
0
  6
Continuous
100
AcDbCircle
 10
249.9677579092181
 20
500.6375352377506
 30
0.0
 40
24.99998360606986
  0
CIRCLE
  5
325
330
1F
100
AcDbEntity
  8
0
  6
Continuous
100
AcDbCircle
 10
249.9677579092181
 20
500.6375352377506
 30
0.0
 40
7.999986883765643
  0
CIRCLE
  5
326
330
1F
100
AcDbEntity
  8
0
  6
Continuous
100
AcDbCircle
 10
249.9677579092181
 20
500.6375352377506
 30
0.0
 40
7.500000254169265
  0
CIRCLE
  5
327
330
1F
100
AcDbEntity
  8
0
100
AcDbCircle
 10
547.3370322362661
 20
118.7732499723674
 30
0.0
 40
3.500015258788379
  0
LINE
  5
328
330
1F
100
AcDbEntity
  8
0
100
AcDbLine
 10
296.4677728585401
 20
115.2732347135781
 30
0.0
 11
288.467757599752
 21
115.2732354209282
 31
0.0
  0
LINE
  5
329
330
1F
100
AcDbEntity
  8
0
100
AcDbLine
 10
296.4677734774721
 20
122.2732652311562
 30
0.0
 11
288.4677582186836
 21
122.2732659385048
 31
0.0
  0
LINE
  5
32A
330
1F
100
AcDbEntity
  8
0
100
AcDbLine
 10
296.4677728585401
 20
115.2732347135781
 30
0.0
 11
296.4677734774721
 21
122.2732652311562
 31
0.0
  0
LINE
  5
32B
330
1F
100
AcDbEntity
  8
0
  6
HIDDEN
 48
10.0
100
AcDbLine
 10
262.6677701162498
 20
556.7197352595558
 30
0.0
 11
262.6677701162498
 21
539.1375671979948
 31
0.0
  0
LINE
  5
32C
330
1F
100
AcDbEntity
  8
0
100
AcDbLine
 10
262.6677701162497
 20
556.7197352595559
 30
0.0
 11
275.217757909219
 21
561.2875574201678
 31
0.0
  0
LINE
  5
32D
330
1F
100
AcDbEntity
  8
0
100
AcDbLine
 10
275.217757909219
 20
564.1375657553287
 30
0.0
 11
275.217757909219
 21
561.2875574201678
 31
0.0
  0
LINE
  5
32E
330
1F
100
AcDbEntity
  8
0
  6
HIDDEN
 48
10.0
100
AcDbLine
 10
237.2677762197659
 20
556.7197408696514
 30
0.0
 11
237.2677762197659
 21
539.1375657553289
 31
0.0
  0
LINE
  5
32F
330
1F
100
AcDbEntity
  8
0
100
AcDbLine
 10
224.7177579092189
 20
564.1375657553287
 30
0.0
 11
224.7177579092189
 21
561.2875741377528
 31
0.0
  0
LINE
  5
330
330
1F
100
AcDbEntity
  8
0
100
AcDbLine
 10
224.7177579092189
 20
561.2875741377528
 30
0.0
 11
237.2677762197659
 21
556.7197408696514
 31
0.0
  0
LINE
  5
331
330
1F
100
AcDbEntity
  8
0
  6
HIDDEN
 48
10.0
100
AcDbLine
 10
237.2677762197659
 20
556.7197408696514
 30
0.0
 11
262.6677701162498
 21
556.7197352595558
 31
0.0
  0
LINE
  5
332
330
1F
100
AcDbEntity
  8
0
  6
HIDDEN
 48
10.0
100
AcDbLine
 10
272.2836758779681
 20
539.1375657553289
 30
0.0
 11
227.6518399404681
 21
539.1375657553289
 31
0.0
  0
LINE
  5
333
330
1F
100
AcDbEntity
  8
0
100
AcDbLine
 10
243.4825010663595
 20
564.1375657553289
 30
0.0
 11
224.7177579092189
 21
564.1375657553287
 31
0.0
  0
LINE
  5
334
330
1F
100
AcDbEntity
  8
0
  6
HIDDEN
 48
10.0
100
AcDbLine
 10
256.4529911536989
 20
564.1375657553287
 30
0.0
 11
243.4825010663595
 21
564.1375657553289
 31
0.0
  0
LINE
  5
335
330
1F
100
AcDbEntity
  8
0
100
AcDbLine
 10
275.217757909219
 20
564.1375657553287
 30
0.0
 11
256.4529911536989
 21
564.1375657553287
 31
0.0
  0
LINE
  5
336
330
1F
100
AcDbEntity
  8
0
  6
HIDDEN
 48
10.0
100
AcDbLine
 10
288.467757909218
 20
522.9534837240788
 30
0.0
 11
288.467757909218
 21
478.3216172690006
 31
0.0
  0
ARC
  5
337
330
1F
100
AcDbEntity
  8
0
  6
HIDDEN
 48
10.0
100
AcDbCircle
 10
249.9677579092181
 20
500.6375352377506
 30
0.0
 40
44.5
100
AcDbArc
 50
300.0980593562544
 51
329.9019415543605
  0
ARC
  5
338
330
1F
100
AcDbEntity
  8
0
  6
HIDDEN
 48
10.0
100
AcDbCircle
 10
249.9677579092181
 20
500.6375352377506
 30
0.0
 40
44.5
100
AcDbArc
 50
210.098056851771
 51
239.9019424649615
  0
LINE
  5
339
330
1F
100
AcDbEntity
  8
0
  6
HIDDEN
 48
10.0
100
AcDbLine
 10
211.4677579092181
 20
522.9534837240788
 30
0.0
 11
211.4677579092181
 21
478.3216172690006
 31
0.0
  0
LINE
  5
33A
330
1F
100
AcDbEntity
  8
0
  6
HIDDEN
 48
10.0
100
AcDbLine
 10
272.2836758779681
 20
462.1375352377505
 30
0.0
 11
227.6518399404681
 21
462.1375352377505
 31
0.0
  0
LINE
  5
33B
330
1F
100
AcDbEntity
  8
0
100
AcDbLine
 10
275.217757909219
 20
437.137504720173
 30
0.0
 11
275.217757909219
 21
439.9875260241334
 31
0.0
  0
LINE
  5
33C
330
1F
100
AcDbEntity
  8
0
100
AcDbLine
 10
262.6677701162498
 20
444.5553481847448
 30
0.0
 11
275.217757909219
 21
439.9875260241334
 31
0.0
  0
LINE
  5
33D
330
1F
100
AcDbEntity
  8
0
100
AcDbLine
 10
224.7177579092189
 20
437.137504720173
 30
0.0
 11
224.7177579092189
 21
439.9874808899348
 31
0.0
  0
LINE
  5
33E
330
1F
100
AcDbEntity
  8
0
100
AcDbLine
 10
224.7177579092189
 20
439.9874808899348
 30
0.0
 11
237.2677762197659
 21
444.5553141580368
 31
0.0
  0
LINE
  5
33F
330
1F
100
AcDbEntity
  8
0
  6
HIDDEN
 48
10.0
100
AcDbLine
 10
237.2677762197659
 20
444.5553141580369
 30
0.0
 11
262.6677701162498
 21
444.5553481847447
 31
0.0
  0
LINE
  5
340
330
1F
100
AcDbEntity
  8
0
100
AcDbLine
 10
243.4825246647367
 20
437.137504720173
 30
0.0
 11
224.7177579092189
 21
437.137504720173
 31
0.0
  0
LINE
  5
341
330
1F
100
AcDbEntity
  8
0
  6
HIDDEN
 48
10.0
100
AcDbLine
 10
256.453014752077
 20
437.137504720173
 30
0.0
 11
243.4825246647367
 21
437.137504720173
 31
0.0
  0
LINE
  5
342
330
1F
100
AcDbEntity
  8
0
100
AcDbLine
 10
275.217757909219
 20
437.137504720173
 30
0.0
 11
256.453014752077
 21
437.137504720173
 31
0.0
  0
LINE
  5
343
330
1F
100
AcDbEntity
  8
0
  6
HIDDEN
 48
10.0
100
AcDbLine
 10
237.2677762197659
 20
444.5553141580369
 30
0.0
 11
237.2677762197659
 21
462.1375352377505
 31
0.0
  0
LINE
  5
344
330
1F
100
AcDbEntity
  8
0
  6
HIDDEN
 48
10.0
100
AcDbLine
 10
262.6677701162498
 20
444.5553481847447
 30
0.0
 11
262.6677701162498
 21
462.1375352377505
 31
0.0
  0
ARC
  5
345
330
1F
100
AcDbEntity
  8
0
  6
HIDDEN
 48
10.0
100
AcDbCircle
 10
249.9677579092181
 20
500.6375352377506
 30
0.0
 40
44.5
100
AcDbArc
 50
120.0980575350384
 51
149.901943148228
  0
ARC
  5
346
330
1F
100
AcDbEntity
  8
0
  6
HIDDEN
 48
10.0
100
AcDbCircle
 10
249.9677579092181
 20
500.6375352377506
 30
0.0
 40
44.5
100
AcDbArc
 50
30.0980584456395
 51
59.90194064374556
  0
LINE
  5
347
330
1F
100
AcDbEntity
  8
0
100
AcDbLine
 10
603.4191967465671
 20
78.7732194547891
 30
0.0
 11
585.8370169774762
 21
78.7732194547891
 31
0.0
  0
LINE
  5
348
330
1F
100
AcDbEntity
  8
0
100
AcDbLine
 10
603.4191941479007
 20
104.1732133512738
 30
0.0
 11
585.8370169774762
 21
104.1732133512738
 31
0.0
  0
LINE
  5
349
330
1F
100
AcDbEntity
  8
0
100
AcDbLine
 10
585.8370169774764
 20
123.7732411442423
 30
0.0
 11
585.8370169774762
 21
76.97320114424224
 31
0.0
  0
LINE
  5
34A
330
1F
100
AcDbEntity
  8
0
100
AcDbLine
 10
610.8370169774762
 20
116.7232011442422
 30
0.0
 11
607.9870163085116
 21
116.7232011442431
 31
0.0
  0
LINE
  5
34B
330
1F
100
AcDbEntity
  8
0
100
AcDbLine
 10
603.4191941479007
 20
104.1732133512738
 30
0.0
 11
607.9870163085116
 21
116.7232011442431
 31
0.0
  0
LINE
  5
34C
330
1F
100
AcDbEntity
  8
0
100
AcDbLine
 10
603.4191941479007
 20
104.1732133512738
 30
0.0
 11
603.4191967465671
 21
78.7732194547891
 31
0.0
  0
LINE
  5
34D
330
1F
100
AcDbEntity
  8
0
100
AcDbLine
 10
610.8370169774762
 20
66.22320114424224
 30
0.0
 11
607.9870300146675
 21
66.22320114424224
 31
0.0
  0
LINE
  5
34E
330
1F
100
AcDbEntity
  8
0
100
AcDbLine
 10
607.9870300146675
 20
66.22320114424224
 30
0.0
 11
603.4191967465671
 21
78.7732194547891
 31
0.0
  0
LINE
  5
34F
330
1F
100
AcDbEntity
  8
0
100
AcDbLine
 10
610.8370169774762
 20
116.7232011442422
 30
0.0
 11
610.8370169774762
 21
66.22320114424224
 31
0.0
  0
LINE
  5
350
330
1F
100
AcDbEntity
  8
0
100
AcDbLine
 10
553.9350738132156
 20
87.97321987007808
 30
0.0
 11
557.9765319975022
 21
80.97320908386789
 31
0.0
  0
ARC
  5
351
330
1F
100
AcDbEntity
  8
0
100
AcDbCircle
 10
546.8010977880238
 20
84.47320114424224
 30
0.0
 40
7.0
100
AcDbArc
 50
90.00000865141489
 51
149.9999966606829
  0
LINE
  5
352
330
1F
100
AcDbEntity
  8
0
100
AcDbLine
 10
540.7389626412614
 20
87.9732406391472
 30
0.0
 11
536.6975044569747
 21
80.97322985293748
 31
0.0
  0
LINE
  5
353
330
1F
100
AcDbEntity
  8
0
100
AcDbLine
 10
546.8010977880238
 20
91.47320114424315
 30
0.0
 11
547.3370169774762
 21
91.47320114424315
 31
0.0
  0
ARC
  5
354
330
1F
100
AcDbEntity
  8
0
100
AcDbCircle
 10
547.8729361669292
 20
84.47320114424224
 30
0.0
 40
7.0
100
AcDbArc
 50
30.00000333931701
 51
89.9999913485851
  0
ARC
  5
355
330
1F
100
AcDbEntity
  8
0
100
AcDbCircle
 10
564.9047354833355
 20
84.97320114424224
 30
0.0
 40
8.0
100
AcDbArc
 50
210.0000051605297
 51
270.0000043257204
  0
LINE
  5
356
330
1F
100
AcDbEntity
  8
0
100
AcDbLine
 10
569.6529349462271
 20
123.7732411442423
 30
0.0
 11
569.6529349462271
 21
100.9732316618202
 31
0.0
  0
LINE
  5
357
330
1F
100
AcDbEntity
  8
0
100
AcDbLine
 10
508.8269766942739
 20
76.97320114424224
 30
0.0
 11
529.7692984716176
 21
76.97320114424224
 31
0.0
  0
LINE
  5
358
330
1F
100
AcDbEntity
  8
0
100
AcDbLine
 10
491.2547944150197
 20
78.77318893721213
 30
0.0
 11
508.8269766942739
 21
78.77318893721213
 31
0.0
  0
LINE
  5
359
330
1F
100
AcDbEntity
  8
0
100
AcDbLine
 10
491.2548081211757
 20
104.1732133512738
 30
0.0
 11
508.837016977476
 21
104.1732133512738
 31
0.0
  0
LINE
  5
35A
330
1F
100
AcDbEntity
  8
0
100
AcDbLine
 10
491.2548081211757
 20
104.1732133512738
 30
0.0
 11
491.2548081211761
 21
78.77318893721213
 31
0.0
  0
LINE
  5
35B
330
1F
100
AcDbEntity
  8
0
100
AcDbLine
 10
508.8370169774759
 20
123.7732411442423
 30
0.0
 11
508.837016977476
 21
76.97320114424224
 31
0.0
  0
LINE
  5
35C
330
1F
100
AcDbEntity
  8
0
100
AcDbLine
 10
525.0210990087269
 20
123.7732411442423
 30
0.0
 11
525.0210990087269
 21
100.9732316618202
 31
0.0
  0
ARC
  5
35D
330
1F
100
AcDbEntity
  8
0
100
AcDbCircle
 10
529.7692984716176
 20
84.97320114424224
 30
0.0
 40
8.0
100
AcDbArc
 50
269.9999974955313
 51
330.0000016696514
  0
LINE
  5
35E
330
1F
100
AcDbEntity
  8
0
100
AcDbLine
 10
483.837016977476
 20
116.7232011442422
 30
0.0
 11
486.6869859605649
 21
116.7232011442422
 31
0.0
  0
LINE
  5
35F
330
1F
100
AcDbEntity
  8
0
100
AcDbLine
 10
491.2548081211757
 20
104.1732133512738
 30
0.0
 11
486.6869859605649
 21
116.7232011442422
 31
0.0
  0
LINE
  5
360
330
1F
100
AcDbEntity
  8
0
100
AcDbLine
 10
483.837016977476
 20
66.22320114424224
 30
0.0
 11
486.6869722544088
 21
66.22320114424224
 31
0.0
  0
LINE
  5
361
330
1F
100
AcDbEntity
  8
0
100
AcDbLine
 10
486.6869722544088
 20
66.22320114424224
 30
0.0
 11
491.2547944150197
 21
78.77318893721213
 31
0.0
  0
LINE
  5
362
330
1F
100
AcDbEntity
  8
0
100
AcDbLine
 10
483.837016977476
 20
116.7232011442422
 30
0.0
 11
483.837016977476
 21
66.22320114424224
 31
0.0
  0
LINE
  5
363
330
1F
100
AcDbEntity
  8
0
100
AcDbLine
 10
288.467757909218
 20
114.7732499723673
 30
0.0
 11
259.6976204265974
 21
114.7732499723673
 31
0.0
  0
LINE
  5
364
330
1F
100
AcDbEntity
  8
0
100
AcDbLine
 10
288.467757909218
 20
76.97320114424224
 30
0.0
 11
270.6392963135057
 21
76.97320114424224
 31
0.0
  0
LINE
  5
365
330
1F
100
AcDbEntity
  8
0
100
AcDbLine
 10
288.467757909218
 20
100.9732316618202
 30
0.0
 11
273.3624564575029
 21
100.9732316618202
 31
0.0
  0
LINE
  5
366
330
1F
100
AcDbEntity
  8
0
100
AcDbLine
 10
272.2836758779681
 20
123.7731705034816
 30
0.0
 11
272.2836758779681
 21
103.2868502507662
 31
0.0
  0
LINE
  5
367
330
1F
100
AcDbEntity
  8
0
100
AcDbLine
 10
288.467757909218
 20
123.7731872425303
 30
0.0
 11
288.467757909218
 21
76.97320114424224
 31
0.0
  0
LINE
  5
368
330
1F
100
AcDbEntity
  8
0
100
AcDbLine
 10
240.2378953918387
 20
114.7732499723673
 30
0.0
 11
211.4677579092181
 21
114.7732499723673
 31
0.0
  0
LINE
  5
369
330
1F
100
AcDbEntity
  8
0
100
AcDbLine
 10
211.4577176260148
 20
76.97320114424224
 30
0.0
 11
229.2962195049302
 21
76.97320114424224
 31
0.0
  0
LINE
  5
36A
330
1F
100
AcDbEntity
  8
0
100
AcDbLine
 10
226.5730593609322
 20
100.9732316618202
 30
0.0
 11
211.4677579092181
 21
100.9732316618202
 31
0.0
  0
LINE
  5
36B
330
1F
100
AcDbEntity
  8
0
100
AcDbLine
 10
211.4677579092181
 20
123.7732205226862
 30
0.0
 11
211.4677579092181
 21
76.97320114424224
 31
0.0
  0
LINE
  5
36C
330
1F
100
AcDbEntity
  8
0
100
AcDbLine
 10
227.6518399404681
 20
123.7732072117812
 30
0.0
 11
227.6518399404681
 21
103.2868502507662
 31
0.0
  0
CIRCLE
  5
36D
330
1F
100
AcDbEntity
  8
0
100
AcDbCircle
 10
249.9677579092181
 20
91.47320114424521
 30
0.0
 40
11.5
  0
CIRCLE
  5
36E
330
1F
100
AcDbEntity
  8
0
100
AcDbCircle
 10
249.9677579092181
 20
91.47320114424521
 30
0.0
 40
25.25
  0
LINE
  5
36F
330
1F
100
AcDbEntity
  8
0
100
AcDbLine
 10
585.8370169774762
 20
100.9732316618202
 30
0.0
 11
508.837016977476
 21
100.9732316618202
 31
0.0
  0
LINE
  5
370
330
1F
100
AcDbEntity
  8
0
100
AcDbLine
 10
585.8370169774762
 20
114.7732499723673
 30
0.0
 11
508.837016977476
 21
114.7732499723673
 31
0.0
  0
LINE
  5
371
330
1F
100
AcDbEntity
  8
0
100
AcDbLine
 10
585.8370169774762
 20
76.97320114424224
 30
0.0
 11
564.9047354833355
 21
76.97320114424224
 31
0.0
  0
TEXT
  5
372
330
1F
100
AcDbEntity
  8
0
100
AcDbText
 10
32.85499999999911
 20
674.7700150776108
 30
0.0
 40
48.000002
  1
DHC2S10AD000 1S
 41
1.32095
100
AcDbText
  0
LINE
  5
3CC
330
1F
100
AcDbEntity
  8
0
  6
CENTER
100
AcDbLine
 10
249.9677579092181
 20
417.9337050309718
 30
0.0
 11
249.9677579092181
 21
583.3413654445292
 31
0.0
  0
LINE
  5
3CD
330
1F
100
AcDbEntity
  8
0
  6
CENTER
100
AcDbLine
 10
333.1193007907172
 20
500.6375352377506
 30
0.0
 11
170.8342750371594
 21
500.6375352377504
 31
0.0
  0
LINE
  5
3CE
330
1F
100
AcDbEntity
  8
0
  6
CENTER
100
AcDbLine
 10
249.9677579092181
 20
52.91206028166289
 30
0.0
 11
249.9677579092181
 21
252.72735554798
 31
0.0
  0
LINE
  5
3CF
330
1F
100
AcDbEntity
  8
0
  6
CENTER
100
AcDbLine
 10
299.7651297569673
 20
91.47320114424525
 30
0.0
 11
200.1703860614688
 21
91.47320114424502
 31
0.0
  0
LINE
  5
3D0
330
1F
100
AcDbEntity
  8
0
  6
CENTER
100
AcDbLine
 10
547.337011977476
 20
79.73068018910703
 30
0.0
 11
547.337011977476
 21
252.7273595543475
 31
0.0
  0
LINE
  5
3D1
330
1F
100
AcDbEntity
  8
0
  6
CENTER
100
AcDbLine
 10
624.2539070468236
 20
91.47320114424328
 30
0.0
 11
470.4201269081288
 21
91.47320114424305
 31
0.0
  0
LINE
  5
593
330
1F
100
AcDbEntity
  8
0
  6
Continuous
100
AcDbLine
 10
1186.210963736518
 20
427.321404968802
 30
0.0
 11
1186.210963736518
 21
573.9536655066647
 31
0.0
  0
LINE
  5
594
330
1F
100
AcDbEntity
  8
0
  6
Continuous
100
AcDbLine
 10
1167.486928914663
 20
500.6375352377278
 30
0.0
 11
1328.596288596527
 21
500.6375352377752
 31
0.0
  0
LINE
  5
595
330
1F
100
AcDbEntity
  8
0
  6
Continuous
100
AcDbLine
 10
999.2665520167438
 20
53.24410938508335
 30
0.0
 11
999.2665520167438
 21
203.2537480826434
 31
0.0
  0
LINE
  5
596
330
1F
100
AcDbEntity
  8
0
  6
Continuous
100
AcDbLine
 10
1071.399695592486
 20
91.47320114424328
 30
0.0
 11
927.1334084410009
 21
91.47320114424328
 31
0.0
  0
LINE
  5
597
330
1F
100
AcDbEntity
  8
0
  6
Continuous
100
AcDbLine
 10
1485.083867617639
 20
50.06462667413768
 30
0.0
 11
1485.083867617639
 21
201.3696374501895
 31
0.0
  0
LINE
  5
598
330
1F
100
AcDbEntity
  8
0
  6
Continuous
100
AcDbLine
 10
1557.217011193382
 20
88.29371843329761
 30
0.0
 11
1412.950724041896
 21
88.29371843329761
 31
0.0
  0
LINE
  5
599
330
1F
100
AcDbEntity
  8
0
  6
Continuous
100
AcDbLine
 10
1145.565409252998
 20
91.47320114424372
 30
0.0
 11
1226.856518218261
 21
91.47320114424372
 31
0.0
  0
LINE
  5
59A
330
1F
100
AcDbEntity
  8
0
  6
Continuous
100
AcDbLine
 10
1186.210963735629
 20
50.82764666161246
 30
0.0
 11
1186.210963735629
 21
132.1187556268749
 31
0.0
  0
LINE
  5
59B
330
1F
100
AcDbEntity
  8
0
  6
Continuous
100
AcDbLine
 10
1159.755356734094
 20
74.29272907485928
 30
0.0
 11
1320.261781910446
 21
178.5268203413669
 31
0.0
  0
SPLINE
  5
59C
330
1F
100
AcDbEntity
  8
0
  6
Continuous
100
AcDbSpline
210
0.0
220
0.0
230
1.0
 70
     8
 71
     3
 72
    22
 73
    18
 74
     0
 42
0.0000000001
 43
0.0000000001
 40
0.424731924330369
 40
0.424731924330369
 40
0.424731924330369
 40
0.424731924330369
 40
0.7375816029831208
 40
0.7375816029831208
 40
1.059277730359611
 40
1.059277730359611
 40
1.38666082040426
 40
1.38666082040426
 40
1.716271197179207
 40
1.716271197179207
 40
2.045985845474744
 40
2.045985845474744
 40
2.373762684677235
 40
2.373762684677235
 40
2.696172677366865
 40
2.696172677366865
 40
2.716860729259369
 40
2.716860729259369
 40
2.716860729259369
 40
2.716860729259369
 10
1043.630920619948
 20
170.1448251402001
 30
0.0
 10
1041.457180316177
 20
174.1758055196509
 30
0.0
 10
1038.550714584292
 20
177.8731419294102
 30
0.0
 10
1031.515365387021
 20
184.3665612722892
 30
0.0
 10
1027.35565560115
 20
187.1352528363948
 30
0.0
 10
1018.202520305036
 20
191.4444684238181
 30
0.0
 10
1013.196209423239
 20
192.9627065325242
 30
0.0
 10
1002.861472134393
 20
194.5769757664783
 30
0.0
 10
997.5319559118279
 20
194.6631715461161
 30
0.0
 10
987.099848875072
 20
193.3813419828819
 30
0.0
 10
981.9982482745608
 20
192.0128835646422
 30
0.0
 10
972.5592680330564
 20
187.9399080388355
 30
0.0
 10
968.2181878617129
 20
185.2429739208627
 30
0.0
 10
960.7884225006337
 20
178.7889706455351
 30
0.0
 10
957.6817933875373
 20
175.0487634040053
 30
0.0
 10
955.1928602235603
 20
170.6765116876962
 30
0.0
 10
955.0459280144632
 20
170.4113848874484
 30
0.0
 10
954.9021834135455
 20
170.1448251402015
 30
0.0
  0
LINE
  5
59D
330
1F
100
AcDbEntity
  8
0
  6
Continuous
100
AcDbLine
 10
960.7665520167246
 20
126.6914638420397
 30
0.0
 11
960.7665520167229
 21
123.4236296319494
 31
0.0
  0
LINE
  5
59E
330
1F
100
AcDbEntity
  8
0
  6
Continuous
100
AcDbLine
 10
976.9506384123005
 20
140.2645807710972
 30
0.0
 11
976.9506384122987
 21
136.9967465610069
 31
0.0
  0
LINE
  5
59F
330
1F
100
AcDbEntity
  8
0
  6
Continuous
100
AcDbLine
 10
1037.766552016724
 20
126.6914638420397
 30
0.0
 11
1037.766552016722
 21
123.4236296319494
 31
0.0
  0
LINE
  5
5A0
330
1F
100
AcDbEntity
  8
0
  6
Continuous
100
AcDbLine
 10
1021.582465621143
 20
140.2645807710972
 30
0.0
 11
1021.582465621141
 21
136.9967465610069
 31
0.0
  0
LINE
  5
5A1
330
1F
100
AcDbEntity
  8
0
  6
Continuous
100
AcDbLine
 10
1037.766552016722
 20
122.8789905969341
 30
0.0
 11
1037.766552016722
 21
123.4236296319494
 31
0.0
  0
SPLINE
  5
5A2
330
1F
100
AcDbEntity
  8
0
  6
Continuous
100
AcDbSpline
210
0.0
220
0.0
230
1.0
 70
     8
 71
     3
 72
     8
 73
     4
 74
     0
 42
0.0000000001
 43
0.0000000001
 40
-0.0356516417341964
 40
-0.0356516417341964
 40
-0.0356516417341964
 40
-0.0356516417341964
 40
0.0
 40
0.0
 40
0.0
 40
0.0
 10
1037.51889922954
 20
123.2328213793324
 30
0.0
 10
1037.601447590891
 20
123.2964500882439
 30
0.0
 10
1037.683998970843
 20
123.3600531046135
 30
0.0
 10
1037.766552016722
 20
123.4236296319494
 30
0.0
  0
SPLINE
  5
5A3
330
1F
100
AcDbEntity
  8
0
  6
Continuous
100
AcDbSpline
210
0.0
220
0.0
230
1.0
 70
     8
 71
     3
 72
     8
 73
     4
 74
     0
 42
0.0000000001
 43
0.0000000001
 40
-0.0566806053214404
 40
-0.0566806053214404
 40
-0.0566806053214404
 40
-0.0566806053214404
 40
0.0
 40
0.0
 40
0.0
 40
0.0
 10
1021.476354793189
 20
136.4521075259921
 30
0.0
 10
1021.51180744617
 20
136.6336430332684
 30
0.0
 10
1021.547177817619
 20
136.81519188471
 30
0.0
 10
1021.582465621141
 20
136.9967465610069
 30
0.0
  0
SPLINE
  5
5A4
330
1F
100
AcDbEntity
  8
0
  6
Continuous
100
AcDbSpline
210
0.0
220
0.0
230
1.0
 70
     8
 71
     3
 72
     8
 73
     4
 74
     0
 42
0.0000000001
 43
0.0000000001
 40
-0.0566806053210735
 40
-0.0566806053210735
 40
-0.0566806053210735
 40
-0.0566806053210735
 40
0.0
 40
0.0
 40
0.0
 40
0.0
 10
977.0567492402506
 20
136.4521075259921
 30
0.0
 10
977.0212965872698
 20
136.6336430332693
 30
0.0
 10
976.9859262158197
 20
136.8151918847114
 30
0.0
 10
976.9506384122987
 20
136.9967465610069
 30
0.0
  0
SPLINE
  5
5A5
330
1F
100
AcDbEntity
  8
0
  6
Continuous
100
AcDbSpline
210
0.0
220
0.0
230
1.0
 70
     8
 71
     3
 72
     8
 73
     4
 74
     0
 42
0.0000000001
 43
0.0000000001
 40
-0.0356516417340712
 40
-0.0356516417340712
 40
-0.0356516417340712
 40
-0.0356516417340712
 40
0.0
 40
0.0
 40
0.0
 40
0.0
 10
961.0142048039042
 20
123.2328213793329
 30
0.0
 10
960.9316564425544
 20
123.2964500882443
 30
0.0
 10
960.8491050626016
 20
123.3600531046135
 30
0.0
 10
960.7665520167229
 20
123.4236296319494
 30
0.0
  0
LINE
  5
5A6
330
1F
100
AcDbEntity
  8
0
  6
Continuous
100
AcDbLine
 10
960.7665520167229
 20
123.4236296319494
 30
0.0
 11
960.7665520167229
 21
122.8789905969341
 31
0.0
  0
ELLIPSE
  5
5A7
330
1F
100
AcDbEntity
  8
0
  6
Continuous
100
AcDbEllipse
 10
999.2665520167266
 20
104.7079296951082
 30
0.0
 11
-44.49999999999972
 21
0.0000000000214884
 31
0.0
210
0.0
220
0.0
230
1.0
 40
0.838670567945423
 41
5.237698949854358
 42
5.757875337711073
  0
LINE
  5
5A8
330
1F
100
AcDbEntity
  8
0
  6
Continuous
100
AcDbLine
 10
1021.582465621141
 20
136.9967465610069
 30
0.0
 11
976.9506384122987
 21
136.9967465610069
 31
0.0
  0
ELLIPSE
  5
5A9
330
1F
100
AcDbEntity
  8
0
  6
Continuous
100
AcDbEllipse
 10
999.2665520167266
 20
104.7079296951082
 30
0.0
 11
-44.4999999999998
 21
0.0000000000176331
 31
0.0
210
0.0
220
0.0
230
1.0
 40
0.838670567945423
 41
3.666902623059314
 42
4.187079010916058
  0
ELLIPSE
  5
5AA
330
1F
100
AcDbEntity
  8
0
  6
Continuous
100
AcDbEllipse
 10
999.2665520167284
 20
107.9757639051985
 30
0.0
 11
44.49999999999981
 21
-0.0000000000214911
 31
0.0
210
0.0
220
0.0
230
1.0
 40
0.8386705679454228
 41
0.5253099694696726
 42
1.045486357326383
  0
LINE
  5
5AB
330
1F
100
AcDbEntity
  8
0
  6
Continuous
100
AcDbLine
 10
976.9506384123005
 20
140.2645807710972
 30
0.0
 11
1021.582465621143
 21
140.2645807710972
 31
0.0
  0
ELLIPSE
  5
5AC
330
1F
100
AcDbEntity
  8
0
  6
Continuous
100
AcDbEllipse
 10
999.2665520167284
 20
107.9757639051985
 30
0.0
 11
44.49999999999972
 21
-0.0000000000253547
 31
0.0
210
0.0
220
0.0
230
1.0
 40
0.8386705679454227
 41
2.096106296264686
 42
2.616282684121431
  0
LINE
  5
5AD
330
1F
100
AcDbEntity
  8
0
  6
Continuous
100
AcDbLine
 10
1055.348725576679
 20
104.173201144243
 30
0.0
 11
1037.76655201672
 21
104.173201144243
 31
0.0
  0
LINE
  5
5AE
330
1F
100
AcDbEntity
  8
0
  6
Continuous
100
AcDbLine
 10
1055.348725576679
 20
78.77320114424346
 30
0.0
 11
1037.76655201672
 21
78.77320114424346
 31
0.0
  0
LINE
  5
5AF
330
1F
100
AcDbEntity
  8
0
  6
Continuous
100
AcDbLine
 10
1055.348725576679
 20
78.77320114424346
 30
0.0
 11
1059.916552016719
 21
66.22320114424373
 31
0.0
  0
LINE
  5
5B0
330
1F
100
AcDbEntity
  8
0
  6
Continuous
100
AcDbLine
 10
1055.348725576679
 20
104.173201144243
 30
0.0
 11
1059.916552016719
 21
116.7232011442428
 31
0.0
  0
LINE
  5
5B1
330
1F
100
AcDbEntity
  8
0
  6
Continuous
100
AcDbLine
 10
1062.76655201672
 20
116.7232011442428
 30
0.0
 11
1059.916552016719
 21
116.7232011442428
 31
0.0
  0
LINE
  5
5B2
330
1F
100
AcDbEntity
  8
0
  6
Continuous
100
AcDbLine
 10
1062.76655201672
 20
66.22320114424373
 30
0.0
 11
1059.916552016719
 21
66.22320114424373
 31
0.0
  0
LINE
  5
5B3
330
1F
100
AcDbEntity
  8
0
  6
Continuous
100
AcDbLine
 10
1055.348725576679
 20
104.173201144243
 30
0.0
 11
1055.348725576679
 21
78.77320114424346
 31
0.0
  0
LINE
  5
5B4
330
1F
100
AcDbEntity
  8
0
  6
Continuous
100
AcDbLine
 10
1059.916552016719
 20
116.7232011442428
 30
0.0
 11
1059.916552016719
 21
66.22320114424373
 31
0.0
  0
LINE
  5
5B5
330
1F
100
AcDbEntity
  8
0
  6
Continuous
100
AcDbLine
 10
1062.76655201672
 20
116.7232011442428
 30
0.0
 11
1062.76655201672
 21
66.22320114424373
 31
0.0
  0
LINE
  5
5B6
330
1F
100
AcDbEntity
  8
0
  6
Continuous
100
AcDbLine
 10
960.7665520167202
 20
104.173201144243
 30
0.0
 11
943.1843784567609
 21
104.173201144243
 31
0.0
  0
LINE
  5
5B7
330
1F
100
AcDbEntity
  8
0
  6
Continuous
100
AcDbLine
 10
960.7665520167202
 20
78.77320114424346
 30
0.0
 11
943.1843784567609
 21
78.77320114424346
 31
0.0
  0
LINE
  5
5B8
330
1F
100
AcDbEntity
  8
0
  6
Continuous
100
AcDbLine
 10
943.1843784567609
 20
104.173201144243
 30
0.0
 11
938.6165520167205
 21
116.7232011442428
 31
0.0
  0
LINE
  5
5B9
330
1F
100
AcDbEntity
  8
0
  6
Continuous
100
AcDbLine
 10
943.1843784567609
 20
78.77320114424346
 30
0.0
 11
938.6165520167205
 21
66.22320114424373
 31
0.0
  0
LINE
  5
5BA
330
1F
100
AcDbEntity
  8
0
  6
Continuous
100
AcDbLine
 10
938.6165520167205
 20
116.7232011442428
 30
0.0
 11
935.7665520167202
 21
116.7232011442428
 31
0.0
  0
LINE
  5
5BB
330
1F
100
AcDbEntity
  8
0
  6
Continuous
100
AcDbLine
 10
938.6165520167205
 20
66.22320114424373
 30
0.0
 11
935.7665520167202
 21
66.22320114424373
 31
0.0
  0
LINE
  5
5BC
330
1F
100
AcDbEntity
  8
0
  6
Continuous
100
AcDbLine
 10
943.1843784567609
 20
104.173201144243
 30
0.0
 11
943.1843784567609
 21
78.77320114424346
 31
0.0
  0
LINE
  5
5BD
330
1F
100
AcDbEntity
  8
0
  6
Continuous
100
AcDbLine
 10
938.6165520167205
 20
116.7232011442428
 30
0.0
 11
938.6165520167205
 21
66.22320114424373
 31
0.0
  0
LINE
  5
5BE
330
1F
100
AcDbEntity
  8
0
  6
Continuous
100
AcDbLine
 10
935.7665520167202
 20
116.7232011442428
 30
0.0
 11
935.7665520167202
 21
66.22320114424373
 31
0.0
  0
LINE
  5
5BF
330
1F
100
AcDbEntity
  8
0
  6
Continuous
100
AcDbLine
 10
960.7665520167184
 20
77.106247743758
 30
0.0
 11
982.8524504015804
 21
77.106247743758
 31
0.0
  0
LINE
  5
5C0
330
1F
100
AcDbEntity
  8
0
  6
Continuous
100
AcDbLine
 10
985.4505266129345
 20
77.106247743758
 30
0.0
 11
982.8524504015804
 21
77.106247743758
 31
0.0
  0
LINE
  5
5C1
330
1F
100
AcDbEntity
  8
0
  6
Continuous
100
AcDbLine
 10
985.4505266129345
 20
77.10624774375755
 30
0.0
 11
990.6062979788776
 21
77.106247743758
 31
0.0
  0
LINE
  5
5C2
330
1F
100
AcDbEntity
  8
0
  6
Continuous
100
AcDbLine
 10
990.6062979788776
 20
77.106247743758
 30
0.0
 11
1007.926806054566
 21
77.106247743758
 31
0.0
  0
LINE
  5
5C3
330
1F
100
AcDbEntity
  8
0
  6
Continuous
100
AcDbLine
 10
1007.926806054566
 20
77.106247743758
 30
0.0
 11
1013.082577420503
 21
77.106247743758
 31
0.0
  0
LINE
  5
5C4
330
1F
100
AcDbEntity
  8
0
  6
Continuous
100
AcDbLine
 10
1015.680653631855
 20
77.106247743758
 30
0.0
 11
1013.082577420503
 21
77.106247743758
 31
0.0
  0
LINE
  5
5C5
330
1F
100
AcDbEntity
  8
0
  6
Continuous
100
AcDbLine
 10
1015.680653631856
 20
77.106247743758
 30
0.0
 11
1037.766552016718
 21
77.106247743758
 31
0.0
  0
LINE
  5
5C6
330
1F
100
AcDbEntity
  8
0
  6
Continuous
100
AcDbLine
 10
960.7665520167156
 20
88.6795396343381
 30
0.0
 11
960.7665520167156
 21
91.53366666861066
 31
0.0
  0
LINE
  5
5C7
330
1F
100
AcDbEntity
  8
0
  6
Continuous
100
AcDbLine
 10
960.7665520167184
 20
77.10624774375755
 30
0.0
 11
960.7665520167174
 21
78.47233063871262
 31
0.0
  0
LINE
  5
5C8
330
1F
100
AcDbEntity
  8
0
  6
Continuous
100
AcDbLine
 10
1037.766552016717
 20
78.47233063871262
 30
0.0
 11
1037.766552016718
 21
77.10624774375755
 31
0.0
  0
LINE
  5
5C9
330
1F
100
AcDbEntity
  8
0
  6
Continuous
100
AcDbLine
 10
1037.766552016714
 20
91.53366666861066
 30
0.0
 11
1037.766552016714
 21
88.6795396343381
 31
0.0
  0
LINE
  5
5CA
330
1F
100
AcDbEntity
  8
0
  6
Continuous
100
AcDbLine
 10
979.5192290437944
 20
68.48137732128306
 30
0.0
 11
979.5192290437963
 21
71.91260324187796
 31
0.0
  0
LINE
  5
5CB
330
1F
100
AcDbEntity
  8
0
  6
Continuous
100
AcDbLine
 10
969.5192290437944
 20
68.48137732128352
 30
0.0
 11
969.5192290437962
 21
71.91260324187841
 31
0.0
  0
ELLIPSE
  5
5CC
330
1F
100
AcDbEntity
  8
0
  6
Continuous
100
AcDbEllipse
 10
974.5192290437945
 20
68.48137732128352
 30
0.0
 11
-4.99999999999998
 21
0.0
 31
0.0
210
0.0
220
0.0
230
1.0
 40
0.838670567945423
 41
0.0
 42
6.283185307179586
  0
ELLIPSE
  5
5CD
330
1F
100
AcDbEntity
  8
0
  6
Continuous
100
AcDbEllipse
 10
974.5192290437962
 20
71.91260324187796
 30
0.0
 11
-4.99999999999998
 21
0.0000000000000782
 31
0.0
210
0.0
220
0.0
230
1.0
 40
0.838670567945423
 41
3.141592653589322
 42
6.283185307179115
  0
LINE
  5
5CE
330
1F
100
AcDbEntity
  8
0
  6
Continuous
100
AcDbLine
 10
1019.013874989659
 20
71.91260324187841
 30
0.0
 11
1019.013874989657
 21
68.48137732128352
 31
0.0
  0
LINE
  5
5CF
330
1F
100
AcDbEntity
  8
0
  6
Continuous
100
AcDbLine
 10
1029.013874989659
 20
71.91260324187796
 30
0.0
 11
1029.013874989657
 21
68.48137732128306
 31
0.0
  0
ELLIPSE
  5
5D0
330
1F
100
AcDbEntity
  8
0
  6
Continuous
100
AcDbEllipse
 10
1024.013874989657
 20
68.48137732128352
 30
0.0
 11
4.99999999999998
 21
0.0
 31
0.0
210
0.0
220
0.0
230
1.0
 40
0.838670567945423
 41
0.0
 42
6.283185307179586
  0
ELLIPSE
  5
5D1
330
1F
100
AcDbEntity
  8
0
  6
Continuous
100
AcDbEllipse
 10
1024.013874989659
 20
71.91260324187796
 30
0.0
 11
-4.99999999999998
 21
0.0
 31
0.0
210
0.0
220
0.0
230
1.0
 40
0.838670567945423
 41
3.141592653589295
 42
6.283185307179088
  0
LINE
  5
5D2
330
1F
100
AcDbEntity
  8
0
  6
Continuous
100
AcDbLine
 10
1029.013874989647
 20
117.950714791299
 30
0.0
 11
1029.013874989649
 21
121.3819407118938
 31
0.0
  0
LINE
  5
5D3
330
1F
100
AcDbEntity
  8
0
  6
Continuous
100
AcDbLine
 10
1019.013874989647
 20
117.9507147912994
 30
0.0
 11
1019.013874989649
 21
121.3819407118943
 31
0.0
  0
LINE
  5
5D4
330
1F
100
AcDbEntity
  8
0
  6
Continuous
100
AcDbLine
 10
969.5192290437862
 20
121.3819407118943
 30
0.0
 11
969.5192290437844
 21
117.9507147912994
 31
0.0
  0
LINE
  5
5D5
330
1F
100
AcDbEntity
  8
0
  6
Continuous
100
AcDbLine
 10
979.5192290437862
 20
121.3819407118938
 30
0.0
 11
979.5192290437844
 21
117.9507147912994
 31
0.0
  0
ELLIPSE
  5
5D6
330
1F
100
AcDbEntity
  8
0
  6
Continuous
100
AcDbEllipse
 10
1024.013874989647
 20
117.9507147912994
 30
0.0
 11
-4.99999999999998
 21
0.0
 31
0.0
210
0.0
220
0.0
230
1.0
 40
0.838670567945423
 41
0.0
 42
6.283185307179586
  0
ELLIPSE
  5
5D7
330
1F
100
AcDbEntity
  8
0
  6
Continuous
100
AcDbEllipse
 10
974.5192290437843
 20
117.9507147912994
 30
0.0
 11
4.99999999999998
 21
0.0
 31
0.0
210
0.0
220
0.0
230
1.0
 40
0.838670567945423
 41
0.0
 42
6.283185307179586
  0
ELLIPSE
  5
5D8
330
1F
100
AcDbEntity
  8
0
  6
Continuous
100
AcDbEllipse
 10
974.5192290437863
 20
121.3819407118943
 30
0.0
 11
-4.99999999999998
 21
0.0000000000001006
 31
0.0
210
0.0
220
0.0
230
1.0
 40
0.838670567945423
 41
3.141592653589414
 42
6.283185307179207
  0
ELLIPSE
  5
5D9
330
1F
100
AcDbEntity
  8
0
  6
Continuous
100
AcDbEllipse
 10
1024.013874989649
 20
121.3819407118943
 30
0.0
 11
-4.99999999999998
 21
0.0
 31
0.0
210
0.0
220
0.0
230
1.0
 40
0.838670567945423
 41
3.141592653589295
 42
6.283185307179088
  0
LINE
  5
5DA
330
1F
100
AcDbEntity
  8
0
  6
Continuous
100
AcDbLine
 10
960.7665520167156
 20
88.6795396343381
 30
0.0
 11
960.7665520167174
 21
78.47233063871262
 31
0.0
  0
LINE
  5
5DB
330
1F
100
AcDbEntity
  8
0
  6
Continuous
100
AcDbLine
 10
960.7665520167165
 20
100.8406248166133
 30
0.0
 11
960.7665520167156
 21
91.53366666861066
 31
0.0
  0
LINE
  5
5DC
330
1F
100
AcDbEntity
  8
0
  6
Continuous
100
AcDbLine
 10
1037.766552016717
 20
78.47233063871262
 30
0.0
 11
1037.766552016714
 21
88.6795396343381
 31
0.0
  0
LINE
  5
5DD
330
1F
100
AcDbEntity
  8
0
  6
Continuous
100
AcDbLine
 10
1037.766552016714
 20
91.53366666861066
 30
0.0
 11
1037.766552016716
 21
100.8406248166133
 31
0.0
  0
LINE
  5
5DE
330
1F
100
AcDbEntity
  8
0
  6
Continuous
100
AcDbLine
 10
984.6597043075107
 20
116.1882962100143
 30
0.0
 11
1013.873399725927
 21
116.1882962100143
 31
0.0
  0
LINE
  5
5DF
330
1F
100
AcDbEntity
  8
0
  6
Continuous
100
AcDbLine
 10
976.9506384122987
 20
136.4521075259921
 30
0.0
 11
976.9506384122951
 21
128.9360888427848
 31
0.0
  0
LINE
  5
5E0
330
1F
100
AcDbEntity
  8
0
  6
Continuous
100
AcDbLine
 10
1021.58246562114
 20
136.4521075259921
 30
0.0
 11
1021.582465621137
 21
128.9360888427848
 31
0.0
  0
ELLIPSE
  5
5E1
330
1F
100
AcDbEntity
  8
0
  6
Continuous
100
AcDbEllipse
 10
999.2665520167266
 20
104.1632906600933
 30
0.0
 11
-44.49999999999972
 21
0.0000000000214717
 31
0.0
210
0.0
220
0.0
230
1.0
 40
0.8386705679454227
 41
5.237698949854362
 42
5.757875337711073
  0
ELLIPSE
  5
5E2
330
1F
100
AcDbEntity
  8
0
  6
Continuous
100
AcDbEllipse
 10
999.2665520167266
 20
104.1632906600933
 30
0.0
 11
-44.49999999999984
 21
0.0000000000176248
 31
0.0
210
0.0
220
0.0
230
1.0
 40
0.8386705679454228
 41
3.666902623059307
 42
4.187079010916056
  0
LINE
  5
5E3
330
1F
100
AcDbEntity
  8
0
  6
Continuous
100
AcDbLine
 10
1021.58246562114
 20
136.4521075259921
 30
0.0
 11
976.9506384122987
 21
136.4521075259921
 31
0.0
  0
LINE
  5
5E4
330
1F
100
AcDbEntity
  8
0
  6
Continuous
100
AcDbLine
 10
960.7665520167229
 20
122.8789905969341
 30
0.0
 11
960.7665520167193
 21
115.3629719137274
 31
0.0
  0
LINE
  5
5E5
330
1F
100
AcDbEntity
  8
0
  6
Continuous
100
AcDbLine
 10
1037.766552016722
 20
122.8789905969341
 30
0.0
 11
1037.766552016718
 21
115.3629719137274
 31
0.0
  0
ELLIPSE
  5
5E6
330
1F
100
AcDbEntity
  8
0
  6
Continuous
100
AcDbEllipse
 10
999.2665520166164
 20
96.6472719770376
 30
0.0
 11
-44.50000000020977
 21
0.0000000000253492
 31
0.0
210
0.0
220
0.0
230
1.0
 40
0.8386705679454228
 41
2.096106296264686
 42
2.109399029215483
  0
ELLIPSE
  5
5E7
330
1F
100
AcDbEntity
  8
0
  6
Continuous
100
AcDbEllipse
 10
999.266552016722
 20
96.64727197688616
 30
0.0
 11
-44.50000000000017
 21
0.0000000000253464
 31
0.0
210
0.0
220
0.0
230
1.0
 40
0.8386705679454228
 41
2.302958361323753
 42
2.59052690864939
  0
LINE
  5
5E8
330
1F
100
AcDbEntity
  8
0
  6
Continuous
100
AcDbLine
 10
1021.58246562115
 20
64.3584551109874
 30
0.0
 11
976.9506384123078
 21
64.3584551109874
 31
0.0
  0
ELLIPSE
  5
5E9
330
1F
100
AcDbEntity
  8
0
  6
Continuous
100
AcDbEllipse
 10
999.2665520167228
 20
96.64727197688616
 30
0.0
 11
-44.49999999999978
 21
0.0000000000214967
 31
0.0
210
0.0
220
0.0
230
1.0
 40
0.8386705679454228
 41
0.5510657449417007
 42
0.8386342922673124
  0
ELLIPSE
  5
5EA
330
1F
100
AcDbEntity
  8
0
  6
Continuous
100
AcDbEllipse
 10
999.2665520167756
 20
96.6472719769621
 30
0.0
 11
-44.50000000010486
 21
0.00000000002148
 31
0.0
210
0.0
220
0.0
230
1.0
 40
0.8386705679454228
 41
1.032193624375535
 42
1.045486357326375
  0
LINE
  5
5EB
330
1F
100
AcDbEntity
  8
0
  6
Continuous
100
AcDbLine
 10
960.7665520167202
 20
108.514460513314
 30
0.0
 11
960.7665520167193
 21
115.3629719137274
 31
0.0
  0
ELLIPSE
  5
5EC
330
1F
100
AcDbEntity
  8
0
  6
Continuous
100
AcDbEllipse
 10
999.2665520167228
 20
96.64727197688616
 30
0.0
 11
44.49999999999984
 21
-0.0000000000253464
 31
0.0
210
0.0
220
0.0
230
1.0
 40
0.8386705679454228
 41
2.096106296264686
 42
2.616282684121433
  0
LINE
  5
5ED
330
1F
100
AcDbEntity
  8
0
  6
Continuous
100
AcDbLine
 10
976.9506384122951
 20
128.9360888427848
 30
0.0
 11
1021.582465621138
 21
128.9360888427848
 31
0.0
  0
ELLIPSE
  5
5EE
330
1F
100
AcDbEntity
  8
0
  6
Continuous
100
AcDbEllipse
 10
999.2665520167228
 20
96.64727197688616
 30
0.0
 11
44.49999999999982
 21
-0.0000000000214911
 31
0.0
210
0.0
220
0.0
230
1.0
 40
0.838670567945423
 41
0.5253099694696726
 42
1.045486357326383
  0
LINE
  5
5EF
330
1F
100
AcDbEntity
  8
0
  6
Continuous
100
AcDbLine
 10
1037.766552016718
 20
115.3629719137274
 30
0.0
 11
1037.76655201672
 21
108.514460513314
 31
0.0
  0
LINE
  5
5F0
330
1F
100
AcDbEntity
  8
0
  6
Continuous
100
AcDbLine
 10
1037.76655201672
 20
108.514460513314
 30
0.0
 11
1037.766552016716
 21
100.8406248166133
 31
0.0
  0
LINE
  5
5F1
330
1F
100
AcDbEntity
  8
0
  6
Continuous
100
AcDbLine
 10
1037.766552016716
 20
100.8406248166133
 30
0.0
 11
1027.955007883144
 21
100.8406248166133
 31
0.0
  0
LINE
  5
5F2
330
1F
100
AcDbEntity
  8
0
  6
Continuous
100
AcDbLine
 10
970.5780961502886
 20
100.8406248166128
 30
0.0
 11
960.7665520167165
 21
100.8406248166128
 31
0.0
  0
LINE
  5
5F3
330
1F
100
AcDbEntity
  8
0
  6
Continuous
100
AcDbLine
 10
960.7665520167165
 20
100.8406248166133
 30
0.0
 11
960.7665520167202
 21
108.514460513314
 31
0.0
  0
ELLIPSE
  5
5F4
330
1F
100
AcDbEntity
  8
0
  6
Continuous
100
AcDbEllipse
 10
999.2665520167129
 20
77.106247743758
 30
0.0
 11
-0.0000000000064387
 21
-46.12688123699808
 31
0.0
210
0.0
220
0.0
230
1.0
 40
0.5961816464179744
 41
3.701559488711762
 42
4.012673563475464
  0
ELLIPSE
  5
5F5
330
1F
100
AcDbEntity
  8
0
  6
Continuous
100
AcDbEllipse
 10
999.2665520167228
 20
96.64727197688616
 30
0.0
 11
27.49999999999985
 21
-0.0000000000156639
 31
0.0
210
0.0
220
0.0
230
1.0
 40
0.838670567945423
 41
2.130763161917922
 42
2.441877236681545
  0
LINE
  5
5F6
330
1F
100
AcDbEntity
  8
0
  6
Continuous
100
AcDbLine
 10
960.7665520167202
 20
108.514460513314
 30
0.0
 11
970.5780961502924
 21
108.514460513314
 31
0.0
  0
LINE
  5
5F7
330
1F
100
AcDbEntity
  8
0
  6
Continuous
100
AcDbLine
 10
1037.76655201672
 20
108.514460513314
 30
0.0
 11
1027.955007883148
 21
108.514460513314
 31
0.0
  0
ELLIPSE
  5
5F8
330
1F
100
AcDbEntity
  8
0
  6
Continuous
100
AcDbEllipse
 10
999.2665520167129
 20
77.106247743758
 30
0.0
 11
-0.0000000000064431
 21
-46.12688123699808
 31
0.0
210
0.0
220
0.0
230
1.0
 40
0.5961816464179744
 41
2.27051174370356
 42
2.58162581846707
  0
ELLIPSE
  5
5F9
330
1F
100
AcDbEntity
  8
0
  6
Continuous
100
AcDbEllipse
 10
999.2665520167228
 20
96.64727197688616
 30
0.0
 11
-27.49999999999985
 21
0.0000000000108913
 31
0.0
210
0.0
220
0.0
230
1.0
 40
0.838670567945423
 41
3.841308070499193
 42
4.152422145262815
  0
ELLIPSE
  5
5FA
330
1F
100
AcDbEntity
  8
0
  6
Continuous
100
AcDbEllipse
 10
970.5780961502906
 20
117.6140361755218
 30
0.0
 11
-0.0000000000023427
 21
-16.77341135890839
 31
0.0
210
0.0
220
0.0
230
1.0
 40
0.5961816464179746
 41
0.0
 42
0.8710809098856779
  0
ELLIPSE
  5
5FB
330
1F
100
AcDbEntity
  8
0
  6
Continuous
100
AcDbEllipse
 10
970.5780961502906
 20
116.9011661927683
 30
0.0
 11
9.999999999999934
 21
-0.0000000000000037
 31
0.0
210
0.0
220
0.0
230
1.0
 40
0.838670567945423
 41
4.712388980385027
 42
5.583469890270752
  0
ELLIPSE
  5
5FC
330
1F
100
AcDbEntity
  8
0
  6
Continuous
100
AcDbEllipse
 10
1027.955007883147
 20
117.6140361755218
 30
0.0
 11
-0.0000000000023416
 21
-16.77341135890839
 31
0.0
210
0.0
220
0.0
230
1.0
 40
0.5961816464179746
 41
5.412104397293358
 42
6.283185307179124
  0
ELLIPSE
  5
5FD
330
1F
100
AcDbEntity
  8
0
  6
Continuous
100
AcDbEllipse
 10
1027.955007883146
 20
116.9011661927683
 30
0.0
 11
9.999999999999939
 21
-0.0000000000039711
 31
0.0
210
0.0
220
0.0
230
1.0
 40
0.838670567945423
 41
3.841308070499135
 42
4.712388980385164
  0
LINE
  5
5FE
330
1F
100
AcDbEntity
  8
0
  6
Continuous
100
AcDbLine
 10
954.9021834135455
 20
170.1448251402019
 30
0.0
 11
947.3310457136985
 21
156.1049200672636
 31
0.0
  0
LINE
  5
5FF
330
1F
100
AcDbEntity
  8
0
  6
Continuous
100
AcDbLine
 10
1043.630920619948
 20
170.1448251402001
 30
0.0
 11
1051.202058319778
 21
156.1049200672608
 31
0.0
  0
ELLIPSE
  5
600
330
1F
100
AcDbEntity
  8
0
  6
Continuous
100
AcDbEllipse
 10
999.2665520167319
 20
115.7096382024118
 30
0.0
 11
-30.4999999999999
 21
0.0000000000147313
 31
0.0
210
0.0
220
0.0
230
1.0
 40
0.8386705679454228
 41
4.428409002600374
 42
4.996368958170152
  0
ELLIPSE
  5
601
330
1F
100
AcDbEntity
  8
0
  6
Continuous
100
AcDbEllipse
 10
999.2665520167319
 20
115.7096382024118
 30
0.0
 11
-56.99999999999984
 21
0.0000000000275224
 31
0.0
210
0.0
220
0.0
230
1.0
 40
0.8386705679454234
 41
4.44169958377927
 42
4.983078376991257
  0
ELLIPSE
  5
602
330
1F
100
AcDbEntity
  8
0
  6
Continuous
100
AcDbEllipse
 10
999.2665520167319
 20
115.7096382024118
 30
0.0
 11
-56.9999999999997
 21
0.000000000027528
 31
0.0
210
0.0
220
0.0
230
1.0
 40
0.838670567945423
 41
5.488897134975868
 42
6.030275928187857
  0
ELLIPSE
  5
603
330
1F
100
AcDbEntity
  8
0
  6
Continuous
100
AcDbEllipse
 10
999.2665520167319
 20
115.7096382024118
 30
0.0
 11
56.99999999999969
 21
-0.0000000000275349
 31
0.0
210
0.0
220
0.0
230
1.0
 40
0.8386705679454228
 41
0.2529093789928807
 42
0.7942881722048707
  0
ELLIPSE
  5
604
330
1F
100
AcDbEntity
  8
0
  6
Continuous
100
AcDbEllipse
 10
999.266552016742
 20
136.4059215329829
 30
0.0
 11
-56.99999999999976
 21
0.0000000000275419
 31
0.0
210
0.0
220
0.0
230
1.0
 40
0.838670567945423
 41
5.44808205488151
 42
6.124233789796884
  0
ELLIPSE
  5
605
330
1F
100
AcDbEntity
  8
0
  6
Continuous
100
AcDbEllipse
 10
999.266552016742
 20
136.4059215329829
 30
0.0
 11
-56.99999999999974
 21
0.000000000022593
 31
0.0
210
0.0
220
0.0
230
1.0
 40
0.838670567945423
 41
4.274955204669311
 42
5.149822756101075
  0
ELLIPSE
  5
606
330
1F
100
AcDbEntity
  8
0
  6
Continuous
100
AcDbEllipse
 10
999.266552016742
 20
136.4059215329829
 30
0.0
 11
56.99999999999979
 21
-0.0000000000275391
 31
0.0
210
0.0
220
0.0
230
1.0
 40
0.838670567945423
 41
0.1589515173838394
 42
0.8351032522992383
  0
ELLIPSE
  5
607
330
1F
100
AcDbEntity
  8
0
  6
Continuous
100
AcDbEllipse
 10
968.516552016741
 20
71.04157214171791
 30
0.0
 11
-5.999999999999977
 21
0.000000000002898
 31
0.0
210
0.0
220
0.0
230
1.0
 40
0.8386705679454228
 41
0.2356194490197958
 42
1.858775653374527
  0
LINE
  5
608
330
1F
100
AcDbEntity
  8
0
  6
Continuous
100
AcDbLine
 10
960.1327962338837
 20
78.77320114424346
 30
0.0
 11
962.6823324943552
 21
69.86686960638225
 31
0.0
  0
LINE
  5
609
330
1F
100
AcDbEntity
  8
0
  6
Continuous
100
AcDbLine
 10
970.2206440849659
 20
66.21676879212272
 30
0.0
 11
970.2966868294153
 21
66.23565975197961
 31
0.0
  0
LINE
  5
60A
330
1F
100
AcDbEntity
  8
0
  6
Continuous
100
AcDbLine
 10
931.766552016732
 20
115.7096382024123
 30
0.0
 11
931.7665520167393
 21
129.8363886413834
 31
0.0
  0
LINE
  5
60B
330
1F
100
AcDbEntity
  8
0
  6
Continuous
100
AcDbLine
 10
1066.766552016731
 20
115.7096382024118
 30
0.0
 11
1066.766552016738
 21
129.836388641383
 31
0.0
  0
ELLIPSE
  5
60C
330
1F
100
AcDbEntity
  8
0
  6
Continuous
100
AcDbEllipse
 10
1030.016552016741
 20
71.04157214171791
 30
0.0
 11
5.999999999999967
 21
-0.0000000000028975
 31
0.0
210
0.0
220
0.0
230
1.0
 40
0.838670567945423
 41
4.424409653806222
 42
6.047565858160944
  0
LINE
  5
60D
330
1F
100
AcDbEntity
  8
0
  6
Continuous
100
AcDbLine
 10
1028.236417204068
 20
66.23565975198006
 30
0.0
 11
1028.312459948518
 21
66.21676879212272
 31
0.0
  0
LINE
  5
60E
330
1F
100
AcDbEntity
  8
0
  6
Continuous
100
AcDbLine
 10
1062.766552016732
 20
110.3642357223487
 30
0.0
 11
1064.896679470894
 21
112.0595373881523
 31
0.0
  0
LINE
  5
60F
330
1F
100
AcDbEntity
  8
0
  6
Continuous
100
AcDbLine
 10
1054.987586779741
 20
104.173201144243
 30
0.0
 11
1055.49599845862
 21
104.5778300618375
 31
0.0
  0
ELLIPSE
  5
610
330
1F
100
AcDbEntity
  8
0
  6
Continuous
100
AcDbEllipse
 10
1030.016552016723
 20
160.3777042631057
 30
0.0
 11
5.999999999999983
 21
-0.0000000000028985
 31
0.0
210
0.0
220
0.0
230
1.0
 40
0.838670567945423
 41
0.2356194490197954
 42
1.858775653374513
  0
LINE
  5
611
330
1F
100
AcDbEntity
  8
0
  6
Continuous
100
AcDbLine
 10
1039.211737999384
 20
167.2399436413164
 30
0.0
 11
1039.211737999376
 21
149.8114945208352
 31
0.0
  0
LINE
  5
612
330
1F
100
AcDbEntity
  8
0
  6
Continuous
100
AcDbLine
 10
1039.211737999376
 20
149.8114945208352
 30
0.0
 11
1035.850771539108
 21
161.5524067984414
 31
0.0
  0
LINE
  5
613
330
1F
100
AcDbEntity
  8
0
  6
Continuous
100
AcDbLine
 10
984.0249917794389
 20
179.2016042021008
 30
0.0
 11
984.0249917794308
 21
161.77315508162
 31
0.0
  0
LINE
  5
614
330
1F
100
AcDbEntity
  8
0
  6
Continuous
100
AcDbLine
 10
984.0249917794308
 20
161.77315508162
 30
0.0
 11
970.2206440849449
 21
165.2025076127009
 31
0.0
  0
LINE
  5
615
330
1F
100
AcDbEntity
  8
0
  6
Continuous
100
AcDbLine
 10
944.0798057967949
 20
145.0997478836774
 30
0.0
 11
944.0798057967867
 21
127.6712987631966
 31
0.0
  0
LINE
  5
616
330
1F
100
AcDbEntity
  8
0
  6
Continuous
100
AcDbLine
 10
944.0798057967867
 20
127.6712987631966
 30
0.0
 11
933.6364245625691
 21
119.3597390166718
 31
0.0
  0
LINE
  5
617
330
1F
100
AcDbEntity
  8
0
  6
Continuous
100
AcDbLine
 10
1035.850771539126
 20
69.86686960638225
 30
0.0
 11
1038.400307799594
 21
78.77320114424346
 31
0.0
  0
LINE
  5
618
330
1F
100
AcDbEntity
  8
0
  6
Continuous
100
AcDbLine
 10
943.0371055748464
 20
104.5778300618393
 30
0.0
 11
943.5455172537267
 21
104.173201144243
 31
0.0
  0
LINE
  5
619
330
1F
100
AcDbEntity
  8
0
  6
Continuous
100
AcDbLine
 10
933.63642456257
 20
112.0595373881527
 30
0.0
 11
935.7665520167319
 21
110.3642357223506
 31
0.0
  0
ELLIPSE
  5
61A
330
1F
100
AcDbEntity
  8
0
  6
Continuous
100
AcDbEllipse
 10
937.7665520167321
 20
115.7096382024118
 30
0.0
 11
-5.99999999999999
 21
0.0000000000028994
 31
0.0
210
0.0
220
0.0
230
1.0
 40
0.838670567945423
 41
5.47160720500277
 42
7.094763409357486
  0
LINE
  5
61B
330
1F
100
AcDbEntity
  8
0
  6
Continuous
100
AcDbLine
 10
1064.896679470893
 20
119.3597390166713
 30
0.0
 11
1054.453298236672
 21
127.6712987631966
 31
0.0
  0
LINE
  5
61C
330
1F
100
AcDbEntity
  8
0
  6
Continuous
100
AcDbLine
 10
1054.453298236672
 20
127.6712987631966
 30
0.0
 11
1054.45329823668
 21
145.0997478836774
 31
0.0
  0
ELLIPSE
  5
61D
330
1F
100
AcDbEntity
  8
0
  6
Continuous
100
AcDbEllipse
 10
1060.766552016731
 20
115.7096382024118
 30
0.0
 11
5.999999999999975
 21
-0.0000000000028959
 31
0.0
210
0.0
220
0.0
230
1.0
 40
0.8386705679454228
 41
5.471607205002769
 42
7.094763409357486
  0
LINE
  5
61E
330
1F
100
AcDbEntity
  8
0
  6
Continuous
100
AcDbLine
 10
962.6823324943371
 20
161.5524067984414
 30
0.0
 11
959.3213660340735
 21
149.8114945208352
 31
0.0
  0
LINE
  5
61F
330
1F
100
AcDbEntity
  8
0
  6
Continuous
100
AcDbLine
 10
959.3213660340744
 20
149.8114945208352
 30
0.0
 11
959.3213660340826
 21
167.2399436413164
 31
0.0
  0
ELLIPSE
  5
620
330
1F
100
AcDbEntity
  8
0
  6
Continuous
100
AcDbEllipse
 10
968.5165520167229
 20
160.3777042631057
 30
0.0
 11
-5.999999999999983
 21
0.0000000000028989
 31
0.0
210
0.0
220
0.0
230
1.0
 40
0.838670567945423
 41
4.424409653806208
 42
6.047565858160944
  0
LINE
  5
621
330
1F
100
AcDbEntity
  8
0
  6
Continuous
100
AcDbLine
 10
1028.312459948498
 20
165.2025076127009
 30
0.0
 11
1014.508112254014
 21
161.77315508162
 31
0.0
  0
LINE
  5
622
330
1F
100
AcDbEntity
  8
0
  6
Continuous
100
AcDbLine
 10
1014.508112254014
 20
161.77315508162
 30
0.0
 11
1014.508112254022
 21
179.2016042021008
 31
0.0
  0
SPLINE
  5
623
330
1F
100
AcDbEntity
  8
0
  6
Continuous
100
AcDbSpline
210
0.0
220
0.0
230
1.0
 70
    12
 71
     2
 72
     6
 73
     3
 74
     0
 42
0.0000000001
 43
0.0000000001
 40
0.0
 40
0.0
 40
0.0
 40
1.670584743254537
 40
1.670584743254537
 40
1.670584743254537
 10
1039.211737999384
 20
167.2399436413164
 30
0.0
 41
1.0
 10
1037.651353438423
 20
171.5767738454986
 30
0.0
 41
1.013521175185231
 10
1035.850771539115
 20
176.2218061219867
 30
0.0
 41
1.013099513339538
  0
SPLINE
  5
624
330
1F
100
AcDbEntity
  8
0
  6
Continuous
100
AcDbSpline
210
0.0
220
0.0
230
1.0
 70
     8
 71
     3
 72
    14
 73
    10
 74
     0
 42
0.0000000001
 43
0.0000000001
 40
0.554763733516921
 40
0.554763733516921
 40
0.554763733516921
 40
0.554763733516921
 40
0.7887614165524722
 40
0.7887614165524722
 40
1.037338811510502
 40
1.037338811510502
 40
1.285916206468533
 40
1.285916206468533
 40
1.519913889504083
 40
1.519913889504083
 40
1.519913889504083
 40
1.519913889504083
 10
1028.312459948505
 20
179.8719069362463
 30
0.0
 10
1029.01406809326
 20
179.8901459628494
 30
0.0
 10
1029.814198250357
 20
179.8263909934197
 30
0.0
 10
1031.456698809864
 20
179.4931740000037
 30
0.0
 10
1032.29897088726
 20
179.2097723805726
 30
0.0
 10
1033.734133146195
 20
178.5148572305464
 30
0.0
 10
1034.394190274371
 20
178.0708210158376
 30
0.0
 10
1035.356978427649
 20
177.1425398159761
 30
0.0
 10
1035.679949889664
 20
176.6624814811747
 30
0.0
 10
1035.850771539115
 20
176.2218061219867
 30
0.0
  0
SPLINE
  5
625
330
1F
100
AcDbEntity
  8
0
  6
Continuous
100
AcDbSpline
210
0.0
220
0.0
230
1.0
 70
    12
 71
     2
 72
     6
 73
     3
 74
     0
 42
0.0000000001
 43
0.0000000001
 40
1.569540480216309
 40
1.569540480216309
 40
1.569540480216309
 40
3.240125223470862
 40
3.240125223470862
 40
3.240125223470862
 10
1028.312459948505
 20
179.8719069362463
 30
0.0
 41
1.013099513339562
 10
1020.917010191931
 20
179.67965460015
 30
0.0
 41
1.013521175185255
 10
1014.508112254022
 20
179.2016042021008
 30
0.0
 41
1.0
  0
SPLINE
  5
626
330
1F
100
AcDbEntity
  8
0
  6
Continuous
100
AcDbSpline
210
0.0
220
0.0
230
1.0
 70
     8
 71
     3
 72
    10
 73
     6
 74
     0
 42
0.0000000001
 43
0.0000000001
 40
0.5547637335169214
 40
0.5547637335169214
 40
0.5547637335169214
 40
0.5547637335169214
 40
0.7887614165524715
 40
0.7887614165524715
 40
1.037338811510501
 40
1.037338811510501
 40
1.037338811510518
 40
1.037338811510518
 10
1064.8966794709
 20
134.0291383402167
 30
0.0
 10
1065.427465966204
 20
133.4506436519694
 30
0.0
 10
1065.904624661287
 20
132.7684168903682
 30
0.0
 10
1066.584337067516
 20
131.3107688708226
 30
0.0
 10
1066.766552016738
 20
130.5313037914091
 30
0.0
 10
1066.766552016738
 20
129.8363886413834
 30
0.0
  0
SPLINE
  5
627
330
1F
100
AcDbEntity
  8
0
  6
Continuous
100
AcDbSpline
210
0.0
220
0.0
230
1.0
 70
    12
 71
     2
 72
     6
 73
     3
 74
     0
 42
0.0000000001
 43
0.0000000001
 40
1.569540480216324
 40
1.569540480216324
 40
1.569540480216324
 40
3.240125223470863
 40
3.240125223470863
 40
3.240125223470863
 10
1064.8966794709
 20
134.0291383402167
 30
0.0
 41
1.013099513339539
 10
1059.301811613632
 20
140.126884544224
 30
0.0
 41
1.013521175185231
 10
1054.45329823668
 20
145.0997478836774
 30
0.0
 41
1.0
  0
SPLINE
  5
628
330
1F
100
AcDbEntity
  8
0
  6
Continuous
100
AcDbSpline
210
0.0
220
0.0
230
1.0
 70
     8
 71
     3
 72
    14
 73
    10
 74
     0
 42
0.0000000001
 43
0.0000000001
 40
0.5547637335169205
 40
0.5547637335169205
 40
0.5547637335169205
 40
0.5547637335169205
 40
0.7887614165524719
 40
0.7887614165524719
 40
1.037338811510502
 40
1.037338811510502
 40
1.285916206468533
 40
1.285916206468533
 40
1.519913889504081
 40
1.519913889504081
 40
1.519913889504081
 40
1.519913889504081
 10
962.6823324943433
 20
176.2218061219867
 30
0.0
 10
962.8531541437951
 20
176.6624814811747
 30
0.0
 10
963.1761256058089
 20
177.1425398159761
 30
0.0
 10
964.1389137590859
 20
178.0708210158376
 30
0.0
 10
964.798970887262
 20
178.5148572305464
 30
0.0
 10
966.2341331461957
 20
179.2097723805726
 30
0.0
 10
967.0764052235936
 20
179.4931740000037
 30
0.0
 10
968.7189057831002
 20
179.8263909934197
 30
0.0
 10
969.5190359401976
 20
179.8901459628494
 30
0.0
 10
970.2206440849522
 20
179.8719069362463
 30
0.0
  0
SPLINE
  5
629
330
1F
100
AcDbEntity
  8
0
  6
Continuous
100
AcDbSpline
210
0.0
220
0.0
230
1.0
 70
    12
 71
     2
 72
     6
 73
     3
 74
     0
 42
0.0000000001
 43
0.0000000001
 40
1.569540480216312
 40
1.569540480216312
 40
1.569540480216312
 40
3.240125223470863
 40
3.240125223470863
 40
3.240125223470863
 10
962.6823324943433
 20
176.2218061219867
 30
0.0
 41
1.013099513339524
 10
960.8817505950392
 20
171.5767738454986
 30
0.0
 41
1.013521175185216
 10
959.3213660340826
 20
167.2399436413164
 30
0.0
 41
1.0
  0
SPLINE
  5
62A
330
1F
100
AcDbEntity
  8
0
  6
Continuous
100
AcDbSpline
210
0.0
220
0.0
230
1.0
 70
    12
 71
     2
 72
     6
 73
     3
 74
     0
 42
0.0000000001
 43
0.0000000001
 40
0.0
 40
0.0
 40
0.0
 40
1.670584743254537
 40
1.670584743254537
 40
1.670584743254537
 10
984.0249917794389
 20
179.2016042021008
 30
0.0
 41
1.0
 10
977.6160938415287
 20
179.6796546001504
 30
0.0
 41
1.01352117518523
 10
970.2206440849522
 20
179.8719069362463
 30
0.0
 41
1.013099513339538
  0
SPLINE
  5
62B
330
1F
100
AcDbEntity
  8
0
  6
Continuous
100
AcDbSpline
210
0.0
220
0.0
230
1.0
 70
     8
 71
     3
 72
    10
 73
     6
 74
     0
 42
0.0000000001
 43
0.0000000001
 40
1.037338811510502
 40
1.037338811510502
 40
1.037338811510519
 40
1.037338811510519
 40
1.285916206468532
 40
1.285916206468532
 40
1.519913889504082
 40
1.519913889504082
 40
1.519913889504082
 40
1.519913889504082
 10
931.7665520167393
 20
129.8363886413834
 30
0.0
 10
931.7665520167384
 20
130.5313037914091
 30
0.0
 10
931.9487669659602
 20
131.3107688708231
 30
0.0
 10
932.6284793721889
 20
132.7684168903682
 30
0.0
 10
933.1056380672725
 20
133.4506436519694
 30
0.0
 10
933.6364245625764
 20
134.0291383402167
 30
0.0
  0
SPLINE
  5
62C
330
1F
100
AcDbEntity
  8
0
  6
Continuous
100
AcDbSpline
210
0.0
220
0.0
230
1.0
 70
    12
 71
     2
 72
     6
 73
     3
 74
     0
 42
0.0000000001
 43
0.0000000001
 40
0.0
 40
0.0
 40
0.0
 40
1.670584743254553
 40
1.670584743254553
 40
1.670584743254553
 10
944.0798057967949
 20
145.0997478836774
 30
0.0
 41
1.0
 10
939.231292419844
 20
140.1268845442235
 30
0.0
 41
1.013521175185259
 10
933.6364245625764
 20
134.0291383402167
 30
0.0
 41
1.013099513339566
  0
SPLINE
  5
62D
330
1F
100
AcDbEntity
  8
0
  6
Continuous
100
AcDbSpline
210
0.0
220
0.0
230
1.0
 70
     8
 71
     3
 72
    22
 73
    18
 74
     0
 42
0.0000000001
 43
0.0000000001
 40
0.424731924330369
 40
0.424731924330369
 40
0.424731924330369
 40
0.424731924330369
 40
0.7375816029831208
 40
0.7375816029831208
 40
1.059277730359611
 40
1.059277730359611
 40
1.38666082040426
 40
1.38666082040426
 40
1.716271197179207
 40
1.716271197179207
 40
2.045985845474744
 40
2.045985845474744
 40
2.373762684677235
 40
2.373762684677235
 40
2.696172677366865
 40
2.696172677366865
 40
2.716860729259369
 40
2.716860729259369
 40
2.716860729259369
 40
2.716860729259369
 10
1440.719499014434
 20
170.1448251402006
 30
0.0
 10
1442.893239318205
 20
174.1758055196513
 30
0.0
 10
1445.799705050089
 20
177.8731419294107
 30
0.0
 10
1452.835054247357
 20
184.3665612722896
 30
0.0
 10
1456.994764033226
 20
187.1352528363953
 30
0.0
 10
1466.147899329341
 20
191.4444684238186
 30
0.0
 10
1471.154210211136
 20
192.9627065325247
 30
0.0
 10
1481.488947499981
 20
194.5769757664787
 30
0.0
 10
1486.818463722547
 20
194.6631715461165
 30
0.0
 10
1497.250570759303
 20
193.3813419828824
 30
0.0
 10
1502.352171359815
 20
192.0128835646427
 30
0.0
 10
1511.791151601321
 20
187.939908038836
 30
0.0
 10
1516.132231772665
 20
185.2429739208631
 30
0.0
 10
1523.561997133746
 20
178.7889706455356
 30
0.0
 10
1526.668626246844
 20
175.0487634040058
 30
0.0
 10
1529.157559410823
 20
170.6765116876966
 30
0.0
 10
1529.30449161992
 20
170.4113848874488
 30
0.0
 10
1529.448236220838
 20
170.1448251402019
 30
0.0
  0
LINE
  5
62E
330
1F
100
AcDbEntity
  8
0
  6
Continuous
100
AcDbLine
 10
1429.001694057654
 20
78.7732011442439
 30
0.0
 11
1445.950111834757
 21
78.7732011442439
 31
0.0
  0
LINE
  5
62F
330
1F
100
AcDbEntity
  8
0
  6
Continuous
100
AcDbLine
 10
1429.001694057654
 20
104.1732011442435
 30
0.0
 11
1429.362832854604
 21
104.1732011442435
 31
0.0
  0
LINE
  5
630
330
1F
100
AcDbEntity
  8
0
  6
Continuous
100
AcDbLine
 10
1429.001694057654
 20
104.1732011442435
 30
0.0
 11
1428.854421175726
 21
104.5778300618379
 31
0.0
  0
LINE
  5
631
330
1F
100
AcDbEntity
  8
0
  6
Continuous
100
AcDbLine
 10
1429.001694057654
 20
78.7732011442439
 30
0.0
 11
1424.433867617613
 21
66.22320114424417
 31
0.0
  0
LINE
  5
632
330
1F
100
AcDbEntity
  8
0
  6
Continuous
100
AcDbLine
 10
1421.583867617612
 20
66.22320114424417
 30
0.0
 11
1424.433867617613
 21
66.22320114424417
 31
0.0
  0
LINE
  5
633
330
1F
100
AcDbEntity
  8
0
  6
Continuous
100
AcDbLine
 10
1429.001694057654
 20
78.7732011442439
 30
0.0
 11
1429.001694057654
 21
104.1732011442435
 31
0.0
  0
LINE
  5
634
330
1F
100
AcDbEntity
  8
0
  6
Continuous
100
AcDbLine
 10
1424.433867617613
 20
66.22320114424417
 30
0.0
 11
1424.433867617619
 21
108.0960100637884
 31
0.0
  0
LINE
  5
635
330
1F
100
AcDbEntity
  8
0
  6
Continuous
100
AcDbLine
 10
1421.583867617612
 20
66.22320114424417
 30
0.0
 11
1421.583867617617
 21
110.3642357223497
 31
0.0
  0
LINE
  5
636
330
1F
100
AcDbEntity
  8
0
  6
Continuous
100
AcDbLine
 10
1524.217623400468
 20
78.7732011442439
 30
0.0
 11
1541.166041177572
 21
78.7732011442439
 31
0.0
  0
LINE
  5
637
330
1F
100
AcDbEntity
  8
0
  6
Continuous
100
AcDbLine
 10
1540.804902380619
 20
104.1732011442435
 30
0.0
 11
1541.166041177572
 21
104.1732011442435
 31
0.0
  0
LINE
  5
638
330
1F
100
AcDbEntity
  8
0
  6
Continuous
100
AcDbLine
 10
1541.166041177572
 20
78.7732011442439
 30
0.0
 11
1545.733867617613
 21
66.22320114424417
 31
0.0
  0
LINE
  5
639
330
1F
100
AcDbEntity
  8
0
  6
Continuous
100
AcDbLine
 10
1541.166041177572
 20
104.1732011442435
 30
0.0
 11
1541.3133140595
 21
104.5778300618397
 31
0.0
  0
LINE
  5
63A
330
1F
100
AcDbEntity
  8
0
  6
Continuous
100
AcDbLine
 10
1545.733867617613
 20
66.22320114424417
 30
0.0
 11
1548.583867617612
 21
66.22320114424417
 31
0.0
  0
LINE
  5
63B
330
1F
100
AcDbEntity
  8
0
  6
Continuous
100
AcDbLine
 10
1541.166041177572
 20
78.7732011442439
 30
0.0
 11
1541.166041177572
 21
104.1732011442435
 31
0.0
  0
LINE
  5
63C
330
1F
100
AcDbEntity
  8
0
  6
Continuous
100
AcDbLine
 10
1545.733867617613
 20
66.22320114424417
 30
0.0
 11
1545.733867617618
 21
108.0960100637888
 31
0.0
  0
LINE
  5
63D
330
1F
100
AcDbEntity
  8
0
  6
Continuous
100
AcDbLine
 10
1548.583867617612
 20
66.22320114424417
 30
0.0
 11
1548.583867617617
 21
110.3642357223506
 31
0.0
  0
ELLIPSE
  5
63E
330
1F
100
AcDbEntity
  8
0
  6
Continuous
100
AcDbEllipse
 10
1460.336544644686
 20
68.48137732128397
 30
0.0
 11
4.999999999999983
 21
-0.0000000000017222
 31
0.0
210
0.0
220
0.0
230
1.0
 40
0.8386705679454232
 41
3.706742346743618
 42
5.106865703476675
  0
ELLIPSE
  5
63F
330
1F
100
AcDbEntity
  8
0
  6
Continuous
100
AcDbEllipse
 10
1509.83119059055
 20
68.48137732128397
 30
0.0
 11
-4.999999999999984
 21
0.0000000000025837
 31
0.0
210
0.0
220
0.0
230
1.0
 40
0.8386705679454232
 41
1.176319603703678
 42
2.576442960437059
  0
LINE
  5
640
330
1F
100
AcDbEntity
  8
0
  6
Continuous
100
AcDbLine
 10
1507.399781222044
 20
67.88867126744969
 30
0.0
 11
1507.399781222042
 21
64.35845511098785
 31
0.0
  0
LINE
  5
641
330
1F
100
AcDbEntity
  8
0
  6
Continuous
100
AcDbLine
 10
1462.767954013202
 20
67.88867126744969
 30
0.0
 11
1462.7679540132
 21
64.35845511098785
 31
0.0
  0
ELLIPSE
  5
642
330
1F
100
AcDbEntity
  8
0
  6
Continuous
100
AcDbEllipse
 10
1485.083867617615
 20
96.64727197688616
 30
0.0
 11
44.49999999999943
 21
-0.0000000000153044
 31
0.0
210
0.0
220
0.0
230
1.0
 40
0.8386705679454228
 41
4.06860129854985
 42
4.187079010916033
  0
LINE
  5
643
330
1F
100
AcDbEntity
  8
0
  6
Continuous
100
AcDbLine
 10
1462.7679540132
 20
64.35845511098785
 30
0.0
 11
1507.399781222042
 21
64.35845511098785
 31
0.0
  0
ELLIPSE
  5
644
330
1F
100
AcDbEntity
  8
0
  6
Continuous
100
AcDbEllipse
 10
1485.083867617615
 20
96.64727197688662
 30
0.0
 11
44.50000000000042
 21
-0.0000000000191541
 31
0.0
210
0.0
220
0.0
230
1.0
 40
0.838670567945423
 41
5.237698949854292
 42
5.356176662220474
  0
LINE
  5
645
330
1F
100
AcDbEntity
  8
0
  6
Continuous
100
AcDbLine
 10
1428.083867617632
 20
136.405921532982
 30
0.0
 11
1428.083867617631
 21
133.1380873228916
 31
0.0
  0
LINE
  5
646
330
1F
100
AcDbEntity
  8
0
  6
Continuous
100
AcDbLine
 10
1542.083867617632
 20
136.4059215329847
 30
0.0
 11
1542.083867617631
 21
133.1380873228944
 31
0.0
  0
LINE
  5
647
330
1F
100
AcDbEntity
  8
0
  6
Continuous
100
AcDbLine
 10
1460.083867617641
 20
158.4638024510912
 30
0.0
 11
1460.08386761764
 21
155.7406072760162
 31
0.0
  0
LINE
  5
648
330
1F
100
AcDbEntity
  8
0
  6
Continuous
100
AcDbLine
 10
1510.083867617641
 20
158.4638024510926
 30
0.0
 11
1510.08386761764
 21
155.7406072760171
 31
0.0
  0
LINE
  5
649
330
1F
100
AcDbEntity
  8
0
  6
Continuous
100
AcDbLine
 10
1440.719499014434
 20
170.1448251402006
 30
0.0
 11
1433.148361314589
 21
156.1049200672613
 31
0.0
  0
LINE
  5
64A
330
1F
100
AcDbEntity
  8
0
  6
Continuous
100
AcDbLine
 10
1529.448236220838
 20
170.1448251402024
 30
0.0
 11
1537.019373920668
 21
156.104920067264
 31
0.0
  0
LINE
  5
64B
330
1F
100
AcDbEntity
  8
0
  6
Continuous
100
AcDbLine
 10
1477.583867617647
 20
171.2628197739444
 30
0.0
 11
1477.583867617641
 21
158.4638024510917
 31
0.0
  0
LINE
  5
64C
330
1F
100
AcDbEntity
  8
0
  6
Continuous
100
AcDbLine
 10
1492.583867617648
 20
171.2628197739449
 30
0.0
 11
1492.583867617642
 21
158.4638024510921
 31
0.0
  0
ELLIPSE
  5
64D
330
1F
100
AcDbEntity
  8
0
  6
Continuous
100
AcDbEllipse
 10
1485.083867617623
 20
115.7096382024123
 30
0.0
 11
56.99999999999969
 21
-0.0000000000245387
 31
0.0
210
0.0
220
0.0
230
1.0
 40
0.838670567945423
 41
5.488897134975825
 42
6.03027592818779
  0
ELLIPSE
  5
64E
330
1F
100
AcDbEntity
  8
0
  6
Continuous
100
AcDbEllipse
 10
1485.083867617623
 20
115.7096382024123
 30
0.0
 11
-56.99999999999977
 21
0.0000000000245443
 31
0.0
210
0.0
220
0.0
230
1.0
 40
0.838670567945423
 41
1.300106930189404
 42
1.841485723401397
  0
ELLIPSE
  5
64F
330
1F
100
AcDbEntity
  8
0
  6
Continuous
100
AcDbEllipse
 10
1485.083867617623
 20
115.7096382024123
 30
0.0
 11
-56.99999999999967
 21
0.000000000024547
 31
0.0
210
0.0
220
0.0
230
1.0
 40
0.838670567945423
 41
0.2529093789928236
 42
0.7942881722048201
  0
ELLIPSE
  5
650
330
1F
100
AcDbEntity
  8
0
  6
Continuous
100
AcDbEllipse
 10
1485.083867617641
 20
158.4638024510917
 30
0.0
 11
24.9999999999999
 21
0.0
 31
0.0
210
0.0
220
0.0
230
1.0
 40
0.838670567945423
 41
0.0
 42
6.283185307179586
  0
ELLIPSE
  5
651
330
1F
100
AcDbEntity
  8
0
  6
Continuous
100
AcDbEllipse
 10
1485.083867617631
 20
136.4059215329833
 30
0.0
 11
56.99999999999978
 21
-0.0000000000245165
 31
0.0
210
0.0
220
0.0
230
1.0
 40
0.8386705679454228
 41
2.716860729259935
 42
6.707917231510513
  0
ELLIPSE
  5
652
330
1F
100
AcDbEntity
  8
0
  6
Continuous
100
AcDbEllipse
 10
1485.083867617641
 20
155.7406072760167
 30
0.0
 11
24.9999999999999
 21
-0.0000000000000018
 31
0.0
210
0.0
220
0.0
230
1.0
 40
0.838670567945423
 41
3.141592653589356
 42
6.283185307179149
  0
ELLIPSE
  5
653
330
1F
100
AcDbEntity
  8
0
  6
Continuous
100
AcDbEllipse
 10
1485.083867617641
 20
158.4638024510917
 30
0.0
 11
7.499999999999973
 21
0.0
 31
0.0
210
0.0
220
0.0
230
1.0
 40
0.8386705679454228
 41
3.14159265358935
 42
6.283185307179143
  0
ELLIPSE
  5
654
330
1F
100
AcDbEntity
  8
0
  6
Continuous
100
AcDbEllipse
 10
1485.083867617647
 20
171.2628197739449
 30
0.0
 11
-7.49999999999997
 21
0.0
 31
0.0
210
0.0
220
0.0
230
1.0
 40
0.838670567945423
 41
0.0
 42
6.283185307179586
  0
ELLIPSE
  5
655
330
1F
100
AcDbEntity
  8
0
  6
Continuous
100
AcDbEllipse
 10
1485.083867617647
 20
172.0797783264673
 30
0.0
 11
5.999999999999975
 21
0.0
 31
0.0
210
0.0
220
0.0
230
1.0
 40
0.838670567945423
 41
0.0
 42
6.283185307179586
  0
ELLIPSE
  5
656
330
1F
100
AcDbEntity
  8
0
  6
Continuous
100
AcDbEllipse
 10
1515.83386761763
 20
71.04157214171836
 30
0.0
 11
5.999999999999975
 21
-0.0000000000025825
 31
0.0
210
0.0
220
0.0
230
1.0
 40
0.8386705679454228
 41
4.424409653806248
 42
6.047565858160917
  0
LINE
  5
657
330
1F
100
AcDbEntity
  8
0
  6
Continuous
100
AcDbLine
 10
1525.029053600288
 20
99.03623100446964
 30
0.0
 11
1525.02905360028
 21
81.60778188398888
 31
0.0
  0
LINE
  5
658
330
1F
100
AcDbEntity
  8
0
  6
Continuous
100
AcDbLine
 10
1525.02905360028
 20
81.60778188398888
 30
0.0
 11
1521.668087140018
 21
69.86686960638269
 31
0.0
  0
LINE
  5
659
330
1F
100
AcDbEntity
  8
0
  6
Continuous
100
AcDbLine
 10
1514.129775549409
 20
66.21676879212316
 30
0.0
 11
1500.325427854923
 21
69.64612132320451
 31
0.0
  0
LINE
  5
65A
330
1F
100
AcDbEntity
  8
0
  6
Continuous
100
AcDbLine
 10
1500.325427854923
 20
69.64612132320451
 30
0.0
 11
1500.325427854932
 21
87.07457044368528
 31
0.0
  0
LINE
  5
65B
330
1F
100
AcDbEntity
  8
0
  6
Continuous
100
AcDbLine
 10
1552.583867617623
 20
115.7096382024127
 30
0.0
 11
1552.583867617629
 21
129.8363886413839
 31
0.0
  0
LINE
  5
65C
330
1F
100
AcDbEntity
  8
0
  6
Continuous
100
AcDbLine
 10
1417.583867617623
 20
115.7096382024122
 30
0.0
 11
1417.583867617629
 21
129.8363886413834
 31
0.0
  0
ELLIPSE
  5
65D
330
1F
100
AcDbEntity
  8
0
  6
Continuous
100
AcDbEllipse
 10
1454.333867617632
 20
71.04157214171836
 30
0.0
 11
-5.999999999999967
 21
0.0000000000025828
 31
0.0
210
0.0
220
0.0
230
1.0
 40
0.838670567945423
 41
0.2356194490198025
 42
1.858775653374559
  0
LINE
  5
65E
330
1F
100
AcDbEntity
  8
0
  6
Continuous
100
AcDbLine
 10
1469.842307380347
 20
87.07457044368528
 30
0.0
 11
1469.84230738034
 21
69.64612132320451
 31
0.0
  0
LINE
  5
65F
330
1F
100
AcDbEntity
  8
0
  6
Continuous
100
AcDbLine
 10
1469.84230738034
 20
69.64612132320451
 30
0.0
 11
1456.037959685856
 21
66.21676879212316
 31
0.0
  0
LINE
  5
660
330
1F
100
AcDbEntity
  8
0
  6
Continuous
100
AcDbLine
 10
1429.897121397691
 20
121.1764267621086
 30
0.0
 11
1429.897121397682
 21
103.7479776416279
 31
0.0
  0
LINE
  5
661
330
1F
100
AcDbEntity
  8
0
  6
Continuous
100
AcDbLine
 10
1429.897121397682
 20
103.7479776416279
 30
0.0
 11
1419.453740163461
 21
112.0595373881527
 31
0.0
  0
LINE
  5
662
330
1F
100
AcDbEntity
  8
0
  6
Continuous
100
AcDbLine
 10
1448.499648095245
 20
69.86686960638269
 30
0.0
 11
1445.138681634979
 21
81.60778188398888
 31
0.0
  0
LINE
  5
663
330
1F
100
AcDbEntity
  8
0
  6
Continuous
100
AcDbLine
 10
1445.138681634979
 20
81.60778188398888
 30
0.0
 11
1445.138681634985
 21
99.03623100446964
 31
0.0
  0
LINE
  5
664
330
1F
100
AcDbEntity
  8
0
  6
Continuous
100
AcDbLine
 10
1550.713995071786
 20
112.0595373881532
 30
0.0
 11
1540.270613837568
 21
103.7479776416279
 31
0.0
  0
LINE
  5
665
330
1F
100
AcDbEntity
  8
0
  6
Continuous
100
AcDbLine
 10
1540.270613837568
 20
103.7479776416279
 30
0.0
 11
1540.270613837576
 21
121.1764267621086
 31
0.0
  0
ELLIPSE
  5
666
330
1F
100
AcDbEntity
  8
0
  6
Continuous
100
AcDbEllipse
 10
1546.583867617622
 20
115.7096382024123
 30
0.0
 11
5.999999999999955
 21
0.0000000000002146
 31
0.0
210
0.0
220
0.0
230
1.0
 40
0.838670567945423
 41
5.471607205001943
 42
6.283185307179167
  0
ELLIPSE
  5
667
330
1F
100
AcDbEntity
  8
0
  6
Continuous
100
AcDbEllipse
 10
1423.583867617623
 20
115.7096382024123
 30
0.0
 11
-5.999999999999972
 21
0.000000000002582
 31
0.0
210
0.0
220
0.0
230
1.0
 40
0.838670567945423
 41
0.0
 42
0.8115781021777825
  0
ELLIPSE
  5
668
330
1F
100
AcDbEntity
  8
0
  6
Continuous
100
AcDbEllipse
 10
1485.083867617631
 20
133.138087322893
 30
0.0
 11
-57.0000000000002
 21
-0.0000000000013652
 31
0.0
210
0.0
220
0.0
230
1.0
 40
0.838670567945423
 41
0.0
 42
0.2529093789918493
  0
SPLINE
  5
669
330
1F
100
AcDbEntity
  8
0
  6
Continuous
100
AcDbSpline
210
0.0
220
0.0
230
1.0
 70
    12
 71
     2
 72
     6
 73
     3
 74
     0
 42
0.0000000001
 43
0.0000000001
 40
0.0
 40
0.0
 40
0.0
 40
1.670584743254546
 40
1.670584743254546
 40
1.670584743254546
 10
1429.897121397691
 20
121.1764267621087
 30
0.0
 41
1.0
 10
1425.048608020737
 20
123.9211230349213
 30
0.0
 41
1.013521175185227
 10
1419.453740163469
 20
126.7289367116981
 30
0.0
 41
1.013099513339534
  0
SPLINE
  5
66A
330
1F
100
AcDbEntity
  8
0
  6
Continuous
100
AcDbSpline
210
0.0
220
0.0
230
1.0
 70
     8
 71
     3
 72
    14
 73
    10
 74
     0
 42
0.0000000001
 43
0.0000000001
 40
0.5547637335169214
 40
0.5547637335169214
 40
0.5547637335169214
 40
0.5547637335169214
 40
0.7887614165524715
 40
0.7887614165524715
 40
1.037338811510501
 40
1.037338811510501
 40
1.285916206468531
 40
1.285916206468531
 40
1.519913889504081
 40
1.519913889504081
 40
1.519913889504081
 40
1.519913889504081
 10
1419.453740163467
 20
134.0291383402171
 30
0.0
 10
1418.922953668163
 20
133.4506436519699
 30
0.0
 10
1418.445794973081
 20
132.7684168903687
 30
0.0
 10
1417.76608256685
 20
131.3107688708231
 30
0.0
 10
1417.583867617629
 20
130.5313037914096
 30
0.0
 10
1417.58386761763
 20
129.1414734913577
 30
0.0
 10
1417.766082566851
 20
128.4660629024905
 30
0.0
 10
1418.445794973081
 20
127.4007145354811
 30
0.0
 10
1418.922953668165
 20
126.9953146886195
 30
0.0
 10
1419.453740163469
 20
126.7289367116981
 30
0.0
  0
SPLINE
  5
66B
330
1F
100
AcDbEntity
  8
0
  6
Continuous
100
AcDbSpline
210
0.0
220
0.0
230
1.0
 70
    12
 71
     2
 72
     6
 73
     3
 74
     0
 42
0.0000000001
 43
0.0000000001
 40
1.569540480216324
 40
1.569540480216324
 40
1.569540480216324
 40
3.055091235087588
 40
3.055091235087588
 40
3.055091235087588
 10
1419.453740163467
 20
134.0291383402171
 30
0.0
 41
1.013099513339539
 10
1424.429149650375
 20
139.451747968569
 30
0.0
 41
1.013474471913594
 10
1428.802421982184
 20
143.9725186294584
 30
0.0
 41
1.002824163421832
  0
ELLIPSE
  5
66C
330
1F
100
AcDbEntity
  8
0
  6
Continuous
100
AcDbEllipse
 10
1485.083867617631
 20
133.138087322893
 30
0.0
 11
56.99999999999969
 21
-0.0000000000196149
 31
0.0
210
0.0
220
0.0
230
1.0
 40
0.838670567945423
 41
3.935880825794498
 42
4.441699583779143
  0
SPLINE
  5
66D
330
1F
100
AcDbEntity
  8
0
  6
Continuous
100
AcDbSpline
210
0.0
220
0.0
230
1.0
 70
    12
 71
     2
 72
     6
 73
     3
 74
     0
 42
0.0000000001
 43
0.0000000001
 40
0.0
 40
0.0
 40
0.0
 40
1.670584743254542
 40
1.670584743254542
 40
1.670584743254542
 10
1469.842307380347
 20
87.07457044368529
 30
0.0
 41
1.0
 10
1463.433409442437
 20
84.36835297899541
 30
0.0
 41
1.013521175185233
 10
1456.037959685862
 20
80.88616811566852
 30
0.0
 41
1.013099513339541
  0
SPLINE
  5
66E
330
1F
100
AcDbEntity
  8
0
  6
Continuous
100
AcDbSpline
210
0.0
220
0.0
230
1.0
 70
     8
 71
     3
 72
    14
 73
    10
 74
     0
 42
0.0000000001
 43
0.0000000001
 40
0.5547637335169191
 40
0.5547637335169191
 40
0.5547637335169191
 40
0.5547637335169191
 40
0.7887614165524713
 40
0.7887614165524713
 40
1.037338811510501
 40
1.037338811510501
 40
1.285916206468531
 40
1.285916206468531
 40
1.51991388950408
 40
1.51991388950408
 40
1.51991388950408
 40
1.51991388950408
 10
1448.499648095253
 20
84.53626892992851
 30
0.0
 10
1448.670469744704
 20
83.7834768594147
 30
0.0
 10
1448.993441206718
 20
83.02659160987413
 30
0.0
 10
1449.956229359996
 20
81.70601075747518
 30
0.0
 10
1450.616286488171
 20
81.15792005222001
 30
0.0
 10
1452.051448747105
 20
80.46300490219428
 30
0.0
 10
1452.893720824503
 20
80.28365777330909
 30
0.0
 10
1454.53622138401
 20
80.34274043243012
 30
0.0
 10
1455.336351541107
 20
80.55581237773948
 30
0.0
 10
1456.037959685862
 20
80.88616811566852
 30
0.0
  0
SPLINE
  5
66F
330
1F
100
AcDbEntity
  8
0
  6
Continuous
100
AcDbSpline
210
0.0
220
0.0
230
1.0
 70
    12
 71
     2
 72
     6
 73
     3
 74
     0
 42
0.0000000001
 43
0.0000000001
 40
1.569540480216313
 40
1.569540480216313
 40
1.569540480216313
 40
3.240125223470863
 40
3.240125223470863
 40
3.240125223470863
 10
1448.499648095253
 20
84.53626892992851
 30
0.0
 41
1.013099513339551
 10
1446.699066195945
 20
92.47123373364674
 30
0.0
 41
1.013521175185243
 10
1445.138681634985
 20
99.03623100446965
 30
0.0
 41
1.0
  0
ELLIPSE
  5
670
330
1F
100
AcDbEntity
  8
0
  6
Continuous
100
AcDbEllipse
 10
1485.083867617631
 20
133.138087322893
 30
0.0
 11
56.99999999999986
 21
-0.0000000000245484
 31
0.0
210
0.0
220
0.0
230
1.0
 40
0.838670567945423
 41
4.98307837699119
 42
5.488897134975802
  0
SPLINE
  5
671
330
1F
100
AcDbEntity
  8
0
  6
Continuous
100
AcDbSpline
210
0.0
220
0.0
230
1.0
 70
    12
 71
     2
 72
     6
 73
     3
 74
     0
 42
0.0000000001
 43
0.0000000001
 40
0.0
 40
0.0
 40
0.0
 40
1.670584743254531
 40
1.670584743254531
 40
1.670584743254531
 10
1525.029053600288
 20
99.03623100446965
 30
0.0
 41
1.0
 10
1523.46866903933
 20
92.47123373364628
 30
0.0
 41
1.013521175185248
 10
1521.668087140024
 20
84.53626892992851
 30
0.0
 41
1.013099513339555
  0
SPLINE
  5
672
330
1F
100
AcDbEntity
  8
0
  6
Continuous
100
AcDbSpline
210
0.0
220
0.0
230
1.0
 70
     8
 71
     3
 72
    14
 73
    10
 74
     0
 42
0.0000000001
 43
0.0000000001
 40
0.5547637335169201
 40
0.5547637335169201
 40
0.5547637335169201
 40
0.5547637335169201
 40
0.7887614165524717
 40
0.7887614165524717
 40
1.037338811510502
 40
1.037338811510502
 40
1.285916206468532
 40
1.285916206468532
 40
1.519913889504081
 40
1.519913889504081
 40
1.519913889504081
 40
1.519913889504081
 10
1514.129775549414
 20
80.88616811566852
 30
0.0
 10
1514.83138369417
 20
80.55581237773948
 30
0.0
 10
1515.631513851268
 20
80.34274043243012
 30
0.0
 10
1517.274014410774
 20
80.28365777330909
 30
0.0
 10
1518.11628648817
 20
80.46300490219428
 30
0.0
 10
1519.551448747105
 20
81.15792005222045
 30
0.0
 10
1520.211505875282
 20
81.70601075747562
 30
0.0
 10
1521.174294028558
 20
83.02659160987413
 30
0.0
 10
1521.497265490573
 20
83.7834768594147
 30
0.0
 10
1521.668087140024
 20
84.53626892992851
 30
0.0
  0
SPLINE
  5
673
330
1F
100
AcDbEntity
  8
0
  6
Continuous
100
AcDbSpline
210
0.0
220
0.0
230
1.0
 70
    12
 71
     2
 72
     6
 73
     3
 74
     0
 42
0.0000000001
 43
0.0000000001
 40
1.569540480216325
 40
1.569540480216325
 40
1.569540480216325
 40
3.240125223470864
 40
3.240125223470864
 40
3.240125223470864
 10
1514.129775549414
 20
80.88616811566852
 30
0.0
 41
1.013099513339537
 10
1506.734325792841
 20
84.36835297899541
 30
0.0
 41
1.013521175185229
 10
1500.325427854932
 20
87.07457044368529
 30
0.0
 41
1.0
  0
SPLINE
  5
674
330
1F
100
AcDbEntity
  8
0
  6
Continuous
100
AcDbSpline
210
0.0
220
0.0
230
1.0
 70
     8
 71
     3
 72
    14
 73
    10
 74
     0
 42
0.0000000001
 43
0.0000000001
 40
0.5547637335169204
 40
0.5547637335169204
 40
0.5547637335169204
 40
0.5547637335169204
 40
0.7887614165524719
 40
0.7887614165524719
 40
1.037338811510502
 40
1.037338811510502
 40
1.285916206468532
 40
1.285916206468532
 40
1.519913889504082
 40
1.519913889504082
 40
1.519913889504082
 40
1.519913889504082
 10
1550.713995071792
 20
126.7289367116981
 30
0.0
 10
1551.244781567096
 20
126.9953146886195
 30
0.0
 10
1551.721940262178
 20
127.4007145354811
 30
0.0
 10
1552.401652668407
 20
128.4660629024905
 30
0.0
 10
1552.58386761763
 20
129.1414734913577
 30
0.0
 10
1552.583867617629
 20
130.5313037914096
 30
0.0
 10
1552.401652668407
 20
131.3107688708231
 30
0.0
 10
1551.721940262178
 20
132.7684168903687
 30
0.0
 10
1551.244781567095
 20
133.4506436519699
 30
0.0
 10
1550.713995071791
 20
134.0291383402171
 30
0.0
  0
SPLINE
  5
675
330
1F
100
AcDbEntity
  8
0
  6
Continuous
100
AcDbSpline
210
0.0
220
0.0
230
1.0
 70
    12
 71
     2
 72
     6
 73
     3
 74
     0
 42
0.0000000001
 43
0.0000000001
 40
1.569540480216313
 40
1.569540480216313
 40
1.569540480216313
 40
3.240125223470862
 40
3.240125223470862
 40
3.240125223470862
 10
1550.713995071792
 20
126.7289367116981
 30
0.0
 41
1.013099513339534
 10
1545.119127214526
 20
123.9211230349218
 30
0.0
 41
1.013521175185226
 10
1540.270613837576
 20
121.1764267621087
 30
0.0
 41
1.0
  0
ELLIPSE
  5
676
330
1F
100
AcDbEntity
  8
0
  6
Continuous
100
AcDbEllipse
 10
1485.083867617631
 20
133.138087322893
 30
0.0
 11
57.00000000000037
 21
-0.0000000000245373
 31
0.0
210
0.0
220
0.0
230
1.0
 40
0.8386705679454228
 41
6.030275928187796
 42
6.283185307180121
  0
SPLINE
  5
677
330
1F
100
AcDbEntity
  8
0
  6
Continuous
100
AcDbSpline
210
0.0
220
0.0
230
1.0
 70
    12
 71
     2
 72
     6
 73
     3
 74
     0
 42
0.0000000001
 43
0.0000000001
 40
0.1850339883831799
 40
0.1850339883831799
 40
0.1850339883831799
 40
1.670584743254553
 40
1.670584743254553
 40
1.670584743254553
 10
1541.365313253072
 20
143.9725186294593
 30
0.0
 41
1.002824163421836
 10
1545.738585584882
 20
139.4517479685695
 30
0.0
 41
1.013474471913622
 10
1550.713995071791
 20
134.0291383402171
 30
0.0
 41
1.013099513339566
  0
SPLINE
  5
678
330
1F
100
AcDbEntity
  8
0
  6
Continuous
100
AcDbSpline
210
0.0
220
0.0
230
1.0
 70
     8
 71
     3
 72
    16
 73
    12
 74
     0
 42
0.0000000001
 43
0.0000000001
 40
4.875429312025397
 40
4.875429312025397
 40
4.875429312025397
 40
4.875429312025397
 40
4.920737279174774
 40
4.920737279174774
 40
5.258102675022636
 40
5.258102675022636
 40
5.599643777605677
 40
5.599643777605677
 40
5.940935774198943
 40
5.940935774198943
 40
6.108513314648253
 40
6.108513314648253
 40
6.108513314648253
 40
6.108513314648253
 10
1309.170335714613
 20
493.1395270106743
 30
0.0
 10
1309.108577722236
 20
492.4502129354916
 30
0.0
 10
1309.038279097286
 20
491.7630774702022
 30
0.0
 10
1308.372720299332
 20
485.9829266640156
 30
0.0
 10
1307.313420095812
 20
481.0436851425549
 30
0.0
 10
1304.282895673001
 20
471.8801989983023
 30
0.0
 10
1302.304378017749
 20
467.6645394977606
 30
0.0
 10
1297.465226268253
 20
460.4273392777697
 30
0.0
 10
1294.598414294939
 20
457.3888484884921
 30
0.0
 10
1289.631325715963
 20
454.1396795718567
 30
0.0
 10
1287.882875993312
 20
453.2812708101276
 30
0.0
 10
1286.051462417263
 20
452.6878681702721
 30
0.0
  0
SPLINE
  5
679
330
1F
100
AcDbEntity
  8
0
  6
Continuous
100
AcDbSpline
210
0.0
220
0.0
230
1.0
 70
     8
 71
     3
 72
    14
 73
    10
 74
     0
 42
0.0000000001
 43
0.0000000001
 40
3.316264646121124
 40
3.316264646121124
 40
3.316264646121124
 40
3.316264646121124
 40
3.58301527708296
 40
3.58301527708296
 40
3.90031602981613
 40
3.90031602981613
 40
4.243466929454632
 40
4.243466929454632
 40
4.549348648743958
 40
4.549348648743958
 40
4.549348648743958
 40
4.549348648743958
 10
1286.051462417264
 20
548.5872023052354
 30
0.0
 10
1288.966714220417
 20
547.6426214970217
 30
0.0
 10
1291.660325919747
 20
546.0299445644579
 30
0.0
 10
1296.903231287361
 20
541.4812885065105
 30
0.0
 10
1299.350929319364
 20
538.3529331372894
 30
0.0
 10
1303.652640240612
 20
530.8651711137265
 30
0.0
 10
1305.44242364585
 20
526.4160963781062
 30
0.0
 10
1307.946146859799
 20
517.3420013254055
 30
0.0
 10
1308.753397103663
 20
512.7892189155893
 30
0.0
 10
1309.170335714613
 20
508.135543464816
 30
0.0
  0
LINE
  5
67A
330
1F
100
AcDbEntity
  8
0
  6
Continuous
100
AcDbLine
 10
1198.107272552957
 20
539.1375352377492
 30
0.0
 11
1194.4365408866
 21
539.1375352377483
 31
0.0
  0
LINE
  5
67B
330
1F
100
AcDbEntity
  8
0
  6
Continuous
100
AcDbLine
 10
1190.654079097184
 20
522.9534488421752
 30
0.0
 11
1185.622055689512
 21
522.9534488421743
 31
0.0
  0
LINE
  5
67C
330
1F
100
AcDbEntity
  8
0
  6
Continuous
100
AcDbLine
 10
1198.107272552955
 20
462.1375352377492
 30
0.0
 11
1194.436540886598
 21
462.1375352377492
 31
0.0
  0
LINE
  5
67D
330
1F
100
AcDbEntity
  8
0
  6
Continuous
100
AcDbLine
 10
1190.654079097184
 20
478.3216216333324
 30
0.0
 11
1185.622055689512
 21
478.3216216333314
 31
0.0
  0
LINE
  5
67E
330
1F
100
AcDbEntity
  8
0
  6
Continuous
100
AcDbLine
 10
1190.366354436907
 20
467.5583728053909
 30
0.0
 11
1190.851332279961
 21
466.7979322897046
 31
0.0
  0
LINE
  5
67F
330
1F
100
AcDbEntity
  8
0
  6
Continuous
100
AcDbLine
 10
1190.366354436908
 20
533.7166976701094
 30
0.0
 11
1190.851332279963
 21
534.4771381857956
 31
0.0
  0
SPLINE
  5
680
330
1F
100
AcDbEntity
  8
0
  6
Continuous
100
AcDbSpline
210
0.0
220
0.0
230
1.0
 70
     8
 71
     3
 72
     8
 73
     4
 74
     0
 42
0.0000000001
 43
0.0000000001
 40
-0.1439790369052067
 40
-0.1439790369052067
 40
-0.1439790369052067
 40
-0.1439790369052067
 40
0.0
 40
0.0
 40
0.0
 40
0.0
 10
1185.328024156581
 20
478.5921275527036
 30
0.0
 10
1185.426009214139
 20
478.5014292709231
 30
0.0
 10
1185.524028457354
 20
478.4112590663946
 30
0.0
 10
1185.622055689512
 20
478.3216216333314
 30
0.0
  0
SPLINE
  5
681
330
1F
100
AcDbEntity
  8
0
  6
Continuous
100
AcDbSpline
210
0.0
220
0.0
230
1.0
 70
     8
 71
     3
 72
     8
 73
     4
 74
     0
 42
0.0000000001
 43
0.0000000001
 40
-0.1439790369034118
 40
-0.1439790369034118
 40
-0.1439790369034118
 40
-0.1439790369034118
 40
0.0
 40
0.0
 40
0.0
 40
0.0
 10
1185.328024156581
 20
522.6829429228011
 30
0.0
 10
1185.426009214141
 20
522.7736412045817
 30
0.0
 10
1185.524028457356
 20
522.863811409111
 30
0.0
 10
1185.622055689512
 20
522.9534488421743
 30
0.0
  0
ELLIPSE
  5
682
330
1F
100
AcDbEntity
  8
0
  6
Continuous
100
AcDbEllipse
 10
1206.59065853759
 20
500.6375352377428
 30
0.0
 11
-0.0000000000079423
 21
44.49999999999972
 31
0.0
210
0.0
220
0.0
230
1.0
 40
0.5446390350150258
 41
0.5253099694687613
 42
1.045486357325457
  0
LINE
  5
683
330
1F
100
AcDbEntity
  8
0
  6
Continuous
100
AcDbLine
 10
1185.622055689512
 20
478.3216216333314
 30
0.0
 11
1185.622055689512
 21
522.9534488421743
 31
0.0
  0
ELLIPSE
  5
684
330
1F
100
AcDbEntity
  8
0
  6
Continuous
100
AcDbEllipse
 10
1206.59065853759
 20
500.6375352377428
 30
0.0
 11
-0.0000000000054443
 21
44.49999999999979
 31
0.0
210
0.0
220
0.0
230
1.0
 40
0.5446390350150259
 41
2.096106296263902
 42
2.616282684120774
  0
ELLIPSE
  5
685
330
1F
100
AcDbEntity
  8
0
  6
Continuous
100
AcDbEllipse
 10
1212.46135251318
 20
500.6375352377138
 30
0.0
 11
-0.0000000000053069
 21
43.49999999994071
 31
0.0
210
0.0
220
0.0
230
1.0
 40
0.5446390350150259
 41
2.102254564733502
 42
2.128667498353447
  0
ELLIPSE
  5
686
330
1F
100
AcDbEntity
  8
0
  6
Continuous
100
AcDbEllipse
 10
1211.622681945264
 20
500.6375352377456
 30
0.0
 11
0.0000000000079409
 21
-44.50000000000227
 31
0.0
210
0.0
220
0.0
230
1.0
 40
0.5446390350150259
 41
5.237698949853429
 42
5.332800777600923
  0
LINE
  5
687
330
1F
100
AcDbEntity
  8
0
  6
Continuous
100
AcDbLine
 10
1192.037388700145
 20
478.5921275527055
 30
0.0
 11
1192.037388700145
 21
522.6829429228021
 31
0.0
  0
SPLINE
  5
688
330
1F
100
AcDbEntity
  8
0
  6
Continuous
100
AcDbSpline
210
0.0
220
0.0
230
1.0
 70
     8
 71
     3
 72
     8
 73
     4
 74
     0
 42
0.0000000001
 43
0.0000000001
 40
-0.1439790587598173
 40
-0.1439790587598173
 40
-0.1439790587598173
 40
-0.1439790587598173
 40
0.0
 40
0.0
 40
0.0
 40
0.0
 10
1190.654079097184
 20
478.3216216333324
 30
0.0
 10
1191.115260965133
 20
478.4112590663946
 30
0.0
 10
1191.576405248076
 20
478.5014292709241
 30
0.0
 10
1192.037388700145
 20
478.5921275527055
 30
0.0
  0
LINE
  5
689
330
1F
100
AcDbEntity
  8
0
  6
Continuous
100
AcDbLine
 10
1190.654079097184
 20
522.9534488421752
 30
0.0
 11
1190.654079097184
 21
478.3216216333324
 31
0.0
  0
ELLIPSE
  5
68A
330
1F
100
AcDbEntity
  8
0
  6
Continuous
100
AcDbEllipse
 10
1212.46135251321
 20
500.6375352377411
 30
0.0
 11
-0.0000000000077618
 21
43.50000000000505
 31
0.0
210
0.0
220
0.0
230
1.0
 40
0.5446390350150258
 41
1.012925155235811
 42
1.039338088855699
  0
SPLINE
  5
68B
330
1F
100
AcDbEntity
  8
0
  6
Continuous
100
AcDbSpline
210
0.0
220
0.0
230
1.0
 70
     8
 71
     3
 72
     8
 73
     4
 74
     0
 42
0.0000000001
 43
0.0000000001
 40
-0.1439790587600738
 40
-0.1439790587600738
 40
-0.1439790587600738
 40
-0.1439790587600738
 40
0.0
 40
0.0
 40
0.0
 40
0.0
 10
1190.654079097184
 20
522.9534488421752
 30
0.0
 10
1191.115260965132
 20
522.8638114091129
 30
0.0
 10
1191.576405248075
 20
522.7736412045826
 30
0.0
 10
1192.037388700145
 20
522.6829429228021
 30
0.0
  0
ELLIPSE
  5
68C
330
1F
100
AcDbEntity
  8
0
  6
Continuous
100
AcDbEllipse
 10
1211.622681945264
 20
500.6375352377428
 30
0.0
 11
0.0000000000104514
 21
-44.50000000000216
 31
0.0
210
0.0
220
0.0
230
1.0
 40
0.5446390350150257
 41
4.091977183167585
 42
4.187079010915098
  0
LINE
  5
68D
330
1F
100
AcDbEntity
  8
0
  6
Continuous
100
AcDbLine
 10
1198.910963736516
 20
444.5553616777799
 30
0.0
 11
1198.910963736516
 21
461.7832654009701
 31
0.0
  0
LINE
  5
68E
330
1F
100
AcDbEntity
  8
0
  6
Continuous
100
AcDbLine
 10
1173.510963736515
 20
444.5553616777808
 30
0.0
 11
1173.510963736515
 21
462.1375352377392
 31
0.0
  0
LINE
  5
68F
330
1F
100
AcDbEntity
  8
0
  6
Continuous
100
AcDbLine
 10
1173.510963736515
 20
444.5553616777808
 30
0.0
 11
1160.960963736516
 21
439.9875352377396
 31
0.0
  0
LINE
  5
690
330
1F
100
AcDbEntity
  8
0
  6
Continuous
100
AcDbLine
 10
1198.910963736516
 20
444.5553616777799
 30
0.0
 11
1211.460963736515
 21
439.9875352377396
 31
0.0
  0
LINE
  5
691
330
1F
100
AcDbEntity
  8
0
  6
Continuous
100
AcDbLine
 10
1211.460963736515
 20
437.1375352377392
 30
0.0
 11
1211.460963736515
 21
439.9875352377396
 31
0.0
  0
LINE
  5
692
330
1F
100
AcDbEntity
  8
0
  6
Continuous
100
AcDbLine
 10
1160.960963736516
 20
437.1375352377401
 30
0.0
 11
1160.960963736516
 21
439.9875352377396
 31
0.0
  0
LINE
  5
693
330
1F
100
AcDbEntity
  8
0
  6
Continuous
100
AcDbLine
 10
1198.910963736516
 20
444.5553616777799
 30
0.0
 11
1173.510963736515
 21
444.5553616777799
 31
0.0
  0
LINE
  5
694
330
1F
100
AcDbEntity
  8
0
  6
Continuous
100
AcDbLine
 10
1211.460963736515
 20
439.9875352377387
 30
0.0
 11
1160.960963736516
 21
439.9875352377396
 31
0.0
  0
LINE
  5
695
330
1F
100
AcDbEntity
  8
0
  6
Continuous
100
AcDbLine
 10
1211.460963736515
 20
437.1375352377392
 30
0.0
 11
1160.960963736516
 21
437.1375352377401
 31
0.0
  0
LINE
  5
696
330
1F
100
AcDbEntity
  8
0
  6
Continuous
100
AcDbLine
 10
1198.910963736517
 20
539.4918050745075
 30
0.0
 11
1198.910963736517
 21
556.7197087976976
 31
0.0
  0
LINE
  5
697
330
1F
100
AcDbEntity
  8
0
  6
Continuous
100
AcDbLine
 10
1173.510963736517
 20
539.1375352377393
 30
0.0
 11
1173.510963736517
 21
556.7197087976985
 31
0.0
  0
LINE
  5
698
330
1F
100
AcDbEntity
  8
0
  6
Continuous
100
AcDbLine
 10
1198.910963736517
 20
556.7197087976976
 30
0.0
 11
1211.460963736518
 21
561.2875352377389
 31
0.0
  0
LINE
  5
699
330
1F
100
AcDbEntity
  8
0
  6
Continuous
100
AcDbLine
 10
1173.510963736517
 20
556.7197087976985
 30
0.0
 11
1160.960963736517
 21
561.2875352377389
 31
0.0
  0
LINE
  5
69A
330
1F
100
AcDbEntity
  8
0
  6
Continuous
100
AcDbLine
 10
1211.460963736518
 20
561.2875352377389
 30
0.0
 11
1211.460963736518
 21
564.1375352377383
 31
0.0
  0
LINE
  5
69B
330
1F
100
AcDbEntity
  8
0
  6
Continuous
100
AcDbLine
 10
1160.960963736517
 20
561.2875352377389
 30
0.0
 11
1160.960963736517
 21
564.1375352377393
 31
0.0
  0
LINE
  5
69C
330
1F
100
AcDbEntity
  8
0
  6
Continuous
100
AcDbLine
 10
1198.910963736517
 20
556.7197087976985
 30
0.0
 11
1173.510963736517
 21
556.7197087976985
 31
0.0
  0
LINE
  5
69D
330
1F
100
AcDbEntity
  8
0
  6
Continuous
100
AcDbLine
 10
1211.460963736518
 20
561.2875352377389
 30
0.0
 11
1160.960963736518
 21
561.2875352377398
 31
0.0
  0
LINE
  5
69E
330
1F
100
AcDbEntity
  8
0
  6
Continuous
100
AcDbLine
 10
1211.460963736518
 20
564.1375352377383
 30
0.0
 11
1160.960963736518
 21
564.1375352377393
 31
0.0
  0
LINE
  5
69F
330
1F
100
AcDbEntity
  8
0
  6
Continuous
100
AcDbLine
 10
1170.251932691589
 20
526.9854436080197
 30
0.0
 11
1170.251932691589
 21
539.1375352377383
 31
0.0
  0
LINE
  5
6A0
330
1F
100
AcDbEntity
  8
0
  6
Continuous
100
AcDbLine
 10
1170.251932691589
 20
517.0516368528763
 30
0.0
 11
1170.251932691589
 21
523.784272813322
 31
0.0
  0
SPLINE
  5
6A1
330
1F
100
AcDbEntity
  8
0
  6
Continuous
100
AcDbSpline
210
0.0
220
0.0
230
1.0
 70
     8
 71
     3
 72
    16
 73
    12
 74
     0
 42
0.0000000001
 43
0.0000000001
 40
-1.047197551196596
 40
-1.047197551196596
 40
-1.047197551196596
 40
-1.047197551196596
 40
-0.8377580409572773
 40
-0.8377580409572773
 40
-0.628318530717958
 40
-0.628318530717958
 40
-0.4188790204786386
 40
-0.4188790204786386
 40
-0.2094395102393193
 40
-0.2094395102393193
 40
0.0
 40
0.0
 40
0.0
 40
0.0
 10
1171.682291949183
 20
512.5239759449271
 30
0.0
 10
1171.441111013985
 20
512.8110939645514
 30
0.0
 10
1171.250961151005
 20
513.1046147930113
 30
0.0
 10
1170.933218470132
 20
513.694532041811
 30
0.0
 10
1170.805892765796
 20
513.9916461146015
 30
0.0
 10
1170.594729060324
 20
514.5909351556022
 30
0.0
 10
1170.511157483011
 20
514.8932420246776
 30
0.0
 10
1170.379442836101
 20
515.5032409037151
 30
0.0
 10
1170.331430368743
 20
515.8109209091237
 30
0.0
 10
1170.267650431298
 20
516.4296316778311
 30
0.0
 10
1170.251932691589
 20
516.7406238207115
 30
0.0
 10
1170.251932691589
 20
517.0516368528763
 30
0.0
  0
LINE
  5
6A2
330
1F
100
AcDbEntity
  8
0
  6
Continuous
100
AcDbLine
 10
1171.682291949183
 20
512.5239759449271
 30
0.0
 11
1173.20973128392
 21
510.7056093458961
 31
0.0
  0
LINE
  5
6A3
330
1F
100
AcDbEntity
  8
0
  6
Continuous
100
AcDbLine
 10
1173.209731283919
 20
490.5694611295841
 30
0.0
 11
1171.682291949181
 21
488.7510945305514
 31
0.0
  0
SPLINE
  5
6A4
330
1F
100
AcDbEntity
  8
0
  6
Continuous
100
AcDbSpline
210
0.0
220
0.0
230
1.0
 70
     8
 71
     3
 72
    16
 73
    12
 74
     0
 42
0.0000000001
 43
0.0000000001
 40
0.0000000000000002
 40
0.0000000000000002
 40
0.0000000000000002
 40
0.0000000000000002
 40
0.2094395102393197
 40
0.2094395102393197
 40
0.4188790204786394
 40
0.4188790204786394
 40
0.6283185307179588
 40
0.6283185307179588
 40
0.8377580409572784
 40
0.8377580409572784
 40
1.047197551196598
 40
1.047197551196598
 40
1.047197551196598
 40
1.047197551196598
 10
1170.251932691587
 20
484.2234336226012
 30
0.0
 10
1170.251932691587
 20
484.5344466547669
 30
0.0
 10
1170.267650431298
 20
484.8454387976464
 30
0.0
 10
1170.331430368743
 20
485.4641495663547
 30
0.0
 10
1170.3794428361
 20
485.7718295717634
 30
0.0
 10
1170.51115748301
 20
486.3818284508008
 30
0.0
 10
1170.594729060324
 20
486.6841353198763
 30
0.0
 10
1170.805892765795
 20
487.283424360877
 30
0.0
 10
1170.933218470131
 20
487.5805384336675
 30
0.0
 10
1171.250961151005
 20
488.1704556824681
 30
0.0
 10
1171.441111013985
 20
488.4639765109271
 30
0.0
 10
1171.682291949181
 20
488.7510945305514
 30
0.0
  0
LINE
  5
6A5
330
1F
100
AcDbEntity
  8
0
  6
Continuous
100
AcDbLine
 10
1170.251932691587
 20
477.4907976621563
 30
0.0
 11
1170.251932691587
 21
484.2234336226012
 31
0.0
  0
LINE
  5
6A6
330
1F
100
AcDbEntity
  8
0
  6
Continuous
100
AcDbLine
 10
1170.251932691587
 20
462.1375352377392
 30
0.0
 11
1170.251932691587
 21
474.2896268674587
 31
0.0
  0
LINE
  5
6A7
330
1F
100
AcDbEntity
  8
0
  6
Continuous
100
AcDbLine
 10
1170.251932691589
 20
539.1375352377383
 30
0.0
 11
1170.511296318661
 21
539.1375352377393
 31
0.0
  0
LINE
  5
6A8
330
1F
100
AcDbEntity
  8
0
  6
Continuous
100
AcDbLine
 10
1170.511296318659
 20
462.1375352377401
 30
0.0
 11
1170.251932691587
 21
462.1375352377392
 31
0.0
  0
LINE
  5
6A9
330
1F
100
AcDbEntity
  8
0
  6
Continuous
100
AcDbLine
 10
1174.655021059117
 20
539.1375352377419
 30
0.0
 11
1170.511296318661
 21
539.1375352377393
 31
0.0
  0
LINE
  5
6AA
330
1F
100
AcDbEntity
  8
0
  6
Continuous
100
AcDbLine
 10
1170.511296318659
 20
462.1375352377401
 30
0.0
 11
1174.655021059116
 21
462.1375352377429
 31
0.0
  0
LINE
  5
6AB
330
1F
100
AcDbEntity
  8
0
  6
Continuous
100
AcDbLine
 10
1182.024216481007
 20
462.1375352377437
 30
0.0
 11
1174.655021059116
 21
462.1375352377429
 31
0.0
  0
LINE
  5
6AC
330
1F
100
AcDbEntity
  8
0
  6
Continuous
100
AcDbLine
 10
1174.655021059116
 20
462.1375352377429
 30
0.0
 11
1174.655021059116
 21
470.8902122648107
 31
0.0
  0
LINE
  5
6AD
330
1F
100
AcDbEntity
  8
0
  6
Continuous
100
AcDbLine
 10
1174.655021059117
 20
530.384858210674
 30
0.0
 11
1174.655021059117
 21
539.1375352377419
 31
0.0
  0
LINE
  5
6AE
330
1F
100
AcDbEntity
  8
0
  6
Continuous
100
AcDbLine
 10
1174.655021059117
 20
539.1375352377419
 30
0.0
 11
1182.024216481008
 21
539.1375352377438
 31
0.0
  0
LINE
  5
6AF
330
1F
100
AcDbEntity
  8
0
  6
Continuous
100
AcDbLine
 10
1172.831827862202
 20
470.8902122648153
 30
0.0
 11
1176.15294779366
 21
470.8902122648161
 31
0.0
  0
LINE
  5
6B0
330
1F
100
AcDbEntity
  8
0
  6
Continuous
100
AcDbLine
 10
1172.831827862202
 20
480.8902122648153
 30
0.0
 11
1173.209731283919
 21
480.8902122648153
 31
0.0
  0
LINE
  5
6B1
330
1F
100
AcDbEntity
  8
0
  6
Continuous
100
AcDbLine
 10
1176.152947793661
 20
530.3848582106795
 30
0.0
 11
1172.831827862203
 21
530.3848582106787
 31
0.0
  0
LINE
  5
6B2
330
1F
100
AcDbEntity
  8
0
  6
Continuous
100
AcDbLine
 10
1173.20973128392
 20
520.3848582106795
 30
0.0
 11
1172.831827862203
 21
520.3848582106795
 31
0.0
  0
ELLIPSE
  5
6B3
330
1F
100
AcDbEntity
  8
0
  6
Continuous
100
AcDbEllipse
 10
1172.831827862202
 20
475.8902122648162
 30
0.0
 11
-0.0000000000000436
 21
-4.99999999999998
 31
0.0
210
0.0
220
0.0
230
1.0
 40
0.5446390350150259
 41
3.141592653591406
 42
6.2831853071812
  0
ELLIPSE
  5
6B4
330
1F
100
AcDbEntity
  8
0
  6
Continuous
100
AcDbEllipse
 10
1172.831827862203
 20
525.3848582106786
 30
0.0
 11
0.0000000000001065
 21
4.99999999999998
 31
0.0
210
0.0
220
0.0
230
1.0
 40
0.5446390350150259
 41
0.0000000000016917
 42
3.141592653591484
  0
LINE
  5
6B5
330
1F
100
AcDbEntity
  8
0
  6
Continuous
100
AcDbLine
 10
1184.783385121566
 20
522.9534488421743
 30
0.0
 11
1173.20973128392
 21
522.9534488421716
 31
0.0
  0
LINE
  5
6B6
330
1F
100
AcDbEntity
  8
0
  6
Continuous
100
AcDbLine
 10
1184.783385121566
 20
478.3216216333314
 30
0.0
 11
1173.209731283919
 21
478.3216216333296
 31
0.0
  0
ELLIPSE
  5
6B7
330
1F
100
AcDbEntity
  8
0
  6
Continuous
100
AcDbEllipse
 10
1205.751987969645
 20
500.6375352377428
 30
0.0
 11
0.0000000000102099
 21
-43.49999999999948
 31
0.0
210
0.0
220
0.0
230
1.0
 40
0.5446390350150259
 41
3.84839779983638
 42
4.18093074244526
  0
LINE
  5
6B8
330
1F
100
AcDbEntity
  8
0
  6
Continuous
100
AcDbLine
 10
1185.328024156581
 20
522.6829429228011
 30
0.0
 11
1185.328024156581
 21
478.5921275527036
 31
0.0
  0
ELLIPSE
  5
6B9
330
1F
100
AcDbEntity
  8
0
  6
Continuous
100
AcDbEllipse
 10
1205.751987969645
 20
500.6375352377428
 30
0.0
 11
0.0000000000077507
 21
-43.49999999999975
 31
0.0
210
0.0
220
0.0
230
1.0
 40
0.5446390350150259
 41
5.243847218323198
 42
5.576380160931945
  0
ELLIPSE
  5
6BA
330
1F
100
AcDbEntity
  8
0
  6
Continuous
100
AcDbEllipse
 10
1205.751987969645
 20
500.6375352377428
 30
0.0
 11
-0.0000000000079436
 21
44.49999999999972
 31
0.0
210
0.0
220
0.0
230
1.0
 40
0.5446390350150258
 41
0.5253099694687613
 42
1.045486357325457
  0
ELLIPSE
  5
6BB
330
1F
100
AcDbEntity
  8
0
  6
Continuous
100
AcDbEllipse
 10
1205.751987969645
 20
500.6375352377428
 30
0.0
 11
-0.0000000000054387
 21
44.49999999999983
 31
0.0
210
0.0
220
0.0
230
1.0
 40
0.5446390350150259
 41
2.096106296263902
 42
2.616282684120774
  0
LINE
  5
6BC
330
1F
100
AcDbEntity
  8
0
  6
Continuous
100
AcDbLine
 10
1184.783385121566
 20
478.3216216333314
 30
0.0
 11
1184.783385121566
 21
522.9534488421743
 31
0.0
  0
LINE
  5
6BD
330
1F
100
AcDbEntity
  8
0
  6
Continuous
100
AcDbLine
 10
1193.597870318654
 20
539.1375352377483
 30
0.0
 11
1194.4365408866
 21
539.1375352377483
 31
0.0
  0
LINE
  5
6BE
330
1F
100
AcDbEntity
  8
0
  6
Continuous
100
AcDbLine
 10
1193.597870318654
 20
539.1375352377483
 30
0.0
 11
1182.024216481008
 21
539.1375352377465
 31
0.0
  0
LINE
  5
6BF
330
1F
100
AcDbEntity
  8
0
  6
Continuous
100
AcDbLine
 10
1193.597870318653
 20
462.1375352377483
 30
0.0
 11
1182.024216481007
 21
462.1375352377465
 31
0.0
  0
LINE
  5
6C0
330
1F
100
AcDbEntity
  8
0
  6
Continuous
100
AcDbLine
 10
1194.436540886598
 20
462.1375352377483
 30
0.0
 11
1193.597870318653
 21
462.1375352377483
 31
0.0
  0
ELLIPSE
  5
6C1
330
1F
100
AcDbEntity
  8
0
  6
Continuous
100
AcDbEllipse
 10
1194.178334131998
 20
500.6375352377402
 30
0.0
 11
0.0000000000104444
 21
-44.49999999999984
 31
0.0
210
0.0
220
0.0
230
1.0
 40
0.5446390350150258
 41
3.666902623058085
 42
4.187079010914971
  0
LINE
  5
6C2
330
1F
100
AcDbEntity
  8
0
  6
Continuous
100
AcDbLine
 10
1173.20973128392
 20
522.9534488421716
 30
0.0
 11
1173.209731283919
 21
478.3216216333296
 31
0.0
  0
ELLIPSE
  5
6C3
330
1F
100
AcDbEntity
  8
0
  6
Continuous
100
AcDbEllipse
 10
1194.178334131998
 20
500.6375352377402
 30
0.0
 11
0.0000000000079436
 21
-44.49999999999984
 31
0.0
210
0.0
220
0.0
230
1.0
 40
0.5446390350150259
 41
5.237698949853431
 42
5.757875337710157
  0
LINE
  5
6C4
330
1F
100
AcDbEntity
  8
0
  6
Continuous
100
AcDbLine
 10
1255.401285592014
 20
557.637535237751
 30
0.0
 11
1250.369262184342
 21
557.6375352377501
 31
0.0
  0
LINE
  5
6C5
330
1F
100
AcDbEntity
  8
0
  6
Continuous
100
AcDbLine
 10
1255.401285592012
 20
443.637535237752
 30
0.0
 11
1250.369262184341
 21
443.6375352377511
 31
0.0
  0
LINE
  5
6C6
330
1F
100
AcDbEntity
  8
0
  6
Continuous
100
AcDbLine
 10
1289.367443593803
 20
525.6375352377574
 30
0.0
 11
1285.174090754076
 21
525.6375352377565
 31
0.0
  0
LINE
  5
6C7
330
1F
100
AcDbEntity
  8
0
  6
Continuous
100
AcDbLine
 10
1289.367443593803
 20
475.6375352377574
 30
0.0
 11
1285.174090754076
 21
475.6375352377565
 31
0.0
  0
LINE
  5
6C8
330
1F
100
AcDbEntity
  8
0
  6
Continuous
100
AcDbLine
 10
1286.051462417264
 20
548.5872023052354
 30
0.0
 11
1260.796345043513
 21
556.7702001356813
 31
0.0
  0
LINE
  5
6C9
330
1F
100
AcDbEntity
  8
0
  6
Continuous
100
AcDbLine
 10
1286.051462417263
 20
452.6878681702721
 30
0.0
 11
1260.796345043512
 21
444.5048703398163
 31
0.0
  0
LINE
  5
6CA
330
1F
100
AcDbEntity
  8
0
  6
Continuous
100
AcDbLine
 10
1309.076201940521
 20
508.1375352377602
 30
0.0
 11
1289.367443593803
 21
508.1375352377574
 31
0.0
  0
LINE
  5
6CB
330
1F
100
AcDbEntity
  8
0
  6
Continuous
100
AcDbLine
 10
1309.07620194052
 20
493.137535237761
 30
0.0
 11
1289.367443593803
 21
493.1375352377574
 31
0.0
  0
ELLIPSE
  5
6CC
330
1F
100
AcDbEntity
  8
0
  6
Continuous
100
AcDbEllipse
 10
1223.531804010087
 20
500.6375352377456
 30
0.0
 11
-0.0000000000101752
 21
56.99999999999984
 31
0.0
210
0.0
220
0.0
230
1.0
 40
0.5446390350150259
 41
1.300106930188558
 42
1.84148572340055
  0
ELLIPSE
  5
6CD
330
1F
100
AcDbEntity
  8
0
  6
Continuous
100
AcDbEllipse
 10
1223.531804010087
 20
500.6375352377456
 30
0.0
 11
-0.0000000000101669
 21
56.9999999999997
 31
0.0
210
0.0
220
0.0
230
1.0
 40
0.5446390350150259
 41
0.2529093789919674
 42
0.7942881722039568
  0
ELLIPSE
  5
6CE
330
1F
100
AcDbEntity
  8
0
  6
Continuous
100
AcDbEllipse
 10
1223.531804010087
 20
500.6375352377456
 30
0.0
 11
0.0000000000101752
 21
-56.99999999999969
 31
0.0
210
0.0
220
0.0
230
1.0
 40
0.5446390350150259
 41
5.488897134974926
 42
6.030275928186917
  0
ELLIPSE
  5
6CF
330
1F
100
AcDbEntity
  8
0
  6
Continuous
100
AcDbEllipse
 10
1289.367443593803
 20
500.6375352377574
 30
0.0
 11
0.0000000000044596
 21
-24.99999999999991
 31
0.0
210
0.0
220
0.0
230
1.0
 40
0.5446390350150258
 41
1.875488980809938
 42
7.549288979958716
  0
ELLIPSE
  5
6D0
330
1F
100
AcDbEntity
  8
0
  6
Continuous
100
AcDbEllipse
 10
1255.401285592014
 20
500.637535237752
 30
0.0
 11
0.0000000000101738
 21
-56.99999999999977
 31
0.0
210
0.0
220
0.0
230
1.0
 40
0.544639035015026
 41
2.966920661058097
 42
6.457857299710555
  0
ELLIPSE
  5
6D1
330
1F
100
AcDbEntity
  8
0
  6
Continuous
100
AcDbEllipse
 10
1285.174090754076
 20
500.6375352377565
 30
0.0
 11
-0.0000000000003362
 21
-24.9999999999999
 31
0.0
210
0.0
220
0.0
230
1.0
 40
0.5446390350150259
 41
3.141592653591488
 42
6.283185307181281
  0
ELLIPSE
  5
6D2
330
1F
100
AcDbEntity
  8
0
  6
Continuous
100
AcDbEllipse
 10
1289.367443593803
 20
500.6375352377574
 30
0.0
 11
-0.0000000000000743
 21
-7.499999999999973
 31
0.0
210
0.0
220
0.0
230
1.0
 40
0.5446390350150259
 41
3.141592653591501
 42
6.283185307181294
  0
LINE
  5
6D3
330
1F
100
AcDbEntity
  8
0
  6
Continuous
100
AcDbLine
 10
1312.456364141781
 20
505.2001783318785
 30
0.0
 11
1311.7288973772
 21
506.3408391054074
 31
0.0
  0
LINE
  5
6D4
330
1F
100
AcDbEntity
  8
0
  6
Continuous
100
AcDbLine
 10
1312.456364141781
 20
496.0748921436418
 30
0.0
 11
1311.7288973772
 21
494.9342313701119
 31
0.0
  0
ELLIPSE
  5
6D5
330
1F
100
AcDbEntity
  8
0
  6
Continuous
100
AcDbEllipse
 10
1309.076201940521
 20
500.637535237761
 30
0.0
 11
-0.0000000000013382
 21
7.49999999999997
 31
0.0
210
0.0
220
0.0
230
1.0
 40
0.5446390350150259
 41
5.576380160931844
 42
10.13158310701615
  0
ELLIPSE
  5
6D6
330
1F
100
AcDbEntity
  8
0
  6
Continuous
100
AcDbEllipse
 10
1310.334207792439
 20
500.637535237761
 30
0.0
 11
0.0000000000000901
 21
5.999999999999975
 31
0.0
210
0.0
220
0.0
230
1.0
 40
0.5446390350150259
 41
0.0
 42
6.283185307179585
  0
LINE
  5
6D7
330
1F
100
AcDbEntity
  8
0
  6
Continuous
100
AcDbLine
 10
1223.531804010089
 20
568.1375352377456
 30
0.0
 11
1245.285092063612
 21
568.1375352377492
 31
0.0
  0
LINE
  5
6D8
330
1F
100
AcDbEntity
  8
0
  6
Continuous
100
AcDbLine
 10
1223.531804010087
 20
433.1375352377465
 30
0.0
 11
1245.285092063611
 21
433.1375352377501
 31
0.0
  0
ELLIPSE
  5
6D9
330
1F
100
AcDbEntity
  8
0
  6
Continuous
100
AcDbEllipse
 10
1194.524022736824
 20
469.8875352377601
 30
0.0
 11
0.0000000000010709
 21
-5.999999999999983
 31
0.0
210
0.0
220
0.0
230
1.0
 40
0.5446390350150259
 41
4.424409653805254
 42
6.047565858160013
  0
LINE
  5
6DA
330
1F
100
AcDbEntity
  8
0
  6
Continuous
100
AcDbLine
 10
1228.223257749025
 20
460.6923492551097
 30
0.0
 11
1201.385799574773
 21
460.6923492551052
 31
0.0
  0
LINE
  5
6DB
330
1F
100
AcDbEntity
  8
0
  6
Continuous
100
AcDbLine
 10
1201.385799574773
 20
460.6923492551052
 30
0.0
 11
1193.761161990629
 21
464.0533157153742
 31
0.0
  0
LINE
  5
6DC
330
1F
100
AcDbEntity
  8
0
  6
Continuous
100
AcDbLine
 10
1220.455264553601
 20
515.8790954750568
 30
0.0
 11
1193.617806379349
 21
515.8790954750513
 31
0.0
  0
LINE
  5
6DD
330
1F
100
AcDbEntity
  8
0
  6
Continuous
100
AcDbLine
 10
1193.617806379348
 20
515.8790954750513
 30
0.0
 11
1191.390758805914
 21
529.6834431695372
 31
0.0
  0
LINE
  5
6DE
330
1F
100
AcDbEntity
  8
0
  6
Continuous
100
AcDbLine
 10
1242.601268988918
 20
555.8242814576972
 30
0.0
 11
1215.763810814664
 21
555.8242814576917
 31
0.0
  0
LINE
  5
6DF
330
1F
100
AcDbEntity
  8
0
  6
Continuous
100
AcDbLine
 10
1215.763810814664
 20
555.8242814576917
 30
0.0
 11
1221.161400825372
 21
566.2676626919094
 31
0.0
  0
ELLIPSE
  5
6E0
330
1F
100
AcDbEntity
  8
0
  6
Continuous
100
AcDbEllipse
 10
1223.531804010089
 20
562.1375352377456
 30
0.0
 11
-0.000000000001071
 21
6.000000000000025
 31
0.0
210
0.0
220
0.0
230
1.0
 40
0.5446390350150259
 41
0.0
 42
0.8115781021771129
  0
LINE
  5
6E1
330
1F
100
AcDbEntity
  8
0
  6
Continuous
100
AcDbLine
 10
1221.16140082537
 20
435.0074077835845
 30
0.0
 11
1215.763810814663
 21
445.4507890178067
 31
0.0
  0
LINE
  5
6E2
330
1F
100
AcDbEntity
  8
0
  6
Continuous
100
AcDbLine
 10
1215.763810814663
 20
445.4507890178067
 30
0.0
 11
1242.601268988916
 21
445.4507890178112
 31
0.0
  0
ELLIPSE
  5
6E3
330
1F
100
AcDbEntity
  8
0
  6
Continuous
100
AcDbEllipse
 10
1223.531804010087
 20
439.1375352377456
 30
0.0
 11
-0.0000000000000278
 21
-5.999999999999865
 31
0.0
210
0.0
220
0.0
230
1.0
 40
0.5446390350150259
 41
5.471607205003356
 42
6.283185307181261
  0
LINE
  5
6E4
330
1F
100
AcDbEntity
  8
0
  6
Continuous
100
AcDbLine
 10
1193.76116199063
 20
537.221754760146
 30
0.0
 11
1201.385799574774
 21
540.5827212204069
 31
0.0
  0
LINE
  5
6E5
330
1F
100
AcDbEntity
  8
0
  6
Continuous
100
AcDbLine
 10
1201.385799574774
 20
540.5827212204069
 30
0.0
 11
1228.223257749027
 21
540.5827212204123
 31
0.0
  0
ELLIPSE
  5
6E6
330
1F
100
AcDbEntity
  8
0
  6
Continuous
100
AcDbEllipse
 10
1194.524022736825
 20
531.3875352377592
 30
0.0
 11
-0.0000000000010712
 21
5.999999999999983
 31
0.0
210
0.0
220
0.0
230
1.0
 40
0.5446390350150259
 41
0.2356194490187029
 42
1.858775653373584
  0
LINE
  5
6E7
330
1F
100
AcDbEntity
  8
0
  6
Continuous
100
AcDbLine
 10
1191.390758805912
 20
471.5916273059849
 30
0.0
 11
1193.617806379348
 21
485.3959750004681
 31
0.0
  0
LINE
  5
6E8
330
1F
100
AcDbEntity
  8
0
  6
Continuous
100
AcDbLine
 10
1193.617806379348
 20
485.3959750004681
 30
0.0
 11
1220.455264553601
 21
485.3959750004735
 31
0.0
  0
ELLIPSE
  5
6E9
330
1F
100
AcDbEntity
  8
0
  6
Continuous
100
AcDbEllipse
 10
1250.369262184341
 20
500.6375352377501
 30
0.0
 11
0.0000000000101724
 21
-56.9999999999997
 31
0.0
210
0.0
220
0.0
230
1.0
 40
0.5446390350150259
 41
4.983078376990343
 42
5.488897134974952
  0
SPLINE
  5
6EA
330
1F
100
AcDbEntity
  8
0
  6
Continuous
100
AcDbSpline
210
0.0
220
0.0
230
1.0
 70
    12
 71
     2
 72
     6
 73
     3
 74
     0
 42
0.0000000001
 43
0.0000000001
 40
0.0
 40
0.0
 40
0.0
 40
1.670584743254537
 40
1.670584743254537
 40
1.670584743254537
 10
1228.223257749025
 20
460.6923492551097
 30
0.0
 41
1.0
 10
1222.967854778305
 20
462.2527338160701
 30
0.0
 41
1.013521175185231
 10
1216.350056049162
 20
464.0533157153779
 30
0.0
 41
1.013099513339538
  0
SPLINE
  5
6EB
330
1F
100
AcDbEntity
  8
0
  6
Continuous
100
AcDbSpline
210
0.0
220
0.0
230
1.0
 70
     8
 71
     3
 72
    14
 73
    10
 74
     0
 42
0.0000000001
 43
0.0000000001
 40
0.554763733516921
 40
0.554763733516921
 40
0.554763733516921
 40
0.554763733516921
 40
0.7887614165524722
 40
0.7887614165524722
 40
1.037338811510502
 40
1.037338811510502
 40
1.285916206468533
 40
1.285916206468533
 40
1.519913889504083
 40
1.519913889504083
 40
1.519913889504083
 40
1.519913889504083
 10
1213.979652864446
 20
471.5916273059885
 30
0.0
 10
1213.626154026732
 20
470.890019161234
 30
0.0
 10
1213.364532204244
 20
470.0898890041364
 30
0.0
 10
1213.151500418237
 20
468.4473884446299
 30
0.0
 10
1213.221641761528
 20
467.605116367233
 30
0.0
 10
1213.672924936582
 20
466.1699541082973
 30
0.0
 10
1214.075187246362
 20
465.5098969801213
 30
0.0
 10
1215.107445537887
 20
464.5471088268434
 30
0.0
 10
1215.722223849426
 20
464.2241373648296
 30
0.0
 10
1216.350056049162
 20
464.0533157153779
 30
0.0
  0
SPLINE
  5
6EC
330
1F
100
AcDbEntity
  8
0
  6
Continuous
100
AcDbSpline
210
0.0
220
0.0
230
1.0
 70
    12
 71
     2
 72
     6
 73
     3
 74
     0
 42
0.0000000001
 43
0.0000000001
 40
1.569540480216309
 40
1.569540480216309
 40
1.569540480216309
 40
3.240125223470862
 40
3.240125223470862
 40
3.240125223470862
 10
1213.979652864446
 20
471.5916273059885
 30
0.0
 41
1.013099513339562
 10
1217.705782489461
 20
478.9870770625632
 30
0.0
 41
1.013521175185255
 10
1220.455264553601
 20
485.3959750004735
 30
0.0
 41
1.0
  0
ELLIPSE
  5
6ED
330
1F
100
AcDbEntity
  8
0
  6
Continuous
100
AcDbEllipse
 10
1250.369262184341
 20
500.6375352377501
 30
0.0
 11
0.000000000010178
 21
-56.99999999999934
 31
0.0
210
0.0
220
0.0
230
1.0
 40
0.5446390350150259
 41
6.030275928186917
 42
6.283185307179212
  0
SPLINE
  5
6EE
330
1F
100
AcDbEntity
  8
0
  6
Continuous
100
AcDbSpline
210
0.0
220
0.0
230
1.0
 70
    12
 71
     2
 72
     6
 73
     3
 74
     0
 42
0.0000000001
 43
0.0000000001
 40
0.2985145782436715
 40
0.2985145782436715
 40
0.2985145782436715
 40
1.670584743254546
 40
1.670584743254546
 40
1.670584743254546
 10
1256.576242346814
 20
443.6783744158304
 30
0.0
 41
1.004386972006497
 10
1252.946795935945
 20
439.602877735176
 30
0.0
 41
1.013445828987713
 10
1248.491101253336
 20
435.0074077835863
 30
0.0
 41
1.013099513339534
  0
SPLINE
  5
6EF
330
1F
100
AcDbEntity
  8
0
  6
Continuous
100
AcDbSpline
210
0.0
220
0.0
230
1.0
 70
     8
 71
     3
 72
    14
 73
    10
 74
     0
 42
0.0000000001
 43
0.0000000001
 40
0.5547637335169214
 40
0.5547637335169214
 40
0.5547637335169214
 40
0.5547637335169214
 40
0.7887614165524715
 40
0.7887614165524715
 40
1.037338811510501
 40
1.037338811510501
 40
1.285916206468531
 40
1.285916206468531
 40
1.519913889504081
 40
1.519913889504081
 40
1.519913889504081
 40
1.519913889504081
 10
1243.750294883903
 20
435.0074077835881
 30
0.0
 10
1243.784319451731
 20
434.4766212882852
 30
0.0
 10
1243.924337907255
 20
433.9994625932015
 30
0.0
 10
1244.441520167646
 20
433.319750186972
 30
0.0
 10
1244.833808888556
 20
433.1375352377501
 30
0.0
 10
1245.736375238666
 20
433.1375352377501
 30
0.0
 10
1246.288893823895
 20
433.3197501869711
 30
0.0
 10
1247.410164574544
 20
433.9994625931997
 30
0.0
 10
1247.976459097118
 20
434.4766212882834
 30
0.0
 10
1248.491101253336
 20
435.0074077835863
 30
0.0
  0
SPLINE
  5
6F0
330
1F
100
AcDbEntity
  8
0
  6
Continuous
100
AcDbSpline
210
0.0
220
0.0
230
1.0
 70
    12
 71
     2
 72
     6
 73
     3
 74
     0
 42
0.0000000001
 43
0.0000000001
 40
1.569540480216324
 40
1.569540480216324
 40
1.569540480216324
 40
3.240125223470863
 40
3.240125223470863
 40
3.240125223470863
 10
1243.750294883903
 20
435.0074077835881
 30
0.0
 41
1.013099513339539
 10
1243.391651695773
 20
440.6022756408585
 30
0.0
 41
1.013521175185231
 10
1242.601268988915
 20
445.4507890178112
 30
0.0
 41
1.0
  0
SPLINE
  5
6F1
330
1F
100
AcDbEntity
  8
0
  6
Continuous
100
AcDbSpline
210
0.0
220
0.0
230
1.0
 70
     8
 71
     3
 72
    14
 73
    10
 74
     0
 42
0.0000000001
 43
0.0000000001
 40
0.5547637335169205
 40
0.5547637335169205
 40
0.5547637335169205
 40
0.5547637335169205
 40
0.7887614165524719
 40
0.7887614165524719
 40
1.037338811510502
 40
1.037338811510502
 40
1.285916206468533
 40
1.285916206468533
 40
1.519913889504081
 40
1.519913889504081
 40
1.519913889504081
 40
1.519913889504081
 10
1216.350056049164
 20
537.2217547601496
 30
0.0
 10
1215.722223849426
 20
537.0509331106989
 30
0.0
 10
1215.107445537888
 20
536.727961648685
 30
0.0
 10
1214.075187246363
 20
535.7651734954072
 30
0.0
 10
1213.672924936583
 20
535.1051163672312
 30
0.0
 10
1213.221641761528
 20
533.6699541082973
 30
0.0
 10
1213.151500418239
 20
532.8276820308994
 30
0.0
 10
1213.364532204244
 20
531.1851814713929
 30
0.0
 10
1213.626154026732
 20
530.3850513142963
 30
0.0
 10
1213.979652864446
 20
529.6834431695417
 30
0.0
  0
SPLINE
  5
6F2
330
1F
100
AcDbEntity
  8
0
  6
Continuous
100
AcDbSpline
210
0.0
220
0.0
230
1.0
 70
    12
 71
     2
 72
     6
 73
     3
 74
     0
 42
0.0000000001
 43
0.0000000001
 40
1.569540480216312
 40
1.569540480216312
 40
1.569540480216312
 40
3.240125223470863
 40
3.240125223470863
 40
3.240125223470863
 10
1216.350056049164
 20
537.2217547601496
 30
0.0
 41
1.013099513339524
 10
1222.967854778306
 20
539.0223366594548
 30
0.0
 41
1.013521175185216
 10
1228.223257749027
 20
540.5827212204123
 30
0.0
 41
1.0
  0
ELLIPSE
  5
6F3
330
1F
100
AcDbEntity
  8
0
  6
Continuous
100
AcDbEllipse
 10
1250.369262184341
 20
500.6375352377501
 30
0.0
 11
0.000000000013381
 21
-56.99999999999977
 31
0.0
210
0.0
220
0.0
230
1.0
 40
0.5446390350150258
 41
3.935880825793461
 42
4.44169958377822
  0
SPLINE
  5
6F4
330
1F
100
AcDbEntity
  8
0
  6
Continuous
100
AcDbSpline
210
0.0
220
0.0
230
1.0
 70
    12
 71
     2
 72
     6
 73
     3
 74
     0
 42
0.0000000001
 43
0.0000000001
 40
0.0
 40
0.0
 40
0.0
 40
1.670584743254537
 40
1.670584743254537
 40
1.670584743254537
 10
1220.455264553601
 20
515.8790954750568
 30
0.0
 41
1.0
 10
1217.705782489461
 20
522.2879934129662
 30
0.0
 41
1.01352117518523
 10
1213.979652864446
 20
529.6834431695417
 30
0.0
 41
1.013099513339538
  0
SPLINE
  5
6F5
330
1F
100
AcDbEntity
  8
0
  6
Continuous
100
AcDbSpline
210
0.0
220
0.0
230
1.0
 70
     8
 71
     3
 72
    14
 73
    10
 74
     0
 42
0.0000000001
 43
0.0000000001
 40
0.5547637335169204
 40
0.5547637335169204
 40
0.5547637335169204
 40
0.5547637335169204
 40
0.7887614165524719
 40
0.7887614165524719
 40
1.037338811510502
 40
1.037338811510502
 40
1.285916206468532
 40
1.285916206468532
 40
1.519913889504082
 40
1.519913889504082
 40
1.519913889504082
 40
1.519913889504082
 10
1248.491101253338
 20
566.2676626919103
 30
0.0
 10
1247.97645909712
 20
566.798449187215
 30
0.0
 10
1247.410164574546
 20
567.2756078822978
 30
0.0
 10
1246.288893823897
 20
567.9553202885274
 30
0.0
 10
1245.736375238667
 20
568.1375352377492
 30
0.0
 10
1244.833808888558
 20
568.1375352377492
 30
0.0
 10
1244.441520167648
 20
567.9553202885283
 30
0.0
 10
1243.924337907258
 20
567.2756078822997
 30
0.0
 10
1243.784319451732
 20
566.7984491872168
 30
0.0
 10
1243.750294883905
 20
566.2676626919131
 30
0.0
  0
SPLINE
  5
6F6
330
1F
100
AcDbEntity
  8
0
  6
Continuous
100
AcDbSpline
210
0.0
220
0.0
230
1.0
 70
    12
 71
     2
 72
     6
 73
     3
 74
     0
 42
0.0000000001
 43
0.0000000001
 40
1.569540480216313
 40
1.569540480216313
 40
1.569540480216313
 40
2.941610645227205
 40
2.941610645227205
 40
2.941610645227205
 10
1248.491101253338
 20
566.2676626919103
 30
0.0
 41
1.013099513339534
 10
1252.946795935948
 20
561.6721927403197
 30
0.0
 41
1.013445828987713
 10
1256.576242346815
 20
557.5966960596636
 30
0.0
 41
1.004386972006497
  0
ELLIPSE
  5
6F7
330
1F
100
AcDbEntity
  8
0
  6
Continuous
100
AcDbEllipse
 10
1250.369262184341
 20
500.637535237751
 30
0.0
 11
0.0000000000008909
 21
56.99999999999914
 31
0.0
210
0.0
220
0.0
230
1.0
 40
0.5446390350150259
 41
0.0000000000016978
 42
0.2529093789939508
  0
SPLINE
  5
6F8
330
1F
100
AcDbEntity
  8
0
  6
Continuous
100
AcDbSpline
210
0.0
220
0.0
230
1.0
 70
    12
 71
     2
 72
     6
 73
     3
 74
     0
 42
0.0000000001
 43
0.0000000001
 40
0.0
 40
0.0
 40
0.0
 40
1.670584743254553
 40
1.670584743254553
 40
1.670584743254553
 10
1242.601268988918
 20
555.8242814576972
 30
0.0
 41
1.0
 10
1243.391651695775
 20
560.6727948346472
 30
0.0
 41
1.013521175185259
 10
1243.750294883905
 20
566.2676626919131
 30
0.0
 41
1.013099513339566
  0
LINE
  5
6F9
330
1F
100
AcDbEntity
  8
0
  6
Continuous
100
AcDbLine
 10
1232.591284792454
 20
75.68694703930022
 30
0.0
 11
1227.559261384783
 21
72.41911282921036
 31
0.0
  0
LINE
  5
6FA
330
1F
100
AcDbEntity
  8
0
  6
Continuous
100
AcDbLine
 10
1223.776799595366
 20
89.26006396835818
 30
0.0
 11
1218.744776187694
 21
85.99222975826787
 31
0.0
  0
LINE
  5
6FB
330
1F
100
AcDbEntity
  8
0
  6
Continuous
100
AcDbLine
 10
1199.468564293386
 20
126.6914638420402
 30
0.0
 11
1194.436540885712
 21
123.4236296319499
 31
0.0
  0
LINE
  5
6FC
330
1F
100
AcDbEntity
  8
0
  6
Continuous
100
AcDbLine
 10
1190.654079096298
 20
140.2645807710977
 30
0.0
 11
1185.622055688626
 21
136.9967465610073
 31
0.0
  0
LINE
  5
6FD
330
1F
100
AcDbEntity
  8
0
  6
Continuous
100
AcDbLine
 10
1218.744776187694
 20
85.99222975826741
 30
0.0
 11
1227.559261384783
 21
72.41911282920991
 31
0.0
  0
LINE
  5
6FE
330
1F
100
AcDbEntity
  8
0
  6
Continuous
100
AcDbLine
 10
1202.853922703868
 20
110.4619982831239
 30
0.0
 11
1194.436540885712
 21
123.4236296319499
 31
0.0
  0
LINE
  5
6FF
330
1F
100
AcDbEntity
  8
0
  6
Continuous
100
AcDbLine
 10
1218.744776187694
 20
85.99222975826787
 30
0.0
 11
1210.327394369539
 21
98.95386110709377
 31
0.0
  0
SPLINE
  5
700
330
1F
100
AcDbEntity
  8
0
  6
Continuous
100
AcDbSpline
210
0.0
220
0.0
230
1.0
 70
     8
 71
     3
 72
     8
 73
     4
 74
     0
 42
0.0000000001
 43
0.0000000001
 40
-0.1439790369035114
 40
-0.1439790369035114
 40
-0.1439790369035114
 40
-0.1439790369035114
 40
0.0
 40
0.0
 40
0.0
 40
0.0
 10
1217.758777536856
 20
85.67445607628577
 30
0.0
 10
1218.087659616337
 20
85.77988929404808
 30
0.0
 10
1218.416351592598
 20
85.88582871726739
 30
0.0
 10
1218.744776187694
 20
85.99222975826787
 30
0.0
  0
SPLINE
  5
701
330
1F
100
AcDbEntity
  8
0
  6
Continuous
100
AcDbSpline
210
0.0
220
0.0
230
1.0
 70
     8
 71
     3
 72
     8
 73
     4
 74
     0
 42
0.0000000001
 43
0.0000000001
 40
-0.1439790369038902
 40
-0.1439790369038902
 40
-0.1439790369038902
 40
-0.1439790369038902
 40
0.0
 40
0.0
 40
0.0
 40
0.0
 10
1193.745198400661
 20
122.6521252439018
 30
0.0
 10
1193.975284830808
 20
122.9096904206498
 30
0.0
 10
1194.205756380705
 20
123.166876037157
 30
0.0
 10
1194.436540885712
 20
123.4236296319499
 30
0.0
  0
SPLINE
  5
702
330
1F
100
AcDbEntity
  8
0
  6
Continuous
100
AcDbSpline
210
0.0
220
0.0
230
1.0
 70
    24
 71
     3
 72
     8
 73
     4
 74
     0
 42
0.0000000001
 43
0.0000000001
 40
-0.1439790369052067
 40
-0.1439790369052067
 40
-0.1439790369052067
 40
-0.1439790369052067
 40
0.0
 40
0.0
 40
0.0
 40
0.0
 10
1185.328024155696
 20
135.6134369580471
 30
0.0
 10
1185.426009213253
 20
136.0744204101137
 30
0.0
 10
1185.524028456468
 20
136.5355646930541
 30
0.0
 10
1185.622055688626
 20
136.9967465610073
 30
0.0
  0
SPLINE
  5
703
330
1F
100
AcDbEntity
  8
0
  6
Continuous
100
AcDbSpline
210
0.0
220
0.0
230
1.0
 70
    24
 71
     3
 72
     8
 73
     4
 74
     0
 42
0.0000000001
 43
0.0000000001
 40
-0.1439790369046692
 40
-0.1439790369046692
 40
-0.1439790369046692
 40
-0.1439790369046692
 40
0.0
 40
0.0
 40
0.0
 40
0.0
 10
1226.175951781821
 20
72.71314436214051
 30
0.0
 10
1226.63693523389
 20
72.61515930458235
 30
0.0
 10
1227.09807951683
 20
72.51714006136662
 30
0.0
 10
1227.559261384783
 20
72.41911282921036
 30
0.0
  0
LINE
  5
704
330
1F
100
AcDbEntity
  8
0
  6
Continuous
100
AcDbLine
 10
1185.622055688626
 20
136.9967465610069
 30
0.0
 11
1194.436540885712
 21
123.4236296319499
 31
0.0
  0
LINE
  5
705
330
1F
100
AcDbEntity
  8
0
  6
Continuous
100
AcDbLine
 10
1224.468142080419
 20
90.03156835640574
 30
0.0
 11
1200.454562944224
 21
127.0092375240218
 31
0.0
  0
LINE
  5
706
330
1F
100
AcDbEntity
  8
0
  6
Continuous
100
AcDbLine
 10
1199.468564293386
 20
126.6914638420402
 30
0.0
 11
1223.776799595366
 21
89.26006396835818
 31
0.0
  0
LINE
  5
707
330
1F
100
AcDbEntity
  8
0
  6
Continuous
100
AcDbLine
 10
1192.037388699259
 20
139.9705492381671
 30
0.0
 11
1200.454562944224
 21
127.0092375240218
 31
0.0
  0
SPLINE
  5
708
330
1F
100
AcDbEntity
  8
0
  6
Continuous
100
AcDbSpline
210
0.0
220
0.0
230
1.0
 70
     8
 71
     3
 72
     8
 73
     4
 74
     0
 42
0.0000000001
 43
0.0000000001
 40
-0.1439790587597325
 40
-0.1439790587597325
 40
-0.1439790587597325
 40
-0.1439790587597325
 40
0.0
 40
0.0
 40
0.0
 40
0.0
 10
1199.468564293386
 20
126.6914638420402
 30
0.0
 10
1199.796988888482
 20
126.7978648830407
 30
0.0
 10
1200.125680864744
 20
126.90380430626
 30
0.0
 10
1200.454562944224
 20
127.0092375240218
 30
0.0
  0
LINE
  5
709
330
1F
100
AcDbEntity
  8
0
  6
Continuous
100
AcDbLine
 10
1199.468564293385
 20
126.6914638420402
 30
0.0
 11
1190.654079096298
 21
140.2645807710977
 31
0.0
  0
SPLINE
  5
70A
330
1F
100
AcDbEntity
  8
0
  6
Continuous
100
AcDbSpline
210
0.0
220
0.0
230
1.0
 70
    24
 71
     3
 72
     8
 73
     4
 74
     0
 42
0.0000000001
 43
0.0000000001
 40
-0.1439790587598173
 40
-0.1439790587598173
 40
-0.1439790587598173
 40
-0.1439790587598173
 40
0.0
 40
0.0
 40
0.0
 40
0.0
 10
1190.654079096298
 20
140.2645807710977
 30
0.0
 10
1191.115260964247
 20
140.1665535389414
 30
0.0
 10
1191.57640524719
 20
140.0685342957257
 30
0.0
 10
1192.037388699259
 20
139.9705492381671
 30
0.0
  0
SPLINE
  5
70B
330
1F
100
AcDbEntity
  8
0
  6
Continuous
100
AcDbSpline
210
0.0
220
0.0
230
1.0
 70
     8
 71
     3
 72
     8
 73
     4
 74
     0
 42
0.0000000001
 43
0.0000000001
 40
-0.1439790587594307
 40
-0.1439790587594307
 40
-0.1439790587594307
 40
-0.1439790587594307
 40
0.0
 40
0.0
 40
0.0
 40
0.0
 10
1223.776799595366
 20
89.26006396835818
 30
0.0
 10
1224.007584100377
 20
89.51681756315236
 30
0.0
 10
1224.238055650273
 20
89.77400317965829
 30
0.0
 10
1224.468142080419
 20
90.0315683564062
 30
0.0
  0
LINE
  5
70C
330
1F
100
AcDbEntity
  8
0
  6
Continuous
100
AcDbLine
 10
1224.468142080419
 20
90.0315683564062
 30
0.0
 11
1232.885316325385
 21
77.07025664226093
 31
0.0
  0
SPLINE
  5
70D
330
1F
100
AcDbEntity
  8
0
  6
Continuous
100
AcDbSpline
210
0.0
220
0.0
230
1.0
 70
    24
 71
     3
 72
     8
 73
     4
 74
     0
 42
0.0000000001
 43
0.0000000001
 40
-0.1439790587594705
 40
-0.1439790587594705
 40
-0.1439790587594705
 40
-0.1439790587594705
 40
0.0
 40
0.0
 40
0.0
 40
0.0
 10
1232.591284792454
 20
75.68694703930022
 30
0.0
 10
1232.689312024611
 20
76.14812890725206
 30
0.0
 10
1232.787331267826
 20
76.609273190193
 30
0.0
 10
1232.885316325385
 20
77.07025664226093
 30
0.0
  0
LINE
  5
70E
330
1F
100
AcDbEntity
  8
0
  6
Continuous
100
AcDbLine
 10
1232.591284792454
 20
75.68694703930022
 30
0.0
 11
1223.776799595366
 21
89.26006396835818
 31
0.0
  0
CIRCLE
  5
70F
330
1F
100
AcDbEntity
  8
0
  6
Continuous
100
AcDbCircle
 10
1186.210963735629
 20
91.47320114424372
 30
0.0
 40
11.49999999999994
  0
CIRCLE
  5
710
330
1F
100
AcDbEntity
  8
0
  6
Continuous
100
AcDbCircle
 10
1186.210963735629
 20
91.47320114424372
 30
0.0
 40
25.24999999999988
  0
LINE
  5
711
330
1F
100
AcDbEntity
  8
0
  6
Continuous
100
AcDbLine
 10
1207.518020647776
 20
76.10595608160555
 30
0.0
 11
1204.6980385989
 21
74.27463832638422
 31
0.0
  0
LINE
  5
712
330
1F
100
AcDbEntity
  8
0
  6
Continuous
100
AcDbLine
 10
1212.964410997926
 20
67.71925040215127
 30
0.0
 11
1207.680786419869
 21
64.28802448155683
 31
0.0
  0
LINE
  5
713
330
1F
100
AcDbEntity
  8
0
  6
Continuous
100
AcDbLine
 10
1207.680786419869
 20
64.28802448155683
 30
0.0
 11
1202.535960452883
 21
72.21036173304391
 31
0.0
  0
LINE
  5
714
330
1F
100
AcDbEntity
  8
0
  6
Continuous
100
AcDbLine
 10
1178.018665565573
 20
115.3572701169476
 30
0.0
 11
1180.838647614447
 21
117.1885878721672
 31
0.0
  0
LINE
  5
715
330
1F
100
AcDbEntity
  8
0
  6
Continuous
100
AcDbLine
 10
1170.108632686241
 20
122.1440676310266
 30
0.0
 11
1175.392257264297
 21
125.5752935516214
 31
0.0
  0
LINE
  5
716
330
1F
100
AcDbEntity
  8
0
  6
Continuous
100
AcDbLine
 10
1170.108632686241
 20
122.1440676310266
 30
0.0
 11
1175.253458653228
 21
114.2217303795404
 31
0.0
  0
LINE
  5
717
330
1F
100
AcDbEntity
  8
0
  6
Continuous
100
AcDbLine
 10
1226.720590816837
 20
71.87447379419508
 30
0.0
 11
1215.146936979191
 21
64.3584551109874
 31
0.0
  0
LINE
  5
718
330
1F
100
AcDbEntity
  8
0
  6
Continuous
100
AcDbLine
 10
1184.78338512068
 20
136.4521075259925
 30
0.0
 11
1173.209731283032
 21
128.9360888427853
 31
0.0
  0
LINE
  5
719
330
1F
100
AcDbEntity
  8
0
  6
Continuous
100
AcDbLine
 10
1217.906105619748
 20
85.44759072325259
 30
0.0
 11
1226.720590816837
 21
71.87447379419508
 31
0.0
  0
LINE
  5
71A
330
1F
100
AcDbEntity
  8
0
  6
Continuous
100
AcDbLine
 10
1184.78338512068
 20
136.4521075259925
 30
0.0
 11
1193.597870317767
 21
122.878990596935
 31
0.0
  0
LINE
  5
71B
330
1F
100
AcDbEntity
  8
0
  6
Continuous
100
AcDbLine
 10
1193.597870317767
 20
122.8789905969346
 30
0.0
 11
1183.964612804472
 21
116.6230800205738
 31
0.0
  0
LINE
  5
71C
330
1F
100
AcDbEntity
  8
0
  6
Continuous
100
AcDbLine
 10
1200.45266135312
 20
112.3235380473232
 30
0.0
 11
1193.597870317767
 21
122.8789905969346
 31
0.0
  0
LINE
  5
71D
330
1F
100
AcDbEntity
  8
0
  6
Continuous
100
AcDbLine
 10
1217.906105619748
 20
85.44759072325259
 30
0.0
 11
1211.051314584395
 21
96.00304327286439
 31
0.0
  0
LINE
  5
71E
330
1F
100
AcDbEntity
  8
0
  6
Continuous
100
AcDbLine
 10
1217.906105619748
 20
85.44759072325259
 30
0.0
 11
1208.272848106454
 21
79.19168014689138
 31
0.0
  0
LINE
  5
71F
330
1F
100
AcDbEntity
  8
0
  6
Continuous
100
AcDbLine
 10
1215.146936979189
 20
64.35845511098786
 30
0.0
 11
1206.920006922323
 21
77.02681646531108
 31
0.0
  0
LINE
  5
720
330
1F
100
AcDbEntity
  8
0
  6
Continuous
100
AcDbLine
 10
1181.4366613399
 20
116.2677274884621
 30
0.0
 11
1173.209731283032
 21
128.9360888427853
 31
0.0
  0
LINE
  5
721
330
1F
100
AcDbEntity
  8
0
  6
Continuous
100
AcDbLine
 10
1206.920313441244
 20
141.2890905247476
 30
0.0
 11
1195.849861944364
 21
134.0998552625495
 31
0.0
  0
LINE
  5
722
330
1F
100
AcDbEntity
  8
0
  6
Continuous
100
AcDbLine
 10
1240.14329457716
 20
90.13018588007698
 30
0.0
 11
1229.072843080281
 21
82.94095061787848
 31
0.0
  0
LINE
  5
723
330
1F
100
AcDbEntity
  8
0
  6
Continuous
100
AcDbLine
 10
1224.356860595272
 20
184.2101439058718
 30
0.0
 11
1217.296881130356
 21
179.6253396335377
 31
0.0
  0
LINE
  5
724
330
1F
100
AcDbEntity
  8
0
  6
Continuous
100
AcDbLine
 10
1286.445710586985
 20
88.60169916009445
 30
0.0
 11
1279.385731122068
 21
84.01689488775936
 31
0.0
  0
LINE
  5
725
330
1F
100
AcDbEntity
  8
0
  6
Continuous
100
AcDbLine
 10
1275.751467717541
 20
179.4305666497269
 30
0.0
 11
1271.558114877815
 21
176.7073714746519
 31
0.0
  0
LINE
  5
726
330
1F
100
AcDbEntity
  8
0
  6
Continuous
100
AcDbLine
 10
1302.983419468292
 20
137.4970382524564
 30
0.0
 11
1298.790066628566
 21
134.773843077381
 31
0.0
  0
LINE
  5
727
330
1F
100
AcDbEntity
  8
0
  6
Continuous
100
AcDbLine
 10
1254.924111692188
 20
194.1528804920866
 30
0.0
 11
1224.356860595272
 21
184.2101439058718
 31
0.0
  0
LINE
  5
728
330
1F
100
AcDbEntity
  8
0
  6
Continuous
100
AcDbLine
 10
1307.961673531073
 20
112.4821972502394
 30
0.0
 11
1286.445710586984
 21
88.60169916009398
 31
0.0
  0
LINE
  5
729
330
1F
100
AcDbEntity
  8
0
  6
Continuous
100
AcDbLine
 10
1304.991409177021
 20
177.5528490335353
 30
0.0
 11
1285.282650830305
 21
164.7538317106822
 31
0.0
  0
LINE
  5
72A
330
1F
100
AcDbEntity
  8
0
  6
Continuous
100
AcDbLine
 10
1313.160994702247
 20
164.9727905143539
 30
0.0
 11
1293.45223635553
 21
152.1737731915012
 31
0.0
  0
LINE
  5
72B
330
1F
100
AcDbEntity
  8
0
  6
Continuous
100
AcDbLine
 10
1231.299797204626
 20
103.7479776416279
 30
0.0
 11
1245.677808444517
 21
81.60778188398889
 31
0.0
  0
LINE
  5
72C
330
1F
100
AcDbEntity
  8
0
  6
Continuous
100
AcDbLine
 10
1201.385799573886
 20
149.8114945208352
 30
0.0
 11
1215.763810813776
 21
127.6712987631966
 31
0.0
  0
LINE
  5
72D
330
1F
100
AcDbEntity
  8
0
  6
Continuous
100
AcDbLine
 10
1275.751467717541
 20
179.4305666497269
 30
0.0
 11
1302.983419468292
 21
137.4970382524564
 31
0.0
  0
LINE
  5
72E
330
1F
100
AcDbEntity
  8
0
  6
Continuous
100
AcDbLine
 10
1224.356860595272
 20
184.2101439058718
 30
0.0
 11
1286.445710586985
 21
88.60169916009445
 31
0.0
  0
ARC
  5
72F
330
1F
100
AcDbEntity
  8
0
  6
Continuous
100
AcDbCircle
 10
1303.504091834867
 20
116.4984100710006
 30
0.0
 40
5.999999999999975
100
AcDbArc
 50
317.9816325724063
 51
33.00000000000314
  0
ARC
  5
730
330
1F
100
AcDbEntity
  8
0
  6
Continuous
100
AcDbCircle
 10
1256.78004285617
 20
188.4471360608521
 30
0.0
 40
5.999999999999975
100
AcDbArc
 50
33.00000000002525
 51
108.0183674276111
  0
LINE
  5
731
330
1F
100
AcDbEntity
  8
0
  6
Continuous
100
AcDbLine
 10
1261.812066263842
 20
191.7149702709424
 30
0.0
 11
1308.536115242538
 21
119.7662442810909
 31
0.0
  0
LINE
  5
732
330
1F
100
AcDbEntity
  8
0
  6
Continuous
100
AcDbLine
 10
1307.066373581462
 20
177.1118017341399
 30
0.0
 11
1304.991409177021
 21
177.5528490335353
 31
0.0
  0
LINE
  5
733
330
1F
100
AcDbEntity
  8
0
  6
Continuous
100
AcDbLine
 10
1313.602042001643
 20
167.0477549187947
 30
0.0
 11
1313.160994702247
 21
164.9727905143539
 31
0.0
  0
LINE
  5
734
330
1F
100
AcDbEntity
  8
0
  6
Continuous
100
AcDbLine
 10
1313.160994702247
 20
164.9727905143544
 30
0.0
 11
1304.991409177023
 21
177.5528490335353
 31
0.0
  0
LINE
  5
735
330
1F
100
AcDbEntity
  8
0
  6
Continuous
100
AcDbLine
 10
1307.066373581462
 20
177.1118017341399
 30
0.0
 11
1313.602042001643
 21
167.0477549187947
 31
0.0
  0
LINE
  5
736
330
1F
100
AcDbEntity
  8
0
  6
Continuous
100
AcDbLine
 10
1255.807419492555
 20
66.00954873404579
 30
0.0
 11
1277.917282917348
 21
80.36786192666694
 31
0.0
  0
LINE
  5
737
330
1F
100
AcDbEntity
  8
0
  6
Continuous
100
AcDbLine
 10
1191.256188525848
 20
165.4097276707788
 30
0.0
 11
1213.366051950643
 21
179.7680408633999
 31
0.0
  0
LINE
  5
738
330
1F
100
AcDbEntity
  8
0
  6
Continuous
100
AcDbLine
 10
1253.302446028659
 20
69.8668696063827
 30
0.0
 11
1255.807419492553
 21
66.00954873404579
 31
0.0
  0
LINE
  5
739
330
1F
100
AcDbEntity
  8
0
  6
Continuous
100
AcDbLine
 10
1258.137255378879
 20
121.1764267621087
 30
0.0
 11
1231.299797204626
 21
103.7479776416279
 31
0.0
  0
LINE
  5
73A
330
1F
100
AcDbEntity
  8
0
  6
Continuous
100
AcDbLine
 10
1231.299797204626
 20
103.7479776416279
 30
0.0
 11
1225.902207193918
 21
112.0595373881527
 31
0.0
  0
LINE
  5
73B
330
1F
100
AcDbEntity
  8
0
  6
Continuous
100
AcDbLine
 10
1191.256188525848
 20
165.4097276707788
 30
0.0
 11
1193.761161989743
 21
161.5524067984418
 31
0.0
  0
LINE
  5
73C
330
1F
100
AcDbEntity
  8
0
  6
Continuous
100
AcDbLine
 10
1228.22325774814
 20
167.2399436413164
 30
0.0
 11
1201.385799573886
 21
149.8114945208357
 31
0.0
  0
LINE
  5
73D
330
1F
100
AcDbEntity
  8
0
  6
Continuous
100
AcDbLine
 10
1201.385799573886
 20
149.8114945208357
 30
0.0
 11
1193.761161989743
 21
161.5524067984418
 31
0.0
  0
LINE
  5
73E
330
1F
100
AcDbEntity
  8
0
  6
Continuous
100
AcDbLine
 10
1253.302446028659
 20
69.8668696063827
 30
0.0
 11
1245.677808444517
 21
81.60778188398889
 31
0.0
  0
LINE
  5
73F
330
1F
100
AcDbEntity
  8
0
  6
Continuous
100
AcDbLine
 10
1245.677808444517
 20
81.60778188398889
 30
0.0
 11
1272.515266618769
 21
99.03623100446965
 31
0.0
  0
LINE
  5
740
330
1F
100
AcDbEntity
  8
0
  6
Continuous
100
AcDbLine
 10
1221.161400824484
 20
119.3597390166718
 30
0.0
 11
1215.763810813777
 21
127.6712987631966
 31
0.0
  0
LINE
  5
741
330
1F
100
AcDbEntity
  8
0
  6
Continuous
100
AcDbLine
 10
1215.763810813777
 20
127.6712987631966
 30
0.0
 11
1242.601268988031
 21
145.0997478836778
 31
0.0
  0
LINE
  5
742
330
1F
100
AcDbEntity
  8
0
  6
Continuous
100
AcDbLine
 10
1221.161400824484
 20
119.3597390166718
 30
0.0
 11
1225.902207193918
 21
112.0595373881527
 31
0.0
  0
LINE
  5
743
330
1F
100
AcDbEntity
  8
0
  6
Continuous
100
AcDbLine
 10
1228.22325774814
 20
167.2399436413164
 30
0.0
 11
1220.455264552715
 21
179.2016042021012
 31
0.0
  0
SPLINE
  5
744
330
1F
100
AcDbEntity
  8
0
  6
Continuous
100
AcDbSpline
210
0.0
220
0.0
230
1.0
 70
    12
 71
     2
 72
     6
 73
     3
 74
     0
 42
0.0000000001
 43
0.0000000001
 40
0.0
 40
0.0
 40
0.0
 40
1.670584743254537
 40
1.670584743254537
 40
1.670584743254537
 10
1228.22325774814
 20
167.2399436413164
 30
0.0
 41
1.0
 10
1222.967854777419
 20
171.5767738454991
 30
0.0
 41
1.013521175185231
 10
1216.350056048276
 20
176.2218061219872
 30
0.0
 41
1.013099513339538
  0
SPLINE
  5
745
330
1F
100
AcDbEntity
  8
0
  6
Continuous
100
AcDbSpline
210
0.0
220
0.0
230
1.0
 70
     8
 71
     3
 72
    14
 73
    10
 74
     0
 42
0.0000000001
 43
0.0000000001
 40
0.554763733516921
 40
0.554763733516921
 40
0.554763733516921
 40
0.554763733516921
 40
0.7887614165524722
 40
0.7887614165524722
 40
1.037338811510502
 40
1.037338811510502
 40
1.285916206468533
 40
1.285916206468533
 40
1.519913889504083
 40
1.519913889504083
 40
1.519913889504083
 40
1.519913889504083
 10
1213.97965286356
 20
179.8719069362467
 30
0.0
 10
1213.626154025846
 20
179.8901459628499
 30
0.0
 10
1213.364532203358
 20
179.8263909934202
 30
0.0
 10
1213.151500417351
 20
179.4931740000041
 30
0.0
 10
1213.221641760641
 20
179.209772380573
 30
0.0
 10
1213.672924935696
 20
178.5148572305469
 30
0.0
 10
1214.075187245476
 20
178.070821015838
 30
0.0
 10
1215.107445537001
 20
177.1425398159766
 30
0.0
 10
1215.72222384854
 20
176.6624814811751
 30
0.0
 10
1216.350056048276
 20
176.2218061219872
 30
0.0
  0
SPLINE
  5
746
330
1F
100
AcDbEntity
  8
0
  6
Continuous
100
AcDbSpline
210
0.0
220
0.0
230
1.0
 70
    12
 71
     2
 72
     6
 73
     3
 74
     0
 42
0.0000000001
 43
0.0000000001
 40
1.569540480216309
 40
1.569540480216309
 40
1.569540480216309
 40
3.240125223470862
 40
3.240125223470862
 40
3.240125223470862
 10
1213.97965286356
 20
179.8719069362467
 30
0.0
 41
1.013099513339562
 10
1217.705782488575
 20
179.6796546001504
 30
0.0
 41
1.013521175185255
 10
1220.455264552715
 20
179.2016042021012
 30
0.0
 41
1.0
  0
LINE
  5
747
330
1F
100
AcDbEntity
  8
0
  6
Continuous
100
AcDbLine
 10
1258.137255378879
 20
121.1764267621087
 30
0.0
 11
1242.601268988029
 21
145.0997478836778
 31
0.0
  0
SPLINE
  5
748
330
1F
100
AcDbEntity
  8
0
  6
Continuous
100
AcDbSpline
210
0.0
220
0.0
230
1.0
 70
    12
 71
     2
 72
     6
 73
     3
 74
     0
 42
0.0000000001
 43
0.0000000001
 40
0.0
 40
0.0
 40
0.0
 40
1.670584743254546
 40
1.670584743254546
 40
1.670584743254546
 10
1258.137255378879
 20
121.1764267621087
 30
0.0
 41
1.0
 10
1253.915796272576
 20
123.9211230349213
 30
0.0
 41
1.013521175185227
 10
1248.49110125245
 20
126.7289367116981
 30
0.0
 41
1.013099513339534
  0
SPLINE
  5
749
330
1F
100
AcDbEntity
  8
0
  6
Continuous
100
AcDbSpline
210
0.0
220
0.0
230
1.0
 70
     8
 71
     3
 72
    14
 73
    10
 74
     0
 42
0.0000000001
 43
0.0000000001
 40
0.5547637335169214
 40
0.5547637335169214
 40
0.5547637335169214
 40
0.5547637335169214
 40
0.7887614165524715
 40
0.7887614165524715
 40
1.037338811510501
 40
1.037338811510501
 40
1.285916206468531
 40
1.285916206468531
 40
1.519913889504081
 40
1.519913889504081
 40
1.519913889504081
 40
1.519913889504081
 10
1243.750294883017
 20
134.0291383402171
 30
0.0
 10
1243.784319450845
 20
133.4506436519699
 30
0.0
 10
1243.92433790637
 20
132.7684168903687
 30
0.0
 10
1244.44152016676
 20
131.3107688708231
 30
0.0
 10
1244.83380888767
 20
130.5313037914096
 30
0.0
 10
1245.73637523778
 20
129.1414734913572
 30
0.0
 10
1246.288893823009
 20
128.46606290249
 30
0.0
 10
1247.410164573658
 20
127.4007145354811
 30
0.0
 10
1247.976459096232
 20
126.9953146886195
 30
0.0
 10
1248.49110125245
 20
126.7289367116981
 30
0.0
  0
SPLINE
  5
74A
330
1F
100
AcDbEntity
  8
0
  6
Continuous
100
AcDbSpline
210
0.0
220
0.0
230
1.0
 70
    12
 71
     2
 72
     6
 73
     3
 74
     0
 42
0.0000000001
 43
0.0000000001
 40
1.569540480216324
 40
1.569540480216324
 40
1.569540480216324
 40
3.240125223470863
 40
3.240125223470863
 40
3.240125223470863
 10
1243.750294883017
 20
134.0291383402171
 30
0.0
 41
1.013099513339539
 10
1243.391651694887
 20
140.1268845442244
 30
0.0
 41
1.013521175185231
 10
1242.601268988029
 20
145.0997478836778
 30
0.0
 41
1.0
  0
LINE
  5
74B
330
1F
100
AcDbEntity
  8
0
  6
Continuous
100
AcDbLine
 10
1280.283259814194
 20
87.07457044368483
 30
0.0
 11
1272.515266618769
 21
99.03623100446965
 31
0.0
  0
SPLINE
  5
74C
330
1F
100
AcDbEntity
  8
0
  6
Continuous
100
AcDbSpline
210
0.0
220
0.0
230
1.0
 70
    12
 71
     2
 72
     6
 73
     3
 74
     0
 42
0.0000000001
 43
0.0000000001
 40
0.0
 40
0.0
 40
0.0
 40
1.670584743254542
 40
1.670584743254542
 40
1.670584743254542
 10
1280.283259814194
 20
87.07457044368483
 30
0.0
 41
1.0
 10
1279.601665478891
 20
84.36835297899541
 30
0.0
 41
1.013521175185233
 10
1278.261743271909
 20
80.88616811566852
 30
0.0
 41
1.013099513339541
  0
SPLINE
  5
74D
330
1F
100
AcDbEntity
  8
0
  6
Continuous
100
AcDbSpline
210
0.0
220
0.0
230
1.0
 70
     8
 71
     3
 72
    14
 73
    10
 74
     0
 42
0.0000000001
 43
0.0000000001
 40
0.5547637335169191
 40
0.5547637335169191
 40
0.5547637335169191
 40
0.5547637335169191
 40
0.7887614165524713
 40
0.7887614165524713
 40
1.037338811510501
 40
1.037338811510501
 40
1.285916206468531
 40
1.285916206468531
 40
1.51991388950408
 40
1.51991388950408
 40
1.51991388950408
 40
1.51991388950408
 10
1275.891340087192
 20
84.53626892992851
 30
0.0
 10
1276.038554698537
 20
83.7834768594147
 30
0.0
 10
1276.227056943028
 20
83.02659160987413
 30
0.0
 10
1276.655226744294
 20
81.70601075747518
 30
0.0
 10
1276.897259189754
 20
81.15792005222001
 30
0.0
 10
1277.348542364809
 20
80.46300490219428
 30
0.0
 10
1277.578913572419
 20
80.28365777330909
 30
0.0
 10
1277.969970276672
 20
80.34274043243012
 30
0.0
 10
1278.13462452123
 20
80.55581237773948
 30
0.0
 10
1278.261743271909
 20
80.88616811566852
 30
0.0
  0
SPLINE
  5
74E
330
1F
100
AcDbEntity
  8
0
  6
Continuous
100
AcDbSpline
210
0.0
220
0.0
230
1.0
 70
    12
 71
     2
 72
     6
 73
     3
 74
     0
 42
0.0000000001
 43
0.0000000001
 40
1.569540480216313
 40
1.569540480216313
 40
1.569540480216313
 40
3.240125223470863
 40
3.240125223470863
 40
3.240125223470863
 10
1275.891340087192
 20
84.53626892992851
 30
0.0
 41
1.013099513339551
 10
1274.339593190045
 20
92.47123373364674
 30
0.0
 41
1.013521175185243
 10
1272.515266618769
 20
99.03623100446965
 30
0.0
 41
1.0
  0
VIEWPORT
  5
71
330
55
100
AcDbEntity
 67
     1
  8
0
100
AcDbViewport
 10
133.3499908447265
 20
101.5999970436096
 30
0.0
 40
381.3957395593834
 41
218.2856291881582
 68
     1
 69
     1
 12
133.3499908447265
 22
101.5999970436096
 13
0.0
 23
0.0
 14
10.0
 24
10.0
 15
10.0
 25
10.0
 16
0.0
 26
0.0
 36
1.0
 17
0.0
 27
0.0
 37
0.0
 42
50.0
 43
0.0
 44
0.0
 45
218.2856291881582
 50
0.0
 51
0.0
 72
   100
 90
    32800
  1

281
     0
 71
     1
 74
     0
110
0.0
120
0.0
130
0.0
111
1.0
121
0.0
131
0.0
112
0.0
122
1.0
132
0.0
 79
     0
146
0.0
  0
VIEWPORT
  5
73
330
55
100
AcDbEntity
 67
     1
  8
0
100
AcDbViewport
 10
133.349993944168
 20
101.599993944168
 30
0.0
 40
213.3599903106689
 41
162.5599903106689
 68
     2
 69
     2
 12
210.0
 22
148.5
 13
0.0
 23
0.0
 14
10.0
 24
10.0
 15
10.0
 25
10.0
 16
0.0
 26
0.0
 36
1.0
 17
0.0
 27
0.0
 37
0.0
 42
50.0
 43
0.0
 44
0.0
 45
324.0677920111345
 50
0.0
 51
0.0
 72
   100
 90
    32864
  1

281
     0
 71
     1
 74
     0
110
0.0
120
0.0
130
0.0
111
1.0
121
0.0
131
0.0
112
0.0
122
1.0
132
0.0
 79
     0
146
0.0
  0
ENDSEC
  0
SECTION
  2
OBJECTS
  0
DICTIONARY
  5
C
330
0
100
AcDbDictionary
281
     1
  3
ACAD_GROUP
350
D
  3
ACAD_LAYOUT
350
1A
  3
ACAD_MLINESTYLE
350
17
  3
ACAD_PLOTSETTINGS
350
19
  3
ACAD_PLOTSTYLENAME
350
E
  3
AcDbVariableDictionary
350
5E
  0
DICTIONARY
  5
3C4
330
2
100
AcDbDictionary
280
     1
281
     1
  3
ACAD_LAYERSTATES
360
3C5
  0
DICTIONARY
  5
37C
330
1F
100
AcDbDictionary
280
     1
281
     1
  3
ACAD_LAYOUTSELFREF
360
3B3
  0
DICTIONARY
  5
37E
330
55
100
AcDbDictionary
280
     1
281
     1
  3
ACAD_LAYOUTSELFREF
360
3B7
  0
DICTIONARY
  5
380
330
50
100
AcDbDictionary
280
     1
281
     1
  3
ACAD_LAYOUTSELFREF
360
3B6
  0
DICTIONARY
  5
D
102
{ACAD_REACTORS
330
C
102
}
330
C
100
AcDbDictionary
281
     1
  0
DICTIONARY
  5
1A
102
{ACAD_REACTORS
330
C
102
}
330
C
100
AcDbDictionary
281
     1
  3
Model
350
22
  3
ﾚｲｱｳﾄ1
350
51
  3
ﾚｲｱｳﾄ2
350
56
  0
DICTIONARY
  5
17
102
{ACAD_REACTORS
330
C
102
}
330
C
100
AcDbDictionary
281
     1
  3
Standard
350
18
  0
DICTIONARY
  5
19
102
{ACAD_REACTORS
330
C
102
}
330
C
100
AcDbDictionary
281
     1
  0
ACDBDICTIONARYWDFLT
  5
E
102
{ACAD_REACTORS
330
C
102
}
330
C
100
AcDbDictionary
281
     1
  3
Normal
350
F
100
AcDbDictionaryWithDefault
340
F
  0
DICTIONARY
  5
5E
102
{ACAD_REACTORS
330
C
102
}
330
C
100
AcDbDictionary
281
     1
  3
DIMASSOC
350
5F
  3
HIDETEXT
350
63
  0
DICTIONARY
  5
3C5
102
{ACAD_REACTORS
330
3C4
102
}
330
3C4
100
AcDbDictionary
281
     1
  0
XRECORD
  5
3B3
102
{ACAD_REACTORS
330
37C
102
}
330
37C
100
AcDbXrecord
280
     1
340
1F
  0
XRECORD
  5
3B7
102
{ACAD_REACTORS
330
37E
102
}
330
37E
100
AcDbXrecord
280
     1
340
55
  0
XRECORD
  5
3B6
102
{ACAD_REACTORS
330
380
102
}
330
380
100
AcDbXrecord
280
     1
340
50
  0
LAYOUT
  5
22
102
{ACAD_REACTORS
330
1A
102
}
330
1A
100
AcDbPlotSettings
  1

  2
none_device
  4
ANSI_A_(8.50_x_11.00_Inches)
  6

 40
6.349999904632568
 41
19.04999923706054
 42
6.350006103515625
 43
19.04998779296875
 44
215.8999938964843
 45
279.3999938964843
 46
0.0
 47
0.0
 48
0.0
 49
0.0
140
0.0
141
0.0
142
1.0
143
78.436453180766
 70
 11952
 72
     0
 73
     1
 74
     0
  7

 75
     0
147
0.0127491741332998
148
0.0
149
0.0
100
AcDbLayout
  1
Model
 70
     1
 71
     0
 10
0.0
 20
0.0
 11
12.0
 21
9.0
 12
0.0
 22
0.0
 32
0.0
 14
0.0
 24
0.0
 34
0.0
 15
0.0
 25
0.0
 35
0.0
146
0.0
 13
0.0
 23
0.0
 33
0.0
 16
1.0
 26
0.0
 36
0.0
 17
0.0
 27
1.0
 37
0.0
 76
     0
330
1F
  0
LAYOUT
  5
51
102
{ACAD_REACTORS
330
1A
102
}
330
1A
100
AcDbPlotSettings
  1

  2
none_device
  4
Letter_(8.50_x_11.00_Inches)
  6

 40
6.349999904632568
 41
6.349999904632568
 42
6.350006103515625
 43
6.350006103515625
 44
215.8999938964843
 45
279.3999938964843
 46
0.0
 47
0.0
 48
0.0
 49
0.0
140
0.0
141
0.0
142
1.0
143
1.0
 70
   688
 72
     1
 73
     1
 74
     5
  7

 75
    16
147
1.0
148
0.0
149
0.0
100
AcDbLayout
  1
ﾚｲｱｳﾄ1
 70
     1
 71
     1
 10
-6.350006103515625
 20
-6.349999904632568
 11
273.0499877929687
 21
209.5499939918517
 12
0.0
 22
0.0
 32
0.0
 14
26.66076962115562
 24
20.31135699206657
 34
-0.0015258207003583
 15
240.039213369355
 25
182.8886381005154
 35
0.0000000349246037
146
0.0
 13
0.0
 23
0.0
 33
0.0
 16
1.0
 26
0.0
 36
0.0
 17
0.0
 27
1.0
 37
0.0
 76
     0
330
50
331
6B
  0
LAYOUT
  5
56
102
{ACAD_REACTORS
330
1A
102
}
330
1A
100
AcDbPlotSettings
  1

  2
none_device
  4
Letter_(8.50_x_11.00_Inches)
  6

 40
6.349999904632568
 41
6.349999904632568
 42
6.350006103515625
 43
6.350006103515625
 44
215.8999938964843
 45
279.3999938964843
 46
0.0
 47
0.0
 48
0.0
 49
0.0
140
0.0
141
0.0
142
1.0
143
1.0
 70
   688
 72
     1
 73
     1
 74
     5
  7

 75
    16
147
1.0
148
0.0
149
0.0
100
AcDbLayout
  1
ﾚｲｱｳﾄ2
 70
     1
 71
     2
 10
-6.350006103515625
 20
-6.349999904632568
 11
273.0499877929687
 21
209.5499939918517
 12
0.0
 22
0.0
 32
0.0
 14
26.66076962115562
 24
20.31135699206657
 34
-0.0015258207003583
 15
240.039213369355
 25
182.8886381005154
 35
0.0000000349246037
146
0.0
 13
0.0
 23
0.0
 33
0.0
 16
1.0
 26
0.0
 36
0.0
 17
0.0
 27
1.0
 37
0.0
 76
     0
330
55
331
71
  0
MLINESTYLE
  5
18
102
{ACAD_REACTORS
330
17
102
}
330
17
100
AcDbMlineStyle
  2
STANDARD
 70
     0
  3

 62
   256
 51
90.0
 52
90.0
 71
     2
 49
0.5
 62
   256
  6
BYLAYER
 49
-0.5
 62
   256
  6
BYLAYER
  0
ACDBPLACEHOLDER
  5
F
102
{ACAD_REACTORS
330
E
102
}
330
E
  0
DICTIONARYVAR
  5
5F
102
{ACAD_REACTORS
330
5E
102
}
330
5E
100
DictionaryVariables
280
     0
  1
2
  0
DICTIONARYVAR
  5
63
102
{ACAD_REACTORS
330
5E
102
}
330
5E
100
DictionaryVariables
280
     0
  1
1
  0
ENDSEC
  0
EOF
