  0
SECTION
  2
HEADER
  9
$ACADVER
  1
AC1015
  9
$ACADMAINTVER
 70
    14
  9
$DWGCODEPAGE
  3
ANSI_932
  9
$INSBASE
 10
0.0
 20
0.0
 30
0.0
  9
$EXTMIN
 10
138.3835840106103
 20
22.59116719456733
 30
-0.0000000000112498
  9
$EXTMAX
 10
1386.014245764353
 20
871.95511441186
 30
0.0000000000002956
  9
$LIMMIN
 10
0.0
 20
0.0
  9
$LIMMAX
 10
420.0
 20
297.0
  9
$ORTHOMODE
 70
     0
  9
$REGENMODE
 70
     1
  9
$FILLMODE
 70
     1
  9
$QTEXTMODE
 70
     0
  9
$MIRRTEXT
 70
     1
  9
$LTSCALE
 40
1.0
  9
$ATTMODE
 70
     1
  9
$TEXTSIZE
 40
2.5
  9
$TRACEWID
 40
1.0
  9
$TEXTSTYLE
  7
Standard
  9
$CLAYER
  8
0
  9
$CELTYPE
  6
ByLayer
  9
$CECOLOR
 62
   256
  9
$CELTSCALE
 40
1.0
  9
$DISPSILH
 70
     0
  9
$DIMSCALE
 40
1.0
  9
$DIMASZ
 40
2.5
  9
$DIMEXO
 40
0.625
  9
$DIMDLI
 40
3.75
  9
$DIMRND
 40
0.0
  9
$DIMDLE
 40
0.0
  9
$DIMEXE
 40
1.25
  9
$DIMTP
 40
0.0
  9
$DIMTM
 40
0.0
  9
$DIMTXT
 40
2.5
  9
$DIMCEN
 40
2.5
  9
$DIMTSZ
 40
0.0
  9
$DIMTOL
 70
     0
  9
$DIMLIM
 70
     0
  9
$DIMTIH
 70
     0
  9
$DIMTOH
 70
     0
  9
$DIMSE1
 70
     0
  9
$DIMSE2
 70
     0
  9
$DIMTAD
 70
     1
  9
$DIMZIN
 70
     8
  9
$DIMBLK
  1

  9
$DIMASO
 70
     1
  9
$DIMSHO
 70
     1
  9
$DIMPOST
  1

  9
$DIMAPOST
  1

  9
$DIMALT
 70
     0
  9
$DIMALTD
 70
     3
  9
$DIMALTF
 40
0.03937007874016
  9
$DIMLFAC
 40
1.0
  9
$DIMTOFL
 70
     1
  9
$DIMTVP
 40
0.0
  9
$DIMTIX
 70
     0
  9
$DIMSOXD
 70
     0
  9
$DIMSAH
 70
     0
  9
$DIMBLK1
  1

  9
$DIMBLK2
  1

  9
$DIMSTYLE
  2
ISO-25
  9
$DIMCLRD
 70
     0
  9
$DIMCLRE
 70
     0
  9
$DIMCLRT
 70
     0
  9
$DIMTFAC
 40
1.0
  9
$DIMGAP
 40
0.625
  9
$DIMJUST
 70
     0
  9
$DIMSD1
 70
     0
  9
$DIMSD2
 70
     0
  9
$DIMTOLJ
 70
     0
  9
$DIMTZIN
 70
     8
  9
$DIMALTZ
 70
     0
  9
$DIMALTTZ
 70
     0
  9
$DIMUPT
 70
     0
  9
$DIMDEC
 70
     2
  9
$DIMTDEC
 70
     2
  9
$DIMALTU
 70
     2
  9
$DIMALTTD
 70
     3
  9
$DIMTXSTY
  7
Standard
  9
$DIMAUNIT
 70
     0
  9
$DIMADEC
 70
     0
  9
$DIMALTRND
 40
0.0
  9
$DIMAZIN
 70
     0
  9
$DIMDSEP
 70
    44
  9
$DIMATFIT
 70
     3
  9
$DIMFRAC
 70
     0
  9
$DIMLDRBLK
  1

  9
$DIMLUNIT
 70
     2
  9
$DIMLWD
 70
    -2
  9
$DIMLWE
 70
    -2
  9
$DIMTMOVE
 70
     0
  9
$LUNITS
 70
     2
  9
$LUPREC
 70
     4
  9
$SKETCHINC
 40
1.0
  9
$FILLETRAD
 40
10.0
  9
$AUNITS
 70
     0
  9
$AUPREC
 70
     0
  9
$MENU
  1
.
  9
$ELEVATION
 40
0.0
  9
$PELEVATION
 40
0.0
  9
$THICKNESS
 40
0.0
  9
$LIMCHECK
 70
     0
  9
$CHAMFERA
 40
10.0
  9
$CHAMFERB
 40
10.0
  9
$CHAMFERC
 40
20.0
  9
$CHAMFERD
 40
0.0
  9
$SKPOLY
 70
     0
  9
$TDCREATE
 40
2454284.637194189
  9
$TDUCREATE
 40
2454284.262194189
  9
$TDUPDATE
 40
2456899.672606701
  9
$TDUUPDATE
 40
2456899.297606701
  9
$TDINDWG
 40
0.0026500116
  9
$TDUSRTIMER
 40
0.0026500116
  9
$USRTIMER
 70
     1
  9
$ANGBASE
 50
0.0
  9
$ANGDIR
 70
     0
  9
$PDMODE
 70
     0
  9
$PDSIZE
 40
0.0
  9
$PLINEWID
 40
0.0
  9
$SPLFRAME
 70
     0
  9
$SPLINETYPE
 70
     6
  9
$SPLINESEGS
 70
     8
  9
$HANDSEED
  5
908
  9
$SURFTAB1
 70
     6
  9
$SURFTAB2
 70
     6
  9
$SURFTYPE
 70
     6
  9
$SURFU
 70
     6
  9
$SURFV
 70
     6
  9
$UCSBASE
  2

  9
$UCSNAME
  2

  9
$UCSORG
 10
0.0
 20
0.0
 30
0.0
  9
$UCSXDIR
 10
1.0
 20
0.0
 30
0.0
  9
$UCSYDIR
 10
0.0
 20
1.0
 30
0.0
  9
$UCSORTHOREF
  2

  9
$UCSORTHOVIEW
 70
     0
  9
$UCSORGTOP
 10
0.0
 20
0.0
 30
0.0
  9
$UCSORGBOTTOM
 10
0.0
 20
0.0
 30
0.0
  9
$UCSORGLEFT
 10
0.0
 20
0.0
 30
0.0
  9
$UCSORGRIGHT
 10
0.0
 20
0.0
 30
0.0
  9
$UCSORGFRONT
 10
0.0
 20
0.0
 30
0.0
  9
$UCSORGBACK
 10
0.0
 20
0.0
 30
0.0
  9
$PUCSBASE
  2

  9
$PUCSNAME
  2

  9
$PUCSORG
 10
0.0
 20
0.0
 30
0.0
  9
$PUCSXDIR
 10
1.0
 20
0.0
 30
0.0
  9
$PUCSYDIR
 10
0.0
 20
1.0
 30
0.0
  9
$PUCSORTHOREF
  2

  9
$PUCSORTHOVIEW
 70
     0
  9
$PUCSORGTOP
 10
0.0
 20
0.0
 30
0.0
  9
$PUCSORGBOTTOM
 10
0.0
 20
0.0
 30
0.0
  9
$PUCSORGLEFT
 10
0.0
 20
0.0
 30
0.0
  9
$PUCSORGRIGHT
 10
0.0
 20
0.0
 30
0.0
  9
$PUCSORGFRONT
 10
0.0
 20
0.0
 30
0.0
  9
$PUCSORGBACK
 10
0.0
 20
0.0
 30
0.0
  9
$USERI1
 70
     0
  9
$USERI2
 70
     0
  9
$USERI3
 70
     0
  9
$USERI4
 70
     0
  9
$USERI5
 70
     0
  9
$USERR1
 40
0.0
  9
$USERR2
 40
0.0
  9
$USERR3
 40
0.0
  9
$USERR4
 40
0.0
  9
$USERR5
 40
0.0
  9
$WORLDVIEW
 70
     1
  9
$SHADEDGE
 70
     3
  9
$SHADEDIF
 70
    70
  9
$TILEMODE
 70
     1
  9
$MAXACTVP
 70
    48
  9
$PINSBASE
 10
0.0
 20
0.0
 30
0.0
  9
$PLIMCHECK
 70
     0
  9
$PEXTMIN
 10
26.66076962115562
 20
20.31135699206657
 30
-0.0015258207003583
  9
$PEXTMAX
 10
240.039213369355
 20
182.8886381005154
 30
0.0000000349246037
  9
$PLIMMIN
 10
-6.350006103515625
 20
-6.349999904632568
  9
$PLIMMAX
 10
273.0499877929687
 20
209.5499939918517
  9
$UNITMODE
 70
     0
  9
$VISRETAIN
 70
     1
  9
$PLINEGEN
 70
     0
  9
$PSLTSCALE
 70
     1
  9
$TREEDEPTH
 70
  3020
  9
$CMLSTYLE
  2
Standard
  9
$CMLJUST
 70
     0
  9
$CMLSCALE
 40
20.0
  9
$PROXYGRAPHICS
 70
     1
  9
$MEASUREMENT
 70
     1
  9
$CELWEIGHT
370
    -1
  9
$ENDCAPS
280
     0
  9
$JOINSTYLE
280
     0
  9
$LWDISPLAY
290
     0
  9
$INSUNITS
 70
     4
  9
$HYPERLINKBASE
  1

  9
$STYLESHEET
  1

  9
$XEDIT
290
     1
  9
$CEPSNTYPE
380
     0
  9
$PSTYLEMODE
290
     1
  9
$FINGERPRINTGUID
  2
{FDEAD578-A652-11D2-9A35-0060089B3A3F}
  9
$VERSIONGUID
  2
{90420793-48E6-4159-B084-D5F87A7135F2}
  9
$EXTNAMES
290
     1
  9
$PSVPSCALE
 40
0.0
  9
$OLESTARTUP
290
     0
  0
ENDSEC
  0
SECTION
  2
CLASSES
  0
CLASS
  1
ACDBDICTIONARYWDFLT
  2
AcDbDictionaryWithDefault
  3
AutoCAD 2000
 90
        0
280
     0
281
     0
  0
CLASS
  1
ACDBPLACEHOLDER
  2
AcDbPlaceHolder
  3
AutoCAD 2000
 90
        0
280
     0
281
     0
  0
CLASS
  1
LAYOUT
  2
AcDbLayout
  3
AutoCAD 2000
 90
        0
280
     0
281
     0
  0
CLASS
  1
DICTIONARYVAR
  2
AcDbDictionaryVar
  3
AutoCAD 2000
 90
        0
280
     0
281
     0
  0
CLASS
  1
LONG_TRANSACTION
  2
AcDbLongTransaction
  3
AutoCAD 2000
 90
    32768
280
     0
281
     0
  0
CLASS
  1
LWPOLYLINE
  2
AcDbPolyline
  3
AutoCAD 2000
 90
    32768
280
     0
281
     1
  0
CLASS
  1
HATCH
  2
AcDbHatch
  3
AutoCAD 2000
 90
    32768
280
     0
281
     1
  0
CLASS
  1
XRECORD
  2
AcDbXrecord
  3
AutoCAD 2000
 90
    32768
280
     0
281
     0
  0
ENDSEC
  0
SECTION
  2
TABLES
  0
TABLE
  2
VPORT
  5
8
330
0
100
AcDbSymbolTable
 70
     2
  0
VPORT
  5
907
330
8
100
AcDbSymbolTableRecord
100
AcDbViewportTableRecord
  2
*Active
 70
     0
 10
0.0
 20
0.0
 11
1.0
 21
1.0
 12
762.1989148874818
 22
447.2731408032136
 13
0.0
 23
0.0
 14
10.0
 24
10.0
 15
10.0
 25
10.0
 16
0.0
 26
0.0
 36
1.0
 17
0.0
 27
0.0
 37
0.0
 40
854.7567341837517
 41
1.592161016949152
 42
50.0
 43
0.0
 44
0.0
 50
0.0
 51
0.0
 71
     0
 72
   100
 73
     1
 74
     3
 75
     0
 76
     0
 77
     0
 78
     0
281
     0
 65
     1
110
0.0
120
0.0
130
0.0
111
1.0
121
0.0
131
0.0
112
0.0
122
1.0
132
0.0
 79
     0
146
0.0
  0
ENDTAB
  0
TABLE
  2
LTYPE
  5
5
330
0
100
AcDbSymbolTable
 70
     3
  0
LTYPE
  5
14
330
5
100
AcDbSymbolTableRecord
100
AcDbLinetypeTableRecord
  2
ByBlock
 70
     0
  3

 72
    65
 73
     0
 40
0.0
  0
LTYPE
  5
15
330
5
100
AcDbSymbolTableRecord
100
AcDbLinetypeTableRecord
  2
ByLayer
 70
     0
  3

 72
    65
 73
     0
 40
0.0
  0
LTYPE
  5
16
330
5
100
AcDbSymbolTableRecord
100
AcDbLinetypeTableRecord
  2
Continuous
 70
     0
  3
Solid line
 72
    65
 73
     0
 40
0.0
  0
LTYPE
  5
86
330
5
100
AcDbSymbolTableRecord
100
AcDbLinetypeTableRecord
  2
HIDDEN
 70
     0
  3
Hidden __ __ __ __ __ __ __ __ __ __ __ __ __ _
 72
    65
 73
     2
 40
0.375
 49
0.25
 74
     0
 49
-0.125
 74
     0
  0
LTYPE
  5
315
330
5
100
AcDbSymbolTableRecord
100
AcDbLinetypeTableRecord
  2
CENTER
 70
     0
  3
Center ____ _ ____ _ ____ _ ____ _ ____ _ ____
 72
    65
 73
     4
 40
50.8
 49
31.75
 74
     0
 49
-6.349999999999999
 74
     0
 49
6.349999999999999
 74
     0
 49
-6.349999999999999
 74
     0
  0
ENDTAB
  0
TABLE
  2
LAYER
  5
2
102
{ACAD_XDICTIONARY
360
318
102
}
330
0
100
AcDbSymbolTable
 70
     1
  0
LAYER
  5
10
330
2
100
AcDbSymbolTableRecord
100
AcDbLayerTableRecord
  2
0
 70
     0
 62
     7
  6
Continuous
370
    -3
390
F
  0
ENDTAB
  0
TABLE
  2
STYLE
  5
3
330
0
100
AcDbSymbolTable
 70
     1
  0
STYLE
  5
11
330
3
100
AcDbSymbolTableRecord
100
AcDbTextStyleTableRecord
  2
Standard
 70
     0
 40
0.0
 41
1.0
 50
0.0
 71
     0
 42
2.5
  3
txt
  4

  0
ENDTAB
  0
TABLE
  2
VIEW
  5
6
330
0
100
AcDbSymbolTable
 70
     0
  0
ENDTAB
  0
TABLE
  2
UCS
  5
7
330
0
100
AcDbSymbolTable
 70
     0
  0
ENDTAB
  0
TABLE
  2
APPID
  5
9
330
0
100
AcDbSymbolTable
 70
     1
  0
APPID
  5
12
330
9
100
AcDbSymbolTableRecord
100
AcDbRegAppTableRecord
  2
ACAD
 70
     0
  0
ENDTAB
  0
TABLE
  2
DIMSTYLE
  5
A
330
0
100
AcDbSymbolTable
 70
     1
100
AcDbDimStyleTable
 71
     0
  0
DIMSTYLE
105
27
330
A
100
AcDbSymbolTableRecord
100
AcDbDimStyleTableRecord
  2
ISO-25
 70
     0
 41
2.5
 42
0.625
 43
3.75
 44
1.25
 73
     0
 74
     0
 77
     1
 78
     8
140
2.5
141
2.5
143
0.03937007874016
147
0.625
171
     3
172
     1
271
     2
272
     2
274
     3
278
    44
283
     0
284
     8
340
11
  0
ENDTAB
  0
TABLE
  2
BLOCK_RECORD
  5
1
330
0
100
AcDbSymbolTable
 70
     1
  0
BLOCK_RECORD
  5
1F
102
{ACAD_XDICTIONARY
360
2CE
102
}
330
1
100
AcDbSymbolTableRecord
100
AcDbBlockTableRecord
  2
*Model_Space
340
22
  0
BLOCK_RECORD
  5
55
102
{ACAD_XDICTIONARY
360
2D0
102
}
330
1
100
AcDbSymbolTableRecord
100
AcDbBlockTableRecord
  2
*Paper_Space
340
56
  0
BLOCK_RECORD
  5
50
102
{ACAD_XDICTIONARY
360
2D2
102
}
330
1
100
AcDbSymbolTableRecord
100
AcDbBlockTableRecord
  2
*Paper_Space0
340
51
  0
ENDTAB
  0
ENDSEC
  0
SECTION
  2
BLOCKS
  0
BLOCK
  5
20
330
1F
100
AcDbEntity
  8
0
100
AcDbBlockBegin
  2
*Model_Space
 70
     0
 10
0.0
 20
0.0
 30
0.0
  3
*Model_Space
  1

  0
ENDBLK
  5
21
330
1F
100
AcDbEntity
  8
0
100
AcDbBlockEnd
  0
BLOCK
  5
57
330
55
100
AcDbEntity
 67
     1
  8
0
100
AcDbBlockBegin
  2
*Paper_Space
 70
     0
 10
0.0
 20
0.0
 30
0.0
  3
*Paper_Space
  1

  0
ENDBLK
  5
58
330
55
100
AcDbEntity
 67
     1
  8
0
100
AcDbBlockEnd
  0
BLOCK
  5
52
330
50
100
AcDbEntity
  8
0
100
AcDbBlockBegin
  2
*Paper_Space0
 70
     0
 10
0.0
 20
0.0
 30
0.0
  3
*Paper_Space0
  1

  0
VIEWPORT
  5
6B
330
50
100
AcDbEntity
  8
0
100
AcDbViewport
 10
133.3499908447265
 20
101.5999970436096
 30
0.0
 40
381.3957395593834
 41
218.2856291881582
 69
     0
 12
133.3499908447265
 22
101.5999970436096
 13
0.0
 23
0.0
 14
10.0
 24
10.0
 15
10.0
 25
10.0
 16
0.0
 26
0.0
 36
1.0
 17
0.0
 27
0.0
 37
0.0
 42
50.0
 43
0.0
 44
0.0
 45
218.2856291881582
 50
0.0
 51
0.0
 72
   100
 90
    32800
  1

281
     0
 71
     1
 74
     0
110
0.0
120
0.0
130
0.0
111
1.0
121
0.0
131
0.0
112
0.0
122
1.0
132
0.0
 79
     0
146
0.0
  0
VIEWPORT
  5
6D
330
50
100
AcDbEntity
  8
0
100
AcDbViewport
 10
133.349993944168
 20
101.599993944168
 30
0.0
 40
213.3599903106689
 41
162.5599903106689
 69
     0
 12
210.0
 22
148.5
 13
0.0
 23
0.0
 14
10.0
 24
10.0
 15
10.0
 25
10.0
 16
0.0
 26
0.0
 36
1.0
 17
0.0
 27
0.0
 37
0.0
 42
50.0
 43
0.0
 44
0.0
 45
324.0677920111345
 50
0.0
 51
0.0
 72
   100
 90
    32864
  1

281
     0
 71
     1
 74
     0
110
0.0
120
0.0
130
0.0
111
1.0
121
0.0
131
0.0
112
0.0
122
1.0
132
0.0
 79
     0
146
0.0
  0
ENDBLK
  5
53
330
50
100
AcDbEntity
  8
0
100
AcDbBlockEnd
  0
ENDSEC
  0
SECTION
  2
ENTITIES
  0
LINE
  5
1A8
330
1F
100
AcDbEntity
  8
0
  6
Continuous
100
AcDbLine
 10
326.6812946514512
 20
427.4821708769263
 30
0.0
 11
320.597427757225
 21
427.4821708769263
 31
0.0
  0
LINE
  5
1A9
330
1F
100
AcDbEntity
  8
0
  6
Continuous
100
AcDbLine
 10
326.6812946514512
 20
445.4821708769263
 30
0.0
 11
320.597427757225
 21
445.4821708769263
 31
0.0
  0
ARC
  5
1AA
330
1F
100
AcDbEntity
  8
0
  6
Continuous
100
AcDbCircle
 10
327.3315747402204
 20
447.4821658769264
 30
0.0
 40
2.000000099999999
100
AcDbArc
 50
193.9902040000014
 51
270.0
  0
ARC
  5
1AB
330
1F
100
AcDbEntity
  8
0
  6
Continuous
100
AcDbCircle
 10
327.3315747402204
 20
425.4821758769264
 30
0.0
 40
2.000000099999999
100
AcDbArc
 50
90.0
 51
166.0098000000011
  0
ARC
  5
1AC
330
1F
100
AcDbEntity
  8
0
  6
Continuous
100
AcDbCircle
 10
334.1812647402204
 20
444.4821658769264
 30
0.0
 40
1.000000035
100
AcDbArc
 50
0.0
 51
90.0
  0
ARC
  5
1AD
330
1F
100
AcDbEntity
  8
0
  6
Continuous
100
AcDbCircle
 10
334.1812647402204
 20
428.4821758769263
 30
0.0
 40
1.000000035
100
AcDbArc
 50
270.0
 51
0.0
  0
LINE
  5
1AE
330
1F
100
AcDbEntity
  8
0
  6
Continuous
100
AcDbLine
 10
335.1812547402204
 20
431.4821849917941
 30
0.0
 11
335.1812547402204
 21
428.4821758769263
 31
0.0
  0
LINE
  5
1AF
330
1F
100
AcDbEntity
  8
0
  6
Continuous
100
AcDbLine
 10
335.1812547402204
 20
444.4821658769264
 30
0.0
 11
335.1812547402204
 21
441.4821554049058
 31
0.0
  0
LINE
  5
1B0
330
1F
100
AcDbEntity
  8
0
  6
Continuous
100
AcDbLine
 10
327.3315747402204
 20
445.4821708769263
 30
0.0
 11
334.1812647402204
 21
445.4821708769263
 31
0.0
  0
LINE
  5
1B1
330
1F
100
AcDbEntity
  8
0
  6
Continuous
100
AcDbLine
 10
327.3315747402204
 20
427.4821708769263
 30
0.0
 11
334.1812647402204
 21
427.4821708769263
 31
0.0
  0
ARC
  5
1B2
330
1F
100
AcDbEntity
  8
0
  6
Continuous
100
AcDbCircle
 10
283.1812602402205
 20
436.4821708769263
 30
0.0
 40
38.48336772763781
100
AcDbArc
 50
346.4751386008483
 51
13.52486139915166
  0
LINE
  5
1B3
330
1F
100
AcDbEntity
  8
0
  6
Continuous
100
AcDbLine
 10
326.6812946514512
 20
427.4821708769263
 30
0.0
 11
326.6812946514512
 21
445.4821708769263
 31
0.0
  0
CIRCLE
  5
1B4
330
1F
100
AcDbEntity
  8
0
  6
Continuous
100
AcDbCircle
 10
283.1812602402205
 20
436.4821708769263
 30
0.0
 40
25.00000962123886
  0
CIRCLE
  5
1B5
330
1F
100
AcDbEntity
  8
0
  6
Continuous
100
AcDbCircle
 10
283.1812602402205
 20
436.4821708769263
 30
0.0
 40
7.999956208064759
  0
CIRCLE
  5
1B6
330
1F
100
AcDbEntity
  8
0
  6
Continuous
100
AcDbCircle
 10
283.1812602402205
 20
436.4821708769263
 30
0.0
 40
7.500093408555756
  0
ARC
  5
1B7
330
1F
100
AcDbEntity
  8
0
  6
Continuous
100
AcDbCircle
 10
239.3509107402205
 20
415.7180308769263
 30
0.0
 40
5.000000249999999
100
AcDbArc
 50
355.000119999999
 51
25.34879000000088
  0
ARC
  5
1B8
330
1F
100
AcDbEntity
  8
0
  6
Continuous
100
AcDbCircle
 10
327.0116052402206
 20
415.7180158769263
 30
0.0
 40
5.000000249999999
100
AcDbArc
 50
154.6511799999979
 51
184.9998800000009
  0
ARC
  5
1B9
330
1F
100
AcDbEntity
  8
0
  6
Continuous
100
AcDbCircle
 10
266.5289052402206
 20
390.9305608769264
 30
0.0
 40
5.000000249999999
100
AcDbArc
 50
69.91900399999313
 51
87.99997400000178
  0
ARC
  5
1BA
330
1F
100
AcDbEntity
  8
0
  6
Continuous
100
AcDbCircle
 10
299.8336092402207
 20
390.9305608769264
 30
0.0
 40
5.000000249999999
100
AcDbArc
 50
92.00002599999823
 51
110.0810000000077
  0
ARC
  5
1BB
330
1F
100
AcDbEntity
  8
0
  6
Continuous
100
AcDbCircle
 10
317.1224337402207
 20
402.5410108769263
 30
0.0
 40
6.0
100
AcDbArc
 50
272.0000099999995
 51
4.999921999998887
  0
ARC
  5
1BC
330
1F
100
AcDbEntity
  8
0
  6
Continuous
100
AcDbCircle
 10
266.5289052402206
 20
482.0337808769263
 30
0.0
 40
5.000000249999999
100
AcDbArc
 50
272.0000299999914
 51
290.0810000000078
  0
ARC
  5
1BD
330
1F
100
AcDbEntity
  8
0
  6
Continuous
100
AcDbCircle
 10
283.1812602402205
 20
436.4821708769263
 30
0.0
 40
43.49999699999999
100
AcDbArc
 50
11.94054479622774
 51
348.0594552037722
  0
ARC
  5
1BE
330
1F
100
AcDbEntity
  8
0
  6
Continuous
100
AcDbCircle
 10
327.0116052402206
 20
457.2463258769263
 30
0.0
 40
5.000000249999999
100
AcDbArc
 50
175.000119999999
 51
205.348820000002
  0
ARC
  5
1BF
330
1F
100
AcDbEntity
  8
0
  6
Continuous
100
AcDbCircle
 10
299.8336092402207
 20
482.0337808769263
 30
0.0
 40
5.000000249999999
100
AcDbArc
 50
249.9189999999921
 51
267.9999700000085
  0
ARC
  5
1C0
330
1F
100
AcDbEntity
  8
0
  6
Continuous
100
AcDbCircle
 10
317.1224337402207
 20
470.4233308769263
 30
0.0
 40
6.0
100
AcDbArc
 50
355.0000799999996
 51
87.99998500000251
  0
ARC
  5
1C1
330
1F
100
AcDbEntity
  8
0
  6
Continuous
100
AcDbCircle
 10
249.2400972402206
 20
470.4233308769263
 30
0.0
 40
6.0
100
AcDbArc
 50
91.99995999999467
 51
184.9999200000003
  0
ARC
  5
1C2
330
1F
100
AcDbEntity
  8
0
  6
Continuous
100
AcDbCircle
 10
239.3509107402205
 20
457.2463108769263
 30
0.0
 40
5.000000249999999
100
AcDbArc
 50
334.6512099999991
 51
4.999880399999911
  0
ARC
  5
1C3
330
1F
100
AcDbEntity
  8
0
  6
Continuous
100
AcDbCircle
 10
249.2400972402206
 20
402.5410108769263
 30
0.0
 40
6.0
100
AcDbArc
 50
175.0000799999996
 51
268.0000400000053
  0
LINE
  5
1C4
330
1F
100
AcDbEntity
  8
0
  6
Continuous
100
AcDbLine
 10
243.2629167402205
 20
403.0639408769263
 30
0.0
 11
244.3318872402205
 21
415.2822358769263
 31
0.0
  0
LINE
  5
1C5
330
1F
100
AcDbEntity
  8
0
  6
Continuous
100
AcDbLine
 10
323.0995962402207
 20
403.0639408769263
 30
0.0
 11
322.0306332402206
 21
415.2822358769263
 31
0.0
  0
LINE
  5
1C6
330
1F
100
AcDbEntity
  8
0
  6
Continuous
100
AcDbLine
 10
243.2629167402205
 20
469.9004008769264
 30
0.0
 11
244.3318872402205
 21
457.6821058769263
 31
0.0
  0
LINE
  5
1C7
330
1F
100
AcDbEntity
  8
0
  6
Continuous
100
AcDbLine
 10
323.1001632402205
 20
469.9068658769262
 30
0.0
 11
322.0306392402207
 21
457.6821058769263
 31
0.0
  0
LINE
  5
1C8
330
1F
100
AcDbEntity
  8
0
  6
Continuous
100
AcDbLine
 10
317.3318262402206
 20
396.5446708769263
 30
0.0
 11
299.6591157402206
 21
395.9275408769264
 31
0.0
  0
LINE
  5
1C9
330
1F
100
AcDbEntity
  8
0
  6
Continuous
100
AcDbLine
 10
249.0306942402207
 20
396.5446708769263
 30
0.0
 11
266.7034047402207
 21
395.9275108769263
 31
0.0
  0
LINE
  5
1CA
330
1F
100
AcDbEntity
  8
0
  6
Continuous
100
AcDbLine
 10
249.0306942402207
 20
476.4197008769264
 30
0.0
 11
266.7033927402205
 21
477.0368308769263
 31
0.0
  0
LINE
  5
1CB
330
1F
100
AcDbEntity
  8
0
  6
Continuous
100
AcDbLine
 10
317.3318262402206
 20
476.4196708769263
 30
0.0
 11
299.6591157402206
 21
477.0368308769263
 31
0.0
  0
LINE
  5
1CC
330
1F
100
AcDbEntity
  8
0
100
AcDbLine
 10
317.1812585049609
 20
87.65090686099297
 30
0.0
 11
249.181258504962
 21
87.6509068609929
 31
0.0
  0
LINE
  5
1CD
330
1F
100
AcDbEntity
  8
0
100
AcDbLine
 10
291.1812236301004
 20
187.150989805343
 30
0.0
 11
290.6812367549432
 21
189.0169970548295
 31
0.0
  0
LINE
  5
1CE
330
1F
100
AcDbEntity
  8
0
100
AcDbLine
 10
291.181211456955
 20
186.1509678335763
 30
0.0
 11
291.1812248697003
 21
187.1509575181414
 31
0.0
  0
LINE
  5
1CF
330
1F
100
AcDbEntity
  8
0
100
AcDbLine
 10
290.6812063466566
 20
209.6509615850317
 30
0.0
 11
290.6812257924048
 21
189.0169921739742
 31
0.0
  0
ARC
  5
1D0
330
1F
100
AcDbEntity
  8
0
100
AcDbCircle
 10
287.6812645033337
 20
89.65083024466503
 30
0.0
 40
2.000000099999999
100
AcDbArc
 50
180.0004999999982
 51
270.000249999999
  0
ARC
  5
1D1
330
1F
100
AcDbEntity
  8
0
100
AcDbCircle
 10
287.6812648442933
 20
96.15085146598723
 30
0.0
 40
2.000000099999999
100
AcDbArc
 50
90.00010499999754
 51
180.0004400000052
  0
ARC
  5
1D2
330
1F
100
AcDbEntity
  8
0
100
AcDbCircle
 10
317.1224256582277
 20
98.88485453216254
 30
0.0
 40
5.416833449999999
100
AcDbArc
 50
301.1869500000023
 51
345.7428600000028
  0
ARC
  5
1D3
330
1F
100
AcDbEntity
  8
0
100
AcDbCircle
 10
317.1224256582277
 20
98.88485453216254
 30
0.0
 40
5.416833449999999
100
AcDbArc
 50
194.2568700000018
 51
238.8131899999978
  0
ARC
  5
1D4
330
1F
100
AcDbEntity
  8
0
100
AcDbCircle
 10
249.2400975222383
 20
98.88488766702426
 30
0.0
 40
5.416833449999999
100
AcDbArc
 50
301.1869200000006
 51
345.7428600000028
  0
ARC
  5
1D5
330
1F
100
AcDbEntity
  8
0
100
AcDbCircle
 10
249.2400975222383
 20
98.88488766702426
 30
0.0
 40
5.416833449999999
100
AcDbArc
 50
194.2569099999999
 51
238.8131899999978
  0
ARC
  5
1D6
330
1F
100
AcDbEntity
  8
0
100
AcDbCircle
 10
325.6812787614089
 20
100.1508515447444
 30
0.0
 40
1.000000035
100
AcDbArc
 50
269.9995699999957
 51
359.9992400000016
  0
ARC
  5
1D7
330
1F
100
AcDbEntity
  8
0
100
AcDbCircle
 10
278.6812528273549
 20
96.1508401643182
 30
0.0
 40
2.000000099999999
100
AcDbArc
 50
0.0004400000052045
 51
90.00010499999754
  0
ARC
  5
1D8
330
1F
100
AcDbEntity
  8
0
100
AcDbCircle
 10
278.6812579676679
 20
89.65081650257616
 30
0.0
 40
2.000000099999999
100
AcDbArc
 50
270.000099999997
 51
0.0004400000052045
  0
ARC
  5
1D9
330
1F
100
AcDbEntity
  8
0
100
AcDbCircle
 10
240.6812558563724
 20
100.150877791671
 30
0.0
 40
1.000000035
100
AcDbArc
 50
179.9992400000016
 51
269.9995699999957
  0
ARC
  5
1DA
330
1F
100
AcDbEntity
  8
0
100
AcDbCircle
 10
255.1812497624434
 20
94.15083827517106
 30
0.0
 40
4.000000049999999
100
AcDbArc
 50
359.9998999999964
 51
89.9999879999962
  0
ARC
  5
1DB
330
1F
100
AcDbEntity
  8
0
100
AcDbCircle
 10
311.181265847076
 20
94.15085627706208
 30
0.0
 40
4.000000049999999
100
AcDbArc
 50
89.99991300000166
 51
179.9998699999999
  0
ARC
  5
1DC
330
1F
100
AcDbEntity
  8
0
100
AcDbCircle
 10
248.2401052589543
 20
126.4580404702474
 30
0.0
 40
5.000000249999999
100
AcDbArc
 50
89.99990500000347
 51
179.9997700000029
  0
ARC
  5
1DD
330
1F
100
AcDbEntity
  8
0
100
AcDbCircle
 10
249.2400922982351
 20
131.5942475295344
 30
0.0
 40
5.000000249999999
100
AcDbArc
 50
220.7035900000014
 51
285.4462500000046
  0
ARC
  5
1DE
330
1F
100
AcDbEntity
  8
0
100
AcDbCircle
 10
262.5206653931884
 20
126.4580327090129
 30
0.0
 40
5.000000249999999
100
AcDbArc
 50
359.9997700000029
 51
89.99990500000347
  0
ARC
  5
1DF
330
1F
100
AcDbEntity
  8
0
100
AcDbCircle
 10
317.1224387373736
 20
131.5942555042186
 30
0.0
 40
5.000000249999999
100
AcDbArc
 50
254.5538200000052
 51
319.2964200000053
  0
ARC
  5
1E0
330
1F
100
AcDbEntity
  8
0
100
AcDbCircle
 10
303.8418628224594
 20
126.4580270932506
 30
0.0
 40
5.000000249999999
100
AcDbArc
 50
89.99990500000347
 51
179.9997700000029
  0
ARC
  5
1E1
330
1F
100
AcDbEntity
  8
0
100
AcDbCircle
 10
318.1224290577431
 20
126.458033035198
 30
0.0
 40
5.000000249999999
100
AcDbArc
 50
359.9997700000029
 51
89.99990500000347
  0
ARC
  5
1E2
330
1F
100
AcDbEntity
  8
0
100
AcDbCircle
 10
360.1952333015645
 20
135.5483566393595
 30
0.0
 40
120.0
100
AcDbArc
 50
164.9961479999989
 51
179.000009999998
  0
ARC
  5
1E3
330
1F
100
AcDbEntity
  8
0
100
AcDbCircle
 10
206.1672857765273
 20
135.5483460391085
 30
0.0
 40
120.0
100
AcDbArc
 50
0.9999900000019669
 51
15.00000000000116
  0
ARC
  5
1E4
330
1F
100
AcDbEntity
  8
0
100
AcDbCircle
 10
323.1992910894368
 20
170.1508661021714
 30
0.0
 40
2.000000099999999
100
AcDbArc
 50
195.0000899999989
 51
269.999989999999
  0
ARC
  5
1E5
330
1F
100
AcDbEntity
  8
0
100
AcDbCircle
 10
325.6807621256168
 20
167.1508673870357
 30
0.0
 40
1.000000035
100
AcDbArc
 50
0.0004400000052045
 51
90.00010499999754
  0
ARC
  5
1E6
330
1F
100
AcDbEntity
  8
0
100
AcDbCircle
 10
334.1812589852279
 20
108.650846276907
 30
0.0
 40
1.000000035
100
AcDbArc
 50
269.9995699999957
 51
359.9992400000016
  0
ARC
  5
1E7
330
1F
100
AcDbEntity
  8
0
100
AcDbCircle
 10
334.1812562711968
 20
124.6508394700363
 30
0.0
 40
1.000000035
100
AcDbArc
 50
359.9992400000016
 51
89.99957100000372
  0
ARC
  5
1E8
330
1F
100
AcDbEntity
  8
0
100
AcDbCircle
 10
328.6807644657972
 20
127.6508561077048
 30
0.0
 40
2.000000099999999
100
AcDbArc
 50
180.0004999999982
 51
270.000249999999
  0
ARC
  5
1E9
330
1F
100
AcDbEntity
  8
0
100
AcDbCircle
 10
252.7852239796975
 20
175.1509635174843
 30
0.0
 40
6.0
100
AcDbArc
 50
90.0000269999923
 51
164.999926000002
  0
ARC
  5
1EA
330
1F
100
AcDbEntity
  8
0
100
AcDbCircle
 10
313.5773006571266
 20
175.1509414130732
 30
0.0
 40
6.0
100
AcDbArc
 50
15.00008999999897
 51
90.0000269999923
  0
ARC
  5
1EB
330
1F
100
AcDbEntity
  8
0
100
AcDbCircle
 10
259.1812659612805
 20
185.1509479506757
 30
0.0
 40
1.000000035
100
AcDbArc
 50
90.00010499999754
 51
180.0004400000052
  0
ARC
  5
1EC
330
1F
100
AcDbEntity
  8
0
100
AcDbCircle
 10
307.1812627543722
 20
185.1509615643701
 30
0.0
 40
1.000000035
100
AcDbArc
 50
0.0004400000052045
 51
90.00010499999754
  0
LINE
  5
1ED
330
1F
100
AcDbEntity
  8
0
100
AcDbLine
 10
259.1812575578635
 20
87.65090686099284
 30
0.0
 11
259.1812460803025
 21
94.15083819346524
 31
0.0
  0
LINE
  5
1EE
330
1F
100
AcDbEntity
  8
0
100
AcDbLine
 10
285.6812684309525
 20
96.1508425198815
 30
0.0
 11
285.6812735712658
 21
89.65081885813971
 31
0.0
  0
LINE
  5
1EF
330
1F
100
AcDbEntity
  8
0
100
AcDbLine
 10
314.317429486022
 20
94.25082648499687
 30
0.0
 11
319.9274235207058
 21
94.25085369618523
 31
0.0
  0
LINE
  5
1F0
330
1F
100
AcDbEntity
  8
0
100
AcDbLine
 10
311.1224353439518
 20
97.55090440314688
 30
0.0
 11
323.1224230579755
 21
97.55087187082722
 31
0.0
  0
LINE
  5
1F1
330
1F
100
AcDbEntity
  8
0
100
AcDbLine
 10
323.1224205747196
 20
99.15084261974108
 30
0.0
 11
323.1224230579755
 21
97.55087187082722
 31
0.0
  0
LINE
  5
1F2
330
1F
100
AcDbEntity
  8
0
100
AcDbLine
 10
311.122426759646
 20
99.15086144887869
 30
0.0
 11
311.1224353439518
 21
97.55090440314688
 31
0.0
  0
LINE
  5
1F3
330
1F
100
AcDbEntity
  8
0
100
AcDbLine
 10
246.4351136828963
 20
94.25085412891371
 30
0.0
 11
252.0450990066585
 21
94.25083595982163
 31
0.0
  0
LINE
  5
1F4
330
1F
100
AcDbEntity
  8
0
100
AcDbLine
 10
243.2401108299043
 20
97.5508866667833
 30
0.0
 11
255.2400875813828
 21
97.55085901530357
 31
0.0
  0
LINE
  5
1F5
330
1F
100
AcDbEntity
  8
0
100
AcDbLine
 10
255.2401034012755
 20
99.15087087376287
 30
0.0
 11
255.2400875813828
 21
97.55085901530357
 31
0.0
  0
LINE
  5
1F6
330
1F
100
AcDbEntity
  8
0
100
AcDbLine
 10
243.2401022455985
 20
99.15084371251555
 30
0.0
 11
243.2401108299043
 21
97.5508866667833
 31
0.0
  0
LINE
  5
1F7
330
1F
100
AcDbEntity
  8
0
100
AcDbLine
 10
326.6812837254024
 20
107.1508330830333
 30
0.0
 11
326.6812946514512
 21
100.1508809837409
 31
0.0
  0
LINE
  5
1F8
330
1F
100
AcDbEntity
  8
0
100
AcDbLine
 10
280.6812539714269
 20
96.15086342371046
 30
0.0
 11
280.6812517711366
 21
89.65079377158327
 31
0.0
  0
LINE
  5
1F9
330
1F
100
AcDbEntity
  8
0
100
AcDbLine
 10
239.6812418621573
 20
107.1508440019324
 30
0.0
 11
239.6812399663299
 21
100.1508483526742
 31
0.0
  0
LINE
  5
1FA
330
1F
100
AcDbEntity
  8
0
100
AcDbLine
 10
307.1812661498185
 20
87.6509068609929
 30
0.0
 11
307.181264047944
 21
94.15085879918729
 31
0.0
  0
LINE
  5
1FB
330
1F
100
AcDbEntity
  8
0
100
AcDbLine
 10
240.6812475268929
 20
99.15086558160238
 30
0.0
 11
325.6812887350784
 21
99.15088044422123
 31
0.0
  0
LINE
  5
1FC
330
1F
100
AcDbEntity
  8
0
100
AcDbLine
 10
255.2401060343415
 20
98.15085378285449
 30
0.0
 11
311.1224239114392
 21
98.15084679839038
 31
0.0
  0
LINE
  5
1FD
330
1F
100
AcDbEntity
  8
0
100
AcDbLine
 10
267.5206762307718
 20
126.4580626764093
 30
0.0
 11
267.5206677552484
 21
107.1508662964845
 31
0.0
  0
LINE
  5
1FE
330
1F
100
AcDbEntity
  8
0
100
AcDbLine
 10
248.2400904958224
 20
131.4580116993679
 30
0.0
 11
262.5206676936516
 21
131.4580127604754
 31
0.0
  0
LINE
  5
1FF
330
1F
100
AcDbEntity
  8
0
100
AcDbLine
 10
243.2400930510525
 20
126.458011112956
 30
0.0
 11
243.2401076094095
 21
107.1508701558636
 31
0.0
  0
LINE
  5
200
330
1F
100
AcDbEntity
  8
0
100
AcDbLine
 10
262.3487600503406
 20
130.0289444515931
 30
0.0
 11
250.5717618128894
 21
126.7747951955059
 31
0.0
  0
LINE
  5
201
330
1F
100
AcDbEntity
  8
0
100
AcDbLine
 10
304.0137703498569
 20
130.0289921526196
 30
0.0
 11
315.7907663212424
 21
126.7748291746877
 31
0.0
  0
LINE
  5
202
330
1F
100
AcDbEntity
  8
0
100
AcDbLine
 10
298.8418750187563
 20
126.4580525486869
 30
0.0
 11
298.8418651729148
 21
107.1508567788671
 31
0.0
  0
LINE
  5
203
330
1F
100
AcDbEntity
  8
0
100
AcDbLine
 10
323.1224296833222
 20
126.4580511297272
 30
0.0
 11
323.1224253187535
 21
107.1508529194875
 31
0.0
  0
LINE
  5
204
330
1F
100
AcDbEntity
  8
0
100
AcDbLine
 10
318.1224380790331
 20
131.4580429334444
 30
0.0
 11
303.8418500494226
 21
131.4580138558678
 31
0.0
  0
LINE
  5
205
330
1F
100
AcDbEntity
  8
0
100
AcDbLine
 10
240.1549046343923
 20
134.2864602831853
 30
0.0
 11
239.6812528247028
 21
107.1508391210927
 31
0.0
  0
LINE
  5
206
330
1F
100
AcDbEntity
  8
0
100
AcDbLine
 10
240.2134947383017
 20
137.6426361933913
 30
0.0
 11
240.1549046343923
 21
134.2864602831853
 31
0.0
  0
LINE
  5
207
330
1F
100
AcDbEntity
  8
0
100
AcDbLine
 10
321.2674214572246
 20
169.6332259267671
 30
0.0
 11
322.0784068070593
 21
166.6066360229542
 31
0.0
  0
LINE
  5
208
330
1F
100
AcDbEntity
  8
0
100
AcDbLine
 10
246.9926189336431
 20
176.7148427083268
 30
0.0
 11
244.2820484314852
 21
166.598814462749
 31
0.0
  0
LINE
  5
209
330
1F
100
AcDbEntity
  8
0
100
AcDbLine
 10
252.7852257679544
 20
181.1509432960438
 30
0.0
 11
313.5772968333465
 21
181.1509565293611
 31
0.0
  0
LINE
  5
20A
330
1F
100
AcDbEntity
  8
0
100
AcDbLine
 10
326.6725340344876
 20
107.6508452237424
 30
0.0
 11
326.6812576893569
 21
107.1508446750278
 31
0.0
  0
LINE
  5
20B
330
1F
100
AcDbEntity
  8
0
100
AcDbLine
 10
326.1490258674041
 20
137.6426094269215
 30
0.0
 11
326.6725340344876
 21
107.6508452237424
 31
0.0
  0
LINE
  5
20C
330
1F
100
AcDbEntity
  8
0
100
AcDbLine
 10
334.1812764302651
 20
107.6508882694608
 30
0.0
 11
326.6725340344876
 21
107.6508452237424
 31
0.0
  0
LINE
  5
20D
330
1F
100
AcDbEntity
  8
0
100
AcDbLine
 10
323.1992907403703
 20
168.1508547751102
 30
0.0
 11
325.6807527717244
 21
168.1508546311608
 31
0.0
  0
LINE
  5
20E
330
1F
100
AcDbEntity
  8
0
100
AcDbLine
 10
326.6807651937831
 20
167.1508532760672
 30
0.0
 11
326.6807523591794
 21
127.6508377291522
 31
0.0
  0
LINE
  5
20F
330
1F
100
AcDbEntity
  8
0
100
AcDbLine
 10
334.1812591194034
 20
125.6508541205248
 30
0.0
 11
328.6807565177596
 21
125.6508770678476
 31
0.0
  0
LINE
  5
210
330
1F
100
AcDbEntity
  8
0
100
AcDbLine
 10
335.1812776425119
 20
124.6508664686132
 30
0.0
 11
335.1812620533942
 21
108.6508321659382
 31
0.0
  0
LINE
  5
211
330
1F
100
AcDbEntity
  8
0
100
AcDbLine
 10
319.3698961482509
 20
176.7148582858374
 30
0.0
 11
321.2674214572246
 21
169.6332259267671
 31
0.0
  0
LINE
  5
212
330
1F
100
AcDbEntity
  8
0
100
AcDbLine
 10
258.1812589129242
 20
185.1509309946513
 30
0.0
 11
258.1812506189817
 21
181.1509531107053
 31
0.0
  0
LINE
  5
213
330
1F
100
AcDbEntity
  8
0
100
AcDbLine
 10
259.1812566073881
 20
186.1509351948009
 30
0.0
 11
307.1812588817526
 21
186.1509463680754
 31
0.0
  0
LINE
  5
214
330
1F
100
AcDbEntity
  8
0
100
AcDbLine
 10
326.6812618003114
 20
107.1508428447129
 30
0.0
 11
239.6812637872483
 21
107.150834240253
 31
0.0
  0
LINE
  5
215
330
1F
100
AcDbEntity
  8
0
100
AcDbLine
 10
308.1812713038114
 20
185.1509450129815
 30
0.0
 11
308.18126376041
 21
181.1509503753291
 31
0.0
  0
LINE
  5
216
330
1F
100
AcDbEntity
  8
0
100
AcDbLine
 10
275.6812856199733
 20
189.0169815057575
 30
0.0
 11
290.681225792405
 21
189.0169916720192
 31
0.0
  0
LINE
  5
217
330
1F
100
AcDbEntity
  8
0
100
AcDbLine
 10
275.6812757152499
 20
209.6509509168217
 30
0.0
 11
290.6812435955616
 21
209.6509546584166
 31
0.0
  0
LINE
  5
218
330
1F
100
AcDbEntity
  8
0
100
AcDbLine
 10
275.1812904365444
 20
187.1509784259139
 30
0.0
 11
275.6812746574278
 21
189.0169863865971
 31
0.0
  0
LINE
  5
219
330
1F
100
AcDbEntity
  8
0
100
AcDbLine
 10
275.1812891969905
 20
187.1509461387106
 30
0.0
 11
291.1812248695157
 21
187.150943021634
 31
0.0
  0
LINE
  5
21A
330
1F
100
AcDbEntity
  8
0
100
AcDbLine
 10
275.1813040321558
 20
186.1509564541656
 30
0.0
 11
275.1812891969905
 21
187.1509461387106
 31
0.0
  0
LINE
  5
21B
330
1F
100
AcDbEntity
  8
0
100
AcDbLine
 10
277.1812684558797
 20
211.1509671191615
 30
0.0
 11
275.6812559110183
 21
209.6509433146893
 31
0.0
  0
LINE
  5
21C
330
1F
100
AcDbEntity
  8
0
100
AcDbLine
 10
277.1812958622433
 20
211.1509549170623
 30
0.0
 11
289.1812383557669
 21
211.1509425182066
 31
0.0
  0
LINE
  5
21D
330
1F
100
AcDbEntity
  8
0
100
AcDbLine
 10
289.1812178009942
 20
211.150951669781
 30
0.0
 11
290.6812230407888
 21
209.650963809991
 31
0.0
  0
LINE
  5
21E
330
1F
100
AcDbEntity
  8
0
100
AcDbLine
 10
275.6812757152499
 20
209.6509509168217
 30
0.0
 11
275.6812856199733
 21
189.0169815057575
 31
0.0
  0
LINE
  5
21F
330
1F
100
AcDbEntity
  8
0
  6
Continuous
100
AcDbLine
 10
344.2452270110063
 20
441.4821608305046
 30
0.0
 11
331.7452512869572
 21
441.4821533481501
 31
0.0
  0
LINE
  5
220
330
1F
100
AcDbEntity
  8
0
  6
Continuous
100
AcDbLine
 10
331.7452586660504
 20
441.2321789222064
 30
0.0
 11
329.7452416979367
 21
441.2321791276752
 31
0.0
  0
LINE
  5
221
330
1F
100
AcDbEntity
  8
0
  6
Continuous
100
AcDbLine
 10
331.7452591111689
 20
431.7321752733005
 30
0.0
 11
329.7452415232785
 21
431.7321593351677
 31
0.0
  0
LINE
  5
222
330
1F
100
AcDbEntity
  8
0
  6
Continuous
100
AcDbLine
 10
329.746619743604
 20
441.2322059444372
 30
0.0
 11
326.681289463474
 21
441.136427621411
 31
0.0
  0
LINE
  5
223
330
1F
100
AcDbEntity
  8
0
  6
Continuous
100
AcDbLine
 10
331.7452512869572
 20
441.4821533481501
 30
0.0
 11
331.7452617595306
 21
431.4821865340702
 31
0.0
  0
LINE
  5
224
330
1F
100
AcDbEntity
  8
0
  6
Continuous
100
AcDbLine
 10
329.746634022669
 20
431.7321632971736
 30
0.0
 11
326.6812932985605
 21
431.8279400264819
 31
0.0
  0
LINE
  5
225
330
1F
100
AcDbEntity
  8
0
  6
Continuous
100
AcDbLine
 10
344.2452270110063
 20
441.4821608305046
 30
0.0
 11
344.245230012212
 21
431.4821809233481
 31
0.0
  0
LINE
  5
226
330
1F
100
AcDbEntity
  8
0
  6
Continuous
100
AcDbLine
 10
328.6813114540739
 20
441.1990000626481
 30
0.0
 11
328.6813083430722
 21
431.7654478923157
 31
0.0
  0
LINE
  5
227
330
1F
100
AcDbEntity
  8
0
  6
Continuous
100
AcDbLine
 10
344.245230012212
 20
431.4821809233481
 30
0.0
 11
331.7452617595306
 21
431.4821865340702
 31
0.0
  0
LINE
  5
228
330
1F
100
AcDbEntity
  8
0
100
AcDbLine
 10
475.3361823318512
 20
87.65090686099302
 30
0.0
 11
543.3361823318514
 21
87.65090686099302
 31
0.0
  0
ARC
  5
229
330
1F
100
AcDbEntity
  8
0
100
AcDbCircle
 10
475.3950223318513
 20
98.88494686099306
 30
0.0
 40
5.416833449999999
100
AcDbArc
 50
301.1867569999989
 51
345.7429799999944
  0
ARC
  5
22A
330
1F
100
AcDbEntity
  8
0
100
AcDbCircle
 10
475.3950223318513
 20
98.88494686099306
 30
0.0
 40
5.416833449999999
100
AcDbArc
 50
194.2570200000055
 51
238.813240000005
  0
ARC
  5
22B
330
1F
100
AcDbEntity
  8
0
100
AcDbCircle
 10
543.2773423318515
 20
98.88494686099306
 30
0.0
 40
5.416833449999999
100
AcDbArc
 50
301.1867569999989
 51
345.7429799999944
  0
ARC
  5
22C
330
1F
100
AcDbEntity
  8
0
100
AcDbCircle
 10
543.2773423318515
 20
98.88494686099306
 30
0.0
 40
5.416833449999999
100
AcDbArc
 50
194.2570200000055
 51
238.813240000005
  0
ARC
  5
22D
330
1F
100
AcDbEntity
  8
0
100
AcDbCircle
 10
537.3361873318515
 20
94.15093186099307
 30
0.0
 40
4.000000049999999
100
AcDbArc
 50
90.0
 51
180.0
  0
ARC
  5
22E
330
1F
100
AcDbEntity
  8
0
100
AcDbCircle
 10
481.3361773318513
 20
94.15093186099307
 30
0.0
 40
4.000000049999999
100
AcDbArc
 50
0.0
 51
90.0
  0
ARC
  5
22F
330
1F
100
AcDbEntity
  8
0
100
AcDbCircle
 10
551.8361923318514
 20
100.150931860993
 30
0.0
 40
1.000000035
100
AcDbArc
 50
270.0
 51
0.0
  0
ARC
  5
230
330
1F
100
AcDbEntity
  8
0
100
AcDbCircle
 10
466.8361723318514
 20
100.1509318609933
 30
0.0
 40
1.000000035
100
AcDbArc
 50
180.0
 51
270.0
  0
CIRCLE
  5
231
330
1F
100
AcDbEntity
  8
0
100
AcDbCircle
 10
509.3361823318514
 20
159.1509568609931
 30
0.0
 40
4.999969499999998
  0
CIRCLE
  5
232
330
1F
100
AcDbEntity
  8
0
100
AcDbCircle
 10
509.3361823318514
 20
116.650931860993
 30
0.0
 40
0.60000006
  0
ARC
  5
233
330
1F
100
AcDbEntity
  8
0
100
AcDbCircle
 10
544.2773473318514
 20
126.458111860993
 30
0.0
 40
5.000000249999999
100
AcDbArc
 50
0.0
 51
90.0
  0
ARC
  5
234
330
1F
100
AcDbEntity
  8
0
100
AcDbCircle
 10
543.2773423318515
 20
131.5943068609931
 30
0.0
 40
5.000000249999999
100
AcDbArc
 50
254.5539100000002
 51
319.296490999999
  0
ARC
  5
235
330
1F
100
AcDbEntity
  8
0
100
AcDbCircle
 10
432.3222223318514
 20
135.5484268609932
 30
0.0
 40
120.0
100
AcDbArc
 50
1.000000999992648
 51
14.99999999999445
  0
ARC
  5
236
330
1F
100
AcDbEntity
  8
0
100
AcDbCircle
 10
474.3950173318514
 20
126.458111860993
 30
0.0
 40
5.000000249999999
100
AcDbArc
 50
90.0
 51
180.0
  0
ARC
  5
237
330
1F
100
AcDbEntity
  8
0
100
AcDbCircle
 10
475.3950223318513
 20
131.5943068609931
 30
0.0
 40
5.000000249999999
100
AcDbArc
 50
220.703510000003
 51
285.4460929999995
  0
ARC
  5
238
330
1F
100
AcDbEntity
  8
0
100
AcDbCircle
 10
539.7322123318515
 20
175.151036860993
 30
0.0
 40
6.0
100
AcDbArc
 50
15.00001000000212
 51
90.0
  0
CIRCLE
  5
239
330
1F
100
AcDbEntity
  8
0
100
AcDbCircle
 10
509.3361823318514
 20
116.650931860993
 30
0.0
 40
4.1940036
  0
ARC
  5
23A
330
1F
100
AcDbEntity
  8
0
100
AcDbCircle
 10
586.3501423318514
 20
135.5484268609929
 30
0.0
 40
120.0
100
AcDbArc
 50
164.99614
 51
178.9999999999982
  0
ARC
  5
23B
330
1F
100
AcDbEntity
  8
0
100
AcDbCircle
 10
500.3361823318514
 20
124.6509268609929
 30
0.0
 40
1.000000035
100
AcDbArc
 50
90.0
 51
180.0
  0
ARC
  5
23C
330
1F
100
AcDbEntity
  8
0
100
AcDbCircle
 10
518.3361823318514
 20
108.650921860993
 30
0.0
 40
1.000000035
100
AcDbArc
 50
270.0
 51
0.0
  0
ARC
  5
23D
330
1F
100
AcDbEntity
  8
0
100
AcDbCircle
 10
500.3361823318514
 20
108.650921860993
 30
0.0
 40
1.000000035
100
AcDbArc
 50
180.0
 51
270.0
  0
ARC
  5
23E
330
1F
100
AcDbEntity
  8
0
100
AcDbCircle
 10
518.3361823318514
 20
124.6509268609929
 30
0.0
 40
1.000000035
100
AcDbArc
 50
0.0
 51
90.0
  0
CIRCLE
  5
23F
330
1F
100
AcDbEntity
  8
0
100
AcDbCircle
 10
509.3361823318514
 20
116.650931860993
 30
0.0
 40
4.793668949999999
  0
ARC
  5
240
330
1F
100
AcDbEntity
  8
0
100
AcDbCircle
 10
509.3361823318514
 20
159.1509568609931
 30
0.0
 40
9.0
100
AcDbArc
 50
0.0
 51
180.0
  0
ARC
  5
241
330
1F
100
AcDbEntity
  8
0
100
AcDbCircle
 10
529.9967773318514
 20
126.458111860993
 30
0.0
 40
5.000000249999999
100
AcDbArc
 50
90.0
 51
180.0
  0
ARC
  5
242
330
1F
100
AcDbEntity
  8
0
100
AcDbCircle
 10
478.9401523318513
 20
175.151036860993
 30
0.0
 40
6.0
100
AcDbArc
 50
90.0
 51
164.9999899999978
  0
ARC
  5
243
330
1F
100
AcDbEntity
  8
0
100
AcDbCircle
 10
485.3361823318514
 20
185.1510418609931
 30
0.0
 40
1.000000035
100
AcDbArc
 50
90.0
 51
180.0
  0
ARC
  5
244
330
1F
100
AcDbEntity
  8
0
100
AcDbCircle
 10
488.6755873318513
 20
126.458111860993
 30
0.0
 40
5.000000249999999
100
AcDbArc
 50
0.0
 51
90.0
  0
ARC
  5
245
330
1F
100
AcDbEntity
  8
0
100
AcDbCircle
 10
533.3361823318514
 20
185.1510418609931
 30
0.0
 40
1.000000035
100
AcDbArc
 50
0.0
 51
90.0
  0
LINE
  5
246
330
1F
100
AcDbEntity
  8
0
100
AcDbLine
 10
472.5900223318515
 20
94.25090686099338
 30
0.0
 11
478.2000073318515
 21
94.25090686099315
 31
0.0
  0
LINE
  5
247
330
1F
100
AcDbEntity
  8
0
100
AcDbLine
 10
469.3950223318513
 20
97.55095186099334
 30
0.0
 11
481.3950223318513
 21
97.5509518609931
 31
0.0
  0
LINE
  5
248
330
1F
100
AcDbEntity
  8
0
100
AcDbLine
 10
481.3950223318513
 20
99.15092686099297
 30
0.0
 11
481.3950223318513
 21
97.5509518609931
 31
0.0
  0
LINE
  5
249
330
1F
100
AcDbEntity
  8
0
100
AcDbLine
 10
469.3950223318513
 20
99.1509268609932
 30
0.0
 11
469.3950223318513
 21
97.55095186099334
 31
0.0
  0
LINE
  5
24A
330
1F
100
AcDbEntity
  8
0
100
AcDbLine
 10
540.4723573318513
 20
94.25090686099315
 30
0.0
 11
546.0823423318514
 21
94.25090686099315
 31
0.0
  0
LINE
  5
24B
330
1F
100
AcDbEntity
  8
0
100
AcDbLine
 10
537.2773423318514
 20
97.5509518609931
 30
0.0
 11
549.2773423318515
 21
97.5509518609931
 31
0.0
  0
LINE
  5
24C
330
1F
100
AcDbEntity
  8
0
100
AcDbLine
 10
549.2773423318515
 20
99.15092686099297
 30
0.0
 11
549.2773423318515
 21
97.5509518609931
 31
0.0
  0
LINE
  5
24D
330
1F
100
AcDbEntity
  8
0
100
AcDbLine
 10
537.2773423318514
 20
99.15092686099297
 30
0.0
 11
537.2773423318514
 21
97.5509518609931
 31
0.0
  0
LINE
  5
24E
330
1F
100
AcDbEntity
  8
0
100
AcDbLine
 10
465.8361523318514
 20
107.1509218609933
 30
0.0
 11
465.8361523318514
 21
100.1509318609933
 31
0.0
  0
LINE
  5
24F
330
1F
100
AcDbEntity
  8
0
100
AcDbLine
 10
481.3950223318513
 20
98.1509218609931
 30
0.0
 11
537.2773423318514
 21
98.1509218609931
 31
0.0
  0
LINE
  5
250
330
1F
100
AcDbEntity
  8
0
100
AcDbLine
 10
466.8361723318514
 20
99.1509268609932
 30
0.0
 11
551.8361923318514
 21
99.15092686099297
 31
0.0
  0
LINE
  5
251
330
1F
100
AcDbEntity
  8
0
100
AcDbLine
 10
485.3361823318514
 20
87.65090686099302
 30
0.0
 11
485.3361823318514
 21
94.15093186099307
 31
0.0
  0
LINE
  5
252
330
1F
100
AcDbEntity
  8
0
100
AcDbLine
 10
533.3361823318514
 20
87.65090686099302
 30
0.0
 11
533.3361823318514
 21
94.15093186099307
 31
0.0
  0
LINE
  5
253
330
1F
100
AcDbEntity
  8
0
100
AcDbLine
 10
465.8361523318514
 20
107.1509218609933
 30
0.0
 11
509.3361823318514
 21
107.150921860993
 31
0.0
  0
LINE
  5
254
330
1F
100
AcDbEntity
  8
0
100
AcDbLine
 10
552.8362123318514
 20
107.150921860993
 30
0.0
 11
552.8362123318514
 21
100.150931860993
 31
0.0
  0
LINE
  5
255
330
1F
100
AcDbEntity
  8
0
100
AcDbLine
 10
524.9967823318513
 20
126.458111860993
 30
0.0
 11
524.9967823318513
 21
99.15092686099297
 31
0.0
  0
LINE
  5
256
330
1F
100
AcDbEntity
  8
0
100
AcDbLine
 10
478.9401523318513
 20
181.1510068609933
 30
0.0
 11
539.7322123318515
 21
181.1510068609933
 31
0.0
  0
LINE
  5
257
330
1F
100
AcDbEntity
  8
0
100
AcDbLine
 10
544.2773473318514
 20
131.4581068609932
 30
0.0
 11
529.9967773318514
 21
131.4581068609932
 31
0.0
  0
LINE
  5
258
330
1F
100
AcDbEntity
  8
0
100
AcDbLine
 10
473.1475423318513
 20
176.7149368609931
 30
0.0
 11
470.4369373318516
 21
166.5988768609933
 31
0.0
  0
LINE
  5
259
330
1F
100
AcDbEntity
  8
0
100
AcDbLine
 10
485.3361823318514
 20
186.151016860993
 30
0.0
 11
533.3361823318514
 21
186.151016860993
 31
0.0
  0
LINE
  5
25A
330
1F
100
AcDbEntity
  8
0
100
AcDbLine
 10
519.3361873318515
 20
124.6509268609929
 30
0.0
 11
519.3361873318515
 21
108.650921860993
 31
0.0
  0
LINE
  5
25B
330
1F
100
AcDbEntity
  8
0
100
AcDbLine
 10
500.3362123318513
 20
159.1509718609932
 30
0.0
 11
499.3370023318513
 21
123.707276860993
 31
0.0
  0
LINE
  5
25C
330
1F
100
AcDbEntity
  8
0
100
AcDbLine
 10
518.3361823318514
 20
125.650931860993
 30
0.0
 11
500.3361823318514
 21
125.650931860993
 31
0.0
  0
LINE
  5
25D
330
1F
100
AcDbEntity
  8
0
100
AcDbLine
 10
545.5248223318514
 20
176.7149368609931
 30
0.0
 11
547.4223523318512
 21
169.6333018609931
 31
0.0
  0
LINE
  5
25E
330
1F
100
AcDbEntity
  8
0
100
AcDbLine
 10
552.3039373318513
 20
137.642696860993
 30
0.0
 11
552.8274673318512
 21
107.650931860993
 31
0.0
  0
LINE
  5
25F
330
1F
100
AcDbEntity
  8
0
100
AcDbLine
 10
466.3684273318515
 20
137.6426968609932
 30
0.0
 11
466.3098373318514
 21
134.2865068609933
 31
0.0
  0
LINE
  5
260
330
1F
100
AcDbEntity
  8
0
100
AcDbLine
 10
552.8274673318512
 20
107.650931860993
 30
0.0
 11
552.8361823318514
 21
107.150951860993
 31
0.0
  0
LINE
  5
261
330
1F
100
AcDbEntity
  8
0
100
AcDbLine
 10
466.3098373318514
 20
134.2865068609933
 30
0.0
 11
465.8361823318514
 21
107.1509218609933
 31
0.0
  0
LINE
  5
262
330
1F
100
AcDbEntity
  8
0
100
AcDbLine
 10
534.3361873318515
 20
185.1510418609931
 30
0.0
 11
534.3361873318515
 21
181.1510068609933
 31
0.0
  0
LINE
  5
263
330
1F
100
AcDbEntity
  8
0
100
AcDbLine
 10
518.3361823318514
 20
107.650931860993
 30
0.0
 11
500.3361823318514
 21
107.650931860993
 31
0.0
  0
LINE
  5
264
330
1F
100
AcDbEntity
  8
0
100
AcDbLine
 10
499.3361773318513
 20
124.6509268609929
 30
0.0
 11
499.3361773318513
 21
108.650921860993
 31
0.0
  0
LINE
  5
265
330
1F
100
AcDbEntity
  8
0
100
AcDbLine
 10
552.8361823318514
 20
107.150921860993
 30
0.0
 11
465.8361823318514
 21
107.1509218609933
 31
0.0
  0
LINE
  5
266
330
1F
100
AcDbEntity
  8
0
100
AcDbLine
 10
549.2773423318515
 20
126.458111860993
 30
0.0
 11
549.2773423318515
 21
99.15092686099297
 31
0.0
  0
LINE
  5
267
330
1F
100
AcDbEntity
  8
0
100
AcDbLine
 10
474.3950173318514
 20
131.4581068609932
 30
0.0
 11
488.6755873318513
 21
131.4581068609932
 31
0.0
  0
LINE
  5
268
330
1F
100
AcDbEntity
  8
0
100
AcDbLine
 10
488.5037023318516
 20
130.029056860993
 30
0.0
 11
476.7266773318513
 21
126.7749118609931
 31
0.0
  0
LINE
  5
269
330
1F
100
AcDbEntity
  8
0
100
AcDbLine
 10
493.6755823318515
 20
126.458111860993
 30
0.0
 11
493.6755823318515
 21
99.15092686099297
 31
0.0
  0
LINE
  5
26A
330
1F
100
AcDbEntity
  8
0
100
AcDbLine
 10
469.3950223318513
 20
126.4581118609933
 30
0.0
 11
469.3950223318513
 21
99.1509268609932
 31
0.0
  0
LINE
  5
26B
330
1F
100
AcDbEntity
  8
0
100
AcDbLine
 10
484.3361773318513
 20
185.1510418609931
 30
0.0
 11
484.3361773318513
 21
181.1510068609933
 31
0.0
  0
LINE
  5
26C
330
1F
100
AcDbEntity
  8
0
100
AcDbLine
 10
547.4223523318512
 20
169.6333018609931
 30
0.0
 11
548.2333273318515
 21
166.6066918609932
 31
0.0
  0
LINE
  5
26D
330
1F
100
AcDbEntity
  8
0
100
AcDbLine
 10
530.1686923318514
 20
130.0290418609929
 30
0.0
 11
541.9456873318515
 21
126.7748818609929
 31
0.0
  0
LINE
  5
26E
330
1F
100
AcDbEntity
  8
0
100
AcDbLine
 10
518.3362123318513
 20
159.1509568609931
 30
0.0
 11
519.3354073318512
 21
123.7072918609931
 31
0.0
  0
LINE
  5
26F
330
1F
100
AcDbEntity
  8
0
100
AcDbLine
 10
501.8362123318513
 20
189.0170368609932
 30
0.0
 11
516.8361523318515
 21
189.0170368609932
 31
0.0
  0
LINE
  5
270
330
1F
100
AcDbEntity
  8
0
100
AcDbLine
 10
501.8362123318513
 20
209.6510068609933
 30
0.0
 11
516.8361523318515
 21
209.6510068609933
 31
0.0
  0
LINE
  5
271
330
1F
100
AcDbEntity
  8
0
100
AcDbLine
 10
501.3361873318515
 20
187.1510068609933
 30
0.0
 11
501.8362123318513
 21
189.0170368609932
 31
0.0
  0
LINE
  5
272
330
1F
100
AcDbEntity
  8
0
100
AcDbLine
 10
501.3362173318512
 20
187.1510068609933
 30
0.0
 11
517.3361473318516
 21
187.1510068609933
 31
0.0
  0
LINE
  5
273
330
1F
100
AcDbEntity
  8
0
100
AcDbLine
 10
501.3362173318512
 20
186.151016860993
 30
0.0
 11
501.3362173318512
 21
187.1510068609933
 31
0.0
  0
LINE
  5
274
330
1F
100
AcDbEntity
  8
0
100
AcDbLine
 10
517.3361473318516
 20
187.1510068609933
 30
0.0
 11
516.8361373318514
 21
189.0170368609932
 31
0.0
  0
LINE
  5
275
330
1F
100
AcDbEntity
  8
0
100
AcDbLine
 10
517.3361473318516
 20
186.151016860993
 30
0.0
 11
517.3361473318516
 21
187.1510068609933
 31
0.0
  0
LINE
  5
276
330
1F
100
AcDbEntity
  8
0
100
AcDbLine
 10
503.3362123318513
 20
211.1510068609933
 30
0.0
 11
515.3361523318515
 21
211.1510068609933
 31
0.0
  0
LINE
  5
277
330
1F
100
AcDbEntity
  8
0
100
AcDbLine
 10
501.8362123318513
 20
209.6510068609933
 30
0.0
 11
501.8362123318513
 21
189.0170368609932
 31
0.0
  0
LINE
  5
278
330
1F
100
AcDbEntity
  8
0
100
AcDbLine
 10
515.3361373318514
 20
211.1510068609933
 30
0.0
 11
516.8361373318514
 21
209.6510068609933
 31
0.0
  0
LINE
  5
279
330
1F
100
AcDbEntity
  8
0
100
AcDbLine
 10
503.3361823318514
 20
211.1510068609933
 30
0.0
 11
501.8361823318514
 21
209.6510068609933
 31
0.0
  0
LINE
  5
27A
330
1F
100
AcDbEntity
  8
0
100
AcDbLine
 10
516.8361523318515
 20
209.6510068609933
 30
0.0
 11
516.8361523318515
 21
189.0170368609932
 31
0.0
  0
ARC
  5
27B
330
1F
100
AcDbEntity
  8
0
  6
HIDDEN
 48
10.0
100
AcDbCircle
 10
307.1812602402205
 20
420.2033608769263
 30
0.0
 40
9.999999749999998
100
AcDbArc
 50
325.8515399999984
 51
0.0
  0
ARC
  5
27C
330
1F
100
AcDbEntity
  8
0
  6
HIDDEN
 48
10.0
100
AcDbCircle
 10
307.1812602402205
 20
452.7609808769263
 30
0.0
 40
9.999999749999998
100
AcDbArc
 50
0.0
 51
34.14846300000459
  0
ARC
  5
27D
330
1F
100
AcDbEntity
  8
0
  6
HIDDEN
 48
10.0
100
AcDbCircle
 10
283.1812602402205
 20
436.4821708769263
 30
0.0
 40
39.0
100
AcDbArc
 50
34.14841999999452
 51
60.66789599999181
  0
ARC
  5
27E
330
1F
100
AcDbEntity
  8
0
  6
HIDDEN
 48
10.0
100
AcDbCircle
 10
259.1812602402205
 20
452.7609808769263
 30
0.0
 40
9.999999749999998
100
AcDbArc
 50
145.8515399999984
 51
180.0
  0
ARC
  5
27F
330
1F
100
AcDbEntity
  8
0
  6
HIDDEN
 48
10.0
100
AcDbCircle
 10
259.1812602402205
 20
420.2033608769263
 30
0.0
 40
9.999999749999998
100
AcDbArc
 50
180.0
 51
214.1484600000015
  0
ARC
  5
280
330
1F
100
AcDbEntity
  8
0
  6
HIDDEN
 48
10.0
100
AcDbCircle
 10
283.1812602402205
 20
436.4821708769263
 30
0.0
 40
39.0
100
AcDbArc
 50
214.1484199999945
 51
240.6679000000022
  0
ARC
  5
281
330
1F
100
AcDbEntity
  8
0
  6
HIDDEN
 48
10.0
100
AcDbCircle
 10
283.1812602402205
 20
436.4821708769263
 30
0.0
 40
39.0
100
AcDbArc
 50
299.3320999999977
 51
325.8515800000054
  0
ARC
  5
282
330
1F
100
AcDbEntity
  8
0
  6
HIDDEN
 48
10.0
100
AcDbCircle
 10
283.1812602402205
 20
436.4821708769263
 30
0.0
 40
39.0
100
AcDbArc
 50
119.3320999999977
 51
145.8515800000054
  0
LINE
  5
283
330
1F
100
AcDbEntity
  8
0
  6
HIDDEN
 48
10.0
100
AcDbLine
 10
264.0762762402205
 20
470.4821758769262
 30
0.0
 11
302.2862382402204
 21
470.4821758769262
 31
0.0
  0
LINE
  5
284
330
1F
100
AcDbEntity
  8
0
  6
HIDDEN
 48
10.0
100
AcDbLine
 10
264.0762762402205
 20
402.4821658769262
 30
0.0
 11
302.2862382402204
 21
402.4821658769262
 31
0.0
  0
LINE
  5
285
330
1F
100
AcDbEntity
  8
0
  6
HIDDEN
 48
10.0
100
AcDbLine
 10
249.1812642402205
 20
420.2033608769263
 30
0.0
 11
249.1812642402205
 21
452.7609808769263
 31
0.0
  0
LINE
  5
286
330
1F
100
AcDbEntity
  8
0
  6
HIDDEN
 48
10.0
100
AcDbLine
 10
317.1812562402203
 20
420.2033608769263
 30
0.0
 11
317.1812562402203
 21
452.7609808769263
 31
0.0
  0
CIRCLE
  5
287
330
1F
100
AcDbEntity
  8
0
100
AcDbCircle
 10
509.3361823318514
 20
82.40090686099302
 30
0.0
 40
3.500015258788379
  0
LINE
  5
288
330
1F
100
AcDbEntity
  8
0
100
AcDbLine
 10
325.1812734321788
 20
78.90089160220452
 30
0.0
 11
317.1812581733902
 21
78.90089230955419
 31
0.0
  0
LINE
  5
289
330
1F
100
AcDbEntity
  8
0
100
AcDbLine
 10
325.1812740511122
 20
85.9009221197815
 30
0.0
 11
317.1812587923219
 21
85.90092282713067
 31
0.0
  0
LINE
  5
28A
330
1F
100
AcDbEntity
  8
0
100
AcDbLine
 10
325.1812734321788
 20
78.90089160220452
 30
0.0
 11
325.1812740511122
 21
85.9009221197815
 31
0.0
  0
LINE
  5
28B
330
1F
100
AcDbEntity
  8
0
  6
Continuous
100
AcDbLine
 10
300.181258504961
 20
490.48219342882
 30
0.0
 11
300.181258504961
 21
487.6321054575
 31
0.0
  0
LINE
  5
28C
330
1F
100
AcDbEntity
  8
0
  6
Continuous
100
AcDbLine
 10
300.181258504961
 20
487.6321054575
 30
0.0
 11
294.0312951260547
 21
485.3937017655969
 31
0.0
  0
LINE
  5
28D
330
1F
100
AcDbEntity
  8
0
  6
Continuous
100
AcDbLine
 10
294.0312951260547
 20
478.6072997429155
 30
0.0
 11
294.0312951260547
 21
485.3937017655969
 31
0.0
  0
LINE
  5
28E
330
1F
100
AcDbEntity
  8
0
  6
HIDDEN
 48
10.0
100
AcDbLine
 10
294.0312951260546
 20
470.4821758769262
 30
0.0
 11
294.0312951260547
 21
478.6072997429155
 31
0.0
  0
LINE
  5
28F
330
1F
100
AcDbEntity
  8
0
  6
Continuous
100
AcDbLine
 10
300.181258504961
 20
382.48219342882
 30
0.0
 11
300.181258504961
 21
385.3322800512017
 31
0.0
  0
LINE
  5
290
330
1F
100
AcDbEntity
  8
0
  6
Continuous
100
AcDbLine
 10
300.181258504961
 20
385.3322800512017
 30
0.0
 11
294.0312951260547
 21
387.5706837431039
 31
0.0
  0
LINE
  5
291
330
1F
100
AcDbEntity
  8
0
  6
HIDDEN
 48
10.0
100
AcDbLine
 10
294.0312951260546
 20
394.3570420109372
 30
0.0
 11
294.0312951260547
 21
402.4821658769261
 31
0.0
  0
LINE
  5
292
330
1F
100
AcDbEntity
  8
0
  6
Continuous
100
AcDbLine
 10
294.0312951260547
 20
387.5706837431039
 30
0.0
 11
294.0312951260547
 21
394.3570420109372
 31
0.0
  0
LINE
  5
293
330
1F
100
AcDbEntity
  8
0
  6
Continuous
100
AcDbLine
 10
266.1812585049607
 20
490.48219342882
 30
0.0
 11
266.1812585049607
 21
487.6322229399059
 31
0.0
  0
LINE
  5
294
330
1F
100
AcDbEntity
  8
0
  6
Continuous
100
AcDbLine
 10
266.1812585049607
 20
487.6322229399059
 30
0.0
 11
272.3312829190239
 21
485.3937970330219
 31
0.0
  0
LINE
  5
295
330
1F
100
AcDbEntity
  8
0
  6
Continuous
100
AcDbLine
 10
272.3312829190239
 20
478.6073145696134
 30
0.0
 11
272.3312829190239
 21
485.3937970330219
 31
0.0
  0
LINE
  5
296
330
1F
100
AcDbEntity
  8
0
  6
HIDDEN
 48
10.0
100
AcDbLine
 10
272.3312829190239
 20
470.4821758769262
 30
0.0
 11
272.3312829190239
 21
478.6073145696133
 31
0.0
  0
LINE
  5
297
330
1F
100
AcDbEntity
  8
0
  6
Continuous
100
AcDbLine
 10
266.1812585049607
 20
382.48219342882
 30
0.0
 11
266.1812585049607
 21
385.332178806861
 31
0.0
  0
LINE
  5
298
330
1F
100
AcDbEntity
  8
0
  6
Continuous
100
AcDbLine
 10
266.1812585049607
 20
385.332178806861
 30
0.0
 11
272.3312829190239
 21
387.5706047137438
 31
0.0
  0
LINE
  5
299
330
1F
100
AcDbEntity
  8
0
  6
HIDDEN
 48
10.0
100
AcDbLine
 10
272.3312829190239
 20
394.3570271842394
 30
0.0
 11
272.3312829190239
 21
402.4821658769264
 31
0.0
  0
LINE
  5
29A
330
1F
100
AcDbEntity
  8
0
  6
Continuous
100
AcDbLine
 10
272.3312829190239
 20
387.5706047137438
 30
0.0
 11
272.3312829190239
 21
394.3570271842393
 31
0.0
  0
LINE
  5
29B
330
1F
100
AcDbEntity
  8
0
  6
Continuous
100
AcDbLine
 10
300.181258504961
 20
490.48219342882
 30
0.0
 11
266.1812585049607
 21
490.48219342882
 31
0.0
  0
LINE
  5
29C
330
1F
100
AcDbEntity
  8
0
  6
Continuous
100
AcDbLine
 10
300.181258504961
 20
382.48219342882
 30
0.0
 11
266.1812585049607
 21
382.48219342882
 31
0.0
  0
LINE
  5
29D
330
1F
100
AcDbEntity
  8
0
100
AcDbLine
 10
563.3361823318513
 20
75.45086474917685
 30
0.0
 11
560.4861213893644
 21
75.45086474917685
 31
0.0
  0
LINE
  5
29E
330
1F
100
AcDbEntity
  8
0
100
AcDbLine
 10
560.4861213893644
 20
75.45086474917685
 30
0.0
 11
558.2477010362245
 21
69.30085559390239
 31
0.0
  0
LINE
  5
29F
330
1F
100
AcDbEntity
  8
0
100
AcDbLine
 10
522.2312323806796
 20
46.25086780093482
 30
0.0
 11
543.3361823318531
 21
46.25086780093482
 31
0.0
  0
LINE
  5
2A0
330
1F
100
AcDbEntity
  8
0
100
AcDbLine
 10
543.3361823318514
 20
87.65090686099302
 30
0.0
 11
543.3361823318531
 21
46.25086780093482
 31
0.0
  0
LINE
  5
2A1
330
1F
100
AcDbEntity
  8
0
100
AcDbLine
 10
528.441162800603
 20
87.65090686099307
 30
0.0
 11
528.441162800604
 21
66.65089221499738
 31
0.0
  0
LINE
  5
2A2
330
1F
100
AcDbEntity
  8
0
100
AcDbLine
 10
543.3361823318531
 20
69.30085559390239
 30
0.0
 11
558.2477010362245
 21
69.30085559390239
 31
0.0
  0
LINE
  5
2A3
330
1F
100
AcDbEntity
  8
0
100
AcDbLine
 10
543.3361823318531
 20
47.60084338687147
 30
0.0
 11
558.2477918065213
 21
47.60084338687147
 31
0.0
  0
LINE
  5
2A4
330
1F
100
AcDbEntity
  8
0
100
AcDbLine
 10
514.4947391203584
 20
53.65087546438343
 30
0.0
 11
517.0350757634414
 21
49.25088340920746
 31
0.0
  0
ARC
  5
2A5
330
1F
100
AcDbEntity
  8
0
100
AcDbCircle
 10
509.2985846756014
 20
50.65089221499613
 30
0.0
 40
6.0
100
AcDbArc
 50
30.00000333930641
 51
89.64090098315267
  0
LINE
  5
2A6
330
1F
100
AcDbEntity
  8
0
100
AcDbLine
 10
490.2312018631015
 20
87.65090686099302
 30
0.0
 11
490.2312018631014
 21
66.65089221499613
 31
0.0
  0
ARC
  5
2A7
330
1F
100
AcDbEntity
  8
0
100
AcDbCircle
 10
496.4411322830242
 20
52.25086780093483
 30
0.0
 40
6.0
100
AcDbArc
 50
269.9999974955313
 51
330.0000016696631
  0
LINE
  5
2A8
330
1F
100
AcDbEntity
  8
0
100
AcDbLine
 10
504.1776218316182
 20
53.65088234392453
 30
0.0
 11
501.6372775591413
 21
49.2508770742495
 31
0.0
  0
ARC
  5
2A9
330
1F
100
AcDbEntity
  8
0
100
AcDbCircle
 10
509.3737799881031
 20
50.65089221499613
 30
0.0
 40
6.0
100
AcDbArc
 50
90.3590990168473
 51
149.9999966606935
  0
LINE
  5
2AA
330
1F
100
AcDbEntity
  8
0
100
AcDbLine
 10
475.3361823318512
 20
87.65090686099302
 30
0.0
 11
475.3361823318527
 21
46.25086780093482
 31
0.0
  0
LINE
  5
2AB
330
1F
100
AcDbEntity
  8
0
100
AcDbLine
 10
455.3361823318514
 20
75.45086474917685
 30
0.0
 11
458.1862744015293
 21
75.45086474917685
 31
0.0
  0
LINE
  5
2AC
330
1F
100
AcDbEntity
  8
0
100
AcDbLine
 10
458.1862744015293
 20
75.45086474917685
 30
0.0
 11
460.4246947546685
 21
69.30085559390239
 31
0.0
  0
LINE
  5
2AD
330
1F
100
AcDbEntity
  8
0
100
AcDbLine
 10
460.4246947546685
 20
69.30085559390239
 30
0.0
 11
475.3361823318514
 21
69.30085559390239
 31
0.0
  0
LINE
  5
2AE
330
1F
100
AcDbEntity
  8
0
100
AcDbLine
 10
460.4245877463077
 20
47.60084338687147
 30
0.0
 11
475.2276007888834
 21
47.60084338687147
 31
0.0
  0
LINE
  5
2AF
330
1F
100
AcDbEntity
  8
0
100
AcDbLine
 10
496.4411322830242
 20
46.25086780093482
 30
0.0
 11
475.3361823318527
 21
46.25086780093482
 31
0.0
  0
LINE
  5
2B0
330
1F
100
AcDbEntity
  8
0
100
AcDbLine
 10
475.3361823318514
 20
66.65089221499613
 30
0.0
 11
543.3361823318531
 21
66.65089221499613
 31
0.0
  0
LINE
  5
2B1
330
1F
100
AcDbEntity
  8
0
100
AcDbLine
 10
475.3361823318514
 20
78.6509074737861
 30
0.0
 11
543.3361823318526
 21
78.6509074737861
 31
0.0
  0
ARC
  5
2B2
330
1F
100
AcDbEntity
  8
0
100
AcDbCircle
 10
522.2312323806796
 20
52.25086780093483
 30
0.0
 40
6.0
100
AcDbArc
 50
210.0000051605285
 51
269.9999974955313
  0
LINE
  5
2B3
330
1F
100
AcDbEntity
  8
0
100
AcDbLine
 10
563.3361823318513
 20
41.45081897280966
 30
0.0
 11
560.4862177134053
 21
41.45081897280966
 31
0.0
  0
LINE
  5
2B4
330
1F
100
AcDbEntity
  8
0
100
AcDbLine
 10
455.3361823318514
 20
41.45081897280966
 30
0.0
 11
458.1861618394245
 21
41.45081897280966
 31
0.0
  0
LINE
  5
2B5
330
1F
100
AcDbEntity
  8
0
100
AcDbLine
 10
455.3361823318514
 20
75.45086474917685
 30
0.0
 11
455.3361823318514
 21
41.45081897280966
 31
0.0
  0
LINE
  5
2B6
330
1F
100
AcDbEntity
  8
0
100
AcDbLine
 10
458.1861618394245
 20
41.45081897280966
 30
0.0
 11
460.4245877463077
 21
47.60084338687147
 31
0.0
  0
LINE
  5
2B7
330
1F
100
AcDbEntity
  8
0
100
AcDbLine
 10
563.3361823318513
 20
75.45086474917685
 30
0.0
 11
563.3361823318513
 21
41.45081897280966
 31
0.0
  0
LINE
  5
2B8
330
1F
100
AcDbEntity
  8
0
100
AcDbLine
 10
560.4862177134053
 20
41.45081897280966
 30
0.0
 11
558.2477918065213
 21
47.60084338687147
 31
0.0
  0
LINE
  5
2B9
330
1F
100
AcDbEntity
  8
0
100
AcDbLine
 10
298.072865281621
 20
66.65089221499738
 30
0.0
 11
317.1812585049638
 21
66.65089221499738
 31
0.0
  0
LINE
  5
2BA
330
1F
100
AcDbEntity
  8
0
100
AcDbLine
 10
317.1812585049609
 20
87.65090686099297
 30
0.0
 11
317.1812585049638
 21
46.25086780093556
 31
0.0
  0
LINE
  5
2BB
330
1F
100
AcDbEntity
  8
0
100
AcDbLine
 10
302.2862389737121
 20
87.6509068609929
 30
0.0
 11
302.2862389737123
 21
66.6508922149984
 31
0.0
  0
LINE
  5
2BC
330
1F
100
AcDbEntity
  8
0
100
AcDbLine
 10
296.0763085537901
 20
46.25086780093556
 30
0.0
 11
317.1812585049638
 21
46.25086780093556
 31
0.0
  0
LINE
  5
2BD
330
1F
100
AcDbEntity
  8
0
100
AcDbLine
 10
270.2862084561342
 20
46.25086780093556
 30
0.0
 11
249.1812585049621
 21
46.25086780093556
 31
0.0
  0
LINE
  5
2BE
330
1F
100
AcDbEntity
  8
0
100
AcDbLine
 10
249.1812585049621
 20
66.65089221499738
 30
0.0
 11
268.2896517283028
 21
66.65089221499738
 31
0.0
  0
LINE
  5
2BF
330
1F
100
AcDbEntity
  8
0
100
AcDbLine
 10
249.181258504962
 20
87.6509068609929
 30
0.0
 11
249.1812585049621
 21
46.25086780093556
 31
0.0
  0
LINE
  5
2C0
330
1F
100
AcDbEntity
  8
0
100
AcDbLine
 10
264.0762780362122
 20
87.6509068609929
 30
0.0
 11
264.0762780362122
 21
66.65089221499738
 31
0.0
  0
CIRCLE
  5
2C1
330
1F
100
AcDbEntity
  8
0
100
AcDbCircle
 10
283.1812585049622
 20
58.45084186099757
 30
0.0
 40
9.199999999999999
  0
LINE
  5
2C2
330
1F
100
AcDbEntity
  8
0
100
AcDbLine
 10
249.1812585049621
 20
78.6509074737861
 30
0.0
 11
317.1812585049618
 21
78.6509074737861
 31
0.0
  0
CIRCLE
  5
2C3
330
1F
100
AcDbEntity
  8
0
100
AcDbCircle
 10
283.1812585049622
 20
58.45084186099757
 30
0.0
 40
17.00002288818359
  0
TEXT
  5
2C4
330
1F
100
AcDbEntity
  8
0
100
AcDbText
 10
138.4499514755842
 20
823.8924605645642
 30
0.0
 40
48.000002
  1
DHC2S08AD000 15A
 41
1.32095
100
AcDbText
  0
LINE
  5
5AC
330
1F
100
AcDbEntity
  8
0
  6
CENTER
100
AcDbLine
 10
283.1812602402205
 20
370.1770662629933
 30
0.0
 11
283.1812602402205
 21
502.7872754908594
 31
0.0
  0
LINE
  5
5AD
330
1F
100
AcDbEntity
  8
0
  6
CENTER
100
AcDbLine
 10
345.541778420471
 20
436.4821708769264
 30
0.0
 11
236.6532280225492
 21
436.4821708769262
 31
0.0
  0
LINE
  5
5AE
330
1F
100
AcDbEntity
  8
0
  6
CENTER
100
AcDbLine
 10
576.1661930666621
 20
58.45084186099345
 30
0.0
 11
442.5061715970407
 21
58.45084186099323
 31
0.0
  0
LINE
  5
5AF
330
1F
100
AcDbEntity
  8
0
  6
CENTER
100
AcDbLine
 10
509.3361823318514
 20
43.96932944971323
 30
0.0
 11
509.3361823318514
 21
218.4386088188688
 31
0.0
  0
LINE
  5
5B0
330
1F
100
AcDbEntity
  8
0
  6
CENTER
100
AcDbLine
 10
315.8277237902286
 20
58.45084186099768
 30
0.0
 11
250.5347932196957
 21
58.45084186099746
 31
0.0
  0
LINE
  5
5B1
330
1F
100
AcDbEntity
  8
0
  6
CENTER
100
AcDbLine
 10
283.1812585049622
 20
33.65456004563919
 30
0.0
 11
283.1812585049622
 21
222.1538028373315
 31
0.0
  0
LINE
  5
75B
330
1F
100
AcDbEntity
  8
0
  6
CENTER
100
AcDbLine
 10
901.1704092018353
 20
58.45084186099345
 30
0.0
 11
762.5733358086236
 21
58.45084186099345
 31
0.0
  0
LINE
  5
75C
330
1F
100
AcDbEntity
  8
0
  6
CENTER
100
AcDbLine
 10
836.1002552752216
 20
147.4561111685684
 30
0.0
 11
836.1002552752371
 21
22.64313001252092
 31
0.0
  0
LINE
  5
75D
330
1F
100
AcDbEntity
  8
0
  6
CENTER
100
AcDbLine
 10
1045.744038270486
 20
234.2161811093196
 30
0.0
 11
1045.744038270486
 21
366.1589766492456
 31
0.0
  0
LINE
  5
75E
330
1F
100
AcDbEntity
  8
0
  6
CENTER
100
AcDbLine
 10
1027.570317886386
 20
300.187578879279
 30
0.0
 11
1191.640831839892
 21
300.1875788793126
 31
0.0
  0
LINE
  5
75F
330
1F
100
AcDbEntity
  8
0
  6
CENTER
100
AcDbLine
 10
1024.21584128039
 20
58.45084186099345
 30
0.0
 11
1067.272235258808
 21
58.45084186099345
 31
0.0
  0
LINE
  5
760
330
1F
100
AcDbEntity
  8
0
  6
CENTER
100
AcDbLine
 10
1045.744038269599
 20
36.92264487178406
 30
0.0
 11
1045.744038269599
 21
79.97903885020284
 31
0.0
  0
LINE
  5
761
330
1F
100
AcDbEntity
  8
0
  6
CENTER
100
AcDbLine
 10
1020.148430968965
 20
47.05494327283893
 30
0.0
 11
1193.471037199568
 21
124.2231393791553
 31
0.0
  0
LINE
  5
762
330
1F
100
AcDbEntity
  8
0
  6
CENTER
100
AcDbLine
 10
1385.998716817547
 20
58.450841860993
 30
0.0
 11
1247.401643424336
 21
58.450841860993
 31
0.0
  0
LINE
  5
763
330
1F
100
AcDbEntity
  8
0
  6
CENTER
100
AcDbLine
 10
1320.928562890933
 20
151.1121483782644
 30
0.0
 11
1320.928562890949
 21
22.64313001252046
 31
0.0
  0
SPLINE
  5
764
330
1F
100
AcDbEntity
  8
0
  6
Continuous
100
AcDbSpline
210
0.0
220
0.0
230
1.0
 70
     8
 71
     3
 72
    18
 73
    14
 74
     0
 42
0.0000000001
 43
0.0000000001
 40
0.6634628471814078
 40
0.6634628471814078
 40
0.6634628471814078
 40
0.6634628471814078
 40
0.9823256998321934
 40
0.9823256998321934
 40
1.306260382927167
 40
1.306260382927167
 40
1.633244670248866
 40
1.633244670248866
 40
1.96093973983355
 40
1.96093973983355
 40
2.287025322641929
 40
2.287025322641929
 40
2.478129806408385
 40
2.478129806408385
 40
2.478129806408385
 40
2.478129806408385
 10
864.6289231895135
 20
126.9343657178319
 30
0.0
 10
862.2153668163354
 20
129.7551181760672
 30
0.0
 10
859.3252627447055
 20
132.1990084979274
 30
0.0
 10
852.8463684443732
 20
136.1488540044406
 30
0.0
 10
849.2481145197835
 20
137.6394609014768
 30
0.0
 10
841.7089500117945
 20
139.505141743104
 30
0.0
 10
837.7657984806228
 20
139.869648757296
 30
0.0
 10
829.9445017699198
 20
139.4228675326166
 30
0.0
 10
826.0671694637366
 20
138.6089728422561
 30
0.0
 10
818.7896240415511
 20
135.8750136352236
 30
0.0
 10
815.3879121452582
 20
133.9602114756371
 30
0.0
 10
810.6352998673829
 20
130.1810937432064
 30
0.0
 10
809.0181072077257
 20
128.6249309181448
 30
0.0
 10
807.5715873610178
 20
126.9343657178319
 30
0.0
  0
LINE
  5
765
330
1F
100
AcDbEntity
  8
0
  6
Continuous
100
AcDbLine
 10
802.1002552752412
 20
86.84531902171917
 30
0.0
 11
802.1002552752392
 21
84.52692015618728
 31
0.0
  0
LINE
  5
766
330
1F
100
AcDbEntity
  8
0
  6
Continuous
100
AcDbLine
 10
816.9952821006964
 20
100.45260311958
 30
0.0
 11
816.9952821006946
 21
98.13420425404817
 31
0.0
  0
LINE
  5
767
330
1F
100
AcDbEntity
  8
0
  6
Continuous
100
AcDbLine
 10
870.1002552752406
 20
86.84531902171917
 30
0.0
 11
870.1002552752397
 21
84.52692015618728
 31
0.0
  0
LINE
  5
768
330
1F
100
AcDbEntity
  8
0
  6
Continuous
100
AcDbLine
 10
855.2052284497817
 20
100.45260311958
 30
0.0
 11
855.2052284497804
 21
98.13420425404817
 31
0.0
  0
LINE
  5
769
330
1F
100
AcDbEntity
  8
0
  6
Continuous
100
AcDbLine
 10
870.1002552752397
 20
84.12018351311141
 30
0.0
 11
870.1002552752397
 21
84.52692015618728
 31
0.0
  0
SPLINE
  5
76A
330
1F
100
AcDbEntity
  8
0
  6
Continuous
100
AcDbSpline
210
0.0
220
0.0
230
1.0
 70
     8
 71
     3
 72
     8
 73
     4
 74
     0
 42
0.0000000001
 43
0.0000000001
 40
-0.0259507643397429
 40
-0.0259507643397429
 40
-0.0259507643397429
 40
-0.0259507643397429
 40
0.0
 40
0.0
 40
0.0
 40
0.0
 10
869.9198219160644
 20
84.41033880278288
 30
0.0
 10
869.979965273329
 20
84.44921640489743
 30
0.0
 10
870.0401099530681
 20
84.48807695888033
 30
0.0
 10
870.1002552752397
 20
84.52692015618728
 30
0.0
  0
SPLINE
  5
76B
330
1F
100
AcDbEntity
  8
0
  6
Continuous
100
AcDbSpline
210
0.0
220
0.0
230
1.0
 70
     8
 71
     3
 72
     8
 73
     4
 74
     0
 42
0.0000000001
 43
0.0000000001
 40
-0.0443084237212385
 40
-0.0443084237212385
 40
-0.0443084237212385
 40
-0.0443084237212385
 40
0.0
 40
0.0
 40
0.0
 40
0.0
 10
855.1244325287971
 20
97.72746761097275
 30
0.0
 10
855.1514206073679
 20
97.86304103999279
 30
0.0
 10
855.1783526390464
 20
97.99862141068704
 30
0.0
 10
855.2052284497804
 20
98.13420425404817
 30
0.0
  0
SPLINE
  5
76C
330
1F
100
AcDbEntity
  8
0
  6
Continuous
100
AcDbSpline
210
0.0
220
0.0
230
1.0
 70
     8
 71
     3
 72
     8
 73
     4
 74
     0
 42
0.0000000001
 43
0.0000000001
 40
-0.0443084237213584
 40
-0.0443084237213584
 40
-0.0443084237213584
 40
-0.0443084237213584
 40
0.0
 40
0.0
 40
0.0
 40
0.0
 10
817.0760780216768
 20
97.72746761097275
 30
0.0
 10
817.0490899431069
 20
97.86304103999235
 30
0.0
 10
817.0221579114286
 20
97.99862141068613
 30
0.0
 10
816.9952821006946
 20
98.13420425404817
 30
0.0
  0
SPLINE
  5
76D
330
1F
100
AcDbEntity
  8
0
  6
Continuous
100
AcDbSpline
210
0.0
220
0.0
230
1.0
 70
     8
 71
     3
 72
     8
 73
     4
 74
     0
 42
0.0000000001
 43
0.0000000001
 40
-0.0259507643397046
 40
-0.0259507643397046
 40
-0.0259507643397046
 40
-0.0259507643397046
 40
0.0
 40
0.0
 40
0.0
 40
0.0
 10
802.2806886344151
 20
84.41033880278288
 30
0.0
 10
802.2205452771485
 20
84.44921640489789
 30
0.0
 10
802.1604005974095
 20
84.48807695888033
 30
0.0
 10
802.1002552752397
 20
84.52692015618728
 30
0.0
  0
LINE
  5
76E
330
1F
100
AcDbEntity
  8
0
  6
Continuous
100
AcDbLine
 10
802.1002552752392
 20
84.52692015618728
 30
0.0
 11
802.1002552752397
 21
84.12018351311141
 31
0.0
  0
ELLIPSE
  5
76F
330
1F
100
AcDbEntity
  8
0
  6
Continuous
100
AcDbEllipse
 10
836.1002552752415
 20
67.07365869419979
 30
0.0
 11
-38.99999999999979
 21
0.000000000026229
 31
0.0
210
0.0
220
0.0
230
1.0
 40
0.9135454576426006
 41
5.224330879369556
 42
5.77124340819619
  0
LINE
  5
770
330
1F
100
AcDbEntity
  8
0
  6
Continuous
100
AcDbLine
 10
855.2052284497804
 20
98.13420425404817
 30
0.0
 11
816.9952821006946
 21
98.13420425404817
 31
0.0
  0
ELLIPSE
  5
771
330
1F
100
AcDbEntity
  8
0
  6
Continuous
100
AcDbEllipse
 10
836.1002552752415
 20
67.07365869419979
 30
0.0
 11
-38.99999999999986
 21
0.0000000000225431
 31
0.0
210
0.0
220
0.0
230
1.0
 40
0.9135454576426004
 41
3.653534552574543
 42
4.200447081401184
  0
ELLIPSE
  5
772
330
1F
100
AcDbEntity
  8
0
  6
Continuous
100
AcDbEllipse
 10
836.1002552752434
 20
69.39205755973214
 30
0.0
 11
38.9999999999997
 21
-0.0000000000262457
 31
0.0
210
0.0
220
0.0
230
1.0
 40
0.9135454576426001
 41
0.511941898984869
 42
1.058854427811494
  0
LINE
  5
773
330
1F
100
AcDbEntity
  8
0
  6
Continuous
100
AcDbLine
 10
816.9952821006964
 20
100.45260311958
 30
0.0
 11
855.2052284497817
 21
100.45260311958
 31
0.0
  0
ELLIPSE
  5
774
330
1F
100
AcDbEntity
  8
0
  6
Continuous
100
AcDbEllipse
 10
836.1002552752434
 20
69.39205755973214
 30
0.0
 11
38.99999999999973
 21
-0.0000000000299677
 31
0.0
210
0.0
220
0.0
230
1.0
 40
0.9135454576426003
 41
2.08273822577988
 42
2.629650754606526
  0
LINE
  5
775
330
1F
100
AcDbEntity
  8
0
  6
Continuous
100
AcDbLine
 10
885.0118383344979
 20
69.3008418609929
 30
0.0
 11
870.1002552752362
 21
69.3008418609929
 31
0.0
  0
LINE
  5
776
330
1F
100
AcDbEntity
  8
0
  6
Continuous
100
AcDbLine
 10
885.0118383344979
 20
47.60084186099309
 30
0.0
 11
870.1002552752362
 21
47.60084186099309
 31
0.0
  0
LINE
  5
777
330
1F
100
AcDbEntity
  8
0
  6
Continuous
100
AcDbLine
 10
885.0118383344979
 20
47.60084186099309
 30
0.0
 11
887.2502552752358
 21
41.450841860993
 31
0.0
  0
LINE
  5
778
330
1F
100
AcDbEntity
  8
0
  6
Continuous
100
AcDbLine
 10
885.0118383344979
 20
69.3008418609929
 30
0.0
 11
887.2502552752358
 21
75.45084186099299
 31
0.0
  0
LINE
  5
779
330
1F
100
AcDbEntity
  8
0
  6
Continuous
100
AcDbLine
 10
890.1002552752361
 20
75.45084186099299
 30
0.0
 11
887.2502552752358
 21
75.45084186099299
 31
0.0
  0
LINE
  5
77A
330
1F
100
AcDbEntity
  8
0
  6
Continuous
100
AcDbLine
 10
890.1002552752361
 20
41.450841860993
 30
0.0
 11
887.2502552752358
 21
41.450841860993
 31
0.0
  0
LINE
  5
77B
330
1F
100
AcDbEntity
  8
0
  6
Continuous
100
AcDbLine
 10
885.0118383344979
 20
69.30084186099335
 30
0.0
 11
885.0118383344979
 21
47.60084186099309
 31
0.0
  0
LINE
  5
77C
330
1F
100
AcDbEntity
  8
0
  6
Continuous
100
AcDbLine
 10
887.2502552752358
 20
75.45084186099299
 30
0.0
 11
887.2502552752358
 21
41.45084186099345
 31
0.0
  0
LINE
  5
77D
330
1F
100
AcDbEntity
  8
0
  6
Continuous
100
AcDbLine
 10
890.1002552752361
 20
75.45084186099299
 30
0.0
 11
890.1002552752361
 21
41.45084186099345
 31
0.0
  0
LINE
  5
77E
330
1F
100
AcDbEntity
  8
0
  6
Continuous
100
AcDbLine
 10
802.100255275236
 20
69.3008418609929
 30
0.0
 11
787.1886722159733
 21
69.3008418609929
 31
0.0
  0
LINE
  5
77F
330
1F
100
AcDbEntity
  8
0
  6
Continuous
100
AcDbLine
 10
802.100255275236
 20
47.60084186099309
 30
0.0
 11
787.1886722159733
 21
47.60084186099309
 31
0.0
  0
LINE
  5
780
330
1F
100
AcDbEntity
  8
0
  6
Continuous
100
AcDbLine
 10
787.1886722159733
 20
69.3008418609929
 30
0.0
 11
784.950255275236
 21
75.45084186099299
 31
0.0
  0
LINE
  5
781
330
1F
100
AcDbEntity
  8
0
  6
Continuous
100
AcDbLine
 10
787.1886722159733
 20
47.60084186099309
 30
0.0
 11
784.950255275236
 21
41.450841860993
 31
0.0
  0
LINE
  5
782
330
1F
100
AcDbEntity
  8
0
  6
Continuous
100
AcDbLine
 10
784.950255275236
 20
75.45084186099299
 30
0.0
 11
782.1002552752361
 21
75.45084186099299
 31
0.0
  0
LINE
  5
783
330
1F
100
AcDbEntity
  8
0
  6
Continuous
100
AcDbLine
 10
784.950255275236
 20
41.450841860993
 30
0.0
 11
782.1002552752361
 21
41.450841860993
 31
0.0
  0
LINE
  5
784
330
1F
100
AcDbEntity
  8
0
  6
Continuous
100
AcDbLine
 10
787.1886722159733
 20
69.30084186099335
 30
0.0
 11
787.1886722159733
 21
47.60084186099309
 31
0.0
  0
LINE
  5
785
330
1F
100
AcDbEntity
  8
0
  6
Continuous
100
AcDbLine
 10
784.950255275236
 20
75.45084186099299
 30
0.0
 11
784.950255275236
 21
41.45084186099345
 31
0.0
  0
LINE
  5
786
330
1F
100
AcDbEntity
  8
0
  6
Continuous
100
AcDbLine
 10
782.1002552752361
 20
75.45084186099299
 30
0.0
 11
782.1002552752361
 21
41.45084186099345
 31
0.0
  0
LINE
  5
787
330
1F
100
AcDbEntity
  8
0
  6
Continuous
100
AcDbLine
 10
802.1002552752342
 20
46.30148682717251
 30
0.0
 11
823.2361536600965
 21
46.30148682717251
 31
0.0
  0
LINE
  5
788
330
1F
100
AcDbEntity
  8
0
  6
Continuous
100
AcDbLine
 10
825.83422987145
 20
46.30148682717251
 30
0.0
 11
823.2361536600965
 21
46.30148682717251
 31
0.0
  0
LINE
  5
789
330
1F
100
AcDbEntity
  8
0
  6
Continuous
100
AcDbLine
 10
825.83422987145
 20
46.30148682717251
 30
0.0
 11
828.3060266411762
 21
46.30148682717251
 31
0.0
  0
LINE
  5
78A
330
1F
100
AcDbEntity
  8
0
  6
Continuous
100
AcDbLine
 10
828.3060266411762
 20
46.30148682717251
 30
0.0
 11
843.8944839092959
 21
46.30148682717251
 31
0.0
  0
LINE
  5
78B
330
1F
100
AcDbEntity
  8
0
  6
Continuous
100
AcDbLine
 10
843.8944839092959
 20
46.30148682717251
 30
0.0
 11
846.3662806790189
 21
46.30148682717251
 31
0.0
  0
LINE
  5
78C
330
1F
100
AcDbEntity
  8
0
  6
Continuous
100
AcDbLine
 10
848.9643568903716
 20
46.30148682717251
 30
0.0
 11
846.3662806790189
 21
46.30148682717251
 31
0.0
  0
LINE
  5
78D
330
1F
100
AcDbEntity
  8
0
  6
Continuous
100
AcDbLine
 10
848.9643568903716
 20
46.30148682717251
 30
0.0
 11
870.1002552752342
 21
46.30148682717251
 31
0.0
  0
LINE
  5
78E
330
1F
100
AcDbEntity
  8
0
  6
Continuous
100
AcDbLine
 10
802.1002552752319
 20
58.89603273299142
 30
0.0
 11
802.1002552752319
 21
62.12363448129551
 31
0.0
  0
LINE
  5
78F
330
1F
100
AcDbEntity
  8
0
  6
Continuous
100
AcDbLine
 10
802.1002552752342
 20
46.30148682717251
 30
0.0
 11
802.1002552752333
 21
48.08127689794489
 31
0.0
  0
LINE
  5
790
330
1F
100
AcDbEntity
  8
0
  6
Continuous
100
AcDbLine
 10
870.1002552752324
 20
48.08127689794489
 30
0.0
 11
870.1002552752342
 21
46.30148682717251
 31
0.0
  0
LINE
  5
791
330
1F
100
AcDbEntity
  8
0
  6
Continuous
100
AcDbLine
 10
870.1002552752324
 20
62.12363448129551
 30
0.0
 11
870.1002552752315
 21
58.89603273299142
 31
0.0
  0
LINE
  5
792
330
1F
100
AcDbEntity
  8
0
  6
Continuous
100
AcDbLine
 10
802.1002552752319
 20
58.89603273299142
 30
0.0
 11
802.1002552752333
 21
48.08127689794489
 31
0.0
  0
LINE
  5
793
330
1F
100
AcDbEntity
  8
0
  6
Continuous
100
AcDbLine
 10
870.1002552752324
 20
48.08127689794489
 30
0.0
 11
870.1002552752315
 21
58.89603273299142
 31
0.0
  0
LINE
  5
794
330
1F
100
AcDbEntity
  8
0
  6
Continuous
100
AcDbLine
 10
870.1002552752315
 20
62.12363448129551
 30
0.0
 11
870.1002552752333
 21
68.5919959936518
 31
0.0
  0
LINE
  5
795
330
1F
100
AcDbEntity
  8
0
  6
Continuous
100
AcDbLine
 10
802.1002552752339
 20
68.5919959936518
 30
0.0
 11
802.1002552752319
 21
62.12363448129551
 31
0.0
  0
LINE
  5
796
330
1F
100
AcDbEntity
  8
0
  6
Continuous
100
AcDbLine
 10
827.5155304689306
 20
77.27067784125662
 30
0.0
 11
844.6849800815416
 21
77.27067784125662
 31
0.0
  0
ELLIPSE
  5
797
330
1F
100
AcDbEntity
  8
0
  6
Continuous
100
AcDbEllipse
 10
836.1002552752278
 20
46.30148682717297
 30
0.0
 11
-0.0000000000093294
 21
-34.71472739041865
 31
0.0
210
0.0
220
0.0
230
1.0
 40
0.5473181392530239
 41
2.442641172844082
 42
2.672779713709267
  0
LINE
  5
798
330
1F
100
AcDbEntity
  8
0
  6
Continuous
100
AcDbLine
 10
817.4412092117286
 20
68.5919959936518
 30
0.0
 11
802.1002552752339
 21
68.5919959936518
 31
0.0
  0
LINE
  5
799
330
1F
100
AcDbEntity
  8
0
  6
Continuous
100
AcDbLine
 10
802.1002552752339
 20
68.5919959936518
 30
0.0
 11
802.1002552752371
 21
72.93133691745421
 31
0.0
  0
ELLIPSE
  5
79A
330
1F
100
AcDbEntity
  8
0
  6
Continuous
100
AcDbEllipse
 10
836.1002552752278
 20
46.30148682717297
 30
0.0
 11
-0.0000000000093294
 21
-34.71472739041865
 31
0.0
210
0.0
220
0.0
230
1.0
 40
0.5473181392530239
 41
3.610405593468618
 42
3.840544134334073
  0
LINE
  5
79B
330
1F
100
AcDbEntity
  8
0
  6
Continuous
100
AcDbLine
 10
870.1002552752362
 20
72.93133691745421
 30
0.0
 11
870.1002552752333
 21
68.5919959936518
 31
0.0
  0
LINE
  5
79C
330
1F
100
AcDbEntity
  8
0
  6
Continuous
100
AcDbLine
 10
870.1002552752333
 20
68.5919959936518
 30
0.0
 11
854.7593013387386
 21
68.5919959936518
 31
0.0
  0
ELLIPSE
  5
79D
330
1F
100
AcDbEntity
  8
0
  6
Continuous
100
AcDbEllipse
 10
836.1002552752379
 20
61.78608233421435
 30
0.0
 11
-19.00000000000019
 21
0.0000000000109981
 31
0.0
210
0.0
220
0.0
230
1.0
 40
0.9135454576426001
 41
4.013437499640334
 42
4.243576040505654
  0
ELLIPSE
  5
79E
330
1F
100
AcDbEntity
  8
0
  6
Continuous
100
AcDbEllipse
 10
836.1002552752379
 20
61.78608233421435
 30
0.0
 11
19.00000000000019
 21
-0.0000000000145717
 31
0.0
210
0.0
220
0.0
230
1.0
 40
0.9135454576426004
 41
2.039609266675395
 42
2.269747807540724
  0
LINE
  5
79F
330
1F
100
AcDbEntity
  8
0
  6
Continuous
100
AcDbLine
 10
802.1002552752371
 20
72.93133691745421
 30
0.0
 11
817.4412092117318
 21
72.93133691745421
 31
0.0
  0
LINE
  5
7A0
330
1F
100
AcDbEntity
  8
0
  6
Continuous
100
AcDbLine
 10
870.1002552752362
 20
72.93133691745421
 30
0.0
 11
854.7593013387412
 21
72.93133691745421
 31
0.0
  0
LINE
  5
7A1
330
1F
100
AcDbEntity
  8
0
  6
Continuous
100
AcDbLine
 10
860.9194587852025
 20
81.61776696647526
 30
0.0
 11
860.9194587852043
 21
84.18020781785296
 31
0.0
  0
LINE
  5
7A2
330
1F
100
AcDbEntity
  8
0
  6
Continuous
100
AcDbLine
 10
852.4194587852026
 20
81.61776696647526
 30
0.0
 11
852.4194587852043
 21
84.18020781785296
 31
0.0
  0
LINE
  5
7A3
330
1F
100
AcDbEntity
  8
0
  6
Continuous
100
AcDbLine
 10
811.2810517652659
 20
84.18020781785296
 30
0.0
 11
811.2810517652642
 21
81.61776696647526
 31
0.0
  0
LINE
  5
7A4
330
1F
100
AcDbEntity
  8
0
  6
Continuous
100
AcDbLine
 10
819.781051765266
 20
84.18020781785296
 30
0.0
 11
819.7810517652643
 21
81.61776696647526
 31
0.0
  0
ELLIPSE
  5
7A5
330
1F
100
AcDbEntity
  8
0
  6
Continuous
100
AcDbEllipse
 10
856.6694587852024
 20
81.61776696647526
 30
0.0
 11
-4.249999999999981
 21
0.0
 31
0.0
210
0.0
220
0.0
230
1.0
 40
0.9135454576426004
 41
0.0
 42
6.283185307179586
  0
ELLIPSE
  5
7A6
330
1F
100
AcDbEntity
  8
0
  6
Continuous
100
AcDbEllipse
 10
815.5310517652642
 20
81.61776696647526
 30
0.0
 11
4.249999999999981
 21
0.0
 31
0.0
210
0.0
220
0.0
230
1.0
 40
0.9135454576426004
 41
0.0
 42
6.283185307179586
  0
ELLIPSE
  5
7A7
330
1F
100
AcDbEntity
  8
0
  6
Continuous
100
AcDbEllipse
 10
815.531051765266
 20
84.18020781785296
 30
0.0
 11
-4.249999999999978
 21
-0.0000000000000041
 31
0.0
210
0.0
220
0.0
230
1.0
 40
0.9135454576426004
 41
3.141592653589462
 42
6.283185307179255
  0
ELLIPSE
  5
7A8
330
1F
100
AcDbEntity
  8
0
  6
Continuous
100
AcDbEllipse
 10
856.6694587852044
 20
84.18020781785296
 30
0.0
 11
-4.249999999999981
 21
0.0
 31
0.0
210
0.0
220
0.0
230
1.0
 40
0.9135454576426004
 41
3.141592653589464
 42
6.283185307179257
  0
ELLIPSE
  5
7A9
330
1F
100
AcDbEntity
  8
0
  6
Continuous
100
AcDbEllipse
 10
817.4412092117336
 20
86.86290514650407
 30
0.0
 11
-0.0000000000049102
 21
-18.27090915285192
 31
0.0
210
0.0
220
0.0
230
1.0
 40
0.5473181392530237
 41
0.0
 42
0.6989514807442765
  0
ELLIPSE
  5
7AA
330
1F
100
AcDbEntity
  8
0
  6
Continuous
100
AcDbEllipse
 10
817.4412092117309
 20
82.06679149388035
 30
0.0
 11
9.999999999999928
 21
-0.0000000000000101
 31
0.0
210
0.0
220
0.0
230
1.0
 40
0.9135454576426004
 41
4.71238898038493
 42
5.411340461129829
  0
ELLIPSE
  5
7AB
330
1F
100
AcDbEntity
  8
0
  6
Continuous
100
AcDbEllipse
 10
854.7593013387432
 20
86.86290514650407
 30
0.0
 11
-0.0000000000049102
 21
-18.27090915285192
 31
0.0
210
0.0
220
0.0
230
1.0
 40
0.5473181392530237
 41
5.584233826433875
 42
6.2831853071786
  0
ELLIPSE
  5
7AC
330
1F
100
AcDbEntity
  8
0
  6
Continuous
100
AcDbEllipse
 10
854.7593013387404
 20
82.06679149388035
 30
0.0
 11
9.999999999999916
 21
-0.0000000000057787
 31
0.0
210
0.0
220
0.0
230
1.0
 40
0.9135454576426004
 41
4.013437499640339
 42
4.712388980385332
  0
LINE
  5
7AD
330
1F
100
AcDbEntity
  8
0
  6
Continuous
100
AcDbLine
 10
816.9952821006946
 20
97.72746761097275
 30
0.0
 11
816.9952821006914
 21
92.84662789406272
 31
0.0
  0
LINE
  5
7AE
330
1F
100
AcDbEntity
  8
0
  6
Continuous
100
AcDbLine
 10
855.2052284497799
 20
97.72746761097275
 30
0.0
 11
855.2052284497767
 21
92.84662789406272
 31
0.0
  0
ELLIPSE
  5
7AF
330
1F
100
AcDbEntity
  8
0
  6
Continuous
100
AcDbEllipse
 10
836.1002552752415
 20
66.66692205112437
 30
0.0
 11
-38.99999999999984
 21
0.0000000000262318
 31
0.0
210
0.0
220
0.0
230
1.0
 40
0.9135454576426001
 41
5.224330879369558
 42
5.77124340819619
  0
ELLIPSE
  5
7B0
330
1F
100
AcDbEntity
  8
0
  6
Continuous
100
AcDbEllipse
 10
836.1002552752415
 20
66.66692205112437
 30
0.0
 11
-38.99999999999984
 21
0.0000000000225375
 31
0.0
210
0.0
220
0.0
230
1.0
 40
0.9135454576426004
 41
3.653534552574532
 42
4.200447081401179
  0
LINE
  5
7B1
330
1F
100
AcDbEntity
  8
0
  6
Continuous
100
AcDbLine
 10
855.2052284497799
 20
97.72746761097275
 30
0.0
 11
816.9952821006946
 21
97.72746761097275
 31
0.0
  0
LINE
  5
7B2
330
1F
100
AcDbEntity
  8
0
  6
Continuous
100
AcDbLine
 10
802.1002552752392
 20
84.12018351311141
 30
0.0
 11
802.100255275236
 21
79.23934379620184
 31
0.0
  0
LINE
  5
7B3
330
1F
100
AcDbEntity
  8
0
  6
Continuous
100
AcDbLine
 10
870.1002552752388
 20
84.12018351311141
 30
0.0
 11
870.1002552752362
 21
79.23934379620184
 31
0.0
  0
LINE
  5
7B4
330
1F
100
AcDbEntity
  8
0
  6
Continuous
100
AcDbLine
 10
802.1002552752371
 20
72.93133691745421
 30
0.0
 11
802.100255275236
 21
79.23934379620184
 31
0.0
  0
ELLIPSE
  5
7B5
330
1F
100
AcDbEntity
  8
0
  6
Continuous
100
AcDbEllipse
 10
836.1002552752379
 20
61.78608233421435
 30
0.0
 11
38.99999999999981
 21
-0.0000000000299344
 31
0.0
210
0.0
220
0.0
230
1.0
 40
0.9135454576426003
 41
2.082738225779879
 42
2.629650754606526
  0
LINE
  5
7B6
330
1F
100
AcDbEntity
  8
0
  6
Continuous
100
AcDbLine
 10
816.9952821006914
 20
92.84662789406272
 30
0.0
 11
855.2052284497767
 21
92.84662789406272
 31
0.0
  0
ELLIPSE
  5
7B7
330
1F
100
AcDbEntity
  8
0
  6
Continuous
100
AcDbEllipse
 10
836.1002552752379
 20
61.78608233421435
 30
0.0
 11
38.99999999999986
 21
-0.000000000026254
 31
0.0
210
0.0
220
0.0
230
1.0
 40
0.9135454576426004
 41
0.511941898984877
 42
1.0588544278115
  0
LINE
  5
7B8
330
1F
100
AcDbEntity
  8
0
  6
Continuous
100
AcDbLine
 10
870.1002552752362
 20
79.23934379620184
 30
0.0
 11
870.1002552752362
 21
72.93133691745421
 31
0.0
  0
LINE
  5
7B9
330
1F
100
AcDbEntity
  8
0
  6
Continuous
100
AcDbLine
 10
870.1002552752397
 20
46.30148682717251
 30
0.0
 11
870.1002552752397
 21
44.33282087222731
 31
0.0
  0
ELLIPSE
  5
7BA
330
1F
100
AcDbEntity
  8
0
  6
Continuous
100
AcDbEllipse
 10
836.1002552752379
 20
61.78608233421435
 30
0.0
 11
-38.99999999999986
 21
0.0000000000299094
 31
0.0
210
0.0
220
0.0
230
1.0
 40
0.9135454576426004
 41
2.082738225779873
 42
2.629650754606522
  0
LINE
  5
7BB
330
1F
100
AcDbEntity
  8
0
  6
Continuous
100
AcDbLine
 10
855.2052284497849
 20
30.72553677436642
 30
0.0
 11
816.9952821006996
 21
30.72553677436642
 31
0.0
  0
ELLIPSE
  5
7BC
330
1F
100
AcDbEntity
  8
0
  6
Continuous
100
AcDbEllipse
 10
836.1002552752379
 20
61.78608233421435
 30
0.0
 11
-38.9999999999998
 21
0.0000000000262484
 31
0.0
210
0.0
220
0.0
230
1.0
 40
0.9135454576426004
 41
0.511941898984877
 42
1.058854427811501
  0
LINE
  5
7BD
330
1F
100
AcDbEntity
  8
0
  6
Continuous
100
AcDbLine
 10
802.1002552752406
 20
44.33282087222731
 30
0.0
 11
802.1002552752403
 21
46.30148682717251
 31
0.0
  0
LINE
  5
7BE
330
1F
100
AcDbEntity
  8
0
  6
Continuous
100
AcDbLine
 10
819.7810517652701
 20
36.82951599919895
 30
0.0
 11
819.7810517652719
 21
39.39195685057618
 31
0.0
  0
LINE
  5
7BF
330
1F
100
AcDbEntity
  8
0
  6
Continuous
100
AcDbLine
 10
811.28105176527
 20
36.82951599919895
 30
0.0
 11
811.281051765272
 21
39.39195685057618
 31
0.0
  0
ELLIPSE
  5
7C0
330
1F
100
AcDbEntity
  8
0
  6
Continuous
100
AcDbEllipse
 10
815.5310517652706
 20
36.82951599919895
 30
0.0
 11
-4.249999999999981
 21
0.0
 31
0.0
210
0.0
220
0.0
230
1.0
 40
0.9135454576426004
 41
0.0
 42
6.283185307179586
  0
ELLIPSE
  5
7C1
330
1F
100
AcDbEntity
  8
0
  6
Continuous
100
AcDbEllipse
 10
815.5310517652724
 20
39.39195685057664
 30
0.0
 11
-4.249999999999978
 21
-0.0000000000000162
 31
0.0
210
0.0
220
0.0
230
1.0
 40
0.9135454576426004
 41
3.141592653589459
 42
6.283185307179252
  0
LINE
  5
7C2
330
1F
100
AcDbEntity
  8
0
  6
Continuous
100
AcDbLine
 10
852.4194587852102
 20
39.39195685057664
 30
0.0
 11
852.4194587852084
 21
36.82951599919895
 31
0.0
  0
LINE
  5
7C3
330
1F
100
AcDbEntity
  8
0
  6
Continuous
100
AcDbLine
 10
860.9194587852107
 20
39.39195685057664
 30
0.0
 11
860.9194587852089
 21
36.82951599919895
 31
0.0
  0
ELLIPSE
  5
7C4
330
1F
100
AcDbEntity
  8
0
  6
Continuous
100
AcDbEllipse
 10
856.6694587852088
 20
36.82951599919895
 30
0.0
 11
4.249999999999981
 21
0.0
 31
0.0
210
0.0
220
0.0
230
1.0
 40
0.9135454576426004
 41
0.0
 42
6.283185307179586
  0
ELLIPSE
  5
7C5
330
1F
100
AcDbEntity
  8
0
  6
Continuous
100
AcDbEllipse
 10
856.6694587852108
 20
39.39195685057664
 30
0.0
 11
-4.249999999999981
 21
0.0
 31
0.0
210
0.0
220
0.0
230
1.0
 40
0.9135454576426004
 41
3.141592653589464
 42
6.283185307179257
  0
LINE
  5
7C6
330
1F
100
AcDbEntity
  8
0
  6
Continuous
100
AcDbLine
 10
807.5715873610183
 20
126.9343657178323
 30
0.0
 11
803.900730038371
 21
122.6441904678363
 31
0.0
  0
LINE
  5
7C7
330
1F
100
AcDbEntity
  8
0
  6
Continuous
100
AcDbLine
 10
864.6289231895124
 20
126.9343657178323
 30
0.0
 11
868.2997805121503
 21
122.6441904678363
 31
0.0
  0
LINE
  5
7C8
330
1F
100
AcDbEntity
  8
0
  6
Continuous
100
AcDbLine
 10
792.6002552752611
 20
95.74859203104367
 30
0.0
 11
792.600255275247
 21
75.00502323417819
 31
0.0
  0
LINE
  5
7C9
330
1F
100
AcDbEntity
  8
0
  6
Continuous
100
AcDbLine
 10
879.6002552752607
 20
95.74859203104367
 30
0.0
 11
879.6002552752471
 21
75.00502323417819
 31
0.0
  0
ELLIPSE
  5
7CA
330
1F
100
AcDbEntity
  8
0
  6
Continuous
100
AcDbEllipse
 10
836.100255275247
 20
75.00502323417819
 30
0.0
 11
43.49999999999986
 21
-0.0000000000292703
 31
0.0
210
0.0
220
0.0
230
1.0
 40
0.9135454576426004
 41
6.139147448098974
 42
6.713746048945592
  0
ELLIPSE
  5
7CB
330
1F
100
AcDbEntity
  8
0
  6
Continuous
100
AcDbEllipse
 10
836.100255275247
 20
75.00502323417819
 30
0.0
 11
-43.49999999999983
 21
0.0000000000251632
 31
0.0
210
0.0
220
0.0
230
1.0
 40
0.9135454576426001
 41
4.281828238620073
 42
5.142949722150609
  0
ELLIPSE
  5
7CC
330
1F
100
AcDbEntity
  8
0
  6
Continuous
100
AcDbEllipse
 10
836.100255275247
 20
75.00502323417819
 30
0.0
 11
-43.49999999999984
 21
0.0000000000292821
 31
0.0
210
0.0
220
0.0
230
1.0
 40
0.9135454576426003
 41
5.852624565415053
 42
6.427223166261662
  0
ELLIPSE
  5
7CD
330
1F
100
AcDbEntity
  8
0
  6
Continuous
100
AcDbEllipse
 10
836.1002552752607
 20
95.74859203104367
 30
0.0
 11
-43.4999999999997
 21
0.0000000000292572
 31
0.0
210
0.0
220
0.0
230
1.0
 40
0.9135454576426004
 41
5.875867811438274
 42
6.283185307180322
  0
ELLIPSE
  5
7CE
330
1F
100
AcDbEntity
  8
0
  6
Continuous
100
AcDbEllipse
 10
836.1002552752607
 20
95.74859203104367
 30
0.0
 11
-43.4999999999998
 21
0.0000000000251493
 31
0.0
210
0.0
220
0.0
230
1.0
 40
0.9135454576426006
 41
3.88588954586792
 42
5.538888414902714
  0
ELLIPSE
  5
7CF
330
1F
100
AcDbEntity
  8
0
  6
Continuous
100
AcDbEllipse
 10
836.1002552752607
 20
95.74859203104367
 30
0.0
 11
43.49999999999987
 21
-0.0000000000000083
 31
0.0
210
0.0
220
0.0
230
1.0
 40
0.9135454576426001
 41
0.0
 42
0.407317495741796
  0
LINE
  5
7D0
330
1F
100
AcDbEntity
  8
0
  6
Continuous
100
AcDbLine
 10
796.159129778297
 20
43.9982622091579
 30
0.0
 11
796.1591297782993
 21
47.60084186099309
 31
0.0
  0
ELLIPSE
  5
7D1
330
1F
100
AcDbEntity
  8
0
  6
Continuous
100
AcDbEllipse
 10
802.159129778297
 20
43.9982622091579
 30
0.0
 11
-5.999999999999983
 21
0.0000000000040382
 31
0.0
210
0.0
220
0.0
230
1.0
 40
0.9135454576426003
 41
6.257005368400426
 42
7.880161572755154
  0
LINE
  5
7D2
330
1F
100
AcDbEntity
  8
0
  6
Continuous
100
AcDbLine
 10
796.2603375816943
 20
47.60084186099309
 30
0.0
 11
796.1611858284436
 21
44.14174520248796
 31
0.0
  0
LINE
  5
7D3
330
1F
100
AcDbEntity
  8
0
  6
Continuous
100
AcDbLine
 10
802.316191468145
 20
38.51886775857472
 30
0.0
 11
806.4716535674001
 21
38.61827484634566
 31
0.0
  0
LINE
  5
7D4
330
1F
100
AcDbEntity
  8
0
  6
Continuous
100
AcDbLine
 10
876.0413807722052
 20
43.9982622091579
 30
0.0
 11
876.041380772207
 21
47.60084186099309
 31
0.0
  0
LINE
  5
7D5
330
1F
100
AcDbEntity
  8
0
  6
Continuous
100
AcDbLine
 10
876.041380772197
 20
106.011784259198
 30
0.0
 11
876.0413807722043
 21
116.9339384874387
 31
0.0
  0
LINE
  5
7D6
330
1F
100
AcDbEntity
  8
0
  6
Continuous
100
AcDbLine
 10
796.1591297782888
 20
106.011784259198
 30
0.0
 11
796.1591297782961
 21
116.9339384874387
 31
0.0
  0
ELLIPSE
  5
7D7
330
1F
100
AcDbEntity
  8
0
  6
Continuous
100
AcDbEllipse
 10
870.0413807722052
 20
43.9982622091579
 30
0.0
 11
5.999999999999983
 21
-0.0000000000040373
 31
0.0
210
0.0
220
0.0
230
1.0
 40
0.9135454576426003
 41
4.686209041605508
 42
6.309365245960283
  0
LINE
  5
7D8
330
1F
100
AcDbEntity
  8
0
  6
Continuous
100
AcDbLine
 10
865.7288569831035
 20
38.61827484634566
 30
0.0
 11
869.8843190823591
 21
38.51886775857472
 31
0.0
  0
ELLIPSE
  5
7D9
330
1F
100
AcDbEntity
  8
0
  6
Continuous
100
AcDbEllipse
 10
870.041380772197
 20
106.011784259198
 30
0.0
 11
5.999999999999983
 21
-0.0000000000040382
 31
0.0
210
0.0
220
0.0
230
1.0
 40
0.9135454576426003
 41
6.257005368400426
 42
7.880161572755154
  0
LINE
  5
7DA
330
1F
100
AcDbEntity
  8
0
  6
Continuous
100
AcDbLine
 10
875.6300907464964
 20
91.59139913378382
 30
0.0
 11
876.0393247220509
 21
105.8683012658684
 31
0.0
  0
LINE
  5
7DB
330
1F
100
AcDbEntity
  8
0
  6
Continuous
100
AcDbLine
 10
817.9442064865952
 20
111.1173248702998
 30
0.0
 11
802.3161914681349
 21
111.4911787097812
 31
0.0
  0
LINE
  5
7DC
330
1F
100
AcDbEntity
  8
0
  6
Continuous
100
AcDbLine
 10
817.9442064866039
 20
124.1328974487255
 30
0.0
 11
817.9442064865952
 21
111.1173248702998
 31
0.0
  0
LINE
  5
7DD
330
1F
100
AcDbEntity
  8
0
  6
Continuous
100
AcDbLine
 10
796.1611858284355
 20
105.8683012658684
 30
0.0
 11
796.5704198039929
 21
91.59139913378382
 31
0.0
  0
LINE
  5
7DE
330
1F
100
AcDbEntity
  8
0
  6
Continuous
100
AcDbLine
 10
876.0393247220582
 20
44.1417452024875
 30
0.0
 11
875.940172968807
 21
47.60084186099309
 31
0.0
  0
ELLIPSE
  5
7DF
330
1F
100
AcDbEntity
  8
0
  6
Continuous
100
AcDbEllipse
 10
802.1591297782888
 20
106.011784259198
 30
0.0
 11
-5.999999999999974
 21
0.0000000000040383
 31
0.0
210
0.0
220
0.0
230
1.0
 40
0.9135454576426004
 41
4.686209041605508
 42
6.309365245960283
  0
LINE
  5
7E0
330
1F
100
AcDbEntity
  8
0
  6
Continuous
100
AcDbLine
 10
869.884319082349
 20
111.4911787097812
 30
0.0
 11
854.2563040638892
 21
111.1173248702998
 31
0.0
  0
LINE
  5
7E1
330
1F
100
AcDbEntity
  8
0
  6
Continuous
100
AcDbLine
 10
854.2563040638892
 20
111.1173248702998
 30
0.0
 11
854.2563040638979
 21
124.1328974487255
 31
0.0
  0
SPLINE
  5
7E2
330
1F
100
AcDbEntity
  8
0
  6
Continuous
100
AcDbSpline
210
0.0
220
0.0
230
1.0
 70
     8
 71
     3
 72
    14
 73
    10
 74
     0
 42
0.0000000001
 43
0.0000000001
 40
0.5726902718777073
 40
0.5726902718777073
 40
0.5726902718777073
 40
0.5726902718777073
 40
0.8021249198358477
 40
0.8021249198358477
 40
1.054931495837559
 40
1.054931495837559
 40
1.307738071839271
 40
1.307738071839271
 40
1.520620420505453
 40
1.520620420505453
 40
1.520620420505453
 40
1.520620420505453
 10
869.8843190823563
 20
122.4375528456957
 30
0.0
 10
870.6060345135139
 20
122.3419749458971
 30
0.0
 10
871.386094645417
 20
122.1355990345823
 30
0.0
 10
872.9319281088047
 20
121.4684765145161
 30
0.0
 10
873.6881506452583
 20
120.9818471824059
 30
0.0
 10
874.8798922733877
 20
119.8931370313448
 30
0.0
 10
875.369716772173
 20
119.2414457544032
 30
0.0
 10
875.9214758890175
 20
118.0178955380319
 30
0.0
 10
876.0405170211342
 20
117.4495830876862
 30
0.0
 10
876.0412839291602
 20
116.933963951058
 30
0.0
  0
SPLINE
  5
7E3
330
1F
100
AcDbEntity
  8
0
  6
Continuous
100
AcDbSpline
210
0.0
220
0.0
230
1.0
 70
    12
 71
     2
 72
     6
 73
     3
 74
     0
 42
0.0000000001
 43
0.0000000001
 40
1.51478374625463
 40
1.51478374625463
 40
1.51478374625463
 40
3.350408087820908
 40
3.350408087820908
 40
3.350408087820908
 10
869.8843190823563
 20
122.4375528456957
 30
0.0
 41
1.022566673064431
 10
861.3516810001911
 20
123.56754341044
 30
0.0
 41
1.024956553744791
 10
854.2563040638979
 20
124.1328974487255
 30
0.0
 41
1.0
  0
SPLINE
  5
7E4
330
1F
100
AcDbEntity
  8
0
  6
Continuous
100
AcDbSpline
210
0.0
220
0.0
230
1.0
 70
     8
 71
     3
 72
    14
 73
    10
 74
     0
 42
0.0000000001
 43
0.0000000001
 40
0.5892425711696648
 40
0.5892425711696648
 40
0.5892425711696648
 40
0.5892425711696648
 40
0.8021249198358471
 40
0.8021249198358471
 40
1.054931495837559
 40
1.054931495837559
 40
1.307738071839271
 40
1.307738071839271
 40
1.537172719797414
 40
1.537172719797414
 40
1.537172719797414
 40
1.537172719797414
 10
796.159226621341
 20
116.933963951058
 30
0.0
 10
796.1599935293661
 20
117.4495830876862
 30
0.0
 10
796.279034661482
 20
118.0178955380319
 30
0.0
 10
796.8307937783256
 20
119.2414457544032
 30
0.0
 10
797.3206182771118
 20
119.8931370313448
 30
0.0
 10
798.5123599052403
 20
120.9818471824059
 30
0.0
 10
799.2685824416939
 20
121.4684765145161
 30
0.0
 10
800.8144159050816
 20
122.1355990345823
 30
0.0
 10
801.5944760369857
 20
122.3419749458971
 30
0.0
 10
802.3161914681422
 20
122.4375528456957
 30
0.0
  0
SPLINE
  5
7E5
330
1F
100
AcDbEntity
  8
0
  6
Continuous
100
AcDbSpline
210
0.0
220
0.0
230
1.0
 70
    12
 71
     2
 72
     6
 73
     3
 74
     0
 42
0.0000000001
 43
0.0000000001
 40
0.0
 40
0.0
 40
0.0
 40
1.835624341566276
 40
1.835624341566276
 40
1.835624341566276
 10
817.9442064866034
 20
124.1328974487255
 30
0.0
 41
1.0
 10
810.8488295503093
 20
123.56754341044
 30
0.0
 41
1.024956553744802
 10
802.3161914681418
 20
122.4375528456957
 30
0.0
 41
1.022566673064441
  0
SPLINE
  5
7E6
330
1F
100
AcDbEntity
  8
0
  6
Continuous
100
AcDbSpline
210
0.0
220
0.0
230
1.0
 70
     8
 71
     3
 72
    18
 73
    14
 74
     0
 42
0.0000000001
 43
0.0000000001
 40
0.6634628471814078
 40
0.6634628471814078
 40
0.6634628471814078
 40
0.6634628471814078
 40
0.9823256998321934
 40
0.9823256998321934
 40
1.306260382927167
 40
1.306260382927167
 40
1.633244670248866
 40
1.633244670248866
 40
1.96093973983355
 40
1.96093973983355
 40
2.287025322641929
 40
2.287025322641929
 40
2.478129806408385
 40
2.478129806408385
 40
2.478129806408385
 40
2.478129806408385
 10
1292.39989497673
 20
126.9343657178323
 30
0.0
 10
1294.813451349908
 20
129.7551181760677
 30
0.0
 10
1297.703555421537
 20
132.1990084979279
 30
0.0
 10
1304.182449721867
 20
136.148854004441
 30
0.0
 10
1307.780703646458
 20
137.6394609014773
 30
0.0
 10
1315.319868154446
 20
139.5051417431045
 30
0.0
 10
1319.263019685618
 20
139.8696487572965
 30
0.0
 10
1327.084316396319
 20
139.4228675326171
 30
0.0
 10
1330.961648702505
 20
138.6089728422566
 30
0.0
 10
1338.23919412469
 20
135.8750136352241
 30
0.0
 10
1341.640906020983
 20
133.9602114756375
 30
0.0
 10
1346.393518298859
 20
130.1810937432068
 30
0.0
 10
1348.010710958517
 20
128.6249309181452
 30
0.0
 10
1349.457230805224
 20
126.9343657178323
 30
0.0
  0
LINE
  5
7E7
330
1F
100
AcDbEntity
  8
0
  6
Continuous
100
AcDbLine
 10
1340.033536065502
 20
38.33151199988422
 30
0.0
 11
1340.033536065501
 21
36.01311313435233
 31
0.0
  0
LINE
  5
7E8
330
1F
100
AcDbEntity
  8
0
  6
Continuous
100
AcDbLine
 10
1301.823589716416
 20
38.33151199988422
 30
0.0
 11
1301.823589716415
 21
36.01311313435233
 31
0.0
  0
ELLIPSE
  5
7E9
330
1F
100
AcDbEntity
  8
0
  6
Continuous
100
AcDbEllipse
 10
1320.928562890954
 20
67.0736586942007
 30
0.0
 11
-39.00000000000027
 21
0.000000000025735
 31
0.0
210
0.0
220
0.0
230
1.0
 40
0.9135454576426004
 41
0.9184741847626796
 42
1.058854427811503
  0
ELLIPSE
  5
7EA
330
1F
100
AcDbEntity
  8
0
  6
Continuous
100
AcDbEllipse
 10
1320.928562890954
 20
67.07365869420025
 30
0.0
 11
-38.99999999999954
 21
0.0000000000294098
 31
0.0
210
0.0
220
0.0
230
1.0
 40
0.9135454576426004
 41
2.082738225779809
 42
2.223118468828621
  0
LINE
  5
7EB
330
1F
100
AcDbEntity
  8
0
  6
Continuous
100
AcDbLine
 10
1312.532114541142
 20
36.01311313435233
 30
0.0
 11
1301.823589716415
 21
36.01311313435233
 31
0.0
  0
LINE
  5
7EC
330
1F
100
AcDbEntity
  8
0
  6
Continuous
100
AcDbLine
 10
1340.033536065501
 20
36.01311313435233
 30
0.0
 11
1329.325011240774
 21
36.01311313435233
 31
0.0
  0
ELLIPSE
  5
7ED
330
1F
100
AcDbEntity
  8
0
  6
Continuous
100
AcDbEllipse
 10
1320.928562890951
 20
69.39205755974078
 30
0.0
 11
39.00000000001052
 21
-0.0000000000257183
 31
0.0
210
0.0
220
0.0
230
1.0
 40
0.9135454576426003
 41
5.224330879369555
 42
5.253121095142676
  0
SPLINE
  5
7EE
330
1F
100
AcDbEntity
  8
0
  6
Continuous
100
AcDbSpline
210
0.0
220
0.0
230
1.0
 70
     8
 71
     3
 72
     8
 73
     4
 74
     0
 42
0.0000000001
 43
0.0000000001
 40
-0.1438477767739038
 40
-0.1438477767739038
 40
-0.1438477767739038
 40
-0.1438477767739038
 40
-0.0849033418092184
 40
-0.0849033418092184
 40
-0.0849033418092184
 40
-0.0849033418092184
 10
1340.033536065502
 20
38.33151199988422
 30
0.0
 10
1339.997782613044
 20
38.5118806887526
 30
0.0
 10
1339.961929663362
 20
38.6922450016086
 30
0.0
 10
1339.925977626237
 20
38.87259441689
 30
0.0
  0
LINE
  5
7EF
330
1F
100
AcDbEntity
  8
0
  6
Continuous
100
AcDbLine
 10
1337.682569889532
 20
38.33151199988422
 30
0.0
 11
1340.033536065502
 21
38.33151199988422
 31
0.0
  0
LINE
  5
7F0
330
1F
100
AcDbEntity
  8
0
  6
Continuous
100
AcDbLine
 10
1301.823589716416
 20
38.33151199988422
 30
0.0
 11
1304.174555892388
 21
38.33151199988422
 31
0.0
  0
SPLINE
  5
7F1
330
1F
100
AcDbEntity
  8
0
  6
Continuous
100
AcDbSpline
210
0.0
220
0.0
230
1.0
 70
     8
 71
     3
 72
     8
 73
     4
 74
     0
 42
0.0000000001
 43
0.0000000001
 40
-0.1438477767740465
 40
-0.1438477767740465
 40
-0.1438477767740465
 40
-0.1438477767740465
 40
-0.0849033418092449
 40
-0.0849033418092449
 40
-0.0849033418092449
 40
-0.0849033418092449
 10
1301.823589716416
 20
38.33151199988422
 30
0.0
 10
1301.859343168876
 20
38.5118806887526
 30
0.0
 10
1301.895196118557
 20
38.6922450016086
 30
0.0
 10
1301.931148155683
 20
38.87259441689
 30
0.0
  0
ELLIPSE
  5
7F2
330
1F
100
AcDbEntity
  8
0
  6
Continuous
100
AcDbEllipse
 10
1320.928562890973
 20
69.39205755976033
 30
0.0
 11
39.00000000003498
 21
-0.0000000000220129
 31
0.0
210
0.0
220
0.0
230
1.0
 40
0.9135454576426003
 41
4.171656865628063
 42
4.200447081401168
  0
LINE
  5
7F3
330
1F
100
AcDbEntity
  8
0
  6
Continuous
100
AcDbLine
 10
1272.016979831686
 20
47.60084186099354
 30
0.0
 11
1280.987437393994
 21
47.60084186099354
 31
0.0
  0
LINE
  5
7F4
330
1F
100
AcDbEntity
  8
0
  6
Continuous
100
AcDbLine
 10
1272.016979831686
 20
69.30084186099335
 30
0.0
 11
1277.879028449005
 21
69.30084186099335
 31
0.0
  0
LINE
  5
7F5
330
1F
100
AcDbEntity
  8
0
  6
Continuous
100
AcDbLine
 10
1272.016979831686
 20
69.30084186099335
 30
0.0
 11
1269.778562890949
 21
75.45084186099344
 31
0.0
  0
LINE
  5
7F6
330
1F
100
AcDbEntity
  8
0
  6
Continuous
100
AcDbLine
 10
1272.016979831686
 20
47.60084186099354
 30
0.0
 11
1269.778562890949
 21
41.45084186099345
 31
0.0
  0
LINE
  5
7F7
330
1F
100
AcDbEntity
  8
0
  6
Continuous
100
AcDbLine
 10
1266.928562890948
 20
41.45084186099345
 30
0.0
 11
1269.778562890949
 21
41.45084186099345
 31
0.0
  0
LINE
  5
7F8
330
1F
100
AcDbEntity
  8
0
  6
Continuous
100
AcDbLine
 10
1266.928562890948
 20
75.45084186099344
 30
0.0
 11
1269.778562890949
 21
75.45084186099344
 31
0.0
  0
LINE
  5
7F9
330
1F
100
AcDbEntity
  8
0
  6
Continuous
100
AcDbLine
 10
1272.016979831686
 20
47.60084186099354
 30
0.0
 11
1272.016979831686
 21
69.30084186099382
 31
0.0
  0
LINE
  5
7FA
330
1F
100
AcDbEntity
  8
0
  6
Continuous
100
AcDbLine
 10
1269.778562890949
 20
41.45084186099391
 30
0.0
 11
1269.778562890949
 21
75.45084186099344
 31
0.0
  0
LINE
  5
7FB
330
1F
100
AcDbEntity
  8
0
  6
Continuous
100
AcDbLine
 10
1266.928562890948
 20
41.45084186099391
 30
0.0
 11
1266.928562890948
 21
75.45084186099344
 31
0.0
  0
LINE
  5
7FC
330
1F
100
AcDbEntity
  8
0
  6
Continuous
100
AcDbLine
 10
1360.869688387903
 20
47.60084186099354
 30
0.0
 11
1369.840145950212
 21
47.60084186099354
 31
0.0
  0
LINE
  5
7FD
330
1F
100
AcDbEntity
  8
0
  6
Continuous
100
AcDbLine
 10
1363.978097332891
 20
69.30084186099335
 30
0.0
 11
1369.840145950212
 21
69.30084186099335
 31
0.0
  0
LINE
  5
7FE
330
1F
100
AcDbEntity
  8
0
  6
Continuous
100
AcDbLine
 10
1369.840145950212
 20
47.60084186099354
 30
0.0
 11
1372.078562890949
 21
41.45084186099345
 31
0.0
  0
LINE
  5
7FF
330
1F
100
AcDbEntity
  8
0
  6
Continuous
100
AcDbLine
 10
1369.840145950212
 20
69.30084186099335
 30
0.0
 11
1372.078562890949
 21
75.45084186099344
 31
0.0
  0
LINE
  5
800
330
1F
100
AcDbEntity
  8
0
  6
Continuous
100
AcDbLine
 10
1372.078562890949
 20
41.45084186099345
 30
0.0
 11
1374.928562890948
 21
41.45084186099345
 31
0.0
  0
LINE
  5
801
330
1F
100
AcDbEntity
  8
0
  6
Continuous
100
AcDbLine
 10
1372.078562890949
 20
75.45084186099344
 30
0.0
 11
1374.928562890948
 21
75.45084186099344
 31
0.0
  0
LINE
  5
802
330
1F
100
AcDbEntity
  8
0
  6
Continuous
100
AcDbLine
 10
1369.840145950212
 20
47.60084186099354
 30
0.0
 11
1369.840145950212
 21
69.30084186099382
 31
0.0
  0
LINE
  5
803
330
1F
100
AcDbEntity
  8
0
  6
Continuous
100
AcDbLine
 10
1372.078562890949
 20
41.45084186099391
 30
0.0
 11
1372.078562890949
 21
75.45084186099344
 31
0.0
  0
LINE
  5
804
330
1F
100
AcDbEntity
  8
0
  6
Continuous
100
AcDbLine
 10
1374.928562890948
 20
41.45084186099391
 30
0.0
 11
1374.928562890948
 21
75.45084186099344
 31
0.0
  0
LINE
  5
805
330
1F
100
AcDbEntity
  8
0
  6
Continuous
100
AcDbLine
 10
1340.033536065501
 20
35.60637649127645
 30
0.0
 11
1340.033536065497
 21
30.72553677436688
 31
0.0
  0
LINE
  5
806
330
1F
100
AcDbEntity
  8
0
  6
Continuous
100
AcDbLine
 10
1301.823589716415
 20
35.60637649127645
 30
0.0
 11
1301.823589716412
 21
30.72553677436688
 31
0.0
  0
ELLIPSE
  5
807
330
1F
100
AcDbEntity
  8
0
  6
Continuous
100
AcDbEllipse
 10
1320.928562890954
 20
66.66692205112437
 30
0.0
 11
-38.99999999999939
 21
0.0000000000293626
 31
0.0
210
0.0
220
0.0
230
1.0
 40
0.9135454576426003
 41
2.08273822577985
 42
2.241101955140592
  0
LINE
  5
808
330
1F
100
AcDbEntity
  8
0
  6
Continuous
100
AcDbLine
 10
1315.245636619987
 20
35.60637649127645
 30
0.0
 11
1301.823589716415
 21
35.60637649127645
 31
0.0
  0
LINE
  5
809
330
1F
100
AcDbEntity
  8
0
  6
Continuous
100
AcDbLine
 10
1340.033536065501
 20
35.60637649127645
 30
0.0
 11
1326.611489161929
 21
35.60637649127645
 31
0.0
  0
ELLIPSE
  5
80A
330
1F
100
AcDbEntity
  8
0
  6
Continuous
100
AcDbEllipse
 10
1320.928562890953
 20
66.66692205112437
 30
0.0
 11
-38.99999999999928
 21
0.0000000000257211
 31
0.0
210
0.0
220
0.0
230
1.0
 40
0.9135454576426004
 41
0.9004906984507403
 42
1.058854427811493
  0
ELLIPSE
  5
80B
330
1F
100
AcDbEntity
  8
0
  6
Continuous
100
AcDbEllipse
 10
1320.928562890951
 20
61.7860823342148
 30
0.0
 11
38.99999999999986
 21
-0.0000000000220379
 31
0.0
210
0.0
220
0.0
230
1.0
 40
0.9135454576426004
 41
3.849525437203497
 42
4.200447081401165
  0
LINE
  5
80C
330
1F
100
AcDbEntity
  8
0
  6
Continuous
100
AcDbLine
 10
1301.823589716412
 20
30.72553677436688
 30
0.0
 11
1340.033536065497
 21
30.72553677436688
 31
0.0
  0
ELLIPSE
  5
80D
330
1F
100
AcDbEntity
  8
0
  6
Continuous
100
AcDbEllipse
 10
1320.928562890951
 20
61.7860823342148
 30
0.0
 11
38.99999999999971
 21
-0.0000000000257322
 31
0.0
210
0.0
220
0.0
230
1.0
 40
0.9135454576426003
 41
5.224330879369545
 42
5.575252523567211
  0
ELLIPSE
  5
80E
330
1F
100
AcDbEntity
  8
0
  6
Continuous
100
AcDbEllipse
 10
1320.928562890989
 20
119.9494222940542
 30
0.0
 11
-7.499999999999965
 21
0.0
 31
0.0
210
0.0
220
0.0
230
1.0
 40
0.9135454576426003
 41
0.0
 42
6.283185307179586
  0
ELLIPSE
  5
80F
330
1F
100
AcDbEntity
  8
0
  6
Continuous
100
AcDbEllipse
 10
1320.92856289099
 20
120.5595272586678
 30
0.0
 11
5.999999999999971
 21
0.0
 31
0.0
210
0.0
220
0.0
230
1.0
 40
0.9135454576426003
 41
0.0
 42
6.283185307179586
  0
LINE
  5
810
330
1F
100
AcDbEntity
  8
0
  6
Continuous
100
AcDbLine
 10
1280.98743739401
 20
43.99826220915836
 30
0.0
 11
1280.987437394017
 21
54.9204164373991
 31
0.0
  0
LINE
  5
811
330
1F
100
AcDbEntity
  8
0
  6
Continuous
100
AcDbLine
 10
1280.987437394005
 20
111.4911962144919
 30
0.0
 11
1280.987437394008
 21
116.9339384874392
 31
0.0
  0
LINE
  5
812
330
1F
100
AcDbEntity
  8
0
  6
Continuous
100
AcDbLine
 10
1360.869688387914
 20
111.4911962144919
 30
0.0
 11
1360.869688387917
 21
116.9339384874392
 31
0.0
  0
ELLIPSE
  5
813
330
1F
100
AcDbEntity
  8
0
  6
Continuous
100
AcDbEllipse
 10
1286.98743739401
 20
43.99826220915836
 30
0.0
 11
-5.999999999999974
 21
0.0000000000039572
 31
0.0
210
0.0
220
0.0
230
1.0
 40
0.9135454576426004
 41
0.0
 42
1.596976265575481
  0
LINE
  5
814
330
1F
100
AcDbEntity
  8
0
  6
Continuous
100
AcDbLine
 10
1302.772514102317
 20
38.89272159805702
 30
0.0
 11
1287.144499083858
 21
38.51886775857517
 31
0.0
  0
LINE
  5
815
330
1F
100
AcDbEntity
  8
0
  6
Continuous
100
AcDbLine
 10
1302.772514102326
 20
51.90829417648227
 30
0.0
 11
1302.772514102317
 21
38.89272159805702
 31
0.0
  0
LINE
  5
816
330
1F
100
AcDbEntity
  8
0
  6
Continuous
100
AcDbLine
 10
1295.928562890984
 20
110.3911111817728
 30
0.0
 11
1295.928562890982
 21
108.3574279663939
 31
0.0
  0
LINE
  5
817
330
1F
100
AcDbEntity
  8
0
  6
Continuous
100
AcDbLine
 10
1345.928562890984
 20
110.3911111817728
 30
0.0
 11
1345.928562890982
 21
108.3574279663939
 31
0.0
  0
LINE
  5
818
330
1F
100
AcDbEntity
  8
0
  6
Continuous
100
AcDbLine
 10
1292.39989497673
 20
126.9343657178328
 30
0.0
 11
1286.656462828097
 21
120.2219472585056
 31
0.0
  0
LINE
  5
819
330
1F
100
AcDbEntity
  8
0
  6
Continuous
100
AcDbLine
 10
1349.457230805224
 20
126.9343657178328
 30
0.0
 11
1355.200662953842
 21
120.2219472585056
 31
0.0
  0
LINE
  5
81A
330
1F
100
AcDbEntity
  8
0
  6
Continuous
100
AcDbLine
 10
1313.42856289099
 20
119.9494222940542
 30
0.0
 11
1313.428562890982
 21
110.3911111817728
 31
0.0
  0
LINE
  5
81B
330
1F
100
AcDbEntity
  8
0
  6
Continuous
100
AcDbLine
 10
1328.428562890989
 20
119.9494222940542
 30
0.0
 11
1328.428562890983
 21
110.3911111817728
 31
0.0
  0
LINE
  5
81C
330
1F
100
AcDbEntity
  8
0
  6
Continuous
100
AcDbLine
 10
1277.428562890972
 20
95.74859203104413
 30
0.0
 11
1277.42856289096
 21
75.00502323417865
 31
0.0
  0
LINE
  5
81D
330
1F
100
AcDbEntity
  8
0
  6
Continuous
100
AcDbLine
 10
1364.428562890974
 20
95.74859203104413
 30
0.0
 11
1364.428562890959
 21
75.00502323417865
 31
0.0
  0
ELLIPSE
  5
81E
330
1F
100
AcDbEntity
  8
0
  6
Continuous
100
AcDbEllipse
 10
1320.928562890983
 20
110.3911111817728
 30
0.0
 11
24.99999999999989
 21
0.0
 31
0.0
210
0.0
220
0.0
230
1.0
 40
0.9135454576426003
 41
0.0
 42
6.283185307179586
  0
ELLIPSE
  5
81F
330
1F
100
AcDbEntity
  8
0
  6
Continuous
100
AcDbEllipse
 10
1320.928562890982
 20
108.3574279663939
 30
0.0
 11
24.99999999999989
 21
0.0
 31
0.0
210
0.0
220
0.0
230
1.0
 40
0.9135454576426003
 41
3.14159265358951
 42
6.283185307179302
  0
ELLIPSE
  5
820
330
1F
100
AcDbEntity
  8
0
  6
Continuous
100
AcDbEllipse
 10
1320.928562890983
 20
110.3911111817728
 30
0.0
 11
7.499999999999968
 21
0.0
 31
0.0
210
0.0
220
0.0
230
1.0
 40
0.9135454576426003
 41
3.141592653589494
 42
6.283185307179287
  0
ELLIPSE
  5
821
330
1F
100
AcDbEntity
  8
0
  6
Continuous
100
AcDbEllipse
 10
1320.928562890959
 20
75.00502323417865
 30
0.0
 11
-43.49999999999987
 21
0.0000000000286576
 31
0.0
210
0.0
220
0.0
230
1.0
 40
0.9135454576426001
 41
0.0
 42
0.413056215373179
  0
ELLIPSE
  5
822
330
1F
100
AcDbEntity
  8
0
  6
Continuous
100
AcDbEllipse
 10
1320.928562890961
 20
75.00502323417865
 30
0.0
 11
43.49999999999965
 21
0.0000000000000402
 31
0.0
210
0.0
220
0.0
230
1.0
 40
0.9135454576426004
 41
5.870129091806873
 42
6.283185307179298
  0
ELLIPSE
  5
823
330
1F
100
AcDbEntity
  8
0
  6
Continuous
100
AcDbEllipse
 10
1320.928562890959
 20
75.00502323417865
 30
0.0
 11
-43.4999999999998
 21
0.0000000000328099
 31
0.0
210
0.0
220
0.0
230
1.0
 40
0.9135454576426006
 41
1.140235585030428
 42
2.001357068560938
  0
ELLIPSE
  5
824
330
1F
100
AcDbEntity
  8
0
  6
Continuous
100
AcDbEllipse
 10
1320.928562890973
 20
95.74859203104413
 30
0.0
 11
43.49999999999981
 21
-0.0000000000287187
 31
0.0
210
0.0
220
0.0
230
1.0
 40
0.9135454576426004
 41
2.478129806409104
 42
6.94664815436173
  0
LINE
  5
825
330
1F
100
AcDbEntity
  8
0
  6
Continuous
100
AcDbLine
 10
1360.869688387918
 20
43.99826220915836
 30
0.0
 11
1360.869688387925
 21
54.9204164373991
 31
0.0
  0
ELLIPSE
  5
826
330
1F
100
AcDbEntity
  8
0
  6
Continuous
100
AcDbEllipse
 10
1354.869688387918
 20
43.99826220915836
 30
0.0
 11
5.999999999999974
 21
0.0
 31
0.0
210
0.0
220
0.0
230
1.0
 40
0.9135454576426004
 41
4.686209041604945
 42
6.283185307179313
  0
LINE
  5
827
330
1F
100
AcDbEntity
  8
0
  6
Continuous
100
AcDbLine
 10
1354.712626698072
 20
38.51886775857517
 30
0.0
 11
1339.084611679612
 21
38.89272159805702
 31
0.0
  0
LINE
  5
828
330
1F
100
AcDbEntity
  8
0
  6
Continuous
100
AcDbLine
 10
1339.084611679612
 20
38.89272159805702
 30
0.0
 11
1339.084611679621
 21
51.90829417648227
 31
0.0
  0
SPLINE
  5
829
330
1F
100
AcDbEntity
  8
0
  6
Continuous
100
AcDbSpline
210
0.0
220
0.0
230
1.0
 70
     8
 71
     3
 72
    14
 73
    10
 74
     0
 42
0.0000000001
 43
0.0000000001
 40
0.5726902718777073
 40
0.5726902718777073
 40
0.5726902718777073
 40
0.5726902718777073
 40
0.8021249198358477
 40
0.8021249198358477
 40
1.054931495837559
 40
1.054931495837559
 40
1.307738071839271
 40
1.307738071839271
 40
1.537172719797414
 40
1.537172719797414
 40
1.537172719797414
 40
1.537172719797414
 10
1287.144499083855
 20
122.4375528456962
 30
0.0
 10
1286.422783652697
 20
122.3419749458976
 30
0.0
 10
1285.642723520793
 20
122.1355990345827
 30
0.0
 10
1284.096890057406
 20
121.4684765145165
 30
0.0
 10
1283.340667520954
 20
120.9818471824064
 30
0.0
 10
1282.148925892825
 20
119.8931370313452
 30
0.0
 10
1281.659101394038
 20
119.2414457544036
 30
0.0
 10
1281.087730726318
 20
117.9744060575935
 30
0.0
 10
1280.970594660479
 20
117.3611524578468
 30
0.0
 10
1280.989493444155
 20
116.8146754017829
 30
0.0
  0
SPLINE
  5
82A
330
1F
100
AcDbEntity
  8
0
  6
Continuous
100
AcDbSpline
210
0.0
220
0.0
230
1.0
 70
    12
 71
     2
 72
     6
 73
     3
 74
     0
 42
0.0000000001
 43
0.0000000001
 40
1.51478374625463
 40
1.51478374625463
 40
1.51478374625463
 40
1.686574135801829
 40
1.686574135801829
 40
1.686574135801829
 10
1287.144499083855
 20
122.4375528456962
 30
0.0
 41
1.022566673064431
 10
1287.944733495544
 20
122.5435291365083
 30
0.0
 41
1.022790334585884
 10
1288.729037654074
 20
122.6441904678367
 30
0.0
 41
1.02277448215269
  0
SPLINE
  5
82B
330
1F
100
AcDbEntity
  8
0
  6
Continuous
100
AcDbSpline
210
0.0
220
0.0
230
1.0
 70
    12
 71
     2
 72
     6
 73
     3
 74
     0
 42
0.0000000001
 43
0.0000000001
 40
1.111266865933175
 40
1.111266865933175
 40
1.111266865933175
 40
1.835624341566264
 40
1.835624341566264
 40
1.835624341566264
 10
1281.159209524979
 20
111.8500356620179
 30
0.0
 41
1.020194492483489
 10
1281.077787974457
 20
114.2615515704305
 30
0.0
 41
1.023509746163582
 10
1280.989493444155
 20
116.8146754017834
 30
0.0
 41
1.022566673064424
  0
ELLIPSE
  5
82C
330
1F
100
AcDbEntity
  8
0
  6
Continuous
100
AcDbEllipse
 10
1320.928562890967
 20
88.02059581260435
 30
0.0
 11
43.49999999999985
 21
-0.0000000000245803
 31
0.0
210
0.0
220
0.0
230
1.0
 40
0.9135454576426003
 41
3.572153395355663
 42
4.281828238620038
  0
SPLINE
  5
82D
330
1F
100
AcDbEntity
  8
0
  6
Continuous
100
AcDbSpline
210
0.0
220
0.0
230
1.0
 70
    12
 71
     2
 72
     6
 73
     3
 74
     0
 42
0.0000000001
 43
0.0000000001
 40
0.0
 40
0.0
 40
0.0
 40
1.835624341566267
 40
1.835624341566267
 40
1.835624341566267
 10
1302.772514102326
 20
51.90829417648227
 30
0.0
 41
1.0
 10
1295.677137166031
 20
51.00346850253934
 30
0.0
 41
1.024956553744787
 10
1287.144499083864
 20
49.46524189448972
 30
0.0
 41
1.022566673064427
  0
SPLINE
  5
82E
330
1F
100
AcDbEntity
  8
0
  6
Continuous
100
AcDbSpline
210
0.0
220
0.0
230
1.0
 70
     8
 71
     3
 72
    14
 73
    10
 74
     0
 42
0.0000000001
 43
0.0000000001
 40
0.5726902718777067
 40
0.5726902718777067
 40
0.5726902718777067
 40
0.5726902718777067
 40
0.8021249198358477
 40
0.8021249198358477
 40
1.054931495837559
 40
1.054931495837559
 40
1.307738071839271
 40
1.307738071839271
 40
1.537172719797412
 40
1.537172719797412
 40
1.537172719797412
 40
1.537172719797412
 10
1280.989493444163
 20
55.0881193384025
 30
0.0
 10
1280.970594660489
 20
54.31595668677753
 30
0.0
 10
1281.087730726326
 20
53.50396950614775
 30
0.0
 10
1281.659101394048
 20
51.94663092545805
 30
0.0
 10
1282.148925892833
 20
51.21663487611156
 30
0.0
 10
1283.340667520962
 20
50.12792472505041
 30
0.0
 10
1284.096890057416
 20
49.7196001653451
 30
0.0
 10
1285.642723520804
 20
49.34277652915805
 30
0.0
 10
1286.422783652707
 20
49.33513419872722
 30
0.0
 10
1287.144499083864
 20
49.46524189448972
 30
0.0
  0
SPLINE
  5
82F
330
1F
100
AcDbEntity
  8
0
  6
Continuous
100
AcDbSpline
210
0.0
220
0.0
230
1.0
 70
    12
 71
     2
 72
     6
 73
     3
 74
     0
 42
0.0000000001
 43
0.0000000001
 40
1.51478374625463
 40
1.51478374625463
 40
1.51478374625463
 40
3.350408087820908
 40
3.350408087820908
 40
3.350408087820908
 10
1280.989493444163
 20
55.0881193384025
 30
0.0
 41
1.022566673064434
 10
1281.212928435761
 20
64.21718068647075
 30
0.0
 41
1.024956553744794
 10
1281.398727419718
 20
71.43421991299826
 30
0.0
 41
1.0
  0
ELLIPSE
  5
830
330
1F
100
AcDbEntity
  8
0
  6
Continuous
100
AcDbEllipse
 10
1320.928562890967
 20
88.02059581260435
 30
0.0
 11
43.49999999999981
 21
-0.0000000000286882
 31
0.0
210
0.0
220
0.0
230
1.0
 40
0.9135454576426004
 41
5.142949722150667
 42
5.852624565415033
  0
SPLINE
  5
831
330
1F
100
AcDbEntity
  8
0
  6
Continuous
100
AcDbSpline
210
0.0
220
0.0
230
1.0
 70
    12
 71
     2
 72
     6
 73
     3
 74
     0
 42
0.0000000001
 43
0.0000000001
 40
0.0
 40
0.0
 40
0.0
 40
1.835624341566274
 40
1.835624341566274
 40
1.835624341566274
 10
1360.458398362223
 20
71.43421991299826
 30
0.0
 41
1.0
 10
1360.64419734618
 20
64.21718068647075
 30
0.0
 41
1.024956553744788
 10
1360.867632337778
 20
55.0881193384025
 30
0.0
 41
1.022566673064428
  0
SPLINE
  5
832
330
1F
100
AcDbEntity
  8
0
  6
Continuous
100
AcDbSpline
210
0.0
220
0.0
230
1.0
 70
     8
 71
     3
 72
    14
 73
    10
 74
     0
 42
0.0000000001
 43
0.0000000001
 40
0.5726902718777066
 40
0.5726902718777066
 40
0.5726902718777066
 40
0.5726902718777066
 40
0.8021249198358477
 40
0.8021249198358477
 40
1.054931495837559
 40
1.054931495837559
 40
1.307738071839271
 40
1.307738071839271
 40
1.537172719797413
 40
1.537172719797413
 40
1.537172719797413
 40
1.537172719797413
 10
1354.712626698079
 20
49.46524189448972
 30
0.0
 10
1355.434342129235
 20
49.33513419872722
 30
0.0
 10
1356.214402261138
 20
49.34277652915805
 30
0.0
 10
1357.760235724525
 20
49.71960016534465
 30
0.0
 10
1358.51645826098
 20
50.12792472505041
 30
0.0
 10
1359.708199889109
 20
51.21663487611156
 30
0.0
 10
1360.198024387895
 20
51.94663092545805
 30
0.0
 10
1360.769395055617
 20
53.50396950614775
 30
0.0
 10
1360.886531121454
 20
54.31595668677753
 30
0.0
 10
1360.867632337778
 20
55.0881193384025
 30
0.0
  0
SPLINE
  5
833
330
1F
100
AcDbEntity
  8
0
  6
Continuous
100
AcDbSpline
210
0.0
220
0.0
230
1.0
 70
    12
 71
     2
 72
     6
 73
     3
 74
     0
 42
0.0000000001
 43
0.0000000001
 40
1.514783746254628
 40
1.514783746254628
 40
1.514783746254628
 40
3.350408087820908
 40
3.350408087820908
 40
3.350408087820908
 10
1354.712626698079
 20
49.46524189448972
 30
0.0
 41
1.022566673064436
 10
1346.179988615913
 20
51.00346850253934
 30
0.0
 41
1.024956553744797
 10
1339.084611679621
 20
51.90829417648227
 30
0.0
 41
1.0
  0
SPLINE
  5
834
330
1F
100
AcDbEntity
  8
0
  6
Continuous
100
AcDbSpline
210
0.0
220
0.0
230
1.0
 70
     8
 71
     3
 72
    14
 73
    10
 74
     0
 42
0.0000000001
 43
0.0000000001
 40
0.5726902718777068
 40
0.5726902718777068
 40
0.5726902718777068
 40
0.5726902718777068
 40
0.8021249198358471
 40
0.8021249198358471
 40
1.054931495837559
 40
1.054931495837559
 40
1.307738071839271
 40
1.307738071839271
 40
1.537172719797414
 40
1.537172719797414
 40
1.537172719797414
 40
1.537172719797414
 10
1360.86763233777
 20
116.8146754017829
 30
0.0
 10
1360.886531121445
 20
117.3611524578468
 30
0.0
 10
1360.769395055607
 20
117.9744060575935
 30
0.0
 10
1360.198024387886
 20
119.2414457544036
 30
0.0
 10
1359.7081998891
 20
119.8931370313452
 30
0.0
 10
1358.516458260971
 20
120.9818471824064
 30
0.0
 10
1357.760235724517
 20
121.4684765145165
 30
0.0
 10
1356.21440226113
 20
122.1355990345827
 30
0.0
 10
1355.434342129226
 20
122.3419749458976
 30
0.0
 10
1354.712626698069
 20
122.4375528456962
 30
0.0
  0
SPLINE
  5
835
330
1F
100
AcDbEntity
  8
0
  6
Continuous
100
AcDbSpline
210
0.0
220
0.0
230
1.0
 70
    12
 71
     2
 72
     6
 73
     3
 74
     0
 42
0.0000000001
 43
0.0000000001
 40
1.514783746254633
 40
1.514783746254633
 40
1.514783746254633
 40
2.239141221887732
 40
2.239141221887732
 40
2.239141221887732
 10
1360.86763233777
 20
116.8146754017829
 30
0.0
 41
1.022566673064435
 10
1360.779337807469
 20
114.2615515704305
 30
0.0
 41
1.023509746163593
 10
1360.697916256947
 20
111.8500356620179
 30
0.0
 41
1.020194492483498
  0
SPLINE
  5
836
330
1F
100
AcDbEntity
  8
0
  6
Continuous
100
AcDbSpline
210
0.0
220
0.0
230
1.0
 70
    12
 71
     2
 72
     6
 73
     3
 74
     0
 42
0.0000000001
 43
0.0000000001
 40
1.663833952019072
 40
1.663833952019072
 40
1.663833952019072
 40
1.835624341566276
 40
1.835624341566276
 40
1.835624341566276
 10
1353.128088127851
 20
122.6441904678367
 30
0.0
 41
1.0227744821527
 10
1353.91239228638
 20
122.5435291365083
 30
0.0
 41
1.022790334585893
 10
1354.712626698069
 20
122.4375528456962
 30
0.0
 41
1.022566673064441
  0
SPLINE
  5
837
330
1F
100
AcDbEntity
  8
0
  6
Continuous
100
AcDbSpline
210
0.0
220
0.0
230
1.0
 70
     8
 71
     3
 72
    12
 73
     8
 74
     0
 42
0.0000000001
 43
0.0000000001
 40
5.41938112185682
 40
5.41938112185682
 40
5.41938112185682
 40
5.41938112185682
 40
5.513768865393106
 40
5.513768865393106
 40
5.883384040380871
 40
5.883384040380871
 40
6.160801193909342
 40
6.160801193909342
 40
6.160801193909342
 40
6.160801193909342
 10
1167.430900668883
 20
278.4564958607675
 30
0.0
 10
1167.139111394347
 20
277.6167662548009
 30
0.0
 10
1166.827756444065
 20
276.8008430505556
 30
0.0
 10
1165.196274741548
 20
272.9158969647428
 30
0.0
 10
1163.612912875944
 20
270.2033764154807
 30
0.0
 10
1159.903915978909
 20
266.3500969644451
 30
0.0
 10
1157.952347310438
 20
264.9589842854188
 30
0.0
 10
1155.602199687687
 20
264.2482900916752
 30
0.0
  0
SPLINE
  5
838
330
1F
100
AcDbEntity
  8
0
  6
Continuous
100
AcDbSpline
210
0.0
220
0.0
230
1.0
 70
     8
 71
     3
 72
    12
 73
     8
 74
     0
 42
0.0000000001
 43
0.0000000001
 40
3.263976766860035
 40
3.263976766860035
 40
3.263976766860035
 40
3.263976766860035
 40
3.465415108721715
 40
3.465415108721715
 40
3.750515473580807
 40
3.750515473580807
 40
4.005396838912554
 40
4.005396838912554
 40
4.005396838912554
 40
4.005396838912554
 10
1155.602199687687
 20
336.1268676669228
 30
0.0
 10
1157.308690559775
 20
335.6108178908448
 30
0.0
 10
1158.817678302766
 20
334.7251484858975
 30
0.0
 10
1161.941666426547
 20
332.1472491414865
 30
0.0
 10
1163.384435072816
 20
330.27676211472
 30
0.0
 10
1165.71617281827
 20
326.2791885131842
 30
0.0
 10
1166.642963105206
 20
324.186238390906
 30
0.0
 10
1167.430900668883
 20
321.9186618978196
 30
0.0
  0
LINE
  5
839
330
1F
100
AcDbEntity
  8
0
  6
Continuous
100
AcDbLine
 10
1062.547718426005
 20
334.1875788792945
 30
0.0
 11
1057.340509317442
 21
334.1875788792936
 31
0.0
  0
LINE
  5
83A
330
1F
100
AcDbEntity
  8
0
  6
Continuous
100
AcDbLine
 10
1056.489365216493
 20
319.2925520538415
 30
0.0
 11
1051.28215610793
 21
319.2925520538405
 31
0.0
  0
LINE
  5
83B
330
1F
100
AcDbEntity
  8
0
  6
Continuous
100
AcDbLine
 10
1062.547718426005
 20
266.1875788792944
 30
0.0
 11
1057.340509317442
 21
266.1875788792944
 31
0.0
  0
LINE
  5
83C
330
1F
100
AcDbEntity
  8
0
  6
Continuous
100
AcDbLine
 10
1056.489365216493
 20
281.0826057047556
 30
0.0
 11
1051.28215610793
 21
281.0826057047547
 31
0.0
  0
SPLINE
  5
83D
330
1F
100
AcDbEntity
  8
0
  6
Continuous
100
AcDbSpline
210
0.0
220
0.0
230
1.0
 70
     8
 71
     3
 72
     8
 73
     4
 74
     0
 42
0.0000000001
 43
0.0000000001
 40
-0.1438477443679524
 40
-0.1438477443679524
 40
-0.1438477443679524
 40
-0.1438477443679524
 40
0.0
 40
0.0
 40
0.0
 40
0.0
 10
1056.534150961184
 20
267.1875788792935
 30
0.0
 10
1056.802609106933
 20
266.8543425005741
 30
0.0
 10
1057.071429688053
 20
266.520970559603
 30
0.0
 10
1057.340509317442
 20
266.1875788792944
 30
0.0
  0
SPLINE
  5
83E
330
1F
100
AcDbEntity
  8
0
  6
Continuous
100
AcDbSpline
210
0.0
220
0.0
230
1.0
 70
     8
 71
     3
 72
     8
 73
     4
 74
     0
 42
0.0000000001
 43
0.0000000001
 40
-0.1438477443668809
 40
-0.1438477443668809
 40
-0.1438477443668809
 40
-0.1438477443668809
 40
0.0
 40
0.0
 40
0.0
 40
0.0
 10
1050.775347293365
 20
281.3461351978808
 30
0.0
 10
1050.944234427434
 20
281.2577034448918
 30
0.0
 10
1051.113190265648
 20
281.1698582952871
 30
0.0
 10
1051.28215610793
 20
281.0826057047547
 30
0.0
  0
SPLINE
  5
83F
330
1F
100
AcDbEntity
  8
0
  6
Continuous
100
AcDbSpline
210
0.0
220
0.0
230
1.0
 70
     8
 71
     3
 72
     8
 73
     4
 74
     0
 42
0.0000000001
 43
0.0000000001
 40
-0.143847744367806
 40
-0.143847744367806
 40
-0.143847744367806
 40
-0.143847744367806
 40
0.0
 40
0.0
 40
0.0
 40
0.0
 10
1050.775347293365
 20
319.0290225607145
 30
0.0
 10
1050.944234427434
 20
319.1174543137035
 30
0.0
 10
1051.113190265648
 20
319.2052994633072
 30
0.0
 10
1051.28215610793
 20
319.2925520538405
 30
0.0
  0
SPLINE
  5
840
330
1F
100
AcDbEntity
  8
0
  6
Continuous
100
AcDbSpline
210
0.0
220
0.0
230
1.0
 70
     8
 71
     3
 72
     8
 73
     4
 74
     0
 42
0.0000000001
 43
0.0000000001
 40
-0.1438477443670841
 40
-0.1438477443670841
 40
-0.1438477443670841
 40
-0.1438477443670841
 40
0.0
 40
0.0
 40
0.0
 40
0.0
 10
1056.534150961184
 20
333.1875788792935
 30
0.0
 10
1056.802609106934
 20
333.5208152580148
 30
0.0
 10
1057.071429688054
 20
333.8541871989868
 30
0.0
 10
1057.340509317442
 20
334.1875788792945
 30
0.0
  0
ELLIPSE
  5
841
330
1F
100
AcDbEntity
  8
0
  6
Continuous
100
AcDbEllipse
 10
1065.111201972507
 20
300.187578879289
 30
0.0
 11
-0.0000000000051778
 21
38.99999999999979
 31
0.0
210
0.0
220
0.0
230
1.0
 40
0.4067366430757994
 41
0.511941898983773
 42
1.058854427810424
  0
LINE
  5
842
330
1F
100
AcDbEntity
  8
0
  6
Continuous
100
AcDbLine
 10
1051.28215610793
 20
281.0826057047547
 30
0.0
 11
1051.28215610793
 21
319.2925520538405
 31
0.0
  0
ELLIPSE
  5
843
330
1F
100
AcDbEntity
  8
0
  6
Continuous
100
AcDbEllipse
 10
1065.111201972509
 20
300.187578879289
 30
0.0
 11
-0.0000000000035374
 21
38.99999999999986
 31
0.0
210
0.0
220
0.0
230
1.0
 40
0.4067366430757995
 41
2.08273822577923
 42
2.629650754606167
  0
LINE
  5
844
330
1F
100
AcDbEntity
  8
0
  6
Continuous
100
AcDbLine
 10
1066.689006248455
 20
267.1875788792926
 30
0.0
 11
1063.568450985032
 21
267.1875788792945
 31
0.0
  0
LINE
  5
845
330
1F
100
AcDbEntity
  8
0
  6
Continuous
100
AcDbLine
 10
1062.547718426005
 20
266.1875788792944
 30
0.0
 11
1066.679936580187
 21
266.1875788792917
 31
0.0
  0
ELLIPSE
  5
846
330
1F
100
AcDbEntity
  8
0
  6
Continuous
100
AcDbEllipse
 10
1071.231956538714
 20
300.1875788792899
 30
0.0
 11
-0.0000000000034486
 21
37.99999999999986
 31
0.0
210
0.0
220
0.0
230
1.0
 40
0.4067366430757994
 41
2.089583738358632
 42
2.622805242026778
  0
SPLINE
  5
847
330
1F
100
AcDbEntity
  8
0
  6
Continuous
100
AcDbSpline
210
0.0
220
0.0
230
1.0
 70
     8
 71
     3
 72
     8
 73
     4
 74
     0
 42
0.0000000001
 43
0.0000000001
 40
-0.1438477767740465
 40
-0.1438477767740465
 40
-0.1438477767740465
 40
-0.1438477767740465
 40
0.0
 40
0.0
 40
0.0
 40
0.0
 10
1062.547718426005
 20
266.1875788792944
 30
0.0
 10
1062.887775706938
 20
266.5209705596021
 30
0.0
 10
1063.228055970579
 20
266.8543425005741
 30
0.0
 10
1063.568450985032
 20
267.1875788792945
 30
0.0
  0
ELLIPSE
  5
848
330
1F
100
AcDbEntity
  8
0
  6
Continuous
100
AcDbEllipse
 10
1070.318411081071
 20
300.1875788792899
 30
0.0
 11
0.0000000000051806
 21
-38.99999999999971
 31
0.0
210
0.0
220
0.0
230
1.0
 40
0.4067366430757993
 41
5.224330879368509
 42
5.771243408195108
  0
LINE
  5
849
330
1F
100
AcDbEntity
  8
0
  6
Continuous
100
AcDbLine
 10
1057.809647317211
 20
281.3461351978817
 30
0.0
 11
1057.809647317211
 21
319.0290225607154
 31
0.0
  0
SPLINE
  5
84A
330
1F
100
AcDbEntity
  8
0
  6
Continuous
100
AcDbSpline
210
0.0
220
0.0
230
1.0
 70
     8
 71
     3
 72
     8
 73
     4
 74
     0
 42
0.0000000001
 43
0.0000000001
 40
-0.143847776774024
 40
-0.143847776774024
 40
-0.143847776774024
 40
-0.143847776774024
 40
0.0
 40
0.0
 40
0.0
 40
0.0
 10
1056.489365216493
 20
281.0826057047556
 30
0.0
 10
1056.929536284533
 20
281.169858295289
 30
0.0
 10
1057.36968129108
 20
281.2577034448918
 30
0.0
 10
1057.809647317211
 20
281.3461351978817
 30
0.0
  0
LINE
  5
84B
330
1F
100
AcDbEntity
  8
0
  6
Continuous
100
AcDbLine
 10
1056.489365216493
 20
319.2925520538415
 30
0.0
 11
1056.489365216493
 21
281.0826057047556
 31
0.0
  0
ELLIPSE
  5
84C
330
1F
100
AcDbEntity
  8
0
  6
Continuous
100
AcDbEllipse
 10
1071.231956538714
 20
300.1875788792899
 30
0.0
 11
-0.000000000005046
 21
37.99999999999983
 31
0.0
210
0.0
220
0.0
230
1.0
 40
0.4067366430757995
 41
0.5187874115632152
 42
1.052008915231063
  0
SPLINE
  5
84D
330
1F
100
AcDbEntity
  8
0
  6
Continuous
100
AcDbSpline
210
0.0
220
0.0
230
1.0
 70
     8
 71
     3
 72
     8
 73
     4
 74
     0
 42
0.0000000001
 43
0.0000000001
 40
-0.1438477767740449
 40
-0.1438477767740449
 40
-0.1438477767740449
 40
-0.1438477767740449
 40
0.0
 40
0.0
 40
0.0
 40
0.0
 10
1056.489365216493
 20
319.2925520538415
 30
0.0
 10
1056.929536284532
 20
319.205299463309
 30
0.0
 10
1057.36968129108
 20
319.1174543137044
 30
0.0
 10
1057.809647317211
 20
319.0290225607154
 30
0.0
  0
ELLIPSE
  5
84E
330
1F
100
AcDbEntity
  8
0
  6
Continuous
100
AcDbEllipse
 10
1070.318411081071
 20
300.1875788792899
 30
0.0
 11
0.000000000006814
 21
-38.99999999999973
 31
0.0
210
0.0
220
0.0
230
1.0
 40
0.4067366430757993
 41
3.653534552572725
 42
4.200447081399698
  0
LINE
  5
84F
330
1F
100
AcDbEntity
  8
0
  6
Continuous
100
AcDbLine
 10
1063.568450985032
 20
333.1875788792945
 30
0.0
 11
1066.689006248455
 21
333.1875788792927
 31
0.0
  0
SPLINE
  5
850
330
1F
100
AcDbEntity
  8
0
  6
Continuous
100
AcDbSpline
210
0.0
220
0.0
230
1.0
 70
     8
 71
     3
 72
     8
 73
     4
 74
     0
 42
0.0000000001
 43
0.0000000001
 40
-0.143847776773823
 40
-0.143847776773823
 40
-0.143847776773823
 40
-0.143847776773823
 40
0.0
 40
0.0
 40
0.0
 40
0.0
 10
1062.547718426005
 20
334.1875788792945
 30
0.0
 10
1062.887775706939
 20
333.854187198986
 30
0.0
 10
1063.228055970579
 20
333.5208152580148
 30
0.0
 10
1063.568450985032
 20
333.1875788792945
 30
0.0
  0
LINE
  5
851
330
1F
100
AcDbEntity
  8
0
  6
Continuous
100
AcDbLine
 10
1066.679936580187
 20
334.1875788792918
 30
0.0
 11
1062.547718426005
 21
334.1875788792945
 31
0.0
  0
LINE
  5
852
330
1F
100
AcDbEntity
  8
0
  6
Continuous
100
AcDbLine
 10
1056.594038270485
 20
251.2759958200235
 30
0.0
 11
1056.594038270485
 21
266.1875788792863
 31
0.0
  0
LINE
  5
853
330
1F
100
AcDbEntity
  8
0
  6
Continuous
100
AcDbLine
 10
1034.894038270485
 20
251.2759958200235
 30
0.0
 11
1034.894038270485
 21
266.1875788792863
 31
0.0
  0
LINE
  5
854
330
1F
100
AcDbEntity
  8
0
  6
Continuous
100
AcDbLine
 10
1034.894038270485
 20
251.2759958200235
 30
0.0
 11
1028.744038270486
 21
249.0375788792857
 31
0.0
  0
LINE
  5
855
330
1F
100
AcDbEntity
  8
0
  6
Continuous
100
AcDbLine
 10
1056.594038270485
 20
251.2759958200235
 30
0.0
 11
1062.744038270485
 21
249.0375788792857
 31
0.0
  0
LINE
  5
856
330
1F
100
AcDbEntity
  8
0
  6
Continuous
100
AcDbLine
 10
1062.744038270485
 20
246.1875788792871
 30
0.0
 11
1062.744038270485
 21
249.0375788792857
 31
0.0
  0
LINE
  5
857
330
1F
100
AcDbEntity
  8
0
  6
Continuous
100
AcDbLine
 10
1028.744038270486
 20
246.1875788792871
 30
0.0
 11
1028.744038270486
 21
249.0375788792857
 31
0.0
  0
LINE
  5
858
330
1F
100
AcDbEntity
  8
0
  6
Continuous
100
AcDbLine
 10
1056.594038270484
 20
251.2759958200235
 30
0.0
 11
1034.894038270485
 21
251.2759958200235
 31
0.0
  0
LINE
  5
859
330
1F
100
AcDbEntity
  8
0
  6
Continuous
100
AcDbLine
 10
1062.744038270485
 20
249.0375788792857
 30
0.0
 11
1028.744038270486
 21
249.0375788792857
 31
0.0
  0
LINE
  5
85A
330
1F
100
AcDbEntity
  8
0
  6
Continuous
100
AcDbLine
 10
1062.744038270485
 20
246.1875788792871
 30
0.0
 11
1028.744038270486
 21
246.1875788792871
 31
0.0
  0
LINE
  5
85B
330
1F
100
AcDbEntity
  8
0
  6
Continuous
100
AcDbLine
 10
1056.594038270485
 20
334.1875788792863
 30
0.0
 11
1056.594038270485
 21
349.099161938549
 31
0.0
  0
LINE
  5
85C
330
1F
100
AcDbEntity
  8
0
  6
Continuous
100
AcDbLine
 10
1034.894038270485
 20
334.1875788792863
 30
0.0
 11
1034.894038270485
 21
349.099161938549
 31
0.0
  0
LINE
  5
85D
330
1F
100
AcDbEntity
  8
0
  6
Continuous
100
AcDbLine
 10
1056.594038270485
 20
349.099161938549
 30
0.0
 11
1062.744038270485
 21
351.3375788792859
 31
0.0
  0
LINE
  5
85E
330
1F
100
AcDbEntity
  8
0
  6
Continuous
100
AcDbLine
 10
1034.894038270485
 20
349.099161938549
 30
0.0
 11
1028.744038270486
 21
351.3375788792859
 31
0.0
  0
LINE
  5
85F
330
1F
100
AcDbEntity
  8
0
  6
Continuous
100
AcDbLine
 10
1062.744038270485
 20
351.3375788792859
 30
0.0
 11
1062.744038270485
 21
354.1875788792863
 31
0.0
  0
LINE
  5
860
330
1F
100
AcDbEntity
  8
0
  6
Continuous
100
AcDbLine
 10
1028.744038270486
 20
351.3375788792859
 30
0.0
 11
1028.744038270486
 21
354.1875788792863
 31
0.0
  0
LINE
  5
861
330
1F
100
AcDbEntity
  8
0
  6
Continuous
100
AcDbLine
 10
1056.594038270484
 20
349.099161938549
 30
0.0
 11
1034.894038270485
 21
349.099161938549
 31
0.0
  0
LINE
  5
862
330
1F
100
AcDbEntity
  8
0
  6
Continuous
100
AcDbLine
 10
1062.744038270485
 20
351.3375788792859
 30
0.0
 11
1028.744038270486
 21
351.3375788792859
 31
0.0
  0
LINE
  5
863
330
1F
100
AcDbEntity
  8
0
  6
Continuous
100
AcDbLine
 10
1062.744038270485
 20
354.1875788792863
 30
0.0
 11
1028.744038270486
 21
354.1875788792863
 31
0.0
  0
LINE
  5
864
330
1F
100
AcDbEntity
  8
0
  6
Continuous
100
AcDbLine
 10
1031.931900298988
 20
313.0516804944241
 30
0.0
 11
1031.931900298988
 21
334.1875788792863
 31
0.0
  0
SPLINE
  5
865
330
1F
100
AcDbEntity
  8
0
  6
Continuous
100
AcDbSpline
210
0.0
220
0.0
230
1.0
 70
     8
 71
     3
 72
    16
 73
    12
 74
     0
 42
0.0000000001
 43
0.0000000001
 40
-1.047197551196596
 40
-1.047197551196596
 40
-1.047197551196596
 40
-1.047197551196596
 40
-0.8377580409572775
 40
-0.8377580409572775
 40
-0.6283185307179582
 40
-0.6283185307179582
 40
-0.4188790204786388
 40
-0.4188790204786388
 40
-0.2094395102393194
 40
-0.2094395102393194
 40
0.0
 40
0.0
 40
0.0
 40
0.0
 10
1034.173440083513
 20
308.0975433844491
 30
0.0
 10
1033.85591068764
 20
308.3478328535543
 30
0.0
 10
1033.575821608765
 20
308.6290156996615
 30
0.0
 10
1033.0875938149
 20
309.2291924997821
 30
0.0
 10
1032.879187975464
 20
309.5482960898193
 30
0.0
 10
1032.527233756469
 20
310.2096659542917
 30
0.0
 10
1032.383609152317
 20
310.5520593258747
 30
0.0
 10
1032.155795025137
 20
311.2506403458705
 30
0.0
 10
1032.071604442849
 20
311.6069001409873
 30
0.0
 10
1031.959652030909
 20
312.3259817899993
 30
0.0
 10
1031.931900298988
 20
312.6888360437856
 30
0.0
 10
1031.931900298988
 20
313.0516804944241
 30
0.0
  0
LINE
  5
866
330
1F
100
AcDbEntity
  8
0
  6
Continuous
100
AcDbLine
 10
1034.173440083513
 20
308.0975433844491
 30
0.0
 11
1037.309281706488
 21
305.6257466147258
 31
0.0
  0
SPLINE
  5
867
330
1F
100
AcDbEntity
  8
0
  6
Continuous
100
AcDbSpline
210
0.0
220
0.0
230
1.0
 70
     8
 71
     3
 72
    14
 73
    10
 74
     0
 42
0.0000000001
 43
0.0000000001
 40
0.1506820946897949
 40
0.1506820946897949
 40
0.1506820946897949
 40
0.1506820946897949
 40
0.3131786707381533
 40
0.3131786707381533
 40
0.5645955144234927
 40
0.5645955144234927
 40
0.8288561812678505
 40
0.8288561812678505
 40
1.047197551196597
 40
1.047197551196597
 40
1.047197551196597
 40
1.047197551196597
 10
1039.406065158577
 20
299.1681777807521
 30
0.0
 10
1039.365702556907
 20
298.8057688889098
 30
0.0
 10
1039.304087315445
 20
298.4498357353754
 30
0.0
 10
1039.097068705989
 20
297.5770580539333
 30
0.0
 10
1038.924247215226
 20
297.0789984472298
 30
0.0
 10
1038.501213081371
 20
296.1671194009636
 30
0.0
 10
1038.247637105399
 20
295.7594543221444
 30
0.0
 10
1037.760865439442
 20
295.1502684998217
 30
0.0
 10
1037.532253245859
 20
294.9251662989331
 30
0.0
 10
1037.309281706488
 20
294.7494111438505
 30
0.0
  0
SPLINE
  5
868
330
1F
100
AcDbEntity
  8
0
  6
Continuous
100
AcDbSpline
210
0.0
220
0.0
230
1.0
 70
     8
 71
     3
 72
    14
 73
    10
 74
     0
 42
0.0000000001
 43
0.0000000001
 40
-1.047197551196597
 40
-1.047197551196597
 40
-1.047197551196597
 40
-1.047197551196597
 40
-0.713907442200469
 40
-0.713907442200469
 40
-0.4373149372040644
 40
-0.4373149372040644
 40
-0.1805657251432189
 40
-0.1805657251432189
 40
-0.1507759968144754
 40
-0.1507759968144754
 40
-0.1507759968144754
 40
-0.1507759968144754
 10
1037.309281706488
 20
305.6257466147258
 30
0.0
 10
1037.649639599656
 20
305.3574628038609
 30
0.0
 10
1038.003382231206
 20
304.9718012422558
 30
0.0
 10
1038.582185458397
 20
304.0596666439546
 30
0.0
 10
1038.818073151209
 20
303.569922929249
 30
0.0
 10
1039.176373051845
 20
302.5235652559399
 30
0.0
 10
1039.305746067383
 20
301.974753190811
 30
0.0
 10
1039.39058121836
 20
301.3402940792498
 30
0.0
 10
1039.398683440458
 20
301.2740712658719
 30
0.0
 10
1039.406065158577
 20
301.2076297430917
 30
0.0
  0
LINE
  5
869
330
1F
100
AcDbEntity
  8
0
  6
Continuous
100
AcDbLine
 10
1037.309281706488
 20
294.7494111438505
 30
0.0
 11
1034.173440083513
 21
292.2776143741243
 31
0.0
  0
SPLINE
  5
86A
330
1F
100
AcDbEntity
  8
0
  6
Continuous
100
AcDbSpline
210
0.0
220
0.0
230
1.0
 70
     8
 71
     3
 72
    16
 73
    12
 74
     0
 42
0.0000000001
 43
0.0000000001
 40
0.0
 40
0.0
 40
0.0
 40
0.0
 40
0.2094395102393195
 40
0.2094395102393195
 40
0.418879020478639
 40
0.418879020478639
 40
0.6283185307179585
 40
0.6283185307179585
 40
0.8377580409572779
 40
0.8377580409572779
 40
1.047197551196597
 40
1.047197551196597
 40
1.047197551196597
 40
1.047197551196597
 10
1031.931900298988
 20
287.3234772641494
 30
0.0
 10
1031.931900298988
 20
287.6863217147879
 30
0.0
 10
1031.959652030909
 20
288.0491759685742
 30
0.0
 10
1032.071604442849
 20
288.7682576175862
 30
0.0
 10
1032.155795025137
 20
289.1245174127029
 30
0.0
 10
1032.383609152317
 20
289.8230984326987
 30
0.0
 10
1032.527233756469
 20
290.1654918042818
 30
0.0
 10
1032.879187975464
 20
290.8268616687541
 30
0.0
 10
1033.0875938149
 20
291.1459652587914
 30
0.0
 10
1033.575821608765
 20
291.746142058912
 30
0.0
 10
1033.85591068764
 20
292.0273249050201
 30
0.0
 10
1034.173440083513
 20
292.2776143741243
 30
0.0
  0
LINE
  5
86B
330
1F
100
AcDbEntity
  8
0
  6
Continuous
100
AcDbLine
 10
1031.931900298988
 20
266.1875788792872
 30
0.0
 11
1031.931900298988
 21
287.3234772641494
 31
0.0
  0
LINE
  5
86C
330
1F
100
AcDbEntity
  8
0
  6
Continuous
100
AcDbLine
 10
1031.931900298988
 20
334.1875788792863
 30
0.0
 11
1032.702465822556
 21
334.1875788792872
 31
0.0
  0
LINE
  5
86D
330
1F
100
AcDbEntity
  8
0
  6
Continuous
100
AcDbLine
 10
1032.702465822556
 20
266.1875788792881
 30
0.0
 11
1031.931900298988
 21
266.1875788792872
 31
0.0
  0
LINE
  5
86E
330
1F
100
AcDbEntity
  8
0
  6
Continuous
100
AcDbLine
 10
1032.702465822556
 20
266.1875788792881
 30
0.0
 11
1038.526604688262
 21
266.187578879289
 31
0.0
  0
LINE
  5
86F
330
1F
100
AcDbEntity
  8
0
  6
Continuous
100
AcDbLine
 10
1038.526604688262
 20
334.187578879289
 30
0.0
 11
1032.702465822556
 21
334.1875788792872
 31
0.0
  0
LINE
  5
870
330
1F
100
AcDbEntity
  8
0
  6
Continuous
100
AcDbLine
 10
1037.509267592291
 20
275.3683753693235
 30
0.0
 11
1040.999115708033
 21
275.3683753693244
 31
0.0
  0
LINE
  5
871
330
1F
100
AcDbEntity
  8
0
  6
Continuous
100
AcDbLine
 10
1037.509267592291
 20
283.8683753693244
 30
0.0
 11
1039.406065158577
 21
283.8683753693244
 31
0.0
  0
LINE
  5
872
330
1F
100
AcDbEntity
  8
0
  6
Continuous
100
AcDbLine
 10
1040.999115708033
 20
325.0067823892627
 30
0.0
 11
1037.509267592291
 21
325.0067823892618
 31
0.0
  0
LINE
  5
873
330
1F
100
AcDbEntity
  8
0
  6
Continuous
100
AcDbLine
 10
1039.406065158577
 20
316.5067823892627
 30
0.0
 11
1037.509267592291
 21
316.5067823892618
 31
0.0
  0
ELLIPSE
  5
874
330
1F
100
AcDbEntity
  8
0
  6
Continuous
100
AcDbEllipse
 10
1037.509267592291
 20
279.6183753693235
 30
0.0
 11
0.0000000000000004
 21
-4.249999999999978
 31
0.0
210
0.0
220
0.0
230
1.0
 40
0.4067366430757994
 41
3.141592653593082
 42
6.283185307182876
  0
ELLIPSE
  5
875
330
1F
100
AcDbEntity
  8
0
  6
Continuous
100
AcDbEllipse
 10
1037.509267592291
 20
320.7567823892627
 30
0.0
 11
0.0000000000000069
 21
4.249999999999978
 31
0.0
210
0.0
220
0.0
230
1.0
 40
0.4067366430757994
 41
0.0000000000033148
 42
3.141592653593107
  0
LINE
  5
876
330
1F
100
AcDbEntity
  8
0
  6
Continuous
100
AcDbLine
 10
1038.526604688262
 20
325.0067823892591
 30
0.0
 11
1038.526604688262
 21
334.187578879289
 31
0.0
  0
LINE
  5
877
330
1F
100
AcDbEntity
  8
0
  6
Continuous
100
AcDbLine
 10
1038.526604688262
 20
334.187578879289
 30
0.0
 11
1045.464418368088
 21
334.1875788792899
 31
0.0
  0
LINE
  5
878
330
1F
100
AcDbEntity
  8
0
  6
Continuous
100
AcDbLine
 10
1045.464418368088
 20
266.1875788792908
 30
0.0
 11
1038.526604688262
 21
266.187578879289
 31
0.0
  0
LINE
  5
879
330
1F
100
AcDbEntity
  8
0
  6
Continuous
100
AcDbLine
 10
1038.526604688262
 20
266.187578879289
 30
0.0
 11
1038.526604688262
 21
275.3683753693207
 31
0.0
  0
LINE
  5
87A
330
1F
100
AcDbEntity
  8
0
  6
Continuous
100
AcDbLine
 10
1050.368610650289
 20
319.2925520538405
 30
0.0
 11
1039.406065158577
 21
319.2925520538388
 31
0.0
  0
LINE
  5
87B
330
1F
100
AcDbEntity
  8
0
  6
Continuous
100
AcDbLine
 10
1050.368610650289
 20
281.0826057047547
 30
0.0
 11
1039.406065158577
 21
281.0826057047538
 31
0.0
  0
ELLIPSE
  5
87C
330
1F
100
AcDbEntity
  8
0
  6
Continuous
100
AcDbEllipse
 10
1064.197656514866
 20
300.187578879289
 30
0.0
 11
0.0000000000066461
 21
-37.99999999999982
 31
0.0
210
0.0
220
0.0
230
1.0
 40
0.4067366430757994
 41
3.66038006515216
 42
4.193601568820305
  0
LINE
  5
87D
330
1F
100
AcDbEntity
  8
0
  6
Continuous
100
AcDbLine
 10
1050.775347293365
 20
319.0290225607145
 30
0.0
 11
1050.775347293365
 21
281.3461351978808
 31
0.0
  0
ELLIPSE
  5
87E
330
1F
100
AcDbEntity
  8
0
  6
Continuous
100
AcDbEllipse
 10
1064.197656514866
 20
300.187578879289
 30
0.0
 11
0.0000000000050446
 21
-37.99999999999986
 31
0.0
210
0.0
220
0.0
230
1.0
 40
0.4067366430757994
 41
5.231176391947914
 42
5.764397895615712
  0
ELLIPSE
  5
87F
330
1F
100
AcDbEntity
  8
0
  6
Continuous
100
AcDbEllipse
 10
1064.197656514866
 20
300.187578879289
 30
0.0
 11
-0.0000000000051764
 21
38.99999999999982
 31
0.0
210
0.0
220
0.0
230
1.0
 40
0.4067366430757995
 41
0.5119418989837748
 42
1.058854427810446
  0
ELLIPSE
  5
880
330
1F
100
AcDbEntity
  8
0
  6
Continuous
100
AcDbEllipse
 10
1064.197656514866
 20
300.187578879289
 30
0.0
 11
-0.0000000000035361
 21
38.99999999999984
 31
0.0
210
0.0
220
0.0
230
1.0
 40
0.4067366430757994
 41
2.08273822577923
 42
2.629650754606167
  0
LINE
  5
881
330
1F
100
AcDbEntity
  8
0
  6
Continuous
100
AcDbLine
 10
1050.368610650289
 20
281.0826057047547
 30
0.0
 11
1050.368610650289
 21
319.2925520538405
 31
0.0
  0
LINE
  5
882
330
1F
100
AcDbEntity
  8
0
  6
Continuous
100
AcDbLine
 10
1056.426963859799
 20
334.1875788792936
 30
0.0
 11
1057.340509317442
 21
334.1875788792926
 31
0.0
  0
LINE
  5
883
330
1F
100
AcDbEntity
  8
0
  6
Continuous
100
AcDbLine
 10
1056.426963859799
 20
334.1875788792936
 30
0.0
 11
1045.464418368088
 21
334.1875788792918
 31
0.0
  0
LINE
  5
884
330
1F
100
AcDbEntity
  8
0
  6
Continuous
100
AcDbLine
 10
1056.426963859799
 20
266.1875788792944
 30
0.0
 11
1045.464418368088
 21
266.1875788792926
 31
0.0
  0
LINE
  5
885
330
1F
100
AcDbEntity
  8
0
  6
Continuous
100
AcDbLine
 10
1057.340509317442
 20
266.1875788792936
 30
0.0
 11
1056.426963859799
 21
266.1875788792944
 31
0.0
  0
ELLIPSE
  5
886
330
1F
100
AcDbEntity
  8
0
  6
Continuous
100
AcDbEllipse
 10
1053.235111023155
 20
300.1875788792872
 30
0.0
 11
0.0000000000068223
 21
-38.99999999999981
 31
0.0
210
0.0
220
0.0
230
1.0
 40
0.4067366430757994
 41
3.653534552572724
 42
4.200447081399707
  0
LINE
  5
887
330
1F
100
AcDbEntity
  8
0
  6
Continuous
100
AcDbLine
 10
1039.406065158577
 20
319.2925520538388
 30
0.0
 11
1039.406065158577
 21
281.0826057047538
 31
0.0
  0
ELLIPSE
  5
888
330
1F
100
AcDbEntity
  8
0
  6
Continuous
100
AcDbEllipse
 10
1053.235111023155
 20
300.1875788792872
 30
0.0
 11
0.0000000000051778
 21
-38.99999999999986
 31
0.0
210
0.0
220
0.0
230
1.0
 40
0.4067366430757994
 41
5.224330879368536
 42
5.771243408195117
  0
ELLIPSE
  5
889
330
1F
100
AcDbEntity
  8
0
  6
Continuous
100
AcDbEllipse
 10
1054.977805182488
 20
318.8466249427997
 30
0.0
 11
-16.45120049422628
 21
-0.0000000000053894
 31
0.0
210
0.0
220
0.0
230
1.0
 40
0.6078583750474356
 41
0.236173690126664
 42
0.3284568659934535
  0
ELLIPSE
  5
88A
330
1F
100
AcDbEntity
  8
0
  6
Continuous
100
AcDbEllipse
 10
1054.977805182488
 20
281.5285328157902
 30
0.0
 11
-16.45120049422628
 21
-0.0000000000053894
 31
0.0
210
0.0
220
0.0
230
1.0
 40
0.6078583750474356
 41
5.95472844118816
 42
6.047011617054969
  0
LINE
  5
88B
330
1F
100
AcDbEntity
  8
0
  6
Continuous
100
AcDbLine
 10
1186.32897457769
 20
305.5600802557596
 30
0.0
 11
1185.230292622522
 21
306.9032055998736
 31
0.0
  0
LINE
  5
88C
330
1F
100
AcDbEntity
  8
0
  6
Continuous
100
AcDbLine
 10
1186.32897457769
 20
294.8150775028475
 30
0.0
 11
1185.230292622522
 21
293.4719521587335
 31
0.0
  0
ELLIPSE
  5
88D
330
1F
100
AcDbEntity
  8
0
  6
Continuous
100
AcDbEllipse
 10
1183.872111466045
 20
300.1875788793045
 30
0.0
 11
-0.0000000000009959
 21
7.499999999999962
 31
0.0
210
0.0
220
0.0
230
1.0
 40
0.4067366430757994
 41
5.821755667209547
 42
9.886207600738789
  0
ELLIPSE
  5
88E
330
1F
100
AcDbEntity
  8
0
  6
Continuous
100
AcDbEllipse
 10
1185.242429652509
 20
300.1875788793045
 30
0.0
 11
-0.0000000000000005
 21
5.999999999999971
 31
0.0
210
0.0
220
0.0
230
1.0
 40
0.4067366430757994
 41
0.0
 42
6.283185307179585
  0
LINE
  5
88F
330
1F
100
AcDbEntity
  8
0
  6
Continuous
100
AcDbLine
 10
1162.403793211446
 20
325.1875788793018
 30
0.0
 11
1157.836065923233
 21
325.1875788793008
 31
0.0
  0
LINE
  5
890
330
1F
100
AcDbEntity
  8
0
  6
Continuous
100
AcDbLine
 10
1162.403793211446
 20
275.1875788793018
 30
0.0
 11
1157.836065923233
 21
275.1875788793008
 31
0.0
  0
LINE
  5
891
330
1F
100
AcDbEntity
  8
0
  6
Continuous
100
AcDbLine
 10
1155.602199687687
 20
336.1268676669228
 30
0.0
 11
1131.676102898061
 21
343.362216588292
 31
0.0
  0
LINE
  5
892
330
1F
100
AcDbEntity
  8
0
  6
Continuous
100
AcDbLine
 10
1155.602199687687
 20
264.2482900916752
 30
0.0
 11
1131.676102898061
 21
257.0129411702996
 31
0.0
  0
LINE
  5
893
330
1F
100
AcDbEntity
  8
0
  6
Continuous
100
AcDbLine
 10
1183.872111466045
 20
307.6875788793036
 30
0.0
 11
1162.403793211444
 21
307.6875788793008
 31
0.0
  0
LINE
  5
894
330
1F
100
AcDbEntity
  8
0
  6
Continuous
100
AcDbLine
 10
1183.872111466045
 20
292.6875788793044
 30
0.0
 11
1162.403793211444
 21
292.6875788793017
 31
0.0
  0
LINE
  5
895
330
1F
100
AcDbEntity
  8
0
  6
Continuous
100
AcDbLine
 10
1129.516156736312
 20
343.6875788792972
 30
0.0
 11
1082.925338396538
 21
343.6875788792908
 31
0.0
  0
LINE
  5
896
330
1F
100
AcDbEntity
  8
0
  6
Continuous
100
AcDbLine
 10
1129.516156736312
 20
256.6875788792972
 30
0.0
 11
1082.925338396538
 21
256.6875788792917
 31
0.0
  0
ELLIPSE
  5
897
330
1F
100
AcDbEntity
  8
0
  6
Continuous
100
AcDbEllipse
 10
1071.231956538714
 20
300.1875788792899
 30
0.0
 11
-0.0000000000021774
 21
23.9999999999999
 31
0.0
210
0.0
220
0.0
230
1.0
 40
0.4067366430757994
 41
0.46982373153529
 42
2.671768922055731
  0
ELLIPSE
  5
898
330
1F
100
AcDbEntity
  8
0
  6
Continuous
100
AcDbEllipse
 10
1162.403793211444
 20
300.1875788793018
 30
0.0
 11
0.0000000000033196
 21
-24.99999999999989
 31
0.0
210
0.0
220
0.0
230
1.0
 40
0.4067366430757994
 41
1.875488980809938
 42
7.549288979958747
  0
ELLIPSE
  5
899
330
1F
100
AcDbEntity
  8
0
  6
Continuous
100
AcDbEllipse
 10
1157.836065923233
 20
300.1875788793008
 30
0.0
 11
0.0000000000000079
 21
-24.99999999999989
 31
0.0
210
0.0
220
0.0
230
1.0
 40
0.4067366430757994
 41
3.141592653593042
 42
6.283185307182905
  0
ELLIPSE
  5
89A
330
1F
100
AcDbEntity
  8
0
  6
Continuous
100
AcDbEllipse
 10
1162.403793211444
 20
300.1875788793018
 30
0.0
 11
0.000000000000008
 21
-7.499999999999968
 31
0.0
210
0.0
220
0.0
230
1.0
 40
0.4067366430757994
 41
3.141592653593054
 42
6.283185307182847
  0
ELLIPSE
  5
89B
330
1F
100
AcDbEntity
  8
0
  6
Continuous
100
AcDbEllipse
 10
1082.925338396538
 20
300.1875788792908
 30
0.0
 11
-0.0000000000000137
 21
-43.49999999999993
 31
0.0
210
0.0
220
0.0
230
1.0
 40
0.4067366430757995
 41
5.875867811440546
 42
6.283185307182884
  0
ELLIPSE
  5
89C
330
1F
100
AcDbEntity
  8
0
  6
Continuous
100
AcDbEllipse
 10
1082.925338396538
 20
300.1875788792908
 30
0.0
 11
-0.0000000000039468
 21
43.49999999999983
 31
0.0
210
0.0
220
0.0
230
1.0
 40
0.4067366430757993
 41
1.140235585029444
 42
2.001357068559975
  0
ELLIPSE
  5
89D
330
1F
100
AcDbEntity
  8
0
  6
Continuous
100
AcDbEllipse
 10
1082.925338396538
 20
300.1875788792908
 30
0.0
 11
-0.0000000000057745
 21
43.49999999999965
 31
0.0
210
0.0
220
0.0
230
1.0
 40
0.4067366430757994
 41
0.0
 42
0.407317495741725
  0
ELLIPSE
  5
89E
330
1F
100
AcDbEntity
  8
0
  6
Continuous
100
AcDbEllipse
 10
1129.516156736312
 20
300.1875788792972
 30
0.0
 11
0.0000000000057752
 21
-43.49999999999981
 31
0.0
210
0.0
220
0.0
230
1.0
 40
0.4067366430757995
 41
3.019208540319247
 42
6.405569420449518
  0
LINE
  5
89F
330
1F
100
AcDbEntity
  8
0
  6
Continuous
100
AcDbLine
 10
1069.120238949693
 20
260.2464533823463
 30
0.0
 11
1093.651798996575
 21
260.246453382349
 31
0.0
  0
LINE
  5
8A0
330
1F
100
AcDbEntity
  8
0
  6
Continuous
100
AcDbLine
 10
1069.120238949693
 20
340.1287043762545
 30
0.0
 11
1093.651798996575
 21
340.1287043762572
 31
0.0
  0
ELLIPSE
  5
8A1
330
1F
100
AcDbEntity
  8
0
  6
Continuous
100
AcDbEllipse
 10
1069.120238949693
 20
266.2464533823463
 30
0.0
 11
0.0000000000000041
 21
-5.999999999999978
 31
0.0
210
0.0
220
0.0
230
1.0
 40
0.4067366430757994
 41
4.686209041606133
 42
6.283185307182969
  0
LINE
  5
8A2
330
1F
100
AcDbEntity
  8
0
  6
Continuous
100
AcDbLine
 10
1066.847105815623
 20
318.343627667949
 30
0.0
 11
1066.680655362173
 21
333.9716426864083
 31
0.0
  0
LINE
  5
8A3
330
1F
100
AcDbEntity
  8
0
  6
Continuous
100
AcDbLine
 10
1096.080560460186
 20
318.3436276679526
 30
0.0
 11
1066.847105815623
 21
318.343627667949
 31
0.0
  0
ELLIPSE
  5
8A4
330
1F
100
AcDbEntity
  8
0
  6
Continuous
100
AcDbEllipse
 10
1069.120238949693
 20
334.1287043762545
 30
0.0
 11
-0.0000000000007963
 21
5.999999999999983
 31
0.0
210
0.0
220
0.0
230
1.0
 40
0.4067366430757994
 41
0.0
 42
1.596976265574466
  0
LINE
  5
8A5
330
1F
100
AcDbEntity
  8
0
  6
Continuous
100
AcDbLine
 10
1066.680655362173
 20
266.4035150721951
 30
0.0
 11
1066.847105815623
 21
282.0315300906545
 31
0.0
  0
LINE
  5
8A6
330
1F
100
AcDbEntity
  8
0
  6
Continuous
100
AcDbLine
 10
1066.847105815623
 20
282.0315300906545
 30
0.0
 11
1096.080560460186
 21
282.0315300906591
 31
0.0
  0
SPLINE
  5
8A7
330
1F
100
AcDbEntity
  8
0
  6
Continuous
100
AcDbSpline
210
0.0
220
0.0
230
1.0
 70
     8
 71
     3
 72
    14
 73
    10
 74
     0
 42
0.0000000001
 43
0.0000000001
 40
0.5726902718777073
 40
0.5726902718777073
 40
0.5726902718777073
 40
0.5726902718777073
 40
0.8021249198358477
 40
0.8021249198358477
 40
1.054931495837559
 40
1.054931495837559
 40
1.307738071839271
 40
1.307738071839271
 40
1.537172719797414
 40
1.537172719797414
 40
1.537172719797414
 40
1.537172719797414
 10
1091.26661421235
 20
266.4035150721979
 30
0.0
 10
1091.005478311035
 20
265.6817996410413
 30
0.0
 10
1090.829940375801
 20
264.9017395091382
 30
0.0
 10
1090.736326778833
 20
263.3559060457496
 30
0.0
 10
1090.847618651969
 20
262.599683509296
 30
0.0
 10
1091.332343641208
 20
261.4079418811666
 30
0.0
 10
1091.727864756299
 20
260.9181173823803
 30
0.0
 10
1092.682622854261
 20
260.3467467146588
 30
0.0
 10
1093.223083359145
 20
260.2296106488206
 30
0.0
 10
1093.770080544356
 20
260.2485094324961
 30
0.0
  0
SPLINE
  5
8A8
330
1F
100
AcDbEntity
  8
0
  6
Continuous
100
AcDbSpline
210
0.0
220
0.0
230
1.0
 70
    12
 71
     2
 72
     6
 73
     3
 74
     0
 42
0.0000000001
 43
0.0000000001
 40
1.51478374625463
 40
1.51478374625463
 40
1.51478374625463
 40
3.350408087820908
 40
3.350408087820908
 40
3.350408087820908
 10
1091.26661421235
 20
266.4035150721979
 30
0.0
 41
1.022566673064431
 10
1094.353950356208
 20
274.9361531543641
 30
0.0
 41
1.024956553744791
 10
1096.080560460186
 20
282.0315300906591
 30
0.0
 41
1.0
  0
ELLIPSE
  5
8A9
330
1F
100
AcDbEntity
  8
0
  6
Continuous
100
AcDbEllipse
 10
1112.158793041102
 20
300.1875788792945
 30
0.0
 11
0.0000000000057718
 21
-43.49999999999979
 31
0.0
210
0.0
220
0.0
230
1.0
 40
0.4067366430757994
 41
5.142949722149632
 42
5.852624565413975
  0
SPLINE
  5
8AA
330
1F
100
AcDbEntity
  8
0
  6
Continuous
100
AcDbSpline
210
0.0
220
0.0
230
1.0
 70
    12
 71
     2
 72
     6
 73
     3
 74
     0
 42
0.0000000001
 43
0.0000000001
 40
0.0
 40
0.0
 40
0.0
 40
1.835624341566264
 40
1.835624341566264
 40
1.835624341566264
 10
1104.774062705288
 20
260.6577434080477
 30
0.0
 41
1.0
 10
1100.237074059906
 20
260.4719444240922
 30
0.0
 41
1.024956553744784
 10
1093.770080544356
 20
260.2485094324961
 30
0.0
 41
1.022566673064424
  0
SPLINE
  5
8AB
330
1F
100
AcDbEntity
  8
0
  6
Continuous
100
AcDbSpline
210
0.0
220
0.0
230
1.0
 70
     8
 71
     3
 72
    14
 73
    10
 74
     0
 42
0.0000000001
 43
0.0000000001
 40
0.5726902718777068
 40
0.5726902718777068
 40
0.5726902718777068
 40
0.5726902718777068
 40
0.8021249198358471
 40
0.8021249198358471
 40
1.054931495837559
 40
1.054931495837559
 40
1.307738071839271
 40
1.307738071839271
 40
1.537172719797414
 40
1.537172719797414
 40
1.537172719797414
 40
1.537172719797414
 10
1093.770080544355
 20
340.126648326111
 30
0.0
 10
1093.223083359144
 20
340.1455471097865
 30
0.0
 10
1092.682622854261
 20
340.0284110439483
 30
0.0
 10
1091.727864756299
 20
339.4570403762277
 30
0.0
 10
1091.332343641208
 20
338.9672158774424
 30
0.0
 10
1090.847618651969
 20
337.775474249313
 30
0.0
 10
1090.736326778833
 20
337.0192517128602
 30
0.0
 10
1090.829940375801
 20
335.4734182494726
 30
0.0
 10
1091.005478311035
 20
334.6933581175694
 30
0.0
 10
1091.26661421235
 20
333.971642686412
 30
0.0
  0
SPLINE
  5
8AC
330
1F
100
AcDbEntity
  8
0
  6
Continuous
100
AcDbSpline
210
0.0
220
0.0
230
1.0
 70
    12
 71
     2
 72
     6
 73
     3
 74
     0
 42
0.0000000001
 43
0.0000000001
 40
1.514783746254633
 40
1.514783746254633
 40
1.514783746254633
 40
3.350408087820909
 40
3.350408087820909
 40
3.350408087820909
 10
1093.770080544355
 20
340.126648326111
 30
0.0
 41
1.022566673064435
 10
1100.237074059906
 20
339.9032133345112
 30
0.0
 41
1.024956553744796
 10
1104.774062705288
 20
339.7174143505521
 30
0.0
 41
1.0
  0
ELLIPSE
  5
8AD
330
1F
100
AcDbEntity
  8
0
  6
Continuous
100
AcDbEllipse
 10
1112.158793041102
 20
300.1875788792945
 30
0.0
 11
0.0000000000076023
 21
-43.49999999999981
 31
0.0
210
0.0
220
0.0
230
1.0
 40
0.4067366430757994
 41
3.572153395353829
 42
4.281828238618565
  0
SPLINE
  5
8AE
330
1F
100
AcDbEntity
  8
0
  6
Continuous
100
AcDbSpline
210
0.0
220
0.0
230
1.0
 70
    12
 71
     2
 72
     6
 73
     3
 74
     0
 42
0.0000000001
 43
0.0000000001
 40
0.0
 40
0.0
 40
0.0
 40
1.835624341566276
 40
1.835624341566276
 40
1.835624341566276
 10
1096.080560460186
 20
318.3436276679526
 30
0.0
 41
1.0
 10
1094.353950356208
 20
325.4390046042467
 30
0.0
 41
1.024956553744802
 10
1091.26661421235
 20
333.971642686412
 30
0.0
 41
1.022566673064441
  0
LINE
  5
8AF
330
1F
100
AcDbEntity
  8
0
  6
Continuous
100
AcDbLine
 10
1084.147456944762
 20
38.33151199988422
 30
0.0
 11
1078.9402478362
 21
36.01311313435233
 31
0.0
  0
LINE
  5
8B0
330
1F
100
AcDbEntity
  8
0
  6
Continuous
100
AcDbLine
 10
1078.089103735252
 20
51.9387960977451
 30
0.0
 11
1072.881894626689
 21
49.62039723221321
 31
0.0
  0
LINE
  5
8B1
330
1F
100
AcDbEntity
  8
0
  6
Continuous
100
AcDbLine
 10
1062.547718425119
 20
86.84531902171963
 30
0.0
 11
1057.340509316556
 21
84.52692015618774
 31
0.0
  0
LINE
  5
8B2
330
1F
100
AcDbEntity
  8
0
  6
Continuous
100
AcDbLine
 10
1056.489365215607
 20
100.4526031195805
 30
0.0
 11
1051.282156107045
 21
98.13420425404864
 31
0.0
  0
LINE
  5
8B3
330
1F
100
AcDbEntity
  8
0
  6
Continuous
100
AcDbLine
 10
1072.881894626689
 20
49.62039723221276
 30
0.0
 11
1078.940247836199
 21
36.01311313435187
 31
0.0
  0
LINE
  5
8B4
330
1F
100
AcDbEntity
  8
0
  6
Continuous
100
AcDbLine
 10
1072.881894626689
 20
49.62039723221321
 30
0.0
 11
1057.340509316556
 21
84.52692015618774
 31
0.0
  0
SPLINE
  5
8B5
330
1F
100
AcDbEntity
  8
0
  6
Continuous
100
AcDbSpline
210
0.0
220
0.0
230
1.0
 70
     8
 71
     3
 72
     8
 73
     4
 74
     0
 42
0.0000000001
 43
0.0000000001
 40
-0.1438477443668809
 40
-0.1438477443668809
 40
-0.1438477443668809
 40
-0.1438477443668809
 40
0.0
 40
0.0
 40
0.0
 40
0.0
 10
1071.861162067661
 20
49.45440676053747
 30
0.0
 10
1072.201557082115
 20
49.50915978031387
 30
0.0
 10
1072.541837345758
 20
49.56450382708451
 30
0.0
 10
1072.881894626689
 20
49.62039723221321
 30
0.0
  0
SPLINE
  5
8B6
330
1F
100
AcDbEntity
  8
0
  6
Continuous
100
AcDbSpline
210
0.0
220
0.0
230
1.0
 70
     8
 71
     3
 72
     8
 73
     4
 74
     0
 42
0.0000000001
 43
0.0000000001
 40
-0.1438477443679524
 40
-0.1438477443679524
 40
-0.1438477443679524
 40
-0.1438477443679524
 40
0.0
 40
0.0
 40
0.0
 40
0.0
 10
1056.534150960298
 20
83.87943734171173
 30
0.0
 10
1056.802609106047
 20
84.09576321399796
 30
0.0
 10
1057.071429687166
 20
84.31160833556029
 30
0.0
 10
1057.340509316556
 20
84.52692015618774
 30
0.0
  0
SPLINE
  5
8B7
330
1F
100
AcDbEntity
  8
0
  6
Continuous
100
AcDbSpline
210
0.0
220
0.0
230
1.0
 70
    24
 71
     3
 72
     8
 73
     4
 74
     0
 42
0.0000000001
 43
0.0000000001
 40
-0.1438477443668809
 40
-0.1438477443668809
 40
-0.1438477443668809
 40
-0.1438477443668809
 40
0.0
 40
0.0
 40
0.0
 40
0.0
 10
1050.775347292479
 20
96.81392215333014
 30
0.0
 10
1050.944234426548
 20
97.25388817946393
 30
0.0
 10
1051.113190264763
 20
97.69403318601186
 30
0.0
 10
1051.282156107045
 20
98.13420425404864
 30
0.0
  0
SPLINE
  5
8B8
330
1F
100
AcDbEntity
  8
0
  6
Continuous
100
AcDbSpline
210
0.0
220
0.0
230
1.0
 70
    24
 71
     3
 72
     8
 73
     4
 74
     0
 42
0.0000000001
 43
0.0000000001
 40
-0.1438477443679524
 40
-0.1438477443679524
 40
-0.1438477443679524
 40
-0.1438477443679524
 40
0.0
 40
0.0
 40
0.0
 40
0.0
 10
1077.619965735481
 20
36.51992194891861
 30
0.0
 10
1078.059931761614
 20
36.35103481484927
 30
0.0
 10
1078.500076768159
 20
36.18207897663567
 30
0.0
 10
1078.9402478362
 20
36.01311313435233
 30
0.0
  0
LINE
  5
8B9
330
1F
100
AcDbEntity
  8
0
  6
Continuous
100
AcDbLine
 10
1051.282156107046
 20
98.13420425404864
 30
0.0
 11
1057.340509316556
 21
84.52692015618774
 31
0.0
  0
LINE
  5
8BA
330
1F
100
AcDbEntity
  8
0
  6
Continuous
100
AcDbLine
 10
1078.895462091509
 20
52.58627891222111
 30
0.0
 11
1063.568450984146
 21
87.01130949339537
 31
0.0
  0
LINE
  5
8BB
330
1F
100
AcDbEntity
  8
0
  6
Continuous
100
AcDbLine
 10
1062.547718425119
 20
86.84531902171963
 30
0.0
 11
1078.089103735252
 21
51.9387960977451
 31
0.0
  0
LINE
  5
8BC
330
1F
100
AcDbEntity
  8
0
  6
Continuous
100
AcDbLine
 10
1057.809647316326
 20
99.94579430501378
 30
0.0
 11
1063.568450984146
 21
87.01130949339537
 31
0.0
  0
SPLINE
  5
8BD
330
1F
100
AcDbEntity
  8
0
  6
Continuous
100
AcDbSpline
210
0.0
220
0.0
230
1.0
 70
     8
 71
     3
 72
     8
 73
     4
 74
     0
 42
0.0000000001
 43
0.0000000001
 40
-0.1438477767740465
 40
-0.1438477767740465
 40
-0.1438477767740465
 40
-0.1438477767740465
 40
0.0
 40
0.0
 40
0.0
 40
0.0
 10
1062.547718425119
 20
86.84531902171963
 30
0.0
 10
1062.887775706052
 20
86.90121242684879
 30
0.0
 10
1063.228055969692
 20
86.95655647361897
 30
0.0
 10
1063.568450984146
 20
87.01130949339537
 30
0.0
  0
LINE
  5
8BE
330
1F
100
AcDbEntity
  8
0
  6
Continuous
100
AcDbLine
 10
1062.547718425119
 20
86.84531902171963
 30
0.0
 11
1056.489365215608
 21
100.4526031195805
 31
0.0
  0
SPLINE
  5
8BF
330
1F
100
AcDbEntity
  8
0
  6
Continuous
100
AcDbSpline
210
0.0
220
0.0
230
1.0
 70
    24
 71
     3
 72
     8
 73
     4
 74
     0
 42
0.0000000001
 43
0.0000000001
 40
-0.143847776774024
 40
-0.143847776774024
 40
-0.143847776774024
 40
-0.143847776774024
 40
0.0
 40
0.0
 40
0.0
 40
0.0
 10
1056.489365215607
 20
100.4526031195805
 30
0.0
 10
1056.929536283647
 20
100.2836372772976
 30
0.0
 10
1057.369681290193
 20
100.114681439084
 30
0.0
 10
1057.809647316326
 20
99.94579430501378
 30
0.0
  0
SPLINE
  5
8C0
330
1F
100
AcDbEntity
  8
0
  6
Continuous
100
AcDbSpline
210
0.0
220
0.0
230
1.0
 70
     8
 71
     3
 72
     8
 73
     4
 74
     0
 42
0.0000000001
 43
0.0000000001
 40
-0.143847776774024
 40
-0.143847776774024
 40
-0.143847776774024
 40
-0.143847776774024
 40
0.0
 40
0.0
 40
0.0
 40
0.0
 10
1078.089103735252
 20
51.9387960977451
 30
0.0
 10
1078.35818336464
 20
52.15410791837165
 30
0.0
 10
1078.627003945759
 20
52.36995303993442
 30
0.0
 10
1078.895462091509
 20
52.58627891222111
 30
0.0
  0
LINE
  5
8C1
330
1F
100
AcDbEntity
  8
0
  6
Continuous
100
AcDbLine
 10
1078.895462091509
 20
52.58627891222111
 30
0.0
 11
1084.654265759329
 21
39.65179410060225
 31
0.0
  0
SPLINE
  5
8C2
330
1F
100
AcDbEntity
  8
0
  6
Continuous
100
AcDbSpline
210
0.0
220
0.0
230
1.0
 70
    24
 71
     3
 72
     8
 73
     4
 74
     0
 42
0.0000000001
 43
0.0000000001
 40
-0.1438477767740465
 40
-0.1438477767740465
 40
-0.1438477767740465
 40
-0.1438477767740465
 40
0.0
 40
0.0
 40
0.0
 40
0.0
 10
1084.147456944762
 20
38.33151199988422
 30
0.0
 10
1084.316422787045
 20
38.77168306792234
 30
0.0
 10
1084.485378625258
 20
39.21182807446937
 30
0.0
 10
1084.654265759329
 20
39.65179410060225
 30
0.0
  0
LINE
  5
8C3
330
1F
100
AcDbEntity
  8
0
  6
Continuous
100
AcDbLine
 10
1084.147456944762
 20
38.33151199988376
 30
0.0
 11
1078.089103735252
 21
51.9387960977451
 31
0.0
  0
CIRCLE
  5
8C4
330
1F
100
AcDbEntity
  8
0
  6
Continuous
100
AcDbCircle
 10
1045.744038269599
 20
58.45084186099345
 30
0.0
 40
9.199999999999938
  0
CIRCLE
  5
8C5
330
1F
100
AcDbEntity
  8
0
  6
Continuous
100
AcDbCircle
 10
1045.744038269599
 20
58.45084186099345
 30
0.0
 40
16.99999999999989
  0
LINE
  5
8C6
330
1F
100
AcDbEntity
  8
0
  6
Continuous
100
AcDbLine
 10
1061.476987336911
 20
43.27452504555775
 30
0.0
 11
1055.721650953763
 21
40.71208419418005
 31
0.0
  0
LINE
  5
8C7
330
1F
100
AcDbEntity
  8
0
  6
Continuous
100
AcDbLine
 10
1064.934248803056
 20
35.50938865559553
 30
0.0
 11
1059.178912419907
 21
32.9469478042183
 31
0.0
  0
LINE
  5
8C8
330
1F
100
AcDbEntity
  8
0
  6
Continuous
100
AcDbLine
 10
1059.178912419907
 20
32.9469478042183
 30
0.0
 11
1055.721650953763
 21
40.71208419418005
 31
0.0
  0
LINE
  5
8C9
330
1F
100
AcDbEntity
  8
0
  6
Continuous
100
AcDbLine
 10
1039.237898324478
 20
77.73519877149462
 30
0.0
 11
1044.993234707626
 21
80.29763962287232
 31
0.0
  0
LINE
  5
8CA
330
1F
100
AcDbEntity
  8
0
  6
Continuous
100
AcDbLine
 10
1035.780636858333
 20
85.50033516145683
 30
0.0
 11
1041.535973241481
 21
88.06277601283406
 31
0.0
  0
LINE
  5
8CB
330
1F
100
AcDbEntity
  8
0
  6
Continuous
100
AcDbLine
 10
1035.780636858333
 20
85.50033516145683
 30
0.0
 11
1039.237898324478
 21
77.73519877149462
 31
0.0
  0
LINE
  5
8CC
330
1F
100
AcDbEntity
  8
0
  6
Continuous
100
AcDbLine
 10
1046.340924922134
 20
77.27067784125708
 30
0.0
 11
1044.671863770099
 21
75.41699763779249
 31
0.0
  0
LINE
  5
8CD
330
1F
100
AcDbEntity
  8
0
  6
Continuous
100
AcDbLine
 10
1057.634924370398
 20
46.30148682717297
 30
0.0
 11
1060.129297122403
 21
46.30148682717297
 31
0.0
  0
LINE
  5
8CE
330
1F
100
AcDbEntity
  8
0
  6
Continuous
100
AcDbLine
 10
1078.026702378556
 20
35.606376491276
 30
0.0
 11
1067.064156886845
 21
30.72553677436688
 31
0.0
  0
LINE
  5
8CF
330
1F
100
AcDbEntity
  8
0
  6
Continuous
100
AcDbLine
 10
1050.368610649402
 20
97.72746761097275
 30
0.0
 11
1039.406065157691
 21
92.84662789406317
 31
0.0
  0
LINE
  5
8D0
330
1F
100
AcDbEntity
  8
0
  6
Continuous
100
AcDbLine
 10
1071.968349169046
 20
49.21366058913734
 30
0.0
 11
1078.026702378556
 21
35.606376491276
 31
0.0
  0
LINE
  5
8D1
330
1F
100
AcDbEntity
  8
0
  6
Continuous
100
AcDbLine
 10
1050.368610649402
 20
97.72746761097275
 30
0.0
 11
1056.426963858913
 21
84.12018351311141
 31
0.0
  0
LINE
  5
8D2
330
1F
100
AcDbEntity
  8
0
  6
Continuous
100
AcDbLine
 10
1056.426963858913
 20
84.12018351311141
 30
0.0
 11
1045.464418367202
 21
79.23934379620229
 31
0.0
  0
LINE
  5
8D3
330
1F
100
AcDbEntity
  8
0
  6
Continuous
100
AcDbLine
 10
1071.968349169046
 20
49.21366058913734
 30
0.0
 11
1056.426963858913
 21
84.12018351311141
 31
0.0
  0
LINE
  5
8D4
330
1F
100
AcDbEntity
  8
0
  6
Continuous
100
AcDbLine
 10
1071.968349169046
 20
49.21366058913734
 30
0.0
 11
1061.005803677335
 21
44.33282087222776
 31
0.0
  0
LINE
  5
8D5
330
1F
100
AcDbEntity
  8
0
  6
Continuous
100
AcDbLine
 10
1045.464418367202
 20
79.23934379620229
 30
0.0
 11
1039.406065157691
 21
92.84662789406317
 31
0.0
  0
LINE
  5
8D6
330
1F
100
AcDbEntity
  8
0
  6
Continuous
100
AcDbLine
 10
1045.464418367202
 20
79.23934379620229
 30
0.0
 11
1047.178148221744
 21
75.39024352236125
 31
0.0
  0
LINE
  5
8D7
330
1F
100
AcDbEntity
  8
0
  6
Continuous
100
AcDbLine
 10
1059.292073822793
 20
48.18192114606834
 30
0.0
 11
1061.005803677335
 21
44.33282087222776
 31
0.0
  0
LINE
  5
8D8
330
1F
100
AcDbEntity
  8
0
  6
Continuous
100
AcDbLine
 10
1067.064156886845
 20
30.72553677436642
 30
0.0
 11
1061.005803677336
 21
44.33282087222731
 31
0.0
  0
ARC
  5
8D9
330
1F
100
AcDbEntity
  8
0
  6
Continuous
100
AcDbCircle
 10
1164.729227598887
 20
78.12357333896713
 30
0.0
 40
5.999999999999968
100
AcDbArc
 50
309.3332847930553
 51
24.00000000000265
  0
ARC
  5
8DA
330
1F
100
AcDbEntity
  8
0
  6
Continuous
100
AcDbCircle
 10
1139.980358754091
 20
133.7104428769107
 30
0.0
 40
5.999999999999969
100
AcDbArc
 50
24.00000000000265
 51
98.66671520693905
  0
LINE
  5
8DB
330
1F
100
AcDbEntity
  8
0
  6
Continuous
100
AcDbLine
 10
1145.461631499948
 20
136.1508627353659
 30
0.0
 11
1170.210500344744
 21
80.56399319742192
 31
0.0
  0
LINE
  5
8DC
330
1F
100
AcDbEntity
  8
0
  6
Continuous
100
AcDbLine
 10
1182.802009793169
 20
126.0408000045231
 30
0.0
 11
1180.821586642091
 21
126.8010132263734
 31
0.0
  0
LINE
  5
8DD
330
1F
100
AcDbEntity
  8
0
  6
Continuous
100
AcDbLine
 10
1187.682849510079
 20
115.0782545128122
 30
0.0
 11
1186.922636288229
 21
113.0978313617342
 31
0.0
  0
LINE
  5
8DE
330
1F
100
AcDbEntity
  8
0
  6
Continuous
100
AcDbLine
 10
1186.922636288228
 20
113.0978313617342
 30
0.0
 11
1180.821586642091
 21
126.8010132263734
 31
0.0
  0
LINE
  5
8DF
330
1F
100
AcDbEntity
  8
0
  6
Continuous
100
AcDbLine
 10
1182.802009793169
 20
126.0408000045235
 30
0.0
 11
1187.682849510079
 21
115.0782545128122
 31
0.0
  0
LINE
  5
8E0
330
1F
100
AcDbEntity
  8
0
  6
Continuous
100
AcDbLine
 10
1073.163658961833
 20
96.9301142176009
 30
0.0
 11
1061.470277104008
 21
91.72388518623026
 31
0.0
  0
LINE
  5
8E1
330
1F
100
AcDbEntity
  8
0
  6
Continuous
100
AcDbLine
 10
1092.687017829472
 20
53.07993225075641
 30
0.0
 11
1080.993635971647
 21
47.87370321938577
 31
0.0
  0
LINE
  5
8E2
330
1F
100
AcDbEntity
  8
0
  6
Continuous
100
AcDbLine
 10
1152.235377133663
 20
133.2297476228377
 30
0.0
 11
1147.66764984545
 21
131.1960644074588
 31
0.0
  0
LINE
  5
8E3
330
1F
100
AcDbEntity
  8
0
  6
Continuous
100
AcDbLine
 10
1172.572209287453
 20
87.55247474070799
 30
0.0
 11
1168.004481999241
 21
85.51879152532908
 31
0.0
  0
LINE
  5
8E4
330
1F
100
AcDbEntity
  8
0
  6
Continuous
100
AcDbLine
 10
1139.07623945551
 20
139.6419324279372
 30
0.0
 11
1111.823112761628
 21
135.4878194384968
 31
0.0
  0
LINE
  5
8E5
330
1F
100
AcDbEntity
  8
0
  6
Continuous
100
AcDbLine
 10
1168.532209471625
 20
73.48274056072202
 30
0.0
 11
1147.209200709223
 21
56.00936462359139
 31
0.0
  0
LINE
  5
8E6
330
1F
100
AcDbEntity
  8
0
  6
Continuous
100
AcDbLine
 10
1180.821586642091
 20
126.8010132263734
 30
0.0
 11
1159.35326838749
 21
117.2427021140924
 31
0.0
  0
LINE
  5
8E7
330
1F
100
AcDbEntity
  8
0
  6
Continuous
100
AcDbLine
 10
1186.922636288229
 20
113.0978313617342
 30
0.0
 11
1165.454318033627
 21
103.5395202494532
 31
0.0
  0
LINE
  5
8E8
330
1F
100
AcDbEntity
  8
0
  6
Continuous
100
AcDbLine
 10
1111.823112761628
 20
135.4878194384968
 30
0.0
 11
1065.232294421855
 21
114.7442506416314
 31
0.0
  0
LINE
  5
8E9
330
1F
100
AcDbEntity
  8
0
  6
Continuous
100
AcDbLine
 10
1147.209200709223
 20
56.00936462359139
 30
0.0
 11
1100.61838236945
 21
35.26579582672546
 31
0.0
  0
LINE
  5
8EA
330
1F
100
AcDbEntity
  8
0
  6
Continuous
100
AcDbLine
 10
1152.235377133663
 20
133.2297476228377
 30
0.0
 11
1172.572209287453
 21
87.55247474070754
 31
0.0
  0
LINE
  5
8EB
330
1F
100
AcDbEntity
  8
0
  6
Continuous
100
AcDbLine
 10
1075.540608059838
 20
91.59139913378472
 30
0.0
 11
1090.310068731468
 21
58.41864733457257
 31
0.0
  0
LINE
  5
8EC
330
1F
100
AcDbEntity
  8
0
  6
Continuous
100
AcDbLine
 10
1065.232294421855
 20
114.7442506416314
 30
0.0
 11
1066.679819090352
 21
111.4930570050541
 31
0.0
  0
LINE
  5
8ED
330
1F
100
AcDbEntity
  8
0
  6
Continuous
100
AcDbLine
 10
1099.170857700954
 20
38.51698946330268
 30
0.0
 11
1100.61838236945
 21
35.265795826725
 31
0.0
  0
LINE
  5
8EE
330
1F
100
AcDbEntity
  8
0
  6
Continuous
100
AcDbLine
 10
1111.823112761628
 20
135.4878194384968
 30
0.0
 11
1147.209200709223
 21
56.00936462359094
 31
0.0
  0
LINE
  5
8EF
330
1F
100
AcDbEntity
  8
0
  6
Continuous
100
AcDbLine
 10
1099.170857700953
 20
38.51698946330314
 30
0.0
 11
1123.702417747835
 21
49.43914369154343
 31
0.0
  0
LINE
  5
8F0
330
1F
100
AcDbEntity
  8
0
  6
Continuous
100
AcDbLine
 10
1066.679819090352
 20
111.4930570050541
 30
0.0
 11
1091.211379137234
 21
122.4152112332944
 31
0.0
  0
LINE
  5
8F1
330
1F
100
AcDbEntity
  8
0
  6
Continuous
100
AcDbLine
 10
1096.666555098014
 20
44.14174520248796
 30
0.0
 11
1099.170857700954
 21
38.51698946330268
 31
0.0
  0
LINE
  5
8F2
330
1F
100
AcDbEntity
  8
0
  6
Continuous
100
AcDbLine
 10
1066.679819090352
 20
111.4930570050541
 30
0.0
 11
1069.184121693291
 21
105.8683012658689
 31
0.0
  0
LINE
  5
8F3
330
1F
100
AcDbEntity
  8
0
  6
Continuous
100
AcDbLine
 10
1075.540608059838
 20
91.59139913378428
 30
0.0
 11
1069.184121693291
 21
105.8683012658689
 31
0.0
  0
LINE
  5
8F4
330
1F
100
AcDbEntity
  8
0
  6
Continuous
100
AcDbLine
 10
1104.774062704401
 20
104.6069717122099
 30
0.0
 11
1075.540608059838
 21
91.59139913378428
 31
0.0
  0
LINE
  5
8F5
330
1F
100
AcDbEntity
  8
0
  6
Continuous
100
AcDbLine
 10
1096.666555098014
 20
44.14174520248796
 30
0.0
 11
1090.310068731467
 21
58.41864733457257
 31
0.0
  0
LINE
  5
8F6
330
1F
100
AcDbEntity
  8
0
  6
Continuous
100
AcDbLine
 10
1090.310068731467
 20
58.41864733457257
 30
0.0
 11
1119.54352337603
 21
71.43421991299826
 31
0.0
  0
SPLINE
  5
8F7
330
1F
100
AcDbEntity
  8
0
  6
Continuous
100
AcDbSpline
210
0.0
220
0.0
230
1.0
 70
     8
 71
     3
 72
    14
 73
    10
 74
     0
 42
0.0000000001
 43
0.0000000001
 40
0.5726902718777073
 40
0.5726902718777073
 40
0.5726902718777073
 40
0.5726902718777073
 40
0.8021249198358477
 40
0.8021249198358477
 40
1.054931495837559
 40
1.054931495837559
 40
1.307738071839271
 40
1.307738071839271
 40
1.537172719797414
 40
1.537172719797414
 40
1.537172719797414
 40
1.537172719797414
 10
1091.266614211464
 20
122.4375528456962
 30
0.0
 10
1091.005478310149
 20
122.3419749458971
 30
0.0
 10
1090.829940374915
 20
122.1355990345827
 30
0.0
 10
1090.736326777946
 20
121.4684765145165
 30
0.0
 10
1090.847618651083
 20
120.9818471824059
 30
0.0
 10
1091.332343640321
 20
119.8931370313452
 30
0.0
 10
1091.727864755414
 20
119.2414457544036
 30
0.0
 10
1092.682622853375
 20
117.9744060575935
 30
0.0
 10
1093.223083358259
 20
117.3611524578463
 30
0.0
 10
1093.77008054347
 20
116.8146754017829
 30
0.0
  0
SPLINE
  5
8F8
330
1F
100
AcDbEntity
  8
0
  6
Continuous
100
AcDbSpline
210
0.0
220
0.0
230
1.0
 70
    12
 71
     2
 72
     6
 73
     3
 74
     0
 42
0.0000000001
 43
0.0000000001
 40
1.51478374625463
 40
1.51478374625463
 40
1.51478374625463
 40
3.350408087820908
 40
3.350408087820908
 40
3.350408087820908
 10
1091.266614211464
 20
122.4375528456962
 30
0.0
 41
1.022566673064431
 10
1094.353950355322
 20
123.5675434104404
 30
0.0
 41
1.024956553744791
 10
1096.0805604593
 20
124.1328974487255
 30
0.0
 41
1.0
  0
LINE
  5
8F9
330
1F
100
AcDbEntity
  8
0
  6
Continuous
100
AcDbLine
 10
1104.774062704401
 20
104.6069717122099
 30
0.0
 11
1096.0805604593
 21
124.1328974487255
 31
0.0
  0
SPLINE
  5
8FA
330
1F
100
AcDbEntity
  8
0
  6
Continuous
100
AcDbSpline
210
0.0
220
0.0
230
1.0
 70
    12
 71
     2
 72
     6
 73
     3
 74
     0
 42
0.0000000001
 43
0.0000000001
 40
0.0
 40
0.0
 40
0.0
 40
1.835624341566264
 40
1.835624341566264
 40
1.835624341566264
 10
1104.774062704401
 20
104.6069717122099
 30
0.0
 41
1.0
 10
1100.237074059019
 20
110.353831226509
 30
0.0
 41
1.024956553744784
 10
1093.77008054347
 20
116.8146754017829
 30
0.0
 41
1.022566673064424
  0
LINE
  5
8FB
330
1F
100
AcDbEntity
  8
0
  6
Continuous
100
AcDbLine
 10
1128.237025621132
 20
51.90829417648272
 30
0.0
 11
1119.54352337603
 21
71.43421991299826
 31
0.0
  0
SPLINE
  5
8FC
330
1F
100
AcDbEntity
  8
0
  6
Continuous
100
AcDbSpline
210
0.0
220
0.0
230
1.0
 70
    12
 71
     2
 72
     6
 73
     3
 74
     0
 42
0.0000000001
 43
0.0000000001
 40
0.0
 40
0.0
 40
0.0
 40
1.835624341566267
 40
1.835624341566267
 40
1.835624341566267
 10
1128.237025621132
 20
51.90829417648227
 30
0.0
 41
1.0
 10
1126.661558027197
 20
51.00346850253934
 30
0.0
 41
1.024956553744787
 10
1123.755980280197
 20
49.46524189448972
 30
0.0
 41
1.022566673064427
  0
SPLINE
  5
8FD
330
1F
100
AcDbEntity
  8
0
  6
Continuous
100
AcDbSpline
210
0.0
220
0.0
230
1.0
 70
     8
 71
     3
 72
    14
 73
    10
 74
     0
 42
0.0000000001
 43
0.0000000001
 40
0.5726902718777067
 40
0.5726902718777067
 40
0.5726902718777067
 40
0.5726902718777067
 40
0.8021249198358477
 40
0.8021249198358477
 40
1.054931495837559
 40
1.054931495837559
 40
1.307738071839271
 40
1.307738071839271
 40
1.537172719797412
 40
1.537172719797412
 40
1.537172719797412
 40
1.537172719797412
 10
1121.252513948193
 20
55.0881193384025
 30
0.0
 10
1121.292612986431
 20
54.31595668677753
 30
0.0
 10
1121.386710560442
 20
53.50396950614729
 30
0.0
 10
1121.689446689786
 20
51.94663092545805
 30
0.0
 10
1121.909092406485
 20
51.21663487611156
 30
0.0
 10
1122.393817395724
 20
50.12792472505041
 30
0.0
 10
1122.680984667253
 20
49.7196001653451
 30
0.0
 10
1123.239393038902
 20
49.34277652915805
 30
0.0
 10
1123.510218034541
 20
49.33513419872722
 30
0.0
 10
1123.755980280197
 20
49.46524189448972
 30
0.0
  0
SPLINE
  5
8FE
330
1F
100
AcDbEntity
  8
0
  6
Continuous
100
AcDbSpline
210
0.0
220
0.0
230
1.0
 70
    12
 71
     2
 72
     6
 73
     3
 74
     0
 42
0.0000000001
 43
0.0000000001
 40
1.51478374625463
 40
1.51478374625463
 40
1.51478374625463
 40
3.350408087820908
 40
3.350408087820908
 40
3.350408087820908
 10
1121.252513948193
 20
55.0881193384025
 30
0.0
 41
1.022566673064434
 10
1120.7784343235
 20
64.21718068647075
 30
0.0
 41
1.024956553744794
 10
1119.54352337603
 20
71.43421991299826
 30
0.0
 41
1.0
  0
VIEWPORT
  5
71
330
55
100
AcDbEntity
 67
     1
  8
0
100
AcDbViewport
 10
133.3499908447265
 20
101.5999970436096
 30
0.0
 40
381.3957395593834
 41
218.2856291881582
 68
     1
 69
     1
 12
133.3499908447265
 22
101.5999970436096
 13
0.0
 23
0.0
 14
10.0
 24
10.0
 15
10.0
 25
10.0
 16
0.0
 26
0.0
 36
1.0
 17
0.0
 27
0.0
 37
0.0
 42
50.0
 43
0.0
 44
0.0
 45
218.2856291881582
 50
0.0
 51
0.0
 72
   100
 90
    32800
  1

281
     0
 71
     1
 74
     0
110
0.0
120
0.0
130
0.0
111
1.0
121
0.0
131
0.0
112
0.0
122
1.0
132
0.0
 79
     0
146
0.0
  0
VIEWPORT
  5
73
330
55
100
AcDbEntity
 67
     1
  8
0
100
AcDbViewport
 10
133.349993944168
 20
101.599993944168
 30
0.0
 40
213.3599903106689
 41
162.5599903106689
 68
     2
 69
     2
 12
210.0
 22
148.5
 13
0.0
 23
0.0
 14
10.0
 24
10.0
 15
10.0
 25
10.0
 16
0.0
 26
0.0
 36
1.0
 17
0.0
 27
0.0
 37
0.0
 42
50.0
 43
0.0
 44
0.0
 45
324.0677920111345
 50
0.0
 51
0.0
 72
   100
 90
    32864
  1

281
     0
 71
     1
 74
     0
110
0.0
120
0.0
130
0.0
111
1.0
121
0.0
131
0.0
112
0.0
122
1.0
132
0.0
 79
     0
146
0.0
  0
ENDSEC
  0
SECTION
  2
OBJECTS
  0
DICTIONARY
  5
C
330
0
100
AcDbDictionary
281
     1
  3
ACAD_GROUP
350
D
  3
ACAD_LAYOUT
350
1A
  3
ACAD_MLINESTYLE
350
17
  3
ACAD_PLOTSETTINGS
350
19
  3
ACAD_PLOTSTYLENAME
350
E
  3
AcDbVariableDictionary
350
5E
  0
DICTIONARY
  5
318
330
2
100
AcDbDictionary
280
     1
281
     1
  3
ACAD_LAYERSTATES
360
319
  0
DICTIONARY
  5
2CE
330
1F
100
AcDbDictionary
280
     1
281
     1
  3
ACAD_LAYOUTSELFREF
360
305
  0
DICTIONARY
  5
2D0
330
55
100
AcDbDictionary
280
     1
281
     1
  3
ACAD_LAYOUTSELFREF
360
309
  0
DICTIONARY
  5
2D2
330
50
100
AcDbDictionary
280
     1
281
     1
  3
ACAD_LAYOUTSELFREF
360
308
  0
DICTIONARY
  5
D
102
{ACAD_REACTORS
330
C
102
}
330
C
100
AcDbDictionary
281
     1
  0
DICTIONARY
  5
1A
102
{ACAD_REACTORS
330
C
102
}
330
C
100
AcDbDictionary
281
     1
  3
Model
350
22
  3
ﾚｲｱｳﾄ1
350
51
  3
ﾚｲｱｳﾄ2
350
56
  0
DICTIONARY
  5
17
102
{ACAD_REACTORS
330
C
102
}
330
C
100
AcDbDictionary
281
     1
  3
Standard
350
18
  0
DICTIONARY
  5
19
102
{ACAD_REACTORS
330
C
102
}
330
C
100
AcDbDictionary
281
     1
  0
ACDBDICTIONARYWDFLT
  5
E
102
{ACAD_REACTORS
330
C
102
}
330
C
100
AcDbDictionary
281
     1
  3
Normal
350
F
100
AcDbDictionaryWithDefault
340
F
  0
DICTIONARY
  5
5E
102
{ACAD_REACTORS
330
C
102
}
330
C
100
AcDbDictionary
281
     1
  3
DIMASSOC
350
5F
  3
HIDETEXT
350
63
  0
DICTIONARY
  5
319
102
{ACAD_REACTORS
330
318
102
}
330
318
100
AcDbDictionary
281
     1
  0
XRECORD
  5
305
102
{ACAD_REACTORS
330
2CE
102
}
330
2CE
100
AcDbXrecord
280
     1
340
1F
  0
XRECORD
  5
309
102
{ACAD_REACTORS
330
2D0
102
}
330
2D0
100
AcDbXrecord
280
     1
340
55
  0
XRECORD
  5
308
102
{ACAD_REACTORS
330
2D2
102
}
330
2D2
100
AcDbXrecord
280
     1
340
50
  0
LAYOUT
  5
22
102
{ACAD_REACTORS
330
1A
102
}
330
1A
100
AcDbPlotSettings
  1

  2
none_device
  4
ANSI_A_(8.50_x_11.00_Inches)
  6

 40
6.349999904632568
 41
19.04999923706054
 42
6.350006103515625
 43
19.04998779296875
 44
215.8999938964843
 45
279.3999938964843
 46
0.0
 47
0.0
 48
0.0
 49
0.0
140
0.0
141
0.0
142
1.0
143
78.436453180766
 70
 11952
 72
     0
 73
     1
 74
     0
  7

 75
     0
147
0.0127491741332998
148
0.0
149
0.0
100
AcDbLayout
  1
Model
 70
     1
 71
     0
 10
0.0
 20
0.0
 11
12.0
 21
9.0
 12
0.0
 22
0.0
 32
0.0
 14
0.0
 24
0.0
 34
0.0
 15
0.0
 25
0.0
 35
0.0
146
0.0
 13
0.0
 23
0.0
 33
0.0
 16
1.0
 26
0.0
 36
0.0
 17
0.0
 27
1.0
 37
0.0
 76
     0
330
1F
  0
LAYOUT
  5
51
102
{ACAD_REACTORS
330
1A
102
}
330
1A
100
AcDbPlotSettings
  1

  2
none_device
  4
Letter_(8.50_x_11.00_Inches)
  6

 40
6.349999904632568
 41
6.349999904632568
 42
6.350006103515625
 43
6.350006103515625
 44
215.8999938964843
 45
279.3999938964843
 46
0.0
 47
0.0
 48
0.0
 49
0.0
140
0.0
141
0.0
142
1.0
143
1.0
 70
   688
 72
     1
 73
     1
 74
     5
  7

 75
    16
147
1.0
148
0.0
149
0.0
100
AcDbLayout
  1
ﾚｲｱｳﾄ1
 70
     1
 71
     1
 10
-6.350006103515625
 20
-6.349999904632568
 11
273.0499877929687
 21
209.5499939918517
 12
0.0
 22
0.0
 32
0.0
 14
26.66076962115562
 24
20.31135699206657
 34
-0.0015258207003583
 15
240.039213369355
 25
182.8886381005154
 35
0.0000000349246037
146
0.0
 13
0.0
 23
0.0
 33
0.0
 16
1.0
 26
0.0
 36
0.0
 17
0.0
 27
1.0
 37
0.0
 76
     0
330
50
331
6B
  0
LAYOUT
  5
56
102
{ACAD_REACTORS
330
1A
102
}
330
1A
100
AcDbPlotSettings
  1

  2
none_device
  4
Letter_(8.50_x_11.00_Inches)
  6

 40
6.349999904632568
 41
6.349999904632568
 42
6.350006103515625
 43
6.350006103515625
 44
215.8999938964843
 45
279.3999938964843
 46
0.0
 47
0.0
 48
0.0
 49
0.0
140
0.0
141
0.0
142
1.0
143
1.0
 70
   688
 72
     1
 73
     1
 74
     5
  7

 75
    16
147
1.0
148
0.0
149
0.0
100
AcDbLayout
  1
ﾚｲｱｳﾄ2
 70
     1
 71
     2
 10
-6.350006103515625
 20
-6.349999904632568
 11
273.0499877929687
 21
209.5499939918517
 12
0.0
 22
0.0
 32
0.0
 14
26.66076962115562
 24
20.31135699206657
 34
-0.0015258207003583
 15
240.039213369355
 25
182.8886381005154
 35
0.0000000349246037
146
0.0
 13
0.0
 23
0.0
 33
0.0
 16
1.0
 26
0.0
 36
0.0
 17
0.0
 27
1.0
 37
0.0
 76
     0
330
55
331
71
  0
MLINESTYLE
  5
18
102
{ACAD_REACTORS
330
17
102
}
330
17
100
AcDbMlineStyle
  2
STANDARD
 70
     0
  3

 62
   256
 51
90.0
 52
90.0
 71
     2
 49
0.5
 62
   256
  6
BYLAYER
 49
-0.5
 62
   256
  6
BYLAYER
  0
ACDBPLACEHOLDER
  5
F
102
{ACAD_REACTORS
330
E
102
}
330
E
  0
DICTIONARYVAR
  5
5F
102
{ACAD_REACTORS
330
5E
102
}
330
5E
100
DictionaryVariables
280
     0
  1
2
  0
DICTIONARYVAR
  5
63
102
{ACAD_REACTORS
330
5E
102
}
330
5E
100
DictionaryVariables
280
     0
  1
1
  0
ENDSEC
  0
EOF
