  0
SECTION
  2
HEADER
  9
$ACADVER
  1
AC1015
  9
$ACADMAINTVER
 70
    14
  9
$DWGCODEPAGE
  3
ANSI_932
  9
$INSBASE
 10
0.0
 20
0.0
 30
0.0
  9
$EXTMIN
 10
157.6603258983936
 20
41.94244215527146
 30
-0.0000000000112498
  9
$EXTMAX
 10
1257.999994785387
 20
674.0102898763023
 30
0.0000000000002956
  9
$LIMMIN
 10
0.0
 20
0.0
  9
$LIMMAX
 10
420.0
 20
297.0
  9
$ORTHOMODE
 70
     0
  9
$REGENMODE
 70
     1
  9
$FILLMODE
 70
     1
  9
$QTEXTMODE
 70
     0
  9
$MIRRTEXT
 70
     1
  9
$LTSCALE
 40
1.0
  9
$ATTMODE
 70
     1
  9
$TEXTSIZE
 40
2.5
  9
$TRACEWID
 40
1.0
  9
$TEXTSTYLE
  7
Standard
  9
$CLAYER
  8
0
  9
$CELTYPE
  6
ByLayer
  9
$CECOLOR
 62
   256
  9
$CELTSCALE
 40
1.0
  9
$DISPSILH
 70
     0
  9
$DIMSCALE
 40
1.0
  9
$DIMASZ
 40
2.5
  9
$DIMEXO
 40
0.625
  9
$DIMDLI
 40
3.75
  9
$DIMRND
 40
0.0
  9
$DIMDLE
 40
0.0
  9
$DIMEXE
 40
1.25
  9
$DIMTP
 40
0.0
  9
$DIMTM
 40
0.0
  9
$DIMTXT
 40
2.5
  9
$DIMCEN
 40
2.5
  9
$DIMTSZ
 40
0.0
  9
$DIMTOL
 70
     0
  9
$DIMLIM
 70
     0
  9
$DIMTIH
 70
     0
  9
$DIMTOH
 70
     0
  9
$DIMSE1
 70
     0
  9
$DIMSE2
 70
     0
  9
$DIMTAD
 70
     1
  9
$DIMZIN
 70
     8
  9
$DIMBLK
  1

  9
$DIMASO
 70
     1
  9
$DIMSHO
 70
     1
  9
$DIMPOST
  1

  9
$DIMAPOST
  1

  9
$DIMALT
 70
     0
  9
$DIMALTD
 70
     3
  9
$DIMALTF
 40
0.03937007874016
  9
$DIMLFAC
 40
1.0
  9
$DIMTOFL
 70
     1
  9
$DIMTVP
 40
0.0
  9
$DIMTIX
 70
     0
  9
$DIMSOXD
 70
     0
  9
$DIMSAH
 70
     0
  9
$DIMBLK1
  1

  9
$DIMBLK2
  1

  9
$DIMSTYLE
  2
ISO-25
  9
$DIMCLRD
 70
     0
  9
$DIMCLRE
 70
     0
  9
$DIMCLRT
 70
     0
  9
$DIMTFAC
 40
1.0
  9
$DIMGAP
 40
0.625
  9
$DIMJUST
 70
     0
  9
$DIMSD1
 70
     0
  9
$DIMSD2
 70
     0
  9
$DIMTOLJ
 70
     0
  9
$DIMTZIN
 70
     8
  9
$DIMALTZ
 70
     0
  9
$DIMALTTZ
 70
     0
  9
$DIMUPT
 70
     0
  9
$DIMDEC
 70
     2
  9
$DIMTDEC
 70
     2
  9
$DIMALTU
 70
     2
  9
$DIMALTTD
 70
     3
  9
$DIMTXSTY
  7
Standard
  9
$DIMAUNIT
 70
     0
  9
$DIMADEC
 70
     0
  9
$DIMALTRND
 40
0.0
  9
$DIMAZIN
 70
     0
  9
$DIMDSEP
 70
    44
  9
$DIMATFIT
 70
     3
  9
$DIMFRAC
 70
     0
  9
$DIMLDRBLK
  1

  9
$DIMLUNIT
 70
     2
  9
$DIMLWD
 70
    -2
  9
$DIMLWE
 70
    -2
  9
$DIMTMOVE
 70
     0
  9
$LUNITS
 70
     2
  9
$LUPREC
 70
     4
  9
$SKETCHINC
 40
1.0
  9
$FILLETRAD
 40
10.0
  9
$AUNITS
 70
     0
  9
$AUPREC
 70
     0
  9
$MENU
  1
.
  9
$ELEVATION
 40
0.0
  9
$PELEVATION
 40
0.0
  9
$THICKNESS
 40
0.0
  9
$LIMCHECK
 70
     0
  9
$CHAMFERA
 40
10.0
  9
$CHAMFERB
 40
10.0
  9
$CHAMFERC
 40
20.0
  9
$CHAMFERD
 40
0.0
  9
$SKPOLY
 70
     0
  9
$TDCREATE
 40
2454284.635405810
  9
$TDUCREATE
 40
2454284.260405810
  9
$TDUPDATE
 40
2456899.672623761
  9
$TDUUPDATE
 40
2456899.297623761
  9
$TDINDWG
 40
0.0031007060
  9
$TDUSRTIMER
 40
0.0031007060
  9
$USRTIMER
 70
     1
  9
$ANGBASE
 50
0.0
  9
$ANGDIR
 70
     0
  9
$PDMODE
 70
     0
  9
$PDSIZE
 40
0.0
  9
$PLINEWID
 40
0.0
  9
$SPLFRAME
 70
     0
  9
$SPLINETYPE
 70
     6
  9
$SPLINESEGS
 70
     8
  9
$HANDSEED
  5
691
  9
$SURFTAB1
 70
     6
  9
$SURFTAB2
 70
     6
  9
$SURFTYPE
 70
     6
  9
$SURFU
 70
     6
  9
$SURFV
 70
     6
  9
$UCSBASE
  2

  9
$UCSNAME
  2

  9
$UCSORG
 10
0.0
 20
0.0
 30
0.0
  9
$UCSXDIR
 10
1.0
 20
0.0
 30
0.0
  9
$UCSYDIR
 10
0.0
 20
1.0
 30
0.0
  9
$UCSORTHOREF
  2

  9
$UCSORTHOVIEW
 70
     0
  9
$UCSORGTOP
 10
0.0
 20
0.0
 30
0.0
  9
$UCSORGBOTTOM
 10
0.0
 20
0.0
 30
0.0
  9
$UCSORGLEFT
 10
0.0
 20
0.0
 30
0.0
  9
$UCSORGRIGHT
 10
0.0
 20
0.0
 30
0.0
  9
$UCSORGFRONT
 10
0.0
 20
0.0
 30
0.0
  9
$UCSORGBACK
 10
0.0
 20
0.0
 30
0.0
  9
$PUCSBASE
  2

  9
$PUCSNAME
  2

  9
$PUCSORG
 10
0.0
 20
0.0
 30
0.0
  9
$PUCSXDIR
 10
1.0
 20
0.0
 30
0.0
  9
$PUCSYDIR
 10
0.0
 20
1.0
 30
0.0
  9
$PUCSORTHOREF
  2

  9
$PUCSORTHOVIEW
 70
     0
  9
$PUCSORGTOP
 10
0.0
 20
0.0
 30
0.0
  9
$PUCSORGBOTTOM
 10
0.0
 20
0.0
 30
0.0
  9
$PUCSORGLEFT
 10
0.0
 20
0.0
 30
0.0
  9
$PUCSORGRIGHT
 10
0.0
 20
0.0
 30
0.0
  9
$PUCSORGFRONT
 10
0.0
 20
0.0
 30
0.0
  9
$PUCSORGBACK
 10
0.0
 20
0.0
 30
0.0
  9
$USERI1
 70
     0
  9
$USERI2
 70
     0
  9
$USERI3
 70
     0
  9
$USERI4
 70
     0
  9
$USERI5
 70
     0
  9
$USERR1
 40
0.0
  9
$USERR2
 40
0.0
  9
$USERR3
 40
0.0
  9
$USERR4
 40
0.0
  9
$USERR5
 40
0.0
  9
$WORLDVIEW
 70
     1
  9
$SHADEDGE
 70
     3
  9
$SHADEDIF
 70
    70
  9
$TILEMODE
 70
     1
  9
$MAXACTVP
 70
    48
  9
$PINSBASE
 10
0.0
 20
0.0
 30
0.0
  9
$PLIMCHECK
 70
     0
  9
$PEXTMIN
 10
26.66076962115562
 20
20.31135699206657
 30
-0.0015258207003583
  9
$PEXTMAX
 10
240.039213369355
 20
182.8886381005154
 30
0.0000000349246037
  9
$PLIMMIN
 10
-6.350006103515625
 20
-6.349999904632568
  9
$PLIMMAX
 10
273.0499877929687
 20
209.5499939918517
  9
$UNITMODE
 70
     0
  9
$VISRETAIN
 70
     1
  9
$PLINEGEN
 70
     0
  9
$PSLTSCALE
 70
     1
  9
$TREEDEPTH
 70
  3020
  9
$CMLSTYLE
  2
Standard
  9
$CMLJUST
 70
     0
  9
$CMLSCALE
 40
20.0
  9
$PROXYGRAPHICS
 70
     1
  9
$MEASUREMENT
 70
     1
  9
$CELWEIGHT
370
    -1
  9
$ENDCAPS
280
     0
  9
$JOINSTYLE
280
     0
  9
$LWDISPLAY
290
     0
  9
$INSUNITS
 70
     4
  9
$HYPERLINKBASE
  1

  9
$STYLESHEET
  1

  9
$XEDIT
290
     1
  9
$CEPSNTYPE
380
     0
  9
$PSTYLEMODE
290
     1
  9
$FINGERPRINTGUID
  2
{FDEAD578-A652-11D2-9A35-0060089B3A3F}
  9
$VERSIONGUID
  2
{3C65A8B3-E5FA-43AE-BAF5-B3F115DFB918}
  9
$EXTNAMES
290
     1
  9
$PSVPSCALE
 40
0.0
  9
$OLESTARTUP
290
     0
  0
ENDSEC
  0
SECTION
  2
CLASSES
  0
CLASS
  1
ACDBDICTIONARYWDFLT
  2
AcDbDictionaryWithDefault
  3
AutoCAD 2000
 90
        0
280
     0
281
     0
  0
CLASS
  1
ACDBPLACEHOLDER
  2
AcDbPlaceHolder
  3
AutoCAD 2000
 90
        0
280
     0
281
     0
  0
CLASS
  1
LAYOUT
  2
AcDbLayout
  3
AutoCAD 2000
 90
        0
280
     0
281
     0
  0
CLASS
  1
DICTIONARYVAR
  2
AcDbDictionaryVar
  3
AutoCAD 2000
 90
        0
280
     0
281
     0
  0
CLASS
  1
LONG_TRANSACTION
  2
AcDbLongTransaction
  3
AutoCAD 2000
 90
    32768
280
     0
281
     0
  0
CLASS
  1
LWPOLYLINE
  2
AcDbPolyline
  3
AutoCAD 2000
 90
    32768
280
     0
281
     1
  0
CLASS
  1
HATCH
  2
AcDbHatch
  3
AutoCAD 2000
 90
    32768
280
     0
281
     1
  0
CLASS
  1
XRECORD
  2
AcDbXrecord
  3
AutoCAD 2000
 90
    32768
280
     0
281
     0
  0
ENDSEC
  0
SECTION
  2
TABLES
  0
TABLE
  2
VPORT
  5
8
330
0
100
AcDbSymbolTable
 70
     2
  0
VPORT
  5
690
330
8
100
AcDbSymbolTableRecord
100
AcDbViewportTableRecord
  2
*Active
 70
     0
 10
0.0
 20
0.0
 11
1.0
 21
1.0
 12
707.8301603418903
 22
357.9763660157869
 13
0.0
 23
0.0
 14
10.0
 24
10.0
 15
10.0
 25
10.0
 16
0.0
 26
0.0
 36
1.0
 17
0.0
 27
0.0
 37
0.0
 40
693.8541908948201
 41
1.592161016949152
 42
50.0
 43
0.0
 44
0.0
 50
0.0
 51
0.0
 71
     0
 72
   100
 73
     1
 74
     3
 75
     0
 76
     0
 77
     0
 78
     0
281
     0
 65
     1
110
0.0
120
0.0
130
0.0
111
1.0
121
0.0
131
0.0
112
0.0
122
1.0
132
0.0
 79
     0
146
0.0
  0
ENDTAB
  0
TABLE
  2
LTYPE
  5
5
330
0
100
AcDbSymbolTable
 70
     3
  0
LTYPE
  5
14
330
5
100
AcDbSymbolTableRecord
100
AcDbLinetypeTableRecord
  2
ByBlock
 70
     0
  3

 72
    65
 73
     0
 40
0.0
  0
LTYPE
  5
15
330
5
100
AcDbSymbolTableRecord
100
AcDbLinetypeTableRecord
  2
ByLayer
 70
     0
  3

 72
    65
 73
     0
 40
0.0
  0
LTYPE
  5
16
330
5
100
AcDbSymbolTableRecord
100
AcDbLinetypeTableRecord
  2
Continuous
 70
     0
  3
Solid line
 72
    65
 73
     0
 40
0.0
  0
LTYPE
  5
86
330
5
100
AcDbSymbolTableRecord
100
AcDbLinetypeTableRecord
  2
HIDDEN
 70
     0
  3
Hidden __ __ __ __ __ __ __ __ __ __ __ __ __ _
 72
    65
 73
     2
 40
0.375
 49
0.25
 74
     0
 49
-0.125
 74
     0
  0
LTYPE
  5
345
330
5
100
AcDbSymbolTableRecord
100
AcDbLinetypeTableRecord
  2
CENTER
 70
     0
  3
Center ____ _ ____ _ ____ _ ____ _ ____ _ ____
 72
    65
 73
     4
 40
50.8
 49
31.75
 74
     0
 49
-6.349999999999999
 74
     0
 49
6.349999999999999
 74
     0
 49
-6.349999999999999
 74
     0
  0
ENDTAB
  0
TABLE
  2
LAYER
  5
2
102
{ACAD_XDICTIONARY
360
346
102
}
330
0
100
AcDbSymbolTable
 70
     1
  0
LAYER
  5
10
330
2
100
AcDbSymbolTableRecord
100
AcDbLayerTableRecord
  2
0
 70
     0
 62
     7
  6
Continuous
370
    -3
390
F
  0
ENDTAB
  0
TABLE
  2
STYLE
  5
3
330
0
100
AcDbSymbolTable
 70
     1
  0
STYLE
  5
11
330
3
100
AcDbSymbolTableRecord
100
AcDbTextStyleTableRecord
  2
Standard
 70
     0
 40
0.0
 41
1.0
 50
0.0
 71
     0
 42
2.5
  3
txt
  4

  0
ENDTAB
  0
TABLE
  2
VIEW
  5
6
330
0
100
AcDbSymbolTable
 70
     0
  0
ENDTAB
  0
TABLE
  2
UCS
  5
7
330
0
100
AcDbSymbolTable
 70
     0
  0
ENDTAB
  0
TABLE
  2
APPID
  5
9
330
0
100
AcDbSymbolTable
 70
     1
  0
APPID
  5
12
330
9
100
AcDbSymbolTableRecord
100
AcDbRegAppTableRecord
  2
ACAD
 70
     0
  0
ENDTAB
  0
TABLE
  2
DIMSTYLE
  5
A
330
0
100
AcDbSymbolTable
 70
     1
100
AcDbDimStyleTable
 71
     0
  0
DIMSTYLE
105
27
330
A
100
AcDbSymbolTableRecord
100
AcDbDimStyleTableRecord
  2
ISO-25
 70
     0
 41
2.5
 42
0.625
 43
3.75
 44
1.25
 73
     0
 74
     0
 77
     1
 78
     8
140
2.5
141
2.5
143
0.03937007874016
147
0.625
171
     3
172
     1
271
     2
272
     2
274
     3
278
    44
283
     0
284
     8
340
11
  0
ENDTAB
  0
TABLE
  2
BLOCK_RECORD
  5
1
330
0
100
AcDbSymbolTable
 70
     1
  0
BLOCK_RECORD
  5
1F
102
{ACAD_XDICTIONARY
360
2FE
102
}
330
1
100
AcDbSymbolTableRecord
100
AcDbBlockTableRecord
  2
*Model_Space
340
22
  0
BLOCK_RECORD
  5
55
102
{ACAD_XDICTIONARY
360
300
102
}
330
1
100
AcDbSymbolTableRecord
100
AcDbBlockTableRecord
  2
*Paper_Space
340
56
  0
BLOCK_RECORD
  5
50
102
{ACAD_XDICTIONARY
360
302
102
}
330
1
100
AcDbSymbolTableRecord
100
AcDbBlockTableRecord
  2
*Paper_Space0
340
51
  0
ENDTAB
  0
ENDSEC
  0
SECTION
  2
BLOCKS
  0
BLOCK
  5
20
330
1F
100
AcDbEntity
  8
0
100
AcDbBlockBegin
  2
*Model_Space
 70
     0
 10
0.0
 20
0.0
 30
0.0
  3
*Model_Space
  1

  0
ENDBLK
  5
21
330
1F
100
AcDbEntity
  8
0
100
AcDbBlockEnd
  0
BLOCK
  5
57
330
55
100
AcDbEntity
 67
     1
  8
0
100
AcDbBlockBegin
  2
*Paper_Space
 70
     0
 10
0.0
 20
0.0
 30
0.0
  3
*Paper_Space
  1

  0
ENDBLK
  5
58
330
55
100
AcDbEntity
 67
     1
  8
0
100
AcDbBlockEnd
  0
BLOCK
  5
52
330
50
100
AcDbEntity
  8
0
100
AcDbBlockBegin
  2
*Paper_Space0
 70
     0
 10
0.0
 20
0.0
 30
0.0
  3
*Paper_Space0
  1

  0
VIEWPORT
  5
6B
330
50
100
AcDbEntity
  8
0
100
AcDbViewport
 10
133.3499908447265
 20
101.5999970436096
 30
0.0
 40
381.3957395593834
 41
218.2856291881582
 69
     0
 12
133.3499908447265
 22
101.5999970436096
 13
0.0
 23
0.0
 14
10.0
 24
10.0
 15
10.0
 25
10.0
 16
0.0
 26
0.0
 36
1.0
 17
0.0
 27
0.0
 37
0.0
 42
50.0
 43
0.0
 44
0.0
 45
218.2856291881582
 50
0.0
 51
0.0
 72
   100
 90
    32800
  1

281
     0
 71
     1
 74
     0
110
0.0
120
0.0
130
0.0
111
1.0
121
0.0
131
0.0
112
0.0
122
1.0
132
0.0
 79
     0
146
0.0
  0
VIEWPORT
  5
6D
330
50
100
AcDbEntity
  8
0
100
AcDbViewport
 10
133.349993944168
 20
101.599993944168
 30
0.0
 40
213.3599903106689
 41
162.5599903106689
 69
     0
 12
210.0
 22
148.5
 13
0.0
 23
0.0
 14
10.0
 24
10.0
 15
10.0
 25
10.0
 16
0.0
 26
0.0
 36
1.0
 17
0.0
 27
0.0
 37
0.0
 42
50.0
 43
0.0
 44
0.0
 45
324.0677920111345
 50
0.0
 51
0.0
 72
   100
 90
    32864
  1

281
     0
 71
     1
 74
     0
110
0.0
120
0.0
130
0.0
111
1.0
121
0.0
131
0.0
112
0.0
122
1.0
132
0.0
 79
     0
146
0.0
  0
ENDBLK
  5
53
330
50
100
AcDbEntity
  8
0
100
AcDbBlockEnd
  0
ENDSEC
  0
SECTION
  2
ENTITIES
  0
LINE
  5
1C0
330
1F
100
AcDbEntity
  8
0
  6
Continuous
100
AcDbLine
 10
320.181258282792
 20
427.4383025547551
 30
0.0
 11
314.1658682899908
 21
427.4383025547551
 31
0.0
  0
LINE
  5
1C1
330
1F
100
AcDbEntity
  8
0
  6
Continuous
100
AcDbLine
 10
320.181258282792
 20
445.5260391990973
 30
0.0
 11
314.1658682899909
 21
445.5260391990973
 31
0.0
  0
ARC
  5
1C2
330
1F
100
AcDbEntity
  8
0
  6
Continuous
100
AcDbCircle
 10
283.1812602402205
 20
436.4821708769263
 30
0.0
 40
32.27750749712027
100
AcDbArc
 50
343.7283932338221
 51
16.27160676617789
  0
LINE
  5
1C3
330
1F
100
AcDbEntity
  8
0
  6
Continuous
100
AcDbLine
 10
322.1812724942483
 20
441.1869656515864
 30
0.0
 11
322.1812655632418
 21
431.7534088375964
 31
0.0
  0
LINE
  5
1C4
330
1F
100
AcDbEntity
  8
0
  6
Continuous
100
AcDbLine
 10
323.2466085086434
 20
431.7201222438411
 30
0.0
 11
320.1812573343932
 21
431.8159175076621
 31
0.0
  0
LINE
  5
1C5
330
1F
100
AcDbEntity
  8
0
  6
Continuous
100
AcDbLine
 10
323.2451680132328
 20
441.2201368889559
 30
0.0
 11
320.1812477356325
 21
441.1243861545547
 31
0.0
  0
LINE
  5
1C6
330
1F
100
AcDbEntity
  8
0
  6
Continuous
100
AcDbLine
 10
325.2452199841711
 20
431.7201327355517
 30
0.0
 11
323.2452013659631
 21
431.7201277644174
 31
0.0
  0
LINE
  5
1C7
330
1F
100
AcDbEntity
  8
0
  6
Continuous
100
AcDbLine
 10
325.2452166470502
 20
441.2201471575603
 30
0.0
 11
323.2452031792229
 21
441.2201507580989
 31
0.0
  0
LINE
  5
1C8
330
1F
100
AcDbEntity
  8
0
  6
Continuous
100
AcDbLine
 10
325.2452187157766
 20
441.4701321188995
 30
0.0
 11
325.2452179154449
 21
431.4701477742127
 31
0.0
  0
LINE
  5
1C9
330
1F
100
AcDbEntity
  8
0
  6
Continuous
100
AcDbLine
 10
337.7451828493913
 20
441.4701234113558
 30
0.0
 11
325.2452187157766
 21
441.4701321188995
 31
0.0
  0
LINE
  5
1CA
330
1F
100
AcDbEntity
  8
0
  6
Continuous
100
AcDbLine
 10
337.7451871994401
 20
431.470147638342
 30
0.0
 11
325.2452179154449
 21
431.4701477742127
 31
0.0
  0
LINE
  5
1CB
330
1F
100
AcDbEntity
  8
0
100
AcDbLine
 10
337.7451828493913
 20
441.4701234113558
 30
0.0
 11
337.7451871994401
 21
431.470147638342
 31
0.0
  0
LINE
  5
1CC
330
1F
100
AcDbEntity
  8
0
  6
Continuous
100
AcDbLine
 10
320.181258282792
 20
445.5260391990973
 30
0.0
 11
320.181258282792
 21
427.4383025547551
 31
0.0
  0
ARC
  5
1CD
330
1F
100
AcDbEntity
  8
0
  6
Continuous
100
AcDbCircle
 10
320.5978502402206
 20
425.4821708769262
 30
0.0
 40
2.0
100
AcDbArc
 50
90.0
 51
163.6173500000005
  0
ARC
  5
1CE
330
1F
100
AcDbEntity
  8
0
  6
Continuous
100
AcDbCircle
 10
327.1812702402205
 20
444.4821708769262
 30
0.0
 40
1.0
100
AcDbArc
 50
0.0
 51
90.0
  0
ARC
  5
1CF
330
1F
100
AcDbEntity
  8
0
  6
Continuous
100
AcDbCircle
 10
327.1812702402205
 20
428.4821708769262
 30
0.0
 40
1.0
100
AcDbArc
 50
270.0
 51
0.0
  0
ARC
  5
1D0
330
1F
100
AcDbEntity
  8
0
  6
Continuous
100
AcDbCircle
 10
320.5978502402206
 20
447.4821708769262
 30
0.0
 40
2.0
100
AcDbArc
 50
196.3826450000029
 51
270.0
  0
LINE
  5
1D2
330
1F
100
AcDbEntity
  8
0
  6
Continuous
100
AcDbLine
 10
328.1812702402205
 20
431.4821508769262
 30
0.0
 11
328.1812702402205
 21
428.4821708769262
 31
0.0
  0
LINE
  5
1D3
330
1F
100
AcDbEntity
  8
0
  6
Continuous
100
AcDbLine
 10
328.1812702402205
 20
444.4821708769262
 30
0.0
 11
328.1812702402205
 21
441.4821408769262
 31
0.0
  0
LINE
  5
1D4
330
1F
100
AcDbEntity
  8
0
  6
Continuous
100
AcDbLine
 10
327.1812702402205
 20
427.4821708769263
 30
0.0
 11
320.5978502402206
 21
427.4821708769263
 31
0.0
  0
LINE
  5
1D5
330
1F
100
AcDbEntity
  8
0
  6
Continuous
100
AcDbLine
 10
327.1812702402205
 20
445.4821708769262
 30
0.0
 11
320.5978502402206
 21
445.4821708769262
 31
0.0
  0
LINE
  5
1D6
330
1F
100
AcDbEntity
  8
0
  6
Continuous
100
AcDbLine
 10
337.7412702402204
 20
431.4821508769262
 30
0.0
 11
328.1812702402205
 21
431.4821508769262
 31
0.0
  0
LINE
  5
1D7
330
1F
100
AcDbEntity
  8
0
  6
Continuous
100
AcDbLine
 10
337.7412702402204
 20
441.4821408769262
 30
0.0
 11
328.1812702402205
 21
441.4821408769262
 31
0.0
  0
ARC
  5
1D8
330
1F
100
AcDbEntity
  8
0
  6
Continuous
100
AcDbCircle
 10
293.7814802402206
 20
477.1224908769263
 30
0.0
 40
5.0
100
AcDbArc
 50
255.3812299999981
 51
268.0000200000009
  0
ARC
  5
1D9
330
1F
100
AcDbEntity
  8
0
  6
Continuous
100
AcDbCircle
 10
272.5810402402205
 20
477.1224908769263
 30
0.0
 40
5.0
100
AcDbArc
 50
272.0000299999914
 51
284.6187700000018
  0
ARC
  5
1DA
330
1F
100
AcDbEntity
  8
0
  6
Continuous
100
AcDbCircle
 10
272.5810402402205
 20
395.8418508769262
 30
0.0
 40
5.0
100
AcDbArc
 50
75.38122999999815
 51
88.00002000000095
  0
ARC
  5
1DB
330
1F
100
AcDbEntity
  8
0
  6
Continuous
100
AcDbCircle
 10
293.7814802402206
 20
395.8418508769262
 30
0.0
 40
5.0
100
AcDbArc
 50
92.00002999999144
 51
104.6187700000018
  0
ARC
  5
1DC
330
1F
100
AcDbEntity
  8
0
  6
Continuous
100
AcDbCircle
 10
322.0668422402204
 20
420.6104408769262
 30
0.0
 40
5.0
100
AcDbArc
 50
157.7963899999996
 51
184.9999699999987
  0
ARC
  5
1DD
330
1F
100
AcDbEntity
  8
0
  6
Continuous
100
AcDbCircle
 10
322.0668422402204
 20
452.3539008769263
 30
0.0
 40
5.0
100
AcDbArc
 50
175.0000300000011
 51
202.2036100000002
  0
ARC
  5
1DE
330
1F
100
AcDbEntity
  8
0
  6
Continuous
100
AcDbCircle
 10
312.1726392402206
 20
407.4907808769262
 30
0.0
 40
6.0
100
AcDbArc
 50
271.9999999999906
 51
4.999994600000458
  0
ARC
  5
1DF
330
1F
100
AcDbEntity
  8
0
  6
Continuous
100
AcDbCircle
 10
312.1726462402205
 20
465.4735308769264
 30
0.0
 40
6.0
100
AcDbArc
 50
355.0000100000007
 51
88.00000400000248
  0
LINE
  5
1E0
330
1F
100
AcDbEntity
  8
0
  6
Continuous
100
AcDbLine
 10
312.3820432402205
 20
471.4698908769263
 30
0.0
 11
293.6069732402206
 21
472.1255308769264
 31
0.0
  0
LINE
  5
1E1
330
1F
100
AcDbEntity
  8
0
  6
Continuous
100
AcDbLine
 10
318.1498042402206
 20
464.9506108769262
 30
0.0
 11
317.0858582402206
 21
452.7896708769262
 31
0.0
  0
LINE
  5
1E2
330
1F
100
AcDbEntity
  8
0
  6
Continuous
100
AcDbLine
 10
318.1498042402206
 20
408.0137308769263
 30
0.0
 11
317.0858622402206
 21
420.1746408769262
 31
0.0
  0
LINE
  5
1E3
330
1F
100
AcDbEntity
  8
0
  6
Continuous
100
AcDbLine
 10
312.3820432402205
 20
401.4944408769263
 30
0.0
 11
293.6069802402205
 21
400.8388008769263
 31
0.0
  0
ARC
  5
1E4
330
1F
100
AcDbEntity
  8
0
  6
Continuous
100
AcDbCircle
 10
244.2956782402207
 20
452.3539008769262
 30
0.0
 40
5.0
100
AcDbArc
 50
337.7963900000012
 51
4.999969999998843
  0
ARC
  5
1E5
330
1F
100
AcDbEntity
  8
0
  6
Continuous
100
AcDbCircle
 10
244.2956782402207
 20
420.6104408769262
 30
0.0
 40
5.0
100
AcDbArc
 50
355.0000300000011
 51
22.20360999999878
  0
ARC
  5
1E6
330
1F
100
AcDbEntity
  8
0
  6
Continuous
100
AcDbCircle
 10
254.1898812402205
 20
465.4735608769263
 30
0.0
 40
6.0
100
AcDbArc
 50
92.00000000000366
 51
184.9999945999972
  0
ARC
  5
1E7
330
1F
100
AcDbEntity
  8
0
  6
Continuous
100
AcDbCircle
 10
283.1812602402205
 20
436.4821708769262
 30
0.0
 40
37.0
100
AcDbArc
 50
14.14808445404666
 51
345.8519155459533
  0
ARC
  5
1E8
330
1F
100
AcDbEntity
  8
0
  6
Continuous
100
AcDbCircle
 10
254.1898742402205
 20
407.4908108769262
 30
0.0
 40
6.0
100
AcDbArc
 50
175.0000100000007
 51
268.0000040000024
  0
LINE
  5
1E9
330
1F
100
AcDbEntity
  8
0
  6
Continuous
100
AcDbLine
 10
253.9804772402204
 20
401.4944508769262
 30
0.0
 11
272.7555472402205
 21
400.8388108769262
 31
0.0
  0
LINE
  5
1EA
330
1F
100
AcDbEntity
  8
0
  6
Continuous
100
AcDbLine
 10
248.2127162402203
 20
408.0137308769263
 30
0.0
 11
249.2766622402204
 21
420.1746708769262
 31
0.0
  0
LINE
  5
1EB
330
1F
100
AcDbEntity
  8
0
  6
Continuous
100
AcDbLine
 10
248.2127162402205
 20
464.9506108769262
 30
0.0
 11
249.2766582402205
 21
452.7897008769262
 31
0.0
  0
LINE
  5
1EC
330
1F
100
AcDbEntity
  8
0
  6
Continuous
100
AcDbLine
 10
253.9804772402205
 20
471.4699008769262
 30
0.0
 11
272.7555402402206
 21
472.1255408769263
 31
0.0
  0
ARC
  5
1ED
330
1F
100
AcDbEntity
  8
0
  6
HIDDEN
 48
10.0
100
AcDbCircle
 10
283.18124970819
 20
436.4821519745773
 30
0.0
 40
29.5
100
AcDbArc
 50
32.06379000000513
 51
57.93620999999936
  0
ARC
  5
1EE
330
1F
100
AcDbEntity
  8
0
  6
HIDDEN
 48
10.0
100
AcDbCircle
 10
283.18124970819
 20
436.4821519745773
 30
0.0
 40
29.5
100
AcDbArc
 50
212.063790000005
 51
237.9362099999993
  0
ARC
  5
1EF
330
1F
100
AcDbEntity
  8
0
  6
HIDDEN
 48
10.0
100
AcDbCircle
 10
283.18124970819
 20
436.4821519745773
 30
0.0
 40
29.5
100
AcDbArc
 50
302.0637880000064
 51
327.9362119999994
  0
ARC
  5
1F0
330
1F
100
AcDbEntity
  8
0
  6
HIDDEN
 48
10.0
100
AcDbCircle
 10
283.18124970819
 20
436.4821519745773
 30
0.0
 40
29.5
100
AcDbArc
 50
122.0637900000006
 51
147.9362099999948
  0
LINE
  5
1F1
330
1F
100
AcDbEntity
  8
0
  6
HIDDEN
 48
10.0
100
AcDbLine
 10
267.52078970819
 20
411.4821519745774
 30
0.0
 11
298.8417097081901
 21
411.4821519745774
 31
0.0
  0
LINE
  5
1F2
330
1F
100
AcDbEntity
  8
0
  6
HIDDEN
 48
10.0
100
AcDbLine
 10
267.52078970819
 20
461.4821519745773
 30
0.0
 11
298.8417097081901
 21
461.4821519745773
 31
0.0
  0
LINE
  5
1F3
330
1F
100
AcDbEntity
  8
0
  6
HIDDEN
 48
10.0
100
AcDbLine
 10
308.18124970819
 20
452.1426129745773
 30
0.0
 11
308.18124970819
 21
420.8216909745774
 31
0.0
  0
LINE
  5
1F4
330
1F
100
AcDbEntity
  8
0
  6
HIDDEN
 48
10.0
100
AcDbLine
 10
258.1812297081901
 20
452.1426129745773
 30
0.0
 11
258.1812297081901
 21
420.8216909745774
 31
0.0
  0
CIRCLE
  5
1F5
330
1F
100
AcDbEntity
  8
0
  6
Continuous
100
AcDbCircle
 10
283.18124970819
 20
436.4821708769263
 30
0.0
 40
24.99999718219629
  0
CIRCLE
  5
1F6
330
1F
100
AcDbEntity
  8
0
  6
Continuous
100
AcDbCircle
 10
283.1812602402205
 20
436.4821708769263
 30
0.0
 40
7.999978168122083
  0
CIRCLE
  5
1F7
330
1F
100
AcDbEntity
  8
0
  6
Continuous
100
AcDbCircle
 10
283.1812602402205
 20
436.4821708769263
 30
0.0
 40
7.499976352949602
  0
LINE
  5
1F8
330
1F
100
AcDbEntity
  8
0
  6
Continuous
100
AcDbLine
 10
308.1812638255549
 20
93.3655710960228
 30
0.0
 11
258.1812638255548
 21
93.3655710960228
 31
0.0
  0
LINE
  5
1F9
330
1F
100
AcDbEntity
  8
0
100
AcDbLine
 10
290.6813621300772
 20
207.8655954080222
 30
0.0
 11
290.6812486014292
 21
187.231620676565
 31
0.0
  0
LINE
  5
1FA
330
1F
100
AcDbEntity
  8
0
100
AcDbLine
 10
291.1812017351646
 20
184.3656388753218
 30
0.0
 11
291.1812071454282
 21
185.3656336088931
 31
0.0
  0
LINE
  5
1FB
330
1F
100
AcDbEntity
  8
0
100
AcDbLine
 10
291.1812071454282
 20
185.3656336088931
 30
0.0
 11
290.6812041555096
 21
187.2316630541518
 31
0.0
  0
ARC
  5
1FC
330
1F
100
AcDbEntity
  8
0
100
AcDbCircle
 10
312.1726370459047
 20
104.5995776922965
 30
0.0
 40
5.4168334
100
AcDbArc
 50
301.1868699999924
 51
345.7430900000015
  0
ARC
  5
1FD
330
1F
100
AcDbEntity
  8
0
100
AcDbCircle
 10
312.1726370459047
 20
104.5995776922965
 30
0.0
 40
5.4168334
100
AcDbArc
 50
194.2569300000018
 51
238.8131800000043
  0
ARC
  5
1FE
330
1F
100
AcDbEntity
  8
0
100
AcDbCircle
 10
254.1898730344395
 20
104.5995673727578
 30
0.0
 40
5.4168334
100
AcDbArc
 50
301.1868699999924
 51
345.7430900000015
  0
ARC
  5
1FF
330
1F
100
AcDbEntity
  8
0
100
AcDbCircle
 10
254.1898730344395
 20
104.5995673727578
 30
0.0
 40
5.4168334
100
AcDbArc
 50
194.2568999999939
 51
238.8131800000043
  0
ARC
  5
200
330
1F
100
AcDbEntity
  8
0
100
AcDbCircle
 10
263.1195039027672
 20
129.870900157123
 30
0.0
 40
5.0
100
AcDbArc
 50
0.0000599999995248
 51
90.00002599999742
  0
ARC
  5
201
330
1F
100
AcDbEntity
  8
0
100
AcDbCircle
 10
253.1898856137331
 20
129.8709018932788
 30
0.0
 40
5.0
100
AcDbArc
 50
90.00002599999742
 51
180.0000599999995
  0
ARC
  5
202
330
1F
100
AcDbEntity
  8
0
100
AcDbCircle
 10
254.1898699068298
 20
133.8655479932156
 30
0.0
 40
5.0
100
AcDbArc
 50
220.7177200000038
 51
295.106299999999
  0
ARC
  5
203
330
1F
100
AcDbEntity
  8
0
100
AcDbCircle
 10
303.2430096380014
 20
129.8708964792906
 30
0.0
 40
5.0
100
AcDbArc
 50
90.00006300000373
 51
180.0000599999995
  0
ARC
  5
204
330
1F
100
AcDbEntity
  8
0
100
AcDbCircle
 10
313.1726390775874
 20
129.8708997095416
 30
0.0
 40
5.0
100
AcDbArc
 50
0.0000599999995248
 51
90.00006300000373
  0
ARC
  5
205
330
1F
100
AcDbEntity
  8
0
100
AcDbCircle
 10
312.1726424973453
 20
133.8655648242747
 30
0.0
 40
5.0
100
AcDbArc
 50
244.8936599999999
 51
319.2823699999934
  0
ARC
  5
206
330
1F
100
AcDbEntity
  8
0
100
AcDbCircle
 10
301.6812811339631
 20
95.36556673383575
 30
0.0
 40
2.0
100
AcDbArc
 50
180.0003199999996
 51
251.8017599999933
  0
ARC
  5
207
330
1F
100
AcDbEntity
  8
0
100
AcDbCircle
 10
278.6812737088545
 20
95.36555453918595
 30
0.0
 40
2.0
100
AcDbArc
 50
270.000119999999
 51
0.0003199999996385
  0
ARC
  5
208
330
1F
100
AcDbEntity
  8
0
100
AcDbCircle
 10
278.68126316224
 20
102.8655436622452
 30
0.0
 40
2.0
100
AcDbArc
 50
0.0003199999996385
 51
90.00011599999345
  0
ARC
  5
209
330
1F
100
AcDbEntity
  8
0
100
AcDbCircle
 10
319.1812724001788
 20
169.8657350615333
 30
0.0
 40
1.0
100
AcDbArc
 50
0.0003799999991644
 51
90.00011599999345
  0
ARC
  5
20A
330
1F
100
AcDbEntity
  8
0
100
AcDbCircle
 10
287.6812689013792
 20
102.8655487603566
 30
0.0
 40
2.0
100
AcDbArc
 50
90.00011599999345
 51
180.0003199999996
  0
ARC
  5
20B
330
1F
100
AcDbEntity
  8
0
100
AcDbCircle
 10
316.9934345695494
 20
172.8657325910662
 30
0.0
 40
2.0
100
AcDbArc
 50
194.9998300000024
 51
269.9998900000019
  0
ARC
  5
20C
330
1F
100
AcDbEntity
  8
0
100
AcDbCircle
 10
219.63823031497
 20
142.1025513583629
 30
0.0
 40
100.0
100
AcDbArc
 50
0.9999899999954543
 51
14.99999999999445
  0
ARC
  5
20D
330
1F
100
AcDbEntity
  8
0
100
AcDbCircle
 10
259.1812822863464
 20
183.3656193820995
 30
0.0
 40
1.0
100
AcDbArc
 50
89.99966600000027
 51
180.0002700000011
  0
ARC
  5
20E
330
1F
100
AcDbEntity
  8
0
100
AcDbCircle
 10
307.1812728595222
 20
183.3656161849301
 30
0.0
 40
1.0
100
AcDbArc
 50
0.0002700000011195
 51
90.00011599999345
  0
ARC
  5
20F
330
1F
100
AcDbEntity
  8
0
100
AcDbCircle
 10
256.250578775701
 20
175.3656220652069
 30
0.0
 40
4.0
100
AcDbArc
 50
89.99989099999686
 51
164.9998599999982
  0
ARC
  5
210
330
1F
100
AcDbEntity
  8
0
100
AcDbCircle
 10
287.6812760193244
 20
95.3655616974496
 30
0.0
 40
2.0
100
AcDbArc
 50
180.0003199999996
 51
270.000119999999
  0
ARC
  5
211
330
1F
100
AcDbEntity
  8
0
100
AcDbCircle
 10
319.1812633176696
 20
105.8655389770274
 30
0.0
 40
1.0
100
AcDbArc
 50
269.9996699999928
 51
0.0003199999996385
  0
ARC
  5
212
330
1F
100
AcDbEntity
  8
0
100
AcDbCircle
 10
264.6812660227139
 20
95.36555104791409
 30
0.0
 40
2.0
100
AcDbArc
 50
288.1982400000065
 51
0.0003799999991644
  0
ARC
  5
213
330
1F
100
AcDbEntity
  8
0
100
AcDbCircle
 10
304.68126670351
 20
99.86554381455642
 30
0.0
 40
5.0
100
AcDbArc
 50
90.00006300000373
 51
180.0000599999995
  0
ARC
  5
214
330
1F
100
AcDbEntity
  8
0
100
AcDbCircle
 10
261.6812660696165
 20
99.86554095351813
 30
0.0
 40
5.0
100
AcDbArc
 50
0.0000599999995248
 51
90.00002599999742
  0
ARC
  5
215
330
1F
100
AcDbEntity
  8
0
100
AcDbCircle
 10
247.1812680290653
 20
105.8655494382005
 30
0.0
 40
1.0
100
AcDbArc
 50
180.0002700000011
 51
269.9996699999928
  0
ARC
  5
216
330
1F
100
AcDbEntity
  8
0
100
AcDbCircle
 10
327.181274084761
 20
113.3655565931819
 30
0.0
 40
1.0
100
AcDbArc
 50
269.9996699999928
 51
0.0003199999996385
  0
ARC
  5
217
330
1F
100
AcDbEntity
  8
0
100
AcDbCircle
 10
322.1812731632696
 20
132.3655590848932
 30
0.0
 40
2.0
100
AcDbArc
 50
180.0003199999996
 51
270.000119999999
  0
ARC
  5
218
330
1F
100
AcDbEntity
  8
0
100
AcDbCircle
 10
310.1119359777261
 20
175.365622385595
 30
0.0
 40
4.0
100
AcDbArc
 50
15.00006000000339
 51
90.00000299999769
  0
ARC
  5
219
330
1F
100
AcDbEntity
  8
0
100
AcDbCircle
 10
327.1812793333431
 20
129.3655688259707
 30
0.0
 40
1.0
100
AcDbArc
 50
0.0003799999991644
 51
89.99966600000027
  0
ARC
  5
21A
330
1F
100
AcDbEntity
  8
0
100
AcDbCircle
 10
346.7242690318587
 20
142.1025528415145
 30
0.0
 40
100.0
100
AcDbArc
 50
165.0000000000055
 51
179.0000100000045
  0
LINE
  5
21B
330
1F
100
AcDbEntity
  8
0
100
AcDbLine
 10
309.3676317688534
 20
99.96552844806922
 30
0.0
 11
314.9776251587407
 21
99.96553988599295
 31
0.0
  0
LINE
  5
21C
330
1F
100
AcDbEntity
  8
0
100
AcDbLine
 10
306.172639451402
 20
103.2655991463045
 30
0.0
 11
318.172635376673
 21
103.2655935461375
 31
0.0
  0
LINE
  5
21D
330
1F
100
AcDbEntity
  8
0
100
AcDbLine
 10
318.1726261867706
 20
104.8655551079309
 30
0.0
 11
318.172635376673
 21
103.2655935461375
 31
0.0
  0
LINE
  5
21E
330
1F
100
AcDbEntity
  8
0
100
AcDbLine
 10
306.1726285471651
 20
104.865561738174
 30
0.0
 11
306.172639451402
 21
103.2655991463045
 31
0.0
  0
LINE
  5
21F
330
1F
100
AcDbEntity
  8
0
100
AcDbLine
 10
251.3848832085304
 20
99.96554384354977
 30
0.0
 11
256.9948577186061
 21
99.96553162660688
 31
0.0
  0
LINE
  5
220
330
1F
100
AcDbEntity
  8
0
100
AcDbLine
 10
248.1898677180542
 20
103.2655818002073
 30
0.0
 11
260.189866214827
 21
103.2655746549261
 31
0.0
  0
LINE
  5
221
330
1F
100
AcDbEntity
  8
0
100
AcDbLine
 10
260.1898707617321
 20
104.8655629618147
 30
0.0
 11
260.189866214827
 21
103.2655746549261
 31
0.0
  0
LINE
  5
222
330
1F
100
AcDbEntity
  8
0
100
AcDbLine
 10
248.1898782651307
 20
104.8655665018294
 30
0.0
 11
248.1898677180542
 21
103.2655818002073
 31
0.0
  0
LINE
  5
223
330
1F
100
AcDbEntity
  8
0
100
AcDbLine
 10
322.1812866116131
 20
166.5825468882855
 30
0.0
 11
322.1812796806066
 21
157.1489900742956
 31
0.0
  0
LINE
  5
224
330
1F
100
AcDbEntity
  8
0
100
AcDbLine
 10
323.2466226260082
 20
157.1157034805403
 30
0.0
 11
320.181271451758
 21
157.2114987443612
 31
0.0
  0
LINE
  5
225
330
1F
100
AcDbEntity
  8
0
100
AcDbLine
 10
323.2451821305976
 20
166.6157181256551
 30
0.0
 11
320.1812618529972
 21
166.5199673912538
 31
0.0
  0
LINE
  5
226
330
1F
100
AcDbEntity
  8
0
100
AcDbLine
 10
325.2452341015359
 20
157.1157139722508
 30
0.0
 11
323.2452154833278
 21
157.1157090011165
 31
0.0
  0
LINE
  5
227
330
1F
100
AcDbEntity
  8
0
100
AcDbLine
 10
325.245230764415
 20
166.6157283942595
 30
0.0
 11
323.2452172965877
 21
166.6157319947981
 31
0.0
  0
LINE
  5
228
330
1F
100
AcDbEntity
  8
0
100
AcDbLine
 10
325.2452328331414
 20
166.8657133555987
 30
0.0
 11
325.2452320328097
 21
156.8657290109119
 31
0.0
  0
LINE
  5
229
330
1F
100
AcDbEntity
  8
0
100
AcDbLine
 10
337.7451969667561
 20
166.865704648055
 30
0.0
 11
325.2452328331414
 21
166.8657133555987
 31
0.0
  0
LINE
  5
22A
330
1F
100
AcDbEntity
  8
0
100
AcDbLine
 10
337.7452013168049
 20
156.8657288750412
 30
0.0
 11
325.2452320328097
 21
156.8657290109119
 31
0.0
  0
LINE
  5
22B
330
1F
100
AcDbEntity
  8
0
100
AcDbLine
 10
337.7451969667561
 20
166.865704648055
 30
0.0
 11
337.7452013168049
 21
156.8657288750412
 31
0.0
  0
LINE
  5
22C
330
1F
100
AcDbEntity
  8
0
100
AcDbLine
 10
253.1898662916741
 20
134.8708942495966
 30
0.0
 11
263.1194965884273
 21
134.8708969648093
 31
0.0
  0
LINE
  5
22D
330
1F
100
AcDbEntity
  8
0
100
AcDbLine
 10
320.1812599132356
 20
111.8655504967043
 30
0.0
 11
315.1812588234013
 21
111.8655515885057
 31
0.0
  0
LINE
  5
22E
330
1F
100
AcDbEntity
  8
0
100
AcDbLine
 10
247.1812700180368
 20
104.8655684266829
 30
0.0
 11
283.1812655157322
 21
104.8655586527407
 31
0.0
  0
LINE
  5
22F
330
1F
100
AcDbEntity
  8
0
100
AcDbLine
 10
246.1812588639326
 20
111.865548261172
 30
0.0
 11
283.1812705465128
 21
111.8655660072462
 31
0.0
  0
LINE
  5
230
330
1F
100
AcDbEntity
  8
0
100
AcDbLine
 10
266.6812709262452
 20
95.36556425965761
 30
0.0
 11
266.6812637381585
 21
99.86555358377064
 31
0.0
  0
LINE
  5
231
330
1F
100
AcDbEntity
  8
0
100
AcDbLine
 10
299.6812659444244
 20
95.36555970254903
 30
0.0
 11
299.6812733503124
 21
99.86557525671935
 31
0.0
  0
LINE
  5
232
330
1F
100
AcDbEntity
  8
0
100
AcDbLine
 10
246.6321814283791
 20
137.6993472083972
 30
0.0
 11
246.1812588639326
 21
111.865548261172
 31
0.0
  0
LINE
  5
233
330
1F
100
AcDbEntity
  8
0
100
AcDbLine
 10
252.3868792592288
 20
176.4008719636431
 30
0.0
 11
250.131697471751
 21
167.9844105474226
 31
0.0
  0
LINE
  5
234
330
1F
100
AcDbEntity
  8
0
100
AcDbLine
 10
280.6812654942695
 20
102.8655584191031
 30
0.0
 11
280.6812726122147
 21
95.36557135619602
 31
0.0
  0
LINE
  5
235
330
1F
100
AcDbEntity
  8
0
100
AcDbLine
 10
302.9136988569886
 20
132.6823751588042
 30
0.0
 11
310.051145429224
 21
129.3379793331707
 31
0.0
  0
LINE
  5
236
330
1F
100
AcDbEntity
  8
0
100
AcDbLine
 10
246.1812588639326
 20
111.865548261172
 30
0.0
 11
246.1812578664825
 21
105.8655532986222
 31
0.0
  0
LINE
  5
237
330
1F
100
AcDbEntity
  8
0
100
AcDbLine
 10
258.1812704094287
 20
183.3656242725976
 30
0.0
 11
258.1812628772876
 21
179.3656162020004
 31
0.0
  0
LINE
  5
238
330
1F
100
AcDbEntity
  8
0
100
AcDbLine
 10
268.1195075714803
 20
129.870909182109
 30
0.0
 11
268.1194968998983
 21
111.8655623949797
 31
0.0
  0
LINE
  5
239
330
1F
100
AcDbEntity
  8
0
100
AcDbLine
 10
248.1898716590123
 20
129.8708990487495
 30
0.0
 11
248.1898695664805
 21
111.8655587731411
 31
0.0
  0
LINE
  5
23A
330
1F
100
AcDbEntity
  8
0
100
AcDbLine
 10
246.1812391490847
 20
111.8655601070478
 30
0.0
 11
320.1812599132356
 21
111.8655504967043
 31
0.0
  0
LINE
  5
23B
330
1F
100
AcDbEntity
  8
0
100
AcDbLine
 10
307.1812623062545
 20
184.36561400873
 30
0.0
 11
259.1812631540289
 21
184.3656106943788
 31
0.0
  0
LINE
  5
23C
330
1F
100
AcDbEntity
  8
0
100
AcDbLine
 10
318.1726315957487
 20
129.8709037681212
 30
0.0
 11
318.172632931886
 21
111.8655614323603
 31
0.0
  0
LINE
  5
23D
330
1F
100
AcDbEntity
  8
0
100
AcDbLine
 10
319.6230200100842
 20
143.8477957160471
 30
0.0
 11
320.1725399256995
 21
112.3655358849042
 31
0.0
  0
LINE
  5
23E
330
1F
100
AcDbEntity
  8
0
100
AcDbLine
 10
315.0615936250262
 20
172.3480759346155
 30
0.0
 11
316.2308325945623
 21
167.9844323554498
 31
0.0
  0
LINE
  5
23F
330
1F
100
AcDbEntity
  8
0
100
AcDbLine
 10
304.6812705544759
 20
104.8655689124519
 30
0.0
 11
283.1812655157322
 21
104.8655586527407
 31
0.0
  0
LINE
  5
240
330
1F
100
AcDbEntity
  8
0
100
AcDbLine
 10
320.1812599132356
 20
111.8655504967043
 30
0.0
 11
320.1812623444546
 21
105.8655534740022
 31
0.0
  0
LINE
  5
241
330
1F
100
AcDbEntity
  8
0
100
AcDbLine
 10
320.1725399478302
 20
112.3655708706086
 30
0.0
 11
320.181264199072
 21
111.865547921514
 31
0.0
  0
LINE
  5
242
330
1F
100
AcDbEntity
  8
0
100
AcDbLine
 10
319.1812704570218
 20
104.8655665371826
 30
0.0
 11
304.6812705544759
 21
104.8655689124519
 31
0.0
  0
LINE
  5
243
330
1F
100
AcDbEntity
  8
0
100
AcDbLine
 10
285.6812691629824
 20
102.8655674440891
 30
0.0
 11
285.6812608297857
 21
95.3655546661629
 31
0.0
  0
LINE
  5
244
330
1F
100
AcDbEntity
  8
0
100
AcDbLine
 10
263.4488352657289
 20
132.6823487586255
 30
0.0
 11
256.3113858804942
 21
129.337958688551
 31
0.0
  0
LINE
  5
245
330
1F
100
AcDbEntity
  8
0
100
AcDbLine
 10
327.1812593364813
 20
130.3655489913865
 30
0.0
 11
322.1812608181492
 21
130.3655485380738
 31
0.0
  0
LINE
  5
246
330
1F
100
AcDbEntity
  8
0
100
AcDbLine
 10
313.9756538456683
 20
176.4008790811929
 30
0.0
 11
315.0615936250262
 21
172.3480759346155
 31
0.0
  0
LINE
  5
247
330
1F
100
AcDbEntity
  8
0
100
AcDbLine
 10
298.2430042623306
 20
129.8709001462823
 30
0.0
 11
298.2429970194181
 21
111.8655512990009
 31
0.0
  0
LINE
  5
248
330
1F
100
AcDbEntity
  8
0
100
AcDbLine
 10
328.1812577586051
 20
129.3655490362537
 30
0.0
 11
328.1812671039981
 21
113.3655630335217
 31
0.0
  0
LINE
  5
249
330
1F
100
AcDbEntity
  8
0
100
AcDbLine
 10
319.1812703756218
 20
170.865743002102
 30
0.0
 11
316.9934342469021
 21
170.8657498194181
 31
0.0
  0
LINE
  5
24A
330
1F
100
AcDbEntity
  8
0
100
AcDbLine
 10
246.7395084196591
 20
143.8477998018504
 30
0.0
 11
246.6321814283791
 21
137.6993472083972
 31
0.0
  0
LINE
  5
24B
330
1F
100
AcDbEntity
  8
0
100
AcDbLine
 10
320.1812654194156
 20
169.8657415018731
 30
0.0
 11
320.1812614023999
 21
132.3655499934541
 31
0.0
  0
LINE
  5
24C
330
1F
100
AcDbEntity
  8
0
100
AcDbLine
 10
308.1812744578089
 20
183.3656291367908
 30
0.0
 11
308.1812669256677
 21
179.3656210661936
 31
0.0
  0
LINE
  5
24D
330
1F
100
AcDbEntity
  8
0
100
AcDbLine
 10
313.1726283345782
 20
134.8708985773801
 30
0.0
 11
303.2429988949924
 21
134.8708953471293
 31
0.0
  0
LINE
  5
24E
330
1F
100
AcDbEntity
  8
0
100
AcDbLine
 10
327.1812597654232
 20
112.3655503816832
 30
0.0
 11
320.1725433764995
 21
112.3655688104562
 31
0.0
  0
LINE
  5
24F
330
1F
100
AcDbEntity
  8
0
100
AcDbLine
 10
256.2505708566999
 20
179.3656044207853
 30
0.0
 11
310.1119263517673
 21
179.3656174331508
 31
0.0
  0
LINE
  5
250
330
1F
100
AcDbEntity
  8
0
100
AcDbLine
 10
275.1812954733026
 20
184.3656388753218
 30
0.0
 11
275.181290063039
 21
185.3656336088931
 31
0.0
  0
LINE
  5
251
330
1F
100
AcDbEntity
  8
0
100
AcDbLine
 10
275.181290063039
 20
185.3656336088931
 30
0.0
 11
291.1812058355828
 21
185.3656400562346
 31
0.0
  0
LINE
  5
252
330
1F
100
AcDbEntity
  8
0
100
AcDbLine
 10
275.181290063039
 20
185.3656336088931
 30
0.0
 11
275.6812930529576
 21
187.2316630541518
 31
0.0
  0
LINE
  5
253
330
1F
100
AcDbEntity
  8
0
100
AcDbLine
 10
277.1813023924175
 20
209.3656362725853
 30
0.0
 11
289.1812340080099
 21
209.3656343145696
 31
0.0
  0
LINE
  5
254
330
1F
100
AcDbEntity
  8
0
100
AcDbLine
 10
277.1813092718866
 20
209.3656671379851
 30
0.0
 11
275.6812978428174
 21
207.8656600796477
 31
0.0
  0
LINE
  5
255
330
1F
100
AcDbEntity
  8
0
100
AcDbLine
 10
289.1812340080099
 20
209.3656343145696
 30
0.0
 11
290.6812410663471
 21
207.8656228855004
 31
0.0
  0
LINE
  5
256
330
1F
100
AcDbEntity
  8
0
100
AcDbLine
 10
275.681296113729
 20
207.865637785921
 30
0.0
 11
275.6812930529576
 21
187.2316630541518
 31
0.0
  0
LINE
  5
257
330
1F
100
AcDbEntity
  8
0
100
AcDbLine
 10
275.681296113729
 20
207.865637785921
 30
0.0
 11
290.6812376450549
 21
207.865636607554
 31
0.0
  0
LINE
  5
258
330
1F
100
AcDbEntity
  8
0
100
AcDbLine
 10
275.6812930529576
 20
187.2316630541518
 30
0.0
 11
290.4555397099733
 21
187.231669098468
 31
0.0
  0
ARC
  5
259
330
1F
100
AcDbEntity
  8
0
100
AcDbCircle
 10
461.032525869191
 20
104.5995710960229
 30
0.0
 40
5.4168334
100
AcDbArc
 50
301.1867149999984
 51
345.7429799999944
  0
ARC
  5
25A
330
1F
100
AcDbEntity
  8
0
100
AcDbCircle
 10
461.032525869191
 20
104.5995710960229
 30
0.0
 40
5.4168334
100
AcDbArc
 50
194.2570199999936
 51
238.8132799999952
  0
ARC
  5
25B
330
1F
100
AcDbEntity
  8
0
100
AcDbCircle
 10
519.0152758691911
 20
104.5995710960229
 30
0.0
 40
5.4168334
100
AcDbArc
 50
301.1867149999984
 51
345.7429799999944
  0
ARC
  5
25C
330
1F
100
AcDbEntity
  8
0
100
AcDbCircle
 10
519.0152758691911
 20
104.5995710960229
 30
0.0
 40
5.4168334
100
AcDbArc
 50
194.2570199999936
 51
238.8132799999952
  0
ARC
  5
25D
330
1F
100
AcDbEntity
  8
0
100
AcDbCircle
 10
454.023915869191
 20
105.8655710960227
 30
0.0
 40
1.0
100
AcDbArc
 50
180.0
 51
270.0
  0
ARC
  5
25E
330
1F
100
AcDbEntity
  8
0
100
AcDbCircle
 10
468.5239158691911
 20
99.8655710960228
 30
0.0
 40
5.0
100
AcDbArc
 50
0.0
 51
90.0
  0
ARC
  5
25F
330
1F
100
AcDbEntity
  8
0
100
AcDbCircle
 10
511.5239158691911
 20
99.8655710960228
 30
0.0
 40
5.0
100
AcDbArc
 50
90.0
 51
180.0
  0
ARC
  5
260
330
1F
100
AcDbEntity
  8
0
100
AcDbCircle
 10
471.5239158691911
 20
95.36557109602279
 30
0.0
 40
2.0
100
AcDbArc
 50
270.0
 51
0.0
  0
ARC
  5
261
330
1F
100
AcDbEntity
  8
0
100
AcDbCircle
 10
526.0239158691911
 20
105.8655710960227
 30
0.0
 40
1.0
100
AcDbArc
 50
270.0
 51
0.0
  0
ARC
  5
262
330
1F
100
AcDbEntity
  8
0
100
AcDbCircle
 10
508.5239158691911
 20
95.36557109602279
 30
0.0
 40
2.0
100
AcDbArc
 50
180.0
 51
270.0
  0
ARC
  5
263
330
1F
100
AcDbEntity
  8
0
100
AcDbCircle
 10
463.093225869191
 20
175.3656310960228
 30
0.0
 40
4.0
100
AcDbArc
 50
90.0
 51
164.9999899999962
  0
ARC
  5
264
330
1F
100
AcDbEntity
  8
0
100
AcDbCircle
 10
516.9545758691911
 20
175.3656310960228
 30
0.0
 40
4.0
100
AcDbArc
 50
15.0000100000037
 51
90.0
  0
CIRCLE
  5
265
330
1F
100
AcDbEntity
  8
0
100
AcDbCircle
 10
490.0239158691911
 20
121.3655710960227
 30
0.0
 40
0.60000002
  0
ARC
  5
266
330
1F
100
AcDbEntity
  8
0
100
AcDbCircle
 10
520.0152758691911
 20
129.8709110960227
 30
0.0
 40
5.0
100
AcDbArc
 50
0.0
 51
90.0
  0
ARC
  5
267
330
1F
100
AcDbEntity
  8
0
100
AcDbCircle
 10
510.0856558691908
 20
129.8709110960227
 30
0.0
 40
5.0
100
AcDbArc
 50
90.0
 51
180.0
  0
ARC
  5
268
330
1F
100
AcDbEntity
  8
0
100
AcDbCircle
 10
519.0152758691911
 20
133.8655710960227
 30
0.0
 40
5.0
100
AcDbArc
 50
244.8935499999999
 51
319.2822950000013
  0
ARC
  5
269
330
1F
100
AcDbEntity
  8
0
100
AcDbCircle
 10
461.032525869191
 20
133.8655710960227
 30
0.0
 40
5.0
100
AcDbArc
 50
220.7177000000046
 51
295.1064490000027
  0
ARC
  5
26A
330
1F
100
AcDbEntity
  8
0
100
AcDbCircle
 10
469.9621458691908
 20
129.8709110960227
 30
0.0
 40
5.0
100
AcDbArc
 50
0.0
 51
90.0
  0
ARC
  5
26B
330
1F
100
AcDbEntity
  8
0
100
AcDbCircle
 10
460.0325258691909
 20
129.8709110960227
 30
0.0
 40
5.0
100
AcDbArc
 50
90.0
 51
180.0
  0
ARC
  5
26C
330
1F
100
AcDbEntity
  8
0
100
AcDbCircle
 10
514.0239158691911
 20
183.3656310960228
 30
0.0
 40
1.0
100
AcDbArc
 50
0.0
 51
90.0
  0
ARC
  5
26D
330
1F
100
AcDbEntity
  8
0
100
AcDbCircle
 10
466.023915869191
 20
183.3656310960228
 30
0.0
 40
1.0
100
AcDbArc
 50
90.0
 51
180.0
  0
ARC
  5
26E
330
1F
100
AcDbEntity
  8
0
100
AcDbCircle
 10
426.4808858691908
 20
142.1025710960228
 30
0.0
 40
100.0
100
AcDbArc
 50
0.9999989999978774
 51
14.99999000000261
  0
ARC
  5
26F
330
1F
100
AcDbEntity
  8
0
100
AcDbCircle
 10
481.0239158691911
 20
113.3655710960227
 30
0.0
 40
1.0
100
AcDbArc
 50
180.0
 51
270.0
  0
ARC
  5
270
330
1F
100
AcDbEntity
  8
0
100
AcDbCircle
 10
499.0239158691911
 20
113.3655710960227
 30
0.0
 40
1.0
100
AcDbArc
 50
270.0
 51
0.0
  0
ARC
  5
271
330
1F
100
AcDbEntity
  8
0
100
AcDbCircle
 10
490.0239158691911
 20
161.8657510960227
 30
0.0
 40
9.0
100
AcDbArc
 50
0.0
 51
180.0
  0
CIRCLE
  5
272
330
1F
100
AcDbEntity
  8
0
100
AcDbCircle
 10
490.0239158691911
 20
121.3655710960227
 30
0.0
 40
4.1940036
  0
ARC
  5
273
330
1F
100
AcDbEntity
  8
0
100
AcDbCircle
 10
481.0239158691911
 20
129.3655710960228
 30
0.0
 40
1.0
100
AcDbArc
 50
90.0
 51
180.0
  0
ARC
  5
274
330
1F
100
AcDbEntity
  8
0
100
AcDbCircle
 10
499.0239158691911
 20
129.3655710960228
 30
0.0
 40
1.0
100
AcDbArc
 50
0.0
 51
90.0
  0
CIRCLE
  5
275
330
1F
100
AcDbEntity
  8
0
100
AcDbCircle
 10
490.0239158691911
 20
121.3655710960227
 30
0.0
 40
4.7936687
  0
ARC
  5
276
330
1F
100
AcDbEntity
  8
0
100
AcDbCircle
 10
553.5669158691908
 20
142.1025710960228
 30
0.0
 40
100.0
100
AcDbArc
 50
165.0000099999973
 51
178.9999999999982
  0
CIRCLE
  5
277
330
1F
100
AcDbEntity
  8
0
100
AcDbCircle
 10
490.0239158691911
 20
161.8657510960227
 30
0.0
 40
5.0
  0
LINE
  5
278
330
1F
100
AcDbEntity
  8
0
100
AcDbLine
 10
458.2275258691911
 20
99.96554109602278
 30
0.0
 11
463.8375158691911
 21
99.96554109602278
 31
0.0
  0
LINE
  5
279
330
1F
100
AcDbEntity
  8
0
100
AcDbLine
 10
455.0325258691909
 20
103.2655910960228
 30
0.0
 11
467.0325258691909
 21
103.2655910960228
 31
0.0
  0
LINE
  5
27A
330
1F
100
AcDbEntity
  8
0
100
AcDbLine
 10
467.0325258691909
 20
104.8655710960227
 30
0.0
 11
467.0325258691909
 21
103.2655910960228
 31
0.0
  0
LINE
  5
27B
330
1F
100
AcDbEntity
  8
0
100
AcDbLine
 10
455.0325258691909
 20
104.8655710960227
 30
0.0
 11
455.0325258691909
 21
103.2655910960228
 31
0.0
  0
LINE
  5
27C
330
1F
100
AcDbEntity
  8
0
100
AcDbLine
 10
516.210285869191
 20
99.96554109602278
 30
0.0
 11
521.8202758691909
 21
99.96554109602278
 31
0.0
  0
LINE
  5
27D
330
1F
100
AcDbEntity
  8
0
100
AcDbLine
 10
513.015275869191
 20
103.2655910960228
 30
0.0
 11
525.0152758691911
 21
103.2655910960228
 31
0.0
  0
LINE
  5
27E
330
1F
100
AcDbEntity
  8
0
100
AcDbLine
 10
525.0152758691911
 20
104.8655710960227
 30
0.0
 11
525.0152758691911
 21
103.2655910960228
 31
0.0
  0
LINE
  5
27F
330
1F
100
AcDbEntity
  8
0
100
AcDbLine
 10
513.015275869191
 20
104.8655710960227
 30
0.0
 11
513.015275869191
 21
103.2655910960228
 31
0.0
  0
LINE
  5
280
330
1F
100
AcDbEntity
  8
0
100
AcDbLine
 10
527.0239158691911
 20
111.8655710960227
 30
0.0
 11
527.0239158691911
 21
105.8655710960227
 31
0.0
  0
LINE
  5
281
330
1F
100
AcDbEntity
  8
0
100
AcDbLine
 10
526.0239158691911
 20
104.8655710960227
 30
0.0
 11
490.0239158691911
 21
104.8655710960227
 31
0.0
  0
LINE
  5
282
330
1F
100
AcDbEntity
  8
0
100
AcDbLine
 10
453.0239158691911
 20
111.8655710960227
 30
0.0
 11
453.0239158691911
 21
105.8655710960227
 31
0.0
  0
LINE
  5
283
330
1F
100
AcDbEntity
  8
0
100
AcDbLine
 10
465.0239158691911
 20
100.9375010960228
 30
0.0
 11
465.0239158691911
 21
93.3655710960228
 31
0.0
  0
LINE
  5
284
330
1F
100
AcDbEntity
  8
0
100
AcDbLine
 10
453.0239158691911
 20
111.8655710960227
 30
0.0
 11
490.0239158691911
 21
111.8655710960227
 31
0.0
  0
LINE
  5
285
330
1F
100
AcDbEntity
  8
0
100
AcDbLine
 10
454.023915869191
 20
104.8655710960227
 30
0.0
 11
490.0239158691911
 21
104.8655710960227
 31
0.0
  0
LINE
  5
286
330
1F
100
AcDbEntity
  8
0
100
AcDbLine
 10
527.0239158691911
 20
111.8655710960227
 30
0.0
 11
522.0239158691911
 21
111.8655710960227
 31
0.0
  0
LINE
  5
287
330
1F
100
AcDbEntity
  8
0
100
AcDbLine
 10
473.5239158691911
 20
95.36557109602279
 30
0.0
 11
473.5239158691911
 21
99.8655710960228
 31
0.0
  0
LINE
  5
288
330
1F
100
AcDbEntity
  8
0
100
AcDbLine
 10
526.0239158691911
 20
104.8655710960227
 30
0.0
 11
511.5239158691911
 21
104.8655710960227
 31
0.0
  0
LINE
  5
289
330
1F
100
AcDbEntity
  8
0
100
AcDbLine
 10
506.5239158691911
 20
95.36557109602279
 30
0.0
 11
506.5239158691911
 21
99.8655710960228
 31
0.0
  0
LINE
  5
28A
330
1F
100
AcDbEntity
  8
0
100
AcDbLine
 10
515.0239158691911
 20
100.9374710960229
 30
0.0
 11
515.0239158691911
 21
93.3655710960228
 31
0.0
  0
LINE
  5
28B
330
1F
100
AcDbEntity
  8
0
100
AcDbLine
 10
453.0238858691909
 20
111.8655710960227
 30
0.0
 11
527.0239158691911
 21
111.8655710960227
 31
0.0
  0
LINE
  5
28C
330
1F
100
AcDbEntity
  8
0
100
AcDbLine
 10
460.0325258691909
 20
134.8709110960227
 30
0.0
 11
469.9621458691908
 21
134.8709110960227
 31
0.0
  0
LINE
  5
28D
330
1F
100
AcDbEntity
  8
0
100
AcDbLine
 10
455.0325258691909
 20
129.8709110960227
 30
0.0
 11
455.0325258691909
 21
111.8655710960227
 31
0.0
  0
LINE
  5
28E
330
1F
100
AcDbEntity
  8
0
100
AcDbLine
 10
474.9621458691908
 20
129.8709110960227
 30
0.0
 11
474.9621458691908
 21
111.8655710960227
 31
0.0
  0
LINE
  5
28F
330
1F
100
AcDbEntity
  8
0
100
AcDbLine
 10
527.0151758691908
 20
112.3655810960227
 30
0.0
 11
527.0238958691911
 21
111.8655710960227
 31
0.0
  0
LINE
  5
290
330
1F
100
AcDbEntity
  8
0
100
AcDbLine
 10
521.9042558691908
 20
172.3480810960228
 30
0.0
 11
523.0734958691909
 21
167.9844310960228
 31
0.0
  0
LINE
  5
291
330
1F
100
AcDbEntity
  8
0
100
AcDbLine
 10
526.4656558691909
 20
143.8478010960228
 30
0.0
 11
527.0151758691908
 21
112.3655510960228
 31
0.0
  0
LINE
  5
292
330
1F
100
AcDbEntity
  8
0
100
AcDbLine
 10
525.0152758691911
 20
129.8709110960227
 30
0.0
 11
525.0152758691911
 21
111.8655710960227
 31
0.0
  0
LINE
  5
293
330
1F
100
AcDbEntity
  8
0
100
AcDbLine
 10
499.0239158691911
 20
130.3655710960228
 30
0.0
 11
481.0239158691911
 21
130.3655710960228
 31
0.0
  0
LINE
  5
294
330
1F
100
AcDbEntity
  8
0
100
AcDbLine
 10
459.2295258691911
 20
176.4009010960227
 30
0.0
 11
456.9743358691908
 21
167.9844310960228
 31
0.0
  0
LINE
  5
295
330
1F
100
AcDbEntity
  8
0
100
AcDbLine
 10
453.474845869191
 20
137.6993710960229
 30
0.0
 11
453.0238958691906
 21
111.8655710960227
 31
0.0
  0
LINE
  5
296
330
1F
100
AcDbEntity
  8
0
100
AcDbLine
 10
480.0239158691911
 20
129.3655710960228
 30
0.0
 11
480.0239158691911
 21
113.3655710960227
 31
0.0
  0
LINE
  5
297
330
1F
100
AcDbEntity
  8
0
100
AcDbLine
 10
470.2914758691909
 20
132.6823510960229
 30
0.0
 11
463.1540258691907
 21
129.3379610960229
 31
0.0
  0
LINE
  5
298
330
1F
100
AcDbEntity
  8
0
100
AcDbLine
 10
509.7563358691909
 20
132.6823710960228
 30
0.0
 11
516.8937858691911
 21
129.3379810960228
 31
0.0
  0
LINE
  5
299
330
1F
100
AcDbEntity
  8
0
100
AcDbLine
 10
499.0239158691911
 20
161.8657510960227
 30
0.0
 11
500.0230158691911
 21
128.4252710960228
 31
0.0
  0
LINE
  5
29A
330
1F
100
AcDbEntity
  8
0
100
AcDbLine
 10
465.0239158691911
 20
183.3656310960228
 30
0.0
 11
465.0239158691911
 21
179.3656310960228
 31
0.0
  0
LINE
  5
29B
330
1F
100
AcDbEntity
  8
0
100
AcDbLine
 10
463.093225869191
 20
179.3656310960228
 30
0.0
 11
516.9545758691911
 21
179.3656310960228
 31
0.0
  0
LINE
  5
29C
330
1F
100
AcDbEntity
  8
0
100
AcDbLine
 10
514.0239158691911
 20
184.3656310960228
 30
0.0
 11
466.023915869191
 21
184.3656310960228
 31
0.0
  0
LINE
  5
29D
330
1F
100
AcDbEntity
  8
0
100
AcDbLine
 10
520.0152758691911
 20
134.8709110960227
 30
0.0
 11
510.0856558691908
 21
134.8709110960227
 31
0.0
  0
LINE
  5
29E
330
1F
100
AcDbEntity
  8
0
100
AcDbLine
 10
505.0856558691907
 20
129.8709110960227
 30
0.0
 11
505.0856558691907
 21
111.8655710960227
 31
0.0
  0
LINE
  5
29F
330
1F
100
AcDbEntity
  8
0
100
AcDbLine
 10
481.0239158691911
 20
161.8657210960228
 30
0.0
 11
480.0248158691911
 21
128.4252910960227
 31
0.0
  0
LINE
  5
2A0
330
1F
100
AcDbEntity
  8
0
100
AcDbLine
 10
520.8183158691908
 20
176.4009010960227
 30
0.0
 11
521.9042558691908
 21
172.3480810960228
 31
0.0
  0
LINE
  5
2A1
330
1F
100
AcDbEntity
  8
0
100
AcDbLine
 10
453.5821558691909
 20
143.8478010960228
 30
0.0
 11
453.474845869191
 21
137.6993710960229
 31
0.0
  0
LINE
  5
2A2
330
1F
100
AcDbEntity
  8
0
100
AcDbLine
 10
515.0239158691911
 20
183.3656310960228
 30
0.0
 11
515.0239158691911
 21
179.3656310960228
 31
0.0
  0
LINE
  5
2A3
330
1F
100
AcDbEntity
  8
0
100
AcDbLine
 10
500.023915869191
 20
129.3655710960228
 30
0.0
 11
500.023915869191
 21
113.3655710960227
 31
0.0
  0
LINE
  5
2A4
330
1F
100
AcDbEntity
  8
0
100
AcDbLine
 10
499.0239158691911
 20
112.3655710960227
 30
0.0
 11
481.0239158691911
 21
112.3655710960227
 31
0.0
  0
LINE
  5
2A5
330
1F
100
AcDbEntity
  8
0
100
AcDbLine
 10
498.0238858691909
 20
184.3656310960228
 30
0.0
 11
498.0238858691909
 21
185.3656310960228
 31
0.0
  0
LINE
  5
2A6
330
1F
100
AcDbEntity
  8
0
100
AcDbLine
 10
498.0238658691909
 20
185.3656310960228
 30
0.0
 11
497.5238658691909
 21
187.2316510960228
 31
0.0
  0
LINE
  5
2A7
330
1F
100
AcDbEntity
  8
0
100
AcDbLine
 10
497.5238858691909
 20
207.8656310960228
 30
0.0
 11
497.5238858691909
 21
187.2316510960228
 31
0.0
  0
LINE
  5
2A8
330
1F
100
AcDbEntity
  8
0
100
AcDbLine
 10
482.0239458691908
 20
184.3656310960228
 30
0.0
 11
482.0239458691908
 21
185.3656310960228
 31
0.0
  0
LINE
  5
2A9
330
1F
100
AcDbEntity
  8
0
100
AcDbLine
 10
482.0239458691908
 20
185.3656310960228
 30
0.0
 11
498.0238858691909
 21
185.3656310960228
 31
0.0
  0
LINE
  5
2AA
330
1F
100
AcDbEntity
  8
0
100
AcDbLine
 10
482.0239458691908
 20
185.3656310960228
 30
0.0
 11
482.5239458691908
 21
187.2316510960228
 31
0.0
  0
LINE
  5
2AB
330
1F
100
AcDbEntity
  8
0
100
AcDbLine
 10
484.0239458691907
 20
209.3656310960228
 30
0.0
 11
496.0238858691909
 21
209.3656310960228
 31
0.0
  0
LINE
  5
2AC
330
1F
100
AcDbEntity
  8
0
100
AcDbLine
 10
484.0239458691907
 20
209.3656610960227
 30
0.0
 11
482.5239458691908
 21
207.8656310960228
 31
0.0
  0
LINE
  5
2AD
330
1F
100
AcDbEntity
  8
0
100
AcDbLine
 10
496.023865869191
 20
209.3656310960228
 30
0.0
 11
497.5238858691909
 21
207.8656310960228
 31
0.0
  0
LINE
  5
2AE
330
1F
100
AcDbEntity
  8
0
100
AcDbLine
 10
482.5239458691908
 20
207.8656310960228
 30
0.0
 11
482.5239458691908
 21
187.2316510960228
 31
0.0
  0
LINE
  5
2AF
330
1F
100
AcDbEntity
  8
0
100
AcDbLine
 10
482.5239458691908
 20
207.8656310960228
 30
0.0
 11
497.5238858691909
 21
207.8656310960228
 31
0.0
  0
LINE
  5
2B0
330
1F
100
AcDbEntity
  8
0
100
AcDbLine
 10
482.5239458691908
 20
187.2316510960228
 30
0.0
 11
497.5238858691909
 21
187.2316510960228
 31
0.0
  0
LINE
  5
2B1
330
1F
100
AcDbEntity
  8
0
100
AcDbLine
 10
526.0239158691915
 20
104.8655710960227
 30
0.0
 11
490.0239158691914
 21
104.8655710960227
 31
0.0
  0
LINE
  5
2B2
330
1F
100
AcDbEntity
  8
0
100
AcDbLine
 10
465.0239158691906
 20
93.3655710960228
 30
0.0
 11
515.0239158691905
 21
93.3655710960228
 31
0.0
  0
LINE
  5
2B3
330
1F
100
AcDbEntity
  8
0
  6
HIDDEN
 48
10.0
100
AcDbLine
 10
291.8312497081896
 20
411.4821519745773
 30
0.0
 11
291.8312497081896
 21
397.3712658842897
 31
0.0
  0
LINE
  5
2B4
330
1F
100
AcDbEntity
  8
0
  6
HIDDEN
 48
10.0
100
AcDbLine
 10
274.5312497081898
 20
411.4821519745774
 30
0.0
 11
274.5312497081898
 21
397.3714199015296
 31
0.0
  0
LINE
  5
2B5
330
1F
100
AcDbEntity
  8
0
  6
HIDDEN
 48
10.0
100
AcDbLine
 10
291.8312497081896
 20
475.5930518024343
 30
0.0
 11
291.8312497081897
 21
461.4821519745773
 31
0.0
  0
LINE
  5
2B6
330
1F
100
AcDbEntity
  8
0
  6
HIDDEN
 48
10.0
100
AcDbLine
 10
274.5312497081898
 20
475.5928977851966
 30
0.0
 11
274.5312497081898
 21
461.4821519745773
 31
0.0
  0
LINE
  5
2B7
330
1F
100
AcDbEntity
  8
0
  6
HIDDEN
 48
10.0
100
AcDbLine
 10
308.18124970819
 20
452.1426134003576
 30
0.0
 11
308.18124970819
 21
420.8216905487957
 31
0.0
  0
LINE
  5
2B8
330
1F
100
AcDbEntity
  8
0
  6
HIDDEN
 48
10.0
100
AcDbLine
 10
267.5207882824088
 20
461.4821519745773
 30
0.0
 11
298.8417111339709
 21
461.4821519745773
 31
0.0
  0
LINE
  5
2B9
330
1F
100
AcDbEntity
  8
0
100
AcDbLine
 10
266.18124970819
 20
481.4821519745764
 30
0.0
 11
300.18124970819
 21
481.4821519745764
 31
0.0
  0
LINE
  5
2BA
330
1F
100
AcDbEntity
  8
0
100
AcDbLine
 10
266.18124970819
 20
481.4821519745764
 30
0.0
 11
266.18124970819
 21
478.632049350146
 31
0.0
  0
LINE
  5
2BB
330
1F
100
AcDbEntity
  8
0
  6
HIDDEN
 48
10.0
100
AcDbLine
 10
272.9232437071761
 20
476.1781641270443
 30
0.0
 11
274.5312497081898
 21
475.5928977851966
 31
0.0
  0
LINE
  5
2BC
330
1F
100
AcDbEntity
  8
0
100
AcDbLine
 10
266.18124970819
 20
478.632049350146
 30
0.0
 11
272.9232437071761
 21
476.1781641270443
 31
0.0
  0
LINE
  5
2BD
330
1F
100
AcDbEntity
  8
0
  6
HIDDEN
 48
10.0
100
AcDbLine
 10
293.439008244624
 20
476.178228074538
 30
0.0
 11
291.8312497081896
 21
475.5930518024343
 31
0.0
  0
LINE
  5
2BE
330
1F
100
AcDbEntity
  8
0
100
AcDbLine
 10
300.18124970819
 20
478.6322033673835
 30
0.0
 11
293.439008244624
 21
476.178228074538
 31
0.0
  0
LINE
  5
2BF
330
1F
100
AcDbEntity
  8
0
100
AcDbLine
 10
300.18124970819
 20
481.4821519745764
 30
0.0
 11
300.18124970819
 21
478.6322033673835
 31
0.0
  0
ARC
  5
2C0
330
1F
100
AcDbEntity
  8
0
  6
HIDDEN
 48
10.0
100
AcDbCircle
 10
283.18124970819
 20
436.4821519745773
 30
0.0
 40
29.5
100
AcDbArc
 50
122.0637859781562
 51
147.9362147050923
  0
LINE
  5
2C1
330
1F
100
AcDbEntity
  8
0
100
AcDbLine
 10
266.18124970819
 20
391.4821519745774
 30
0.0
 11
300.18124970819
 21
391.4821519745774
 31
0.0
  0
LINE
  5
2C2
330
1F
100
AcDbEntity
  8
0
  6
HIDDEN
 48
10.0
100
AcDbLine
 10
267.5207882824088
 20
411.4821519745774
 30
0.0
 11
298.8417111339709
 21
411.4821519745774
 31
0.0
  0
LINE
  5
2C3
330
1F
100
AcDbEntity
  8
0
100
AcDbLine
 10
266.18124970819
 20
391.4821519745774
 30
0.0
 11
266.18124970819
 21
394.3322683365799
 31
0.0
  0
LINE
  5
2C4
330
1F
100
AcDbEntity
  8
0
  6
HIDDEN
 48
10.0
100
AcDbLine
 10
272.9232216346952
 20
396.7861455259554
 30
0.0
 11
274.5312497081898
 21
397.3714199015296
 31
0.0
  0
LINE
  5
2C5
330
1F
100
AcDbEntity
  8
0
100
AcDbLine
 10
266.18124970819
 20
394.3322683365799
 30
0.0
 11
272.9232216346952
 21
396.7861455259554
 31
0.0
  0
LINE
  5
2C6
330
1F
100
AcDbEntity
  8
0
  6
HIDDEN
 48
10.0
100
AcDbLine
 10
293.4390303173377
 20
396.7860815783753
 30
0.0
 11
291.8312497081896
 21
397.3712658842897
 31
0.0
  0
LINE
  5
2C7
330
1F
100
AcDbEntity
  8
0
100
AcDbLine
 10
300.18124970819
 20
394.332114319341
 30
0.0
 11
293.4390303173377
 21
396.7860815783753
 31
0.0
  0
LINE
  5
2C8
330
1F
100
AcDbEntity
  8
0
100
AcDbLine
 10
300.18124970819
 20
391.4821519745774
 30
0.0
 11
300.18124970819
 21
394.332114319341
 31
0.0
  0
ARC
  5
2C9
330
1F
100
AcDbEntity
  8
0
  6
HIDDEN
 48
10.0
100
AcDbCircle
 10
283.18124970819
 20
436.4821519745773
 30
0.0
 40
29.5
100
AcDbArc
 50
212.0637852949076
 51
237.936214021846
  0
LINE
  5
2CA
330
1F
100
AcDbEntity
  8
0
  6
HIDDEN
 48
10.0
100
AcDbLine
 10
258.18124970819
 20
452.1426134003576
 30
0.0
 11
258.18124970819
 21
420.8216905487957
 31
0.0
  0
ARC
  5
2CB
330
1F
100
AcDbEntity
  8
0
  6
HIDDEN
 48
10.0
100
AcDbCircle
 10
283.18124970819
 20
436.4821519745773
 30
0.0
 40
29.5
100
AcDbArc
 50
302.0637877993893
 51
327.9362131112378
  0
ARC
  5
2CC
330
1F
100
AcDbEntity
  8
0
  6
HIDDEN
 48
10.0
100
AcDbCircle
 10
283.18124970819
 20
436.4821519745773
 30
0.0
 40
29.5
100
AcDbArc
 50
32.06378688878564
 51
57.93621220061066
  0
LINE
  5
2CD
330
1F
100
AcDbEntity
  8
0
100
AcDbLine
 10
308.1812638255548
 20
84.56557888899068
 30
0.0
 11
316.1812638255548
 21
84.56557888899068
 31
0.0
  0
LINE
  5
2CE
330
1F
100
AcDbEntity
  8
0
100
AcDbLine
 10
316.1812638255548
 20
84.56557888899068
 30
0.0
 11
316.1812638255548
 21
91.56557888899067
 31
0.0
  0
LINE
  5
2CF
330
1F
100
AcDbEntity
  8
0
100
AcDbLine
 10
308.1812638255548
 20
91.56557888899067
 30
0.0
 11
316.1812638255548
 21
91.56557888899067
 31
0.0
  0
CIRCLE
  5
2D0
330
1F
100
AcDbEntity
  8
0
100
AcDbCircle
 10
490.0239158691905
 20
88.06557888899067
 30
0.0
 40
3.5
  0
LINE
  5
2D1
330
1F
100
AcDbEntity
  8
0
100
AcDbLine
 10
529.1346809941676
 20
77.41559109602286
 30
0.0
 11
515.0239158691905
 21
77.41559109602286
 31
0.0
  0
LINE
  5
2D2
330
1F
100
AcDbEntity
  8
0
100
AcDbLine
 10
529.1348045017224
 20
60.11559109602263
 30
0.0
 11
515.0239158691905
 21
60.11559109602263
 31
0.0
  0
LINE
  5
2D3
330
1F
100
AcDbEntity
  8
0
100
AcDbLine
 10
515.0239158691905
 20
93.3655710960228
 30
0.0
 11
515.0239158691905
 21
59.26559109602187
 31
0.0
  0
LINE
  5
2D4
330
1F
100
AcDbEntity
  8
0
100
AcDbLine
 10
535.0239158691914
 20
85.7656063548119
 30
0.0
 11
535.0239158691914
 21
51.765575837234
 31
0.0
  0
LINE
  5
2D5
330
1F
100
AcDbEntity
  8
0
100
AcDbLine
 10
535.0239158691914
 20
51.765575837234
 30
0.0
 11
532.1739616204172
 21
51.765575837234
 31
0.0
  0
LINE
  5
2D6
330
1F
100
AcDbEntity
  8
0
100
AcDbLine
 10
535.0239158691914
 20
85.7656063548119
 30
0.0
 11
532.1738381128624
 21
85.7656063548119
 31
0.0
  0
LINE
  5
2D7
330
1F
100
AcDbEntity
  8
0
100
AcDbLine
 10
532.1739616204172
 20
51.765575837234
 30
0.0
 11
529.1348045017224
 21
60.11559109602263
 31
0.0
  0
LINE
  5
2D8
330
1F
100
AcDbEntity
  8
0
100
AcDbLine
 10
532.1738381128624
 20
85.7656063548119
 30
0.0
 11
529.1346809941676
 21
77.41559109602286
 31
0.0
  0
ARC
  5
2D9
330
1F
100
AcDbEntity
  8
0
100
AcDbCircle
 10
500.3980308594253
 20
65.26559109602186
 30
0.0
 40
6.0
100
AcDbArc
 50
210.0000051605322
 51
269.9999974955313
  0
LINE
  5
2DA
330
1F
100
AcDbEntity
  8
0
100
AcDbLine
 10
494.3358564871557
 20
63.76561711201668
 30
0.0
 11
495.2018767014493
 21
62.26562612740014
 31
0.0
  0
ARC
  5
2DB
330
1F
100
AcDbEntity
  8
0
100
AcDbCircle
 10
479.6498008789565
 20
65.26559109602186
 30
0.0
 40
6.0
100
AcDbArc
 50
269.9999974955313
 51
330.0000016696572
  0
LINE
  5
2DC
330
1F
100
AcDbEntity
  8
0
100
AcDbLine
 10
485.7119780509684
 20
63.76562032806589
 30
0.0
 11
484.8459502072792
 21
62.26561612895
 31
0.0
  0
ARC
  5
2DD
330
1F
100
AcDbEntity
  8
0
100
AcDbCircle
 10
490.0421043457535
 20
61.26559109602294
 30
0.0
 40
5.0
100
AcDbArc
 50
90.00000865141489
 51
149.9999966606935
  0
ARC
  5
2DE
330
1F
100
AcDbEntity
  8
0
100
AcDbCircle
 10
490.0057273926285
 20
61.26559109602294
 30
0.0
 40
5.0
100
AcDbArc
 50
30.00000333930641
 51
90.00000500896346
  0
LINE
  5
2DF
330
1F
100
AcDbEntity
  8
0
100
AcDbLine
 10
515.0239158691905
 20
59.26559109602187
 30
0.0
 11
500.3980308594253
 21
59.26559109602187
 31
0.0
  0
LINE
  5
2E0
330
1F
100
AcDbEntity
  8
0
100
AcDbLine
 10
465.0239158691906
 20
93.3655710960228
 30
0.0
 11
465.0239158691906
 21
59.26559109602187
 31
0.0
  0
LINE
  5
2E1
330
1F
100
AcDbEntity
  8
0
100
AcDbLine
 10
445.0239158691914
 20
85.7656063548119
 30
0.0
 11
445.0239158691914
 21
51.765575837234
 31
0.0
  0
LINE
  5
2E2
330
1F
100
AcDbEntity
  8
0
100
AcDbLine
 10
445.0239158691914
 20
51.765575837234
 30
0.0
 11
447.8738594984406
 21
51.765575837234
 31
0.0
  0
LINE
  5
2E3
330
1F
100
AcDbEntity
  8
0
100
AcDbLine
 10
447.8738594984406
 20
51.765575837234
 30
0.0
 11
450.9130166171346
 21
60.11559109602263
 31
0.0
  0
LINE
  5
2E4
330
1F
100
AcDbEntity
  8
0
100
AcDbLine
 10
445.0239158691914
 20
85.7656063548119
 30
0.0
 11
447.8740154821214
 21
85.7656063548119
 31
0.0
  0
LINE
  5
2E5
330
1F
100
AcDbEntity
  8
0
100
AcDbLine
 10
447.8740154821214
 20
85.7656063548119
 30
0.0
 11
450.9131726008165
 21
77.41559109602286
 31
0.0
  0
LINE
  5
2E6
330
1F
100
AcDbEntity
  8
0
100
AcDbLine
 10
465.0239158691906
 20
77.41559109602286
 30
0.0
 11
450.9131726008165
 21
77.41559109602286
 31
0.0
  0
LINE
  5
2E7
330
1F
100
AcDbEntity
  8
0
100
AcDbLine
 10
465.0239158691906
 20
60.11559109602263
 30
0.0
 11
450.9130166171346
 21
60.11559109602263
 31
0.0
  0
LINE
  5
2E8
330
1F
100
AcDbEntity
  8
0
100
AcDbLine
 10
465.0239158691906
 20
59.26559109602187
 30
0.0
 11
479.6498008789565
 21
59.26559109602187
 31
0.0
  0
LINE
  5
2E9
330
1F
100
AcDbEntity
  8
0
100
AcDbLine
 10
465.0239158691906
 20
84.3655666819601
 30
0.0
 11
515.0239158691905
 21
84.3655666819601
 31
0.0
  0
LINE
  5
2EA
330
1F
100
AcDbEntity
  8
0
100
AcDbLine
 10
298.2867783519225
 20
76.56452890149978
 30
0.0
 11
298.2867783519224
 21
93.3655710960228
 31
0.0
  0
LINE
  5
2EB
330
1F
100
AcDbEntity
  8
0
100
AcDbLine
 10
289.9370585025834
 20
84.3655666819601
 30
0.0
 11
308.1812638255548
 21
84.3655666819601
 31
0.0
  0
LINE
  5
2EC
330
1F
100
AcDbEntity
  8
0
100
AcDbLine
 10
299.0872375461417
 20
62.76559109602306
 30
0.0
 11
308.1812638255548
 21
62.76559109602306
 31
0.0
  0
LINE
  5
2ED
330
1F
100
AcDbEntity
  8
0
100
AcDbLine
 10
308.1812638255549
 20
93.3655710960228
 30
0.0
 11
308.1812638255548
 21
62.76559109602306
 31
0.0
  0
LINE
  5
2EE
330
1F
100
AcDbEntity
  8
0
100
AcDbLine
 10
268.0757492991876
 20
76.56452890150092
 30
0.0
 11
268.0757492991876
 21
93.3655710960228
 31
0.0
  0
LINE
  5
2EF
330
1F
100
AcDbEntity
  8
0
100
AcDbLine
 10
258.1812638255554
 20
62.76559109602306
 30
0.0
 11
267.2752901049679
 21
62.76559109602306
 31
0.0
  0
LINE
  5
2F0
330
1F
100
AcDbEntity
  8
0
100
AcDbLine
 10
258.1812638255548
 20
93.3655710960228
 30
0.0
 11
258.1812638255554
 21
62.76559109602306
 31
0.0
  0
LINE
  5
2F1
330
1F
100
AcDbEntity
  8
0
100
AcDbLine
 10
258.1812638255548
 20
84.3655666819601
 30
0.0
 11
276.4254691485262
 21
84.3655666819601
 31
0.0
  0
CIRCLE
  5
2F2
330
1F
100
AcDbEntity
  8
0
100
AcDbCircle
 10
283.1812638255548
 20
68.76559109602306
 30
0.0
 40
7.0
  0
CIRCLE
  5
2F3
330
1F
100
AcDbEntity
  8
0
100
AcDbCircle
 10
283.1812638255548
 20
68.76559109602306
 30
0.0
 40
17.0
  0
TEXT
  5
2F4
330
1F
100
AcDbEntity
  8
0
100
AcDbText
 10
157.7328705011932
 20
626.0
 30
0.0
 40
48.000002
  1
DHC2S06AD000 10A
 41
1.32095
100
AcDbText
  0
LINE
  5
34E
330
1F
100
AcDbEntity
  8
0
  6
CENTER
100
AcDbLine
 10
283.1812602402205
 20
370.1770662629933
 30
0.0
 11
283.1812602402205
 21
502.7872754908594
 31
0.0
  0
LINE
  5
34F
330
1F
100
AcDbEntity
  8
0
  6
CENTER
100
AcDbLine
 10
345.541778420471
 20
436.4821708769264
 30
0.0
 11
236.6532280225492
 21
436.4821708769262
 31
0.0
  0
LINE
  5
350
330
1F
100
AcDbEntity
  8
0
  6
CENTER
100
AcDbLine
 10
316.2741332498713
 20
68.76559109602317
 30
0.0
 11
250.9812026793383
 21
68.76559109602294
 31
0.0
  0
LINE
  5
351
330
1F
100
AcDbEntity
  8
0
  6
CENTER
100
AcDbLine
 10
283.1812743575853
 20
43.96930928066467
 30
0.0
 11
283.1812743575853
 21
218.4385886498203
 31
0.0
  0
LINE
  5
352
330
1F
100
AcDbEntity
  8
0
  6
CENTER
100
AcDbLine
 10
556.8539116040017
 20
68.76559109602306
 30
0.0
 11
423.1938901343803
 21
68.76559109602283
 31
0.0
  0
LINE
  5
353
330
1F
100
AcDbEntity
  8
0
  6
CENTER
100
AcDbLine
 10
490.023900869191
 20
43.96932944971323
 30
0.0
 11
490.023900869191
 21
218.4386088188688
 31
0.0
  0
LINE
  5
4F0
330
1F
100
AcDbEntity
  8
0
  6
CENTER
100
AcDbLine
 10
1081.229000320978
 20
249.6928942447954
 30
0.0
 11
924.7312707016103
 21
249.6928942448026
 31
0.0
  0
LINE
  5
4F1
330
1F
100
AcDbEntity
  8
0
  6
CENTER
100
AcDbLine
 10
934.9574683602396
 20
194.1519810680425
 30
0.0
 11
934.9574683602396
 21
305.2338074215609
 31
0.0
  0
LINE
  5
4F2
330
1F
100
AcDbEntity
  8
0
  6
CENTER
100
AcDbLine
 10
780.4765061285556
 20
41.98645171992859
 30
0.0
 11
780.4765061285556
 21
141.2244495390369
 31
0.0
  0
LINE
  5
4F3
330
1F
100
AcDbEntity
  8
0
  6
CENTER
100
AcDbLine
 10
834.1693492874842
 20
68.76559109602306
 30
0.0
 11
726.7836629696271
 21
68.76559109602306
 31
0.0
  0
LINE
  5
4F4
330
1F
100
AcDbEntity
  8
0
  6
CENTER
100
AcDbLine
 10
912.2108702991418
 20
68.76559109602306
 30
0.0
 11
957.7040664195056
 21
68.76559109602306
 31
0.0
  0
LINE
  5
4F5
330
1F
100
AcDbEntity
  8
0
  6
CENTER
100
AcDbLine
 10
934.9574683593237
 20
46.01899303584025
 30
0.0
 11
934.9574683593237
 21
91.51218915620404
 31
0.0
  0
LINE
  5
4F6
330
1F
100
AcDbEntity
  8
0
  6
CENTER
100
AcDbLine
 10
909.4646308247625
 20
59.98770319175594
 30
0.0
 11
1081.564407122944
 21
119.2464084121958
 31
0.0
  0
LINE
  5
4F7
330
1F
100
AcDbEntity
  8
0
  6
CENTER
100
AcDbLine
 10
1204.271983165109
 20
41.98645171992814
 30
0.0
 11
1204.271983165109
 21
139.3681261859179
 31
0.0
  0
LINE
  5
4F8
330
1F
100
AcDbEntity
  8
0
  6
CENTER
100
AcDbLine
 10
1257.964826324037
 20
68.7655910960226
 30
0.0
 11
1150.57914000618
 21
68.7655910960226
 31
0.0
  0
SPLINE
  5
4F9
330
1F
100
AcDbEntity
  8
0
  6
Continuous
100
AcDbSpline
210
0.0
220
0.0
230
1.0
 70
     8
 71
     3
 72
    16
 73
    12
 74
     0
 42
0.0000000001
 43
0.0000000001
 40
0.8743864016572461
 40
0.8743864016572461
 40
0.8743864016572461
 40
0.8743864016572461
 40
1.152950371712304
 40
1.152950371712304
 40
1.431514341767362
 40
1.431514341767362
 40
1.71007831182242
 40
1.71007831182242
 40
1.988642281877479
 40
1.988642281877479
 40
2.267206251932537
 40
2.267206251932537
 40
2.267206251932537
 40
2.267206251932537
 10
800.4775555275751
 20
125.9355580760963
 30
0.0
 10
798.2376421223398
 20
127.7064651558772
 30
0.0
 10
795.7457872542431
 20
129.1724897996747
 30
0.0
 10
790.4494657217938
 20
131.3958968139733
 30
0.0
 10
787.6453797991548
 20
132.1533255723298
 30
0.0
 10
781.9313329453912
 20
132.9107336861862
 30
0.0
 10
779.0216793117811
 20
132.9107336861862
 30
0.0
 10
773.3076324580174
 20
132.1533255723298
 30
0.0
 10
770.5035465353785
 20
131.3958968139733
 30
0.0
 10
765.2072250029291
 20
129.1724897996747
 30
0.0
 10
762.7153701348329
 20
127.7064651558772
 30
0.0
 10
760.4754567295981
 20
125.9355580760963
 30
0.0
  0
LINE
  5
4FA
330
1F
100
AcDbEntity
  8
0
  6
Continuous
100
AcDbLine
 10
755.4765061285638
 20
90.83301654910485
 30
0.0
 11
755.476506128562
 21
88.97727806869909
 31
0.0
  0
LINE
  5
4FB
330
1F
100
AcDbEntity
  8
0
  6
Continuous
100
AcDbLine
 10
764.816046365197
 20
99.66372533039987
 30
0.0
 11
764.8160463651952
 21
97.8079868499941
 31
0.0
  0
LINE
  5
4FC
330
1F
100
AcDbEntity
  8
0
  6
Continuous
100
AcDbLine
 10
805.4765061285634
 20
90.83301654910485
 30
0.0
 11
805.4765061285619
 21
88.97727806869909
 31
0.0
  0
LINE
  5
4FD
330
1F
100
AcDbEntity
  8
0
  6
Continuous
100
AcDbLine
 10
796.1369658919283
 20
99.66372533039987
 30
0.0
 11
796.136965891927
 21
97.8079868499941
 31
0.0
  0
LINE
  5
4FE
330
1F
100
AcDbEntity
  8
0
  6
Continuous
100
AcDbLine
 10
805.4765061285619
 20
88.65170991424212
 30
0.0
 11
805.4765061285619
 21
88.97727806869909
 31
0.0
  0
SPLINE
  5
4FF
330
1F
100
AcDbEntity
  8
0
  6
Continuous
100
AcDbSpline
210
0.0
220
0.0
230
1.0
 70
     8
 71
     3
 72
     8
 73
     4
 74
     0
 42
0.0000000001
 43
0.0000000001
 40
-0.0224734906841565
 40
-0.0224734906841565
 40
-0.0224734906841565
 40
-0.0224734906841565
 40
0.0
 40
0.0
 40
0.0
 40
0.0
 10
805.3207789990548
 20
88.88420771928952
 30
0.0
 10
805.3726869944652
 20
88.91525080751092
 30
0.0
 10
805.4245962993642
 20
88.94627435646373
 30
0.0
 10
805.4765061285619
 20
88.97727806869909
 30
0.0
  0
SPLINE
  5
500
330
1F
100
AcDbEntity
  8
0
  6
Continuous
100
AcDbSpline
210
0.0
220
0.0
230
1.0
 70
     8
 71
     3
 72
     8
 73
     4
 74
     0
 42
0.0000000001
 43
0.0000000001
 40
-0.0369640501977083
 40
-0.0369640501977083
 40
-0.0369640501977083
 40
-0.0369640501977083
 40
0.0
 40
0.0
 40
0.0
 40
0.0
 10
796.0631926477662
 20
97.4824186955367
 30
0.0
 10
796.0878408431385
 20
97.59093665014701
 30
0.0
 10
796.1124319901196
 20
97.69946084861988
 30
0.0
 10
796.136965891927
 20
97.8079868499941
 30
0.0
  0
SPLINE
  5
501
330
1F
100
AcDbEntity
  8
0
  6
Continuous
100
AcDbSpline
210
0.0
220
0.0
230
1.0
 70
     8
 71
     3
 72
     8
 73
     4
 74
     0
 42
0.0000000001
 43
0.0000000001
 40
-0.0369640501977185
 40
-0.0369640501977185
 40
-0.0369640501977185
 40
-0.0369640501977185
 40
0.0
 40
0.0
 40
0.0
 40
0.0
 10
764.8898196093555
 20
97.4824186955367
 30
0.0
 10
764.8651714139837
 20
97.59093665014701
 30
0.0
 10
764.8405802670026
 20
97.69946084861988
 30
0.0
 10
764.8160463651952
 20
97.8079868499941
 30
0.0
  0
SPLINE
  5
502
330
1F
100
AcDbEntity
  8
0
  6
Continuous
100
AcDbSpline
210
0.0
220
0.0
230
1.0
 70
     8
 71
     3
 72
     8
 73
     4
 74
     0
 42
0.0000000001
 43
0.0000000001
 40
-0.0224734906841481
 40
-0.0224734906841481
 40
-0.0224734906841481
 40
-0.0224734906841481
 40
0.0
 40
0.0
 40
0.0
 40
0.0
 10
755.6322332580694
 20
88.88420771928952
 30
0.0
 10
755.5803252626588
 20
88.91525080751092
 30
0.0
 10
755.52841595776
 20
88.94627435646373
 30
0.0
 10
755.476506128562
 20
88.97727806869909
 30
0.0
  0
LINE
  5
503
330
1F
100
AcDbEntity
  8
0
  6
Continuous
100
AcDbLine
 10
755.476506128562
 20
88.97727806869909
 30
0.0
 11
755.476506128562
 21
88.65170991424212
 31
0.0
  0
ELLIPSE
  5
504
330
1F
100
AcDbEntity
  8
0
  6
Continuous
100
AcDbEllipse
 10
780.4765061285634
 20
74.17002246001141
 30
0.0
 11
-29.49999999999987
 21
0.0000000000254574
 31
0.0
210
0.0
220
0.0
230
1.0
 40
0.9455185755993172
 41
5.272007611810582
 42
5.72356667575552
  0
LINE
  5
505
330
1F
100
AcDbEntity
  8
0
  6
Continuous
100
AcDbLine
 10
796.136965891927
 20
97.8079868499941
 30
0.0
 11
764.8160463651952
 21
97.8079868499941
 31
0.0
  0
ELLIPSE
  5
506
330
1F
100
AcDbEntity
  8
0
  6
Continuous
100
AcDbEllipse
 10
780.4765061285634
 20
74.17002246001096
 30
0.0
 11
-29.49999999999998
 21
0.0000000000225819
 31
0.0
210
0.0
220
0.0
230
1.0
 40
0.9455185755993174
 41
3.701211285015562
 42
4.152770348960515
  0
ELLIPSE
  5
507
330
1F
100
AcDbEntity
  8
0
  6
Continuous
100
AcDbEllipse
 10
780.4765061285652
 20
76.02576094041672
 30
0.0
 11
29.49999999999988
 21
-0.000000000025463
 31
0.0
210
0.0
220
0.0
230
1.0
 40
0.9455185755993172
 41
0.5596186314258809
 42
1.011177695370827
  0
LINE
  5
508
330
1F
100
AcDbEntity
  8
0
  6
Continuous
100
AcDbLine
 10
764.816046365197
 20
99.66372533039987
 30
0.0
 11
796.1369658919283
 21
99.66372533039987
 31
0.0
  0
ELLIPSE
  5
509
330
1F
100
AcDbEntity
  8
0
  6
Continuous
100
AcDbEllipse
 10
780.4765061285652
 20
76.02576094041672
 30
0.0
 11
29.49999999999987
 21
-0.0000000000283579
 31
0.0
210
0.0
220
0.0
230
1.0
 40
0.9455185755993172
 41
2.130414958220891
 42
2.581974022165837
  0
LINE
  5
50A
330
1F
100
AcDbEntity
  8
0
  6
Continuous
100
AcDbLine
 10
819.587354672436
 20
77.41559109602224
 30
0.0
 11
805.4765061285589
 21
77.41559109602224
 31
0.0
  0
LINE
  5
50B
330
1F
100
AcDbEntity
  8
0
  6
Continuous
100
AcDbLine
 10
819.587354672436
 20
60.11559109602251
 30
0.0
 11
805.4765061285589
 21
60.11559109602251
 31
0.0
  0
LINE
  5
50C
330
1F
100
AcDbEntity
  8
0
  6
Continuous
100
AcDbLine
 10
819.587354672436
 20
60.11559109602251
 30
0.0
 11
822.6265061285589
 21
51.76559109602215
 31
0.0
  0
LINE
  5
50D
330
1F
100
AcDbEntity
  8
0
  6
Continuous
100
AcDbLine
 10
819.587354672436
 20
77.41559109602224
 30
0.0
 11
822.6265061285589
 21
85.76559109602214
 31
0.0
  0
LINE
  5
50E
330
1F
100
AcDbEntity
  8
0
  6
Continuous
100
AcDbLine
 10
825.4765061285588
 20
85.76559109602214
 30
0.0
 11
822.6265061285589
 21
85.76559109602214
 31
0.0
  0
LINE
  5
50F
330
1F
100
AcDbEntity
  8
0
  6
Continuous
100
AcDbLine
 10
825.4765061285588
 20
51.76559109602215
 30
0.0
 11
822.6265061285589
 21
51.76559109602215
 31
0.0
  0
LINE
  5
510
330
1F
100
AcDbEntity
  8
0
  6
Continuous
100
AcDbLine
 10
819.587354672436
 20
77.4155910960227
 30
0.0
 11
819.587354672436
 21
60.11559109602251
 31
0.0
  0
LINE
  5
511
330
1F
100
AcDbEntity
  8
0
  6
Continuous
100
AcDbLine
 10
822.6265061285589
 20
85.76559109602214
 30
0.0
 11
822.6265061285589
 21
51.7655910960226
 31
0.0
  0
LINE
  5
512
330
1F
100
AcDbEntity
  8
0
  6
Continuous
100
AcDbLine
 10
825.4765061285588
 20
85.76559109602214
 30
0.0
 11
825.4765061285588
 21
51.7655910960226
 31
0.0
  0
LINE
  5
513
330
1F
100
AcDbEntity
  8
0
  6
Continuous
100
AcDbLine
 10
755.4765061285588
 20
77.41559109602224
 30
0.0
 11
741.3656575846816
 21
77.41559109602224
 31
0.0
  0
LINE
  5
514
330
1F
100
AcDbEntity
  8
0
  6
Continuous
100
AcDbLine
 10
755.4765061285588
 20
60.11559109602251
 30
0.0
 11
741.3656575846816
 21
60.11559109602251
 31
0.0
  0
LINE
  5
515
330
1F
100
AcDbEntity
  8
0
  6
Continuous
100
AcDbLine
 10
741.3656575846816
 20
77.41559109602224
 30
0.0
 11
738.3265061285587
 21
85.76559109602214
 31
0.0
  0
LINE
  5
516
330
1F
100
AcDbEntity
  8
0
  6
Continuous
100
AcDbLine
 10
741.3656575846816
 20
60.11559109602251
 30
0.0
 11
738.3265061285587
 21
51.76559109602215
 31
0.0
  0
LINE
  5
517
330
1F
100
AcDbEntity
  8
0
  6
Continuous
100
AcDbLine
 10
738.3265061285587
 20
85.76559109602214
 30
0.0
 11
735.4765061285588
 21
85.76559109602214
 31
0.0
  0
LINE
  5
518
330
1F
100
AcDbEntity
  8
0
  6
Continuous
100
AcDbLine
 10
738.3265061285587
 20
51.76559109602215
 30
0.0
 11
735.4765061285588
 21
51.76559109602215
 31
0.0
  0
LINE
  5
519
330
1F
100
AcDbEntity
  8
0
  6
Continuous
100
AcDbLine
 10
741.3656575846816
 20
77.4155910960227
 30
0.0
 11
741.3656575846816
 21
60.11559109602251
 31
0.0
  0
LINE
  5
51A
330
1F
100
AcDbEntity
  8
0
  6
Continuous
100
AcDbLine
 10
738.3265061285587
 20
85.76559109602214
 30
0.0
 11
738.3265061285587
 21
51.7655910960226
 31
0.0
  0
LINE
  5
51B
330
1F
100
AcDbEntity
  8
0
  6
Continuous
100
AcDbLine
 10
735.4765061285588
 20
85.76559109602214
 30
0.0
 11
735.4765061285588
 21
51.7655910960226
 31
0.0
  0
LINE
  5
51C
330
1F
100
AcDbEntity
  8
0
  6
Continuous
100
AcDbLine
 10
755.4765061285575
 20
58.54813003542552
 30
0.0
 11
770.1124045134197
 21
58.54813003542552
 31
0.0
  0
LINE
  5
51D
330
1F
100
AcDbEntity
  8
0
  6
Continuous
100
AcDbLine
 10
772.7104807247733
 20
58.54813003542552
 30
0.0
 11
770.1124045134197
 21
58.54813003542552
 31
0.0
  0
LINE
  5
51E
330
1F
100
AcDbEntity
  8
0
  6
Continuous
100
AcDbLine
 10
772.7104807247733
 20
58.54813003542552
 30
0.0
 11
773.548302898283
 21
58.54813003542552
 31
0.0
  0
LINE
  5
51F
330
1F
100
AcDbEntity
  8
0
  6
Continuous
100
AcDbLine
 10
773.548302898283
 20
58.54813003542552
 30
0.0
 11
787.4047093588337
 21
58.54813003542552
 31
0.0
  0
LINE
  5
520
330
1F
100
AcDbEntity
  8
0
  6
Continuous
100
AcDbLine
 10
787.4047093588337
 20
58.54813003542552
 30
0.0
 11
788.2425315323421
 21
58.54813003542552
 31
0.0
  0
LINE
  5
521
330
1F
100
AcDbEntity
  8
0
  6
Continuous
100
AcDbLine
 10
790.8406077436953
 20
58.54813003542552
 30
0.0
 11
788.2425315323421
 21
58.54813003542552
 31
0.0
  0
LINE
  5
522
330
1F
100
AcDbEntity
  8
0
  6
Continuous
100
AcDbLine
 10
790.8406077436953
 20
58.54813003542552
 30
0.0
 11
805.4765061285575
 21
58.54813003542552
 31
0.0
  0
LINE
  5
523
330
1F
100
AcDbEntity
  8
0
  6
Continuous
100
AcDbLine
 10
755.4765061285556
 20
70.44839353084729
 30
0.0
 11
755.4765061285556
 21
73.78913025503937
 31
0.0
  0
LINE
  5
524
330
1F
100
AcDbEntity
  8
0
  6
Continuous
100
AcDbLine
 10
755.4765061285575
 20
58.54813003542552
 30
0.0
 11
755.4765061285565
 21
60.57142557205418
 31
0.0
  0
LINE
  5
525
330
1F
100
AcDbEntity
  8
0
  6
Continuous
100
AcDbLine
 10
805.4765061285566
 20
60.57142557205418
 30
0.0
 11
805.4765061285575
 21
58.54813003542552
 31
0.0
  0
LINE
  5
526
330
1F
100
AcDbEntity
  8
0
  6
Continuous
100
AcDbLine
 10
805.4765061285557
 20
73.78913025503937
 30
0.0
 11
805.4765061285557
 21
70.44839353084729
 31
0.0
  0
LINE
  5
527
330
1F
100
AcDbEntity
  8
0
  6
Continuous
100
AcDbLine
 10
755.4765061285556
 20
70.44839353084774
 30
0.0
 11
755.4765061285565
 21
60.57142557205418
 31
0.0
  0
LINE
  5
528
330
1F
100
AcDbEntity
  8
0
  6
Continuous
100
AcDbLine
 10
805.4765061285566
 20
60.57142557205418
 30
0.0
 11
805.4765061285557
 21
70.44839353084774
 31
0.0
  0
LINE
  5
529
330
1F
100
AcDbEntity
  8
0
  6
Continuous
100
AcDbLine
 10
805.4765061285557
 20
73.78913025503937
 30
0.0
 11
805.476506128557
 21
77.45850154741185
 31
0.0
  0
LINE
  5
52A
330
1F
100
AcDbEntity
  8
0
  6
Continuous
100
AcDbLine
 10
755.4765061285575
 20
77.45850154741185
 30
0.0
 11
755.4765061285556
 21
73.78913025503937
 31
0.0
  0
LINE
  5
52B
330
1F
100
AcDbEntity
  8
0
  6
Continuous
100
AcDbLine
 10
772.4946517074363
 20
82.56430185564807
 30
0.0
 11
788.4583605496823
 21
82.56430185564807
 31
0.0
  0
ELLIPSE
  5
52C
330
1F
100
AcDbEntity
  8
0
  6
Continuous
100
AcDbEllipse
 10
780.4765061285502
 20
58.54813003542552
 30
0.0
 11
-0.0000000000108175
 21
-28.36555726797945
 31
0.0
210
0.0
220
0.0
230
1.0
 40
0.5288103405933346
 41
2.4980915447954
 42
2.580485837358214
  0
LINE
  5
52D
330
1F
100
AcDbEntity
  8
0
  6
Continuous
100
AcDbLine
 10
765.4765061285575
 20
77.45850154741185
 30
0.0
 11
755.4765061285575
 21
77.45850154741185
 31
0.0
  0
LINE
  5
52E
330
1F
100
AcDbEntity
  8
0
  6
Continuous
100
AcDbLine
 10
755.4765061285575
 20
77.45850154741185
 30
0.0
 11
755.4765061285593
 21
80.01140170152996
 31
0.0
  0
ELLIPSE
  5
52F
330
1F
100
AcDbEntity
  8
0
  6
Continuous
100
AcDbEllipse
 10
780.4765061285502
 20
58.54813003542552
 30
0.0
 11
-0.0000000000108153
 21
-28.36555726797945
 31
0.0
210
0.0
220
0.0
230
1.0
 40
0.5288103405933346
 41
3.702699469819012
 42
3.785093762381966
  0
LINE
  5
530
330
1F
100
AcDbEntity
  8
0
  6
Continuous
100
AcDbLine
 10
805.4765061285593
 20
80.01140170152996
 30
0.0
 11
805.476506128557
 21
77.45850154741185
 31
0.0
  0
LINE
  5
531
330
1F
100
AcDbEntity
  8
0
  6
Continuous
100
AcDbLine
 10
805.476506128557
 20
77.45850154741185
 30
0.0
 11
795.4765061285574
 21
77.45850154741185
 31
0.0
  0
ELLIPSE
  5
532
330
1F
100
AcDbEntity
  8
0
  6
Continuous
100
AcDbEllipse
 10
780.4765061285602
 20
70.55621594553634
 30
0.0
 11
-15.00000000000065
 21
0.0000000000114839
 31
0.0
210
0.0
220
0.0
230
1.0
 40
0.9455185755993172
 41
4.068887871592227
 42
4.151282164155107
  0
ELLIPSE
  5
533
330
1F
100
AcDbEntity
  8
0
  6
Continuous
100
AcDbEllipse
 10
780.4765061285607
 20
70.55621594553634
 30
0.0
 11
15.00000000000065
 21
-0.0000000000143954
 31
0.0
210
0.0
220
0.0
230
1.0
 40
0.945518575599317
 41
2.131903143026301
 42
2.214297435589184
  0
LINE
  5
534
330
1F
100
AcDbEntity
  8
0
  6
Continuous
100
AcDbLine
 10
755.4765061285593
 20
80.01140170152996
 30
0.0
 11
765.4765061285593
 21
80.01140170152996
 31
0.0
  0
LINE
  5
535
330
1F
100
AcDbEntity
  8
0
  6
Continuous
100
AcDbLine
 10
805.4765061285593
 20
80.01140170152996
 30
0.0
 11
795.4765061285593
 21
80.01140170152996
 31
0.0
  0
LINE
  5
536
330
1F
100
AcDbEntity
  8
0
  6
Continuous
100
AcDbLine
 10
799.8320149561905
 20
85.52640396399159
 30
0.0
 11
799.8320149561923
 21
87.57748333707207
 31
0.0
  0
LINE
  5
537
330
1F
100
AcDbEntity
  8
0
  6
Continuous
100
AcDbLine
 10
791.3320149561905
 20
85.52640396399203
 30
0.0
 11
791.3320149561923
 21
87.57748333707207
 31
0.0
  0
LINE
  5
538
330
1F
100
AcDbEntity
  8
0
  6
Continuous
100
AcDbLine
 10
761.1209973009249
 20
87.57748333707207
 30
0.0
 11
761.1209973009231
 21
85.52640396399203
 31
0.0
  0
LINE
  5
539
330
1F
100
AcDbEntity
  8
0
  6
Continuous
100
AcDbLine
 10
769.6209973009249
 20
87.57748333707207
 30
0.0
 11
769.6209973009231
 21
85.52640396399159
 31
0.0
  0
ELLIPSE
  5
53A
330
1F
100
AcDbEntity
  8
0
  6
Continuous
100
AcDbEllipse
 10
795.5820149561905
 20
85.52640396399159
 30
0.0
 11
-4.249999999999987
 21
0.0
 31
0.0
210
0.0
220
0.0
230
1.0
 40
0.9455185755993172
 41
0.0
 42
6.283185307179586
  0
ELLIPSE
  5
53B
330
1F
100
AcDbEntity
  8
0
  6
Continuous
100
AcDbEllipse
 10
765.3709973009231
 20
85.52640396399159
 30
0.0
 11
4.249999999999987
 21
0.0
 31
0.0
210
0.0
220
0.0
230
1.0
 40
0.9455185755993172
 41
0.0
 42
6.283185307179586
  0
ELLIPSE
  5
53C
330
1F
100
AcDbEntity
  8
0
  6
Continuous
100
AcDbEllipse
 10
765.3709973009249
 20
87.57748333707207
 30
0.0
 11
-4.249999999999987
 21
0.000000000000021
 31
0.0
210
0.0
220
0.0
230
1.0
 40
0.9455185755993172
 41
3.141592653589603
 42
6.283185307179395
  0
ELLIPSE
  5
53D
330
1F
100
AcDbEntity
  8
0
  6
Continuous
100
AcDbEllipse
 10
795.5820149561923
 20
87.57748333707207
 30
0.0
 11
-4.249999999999987
 21
0.0000000000000021
 31
0.0
210
0.0
220
0.0
230
1.0
 40
0.9455185755993172
 41
3.141592653589597
 42
6.283185307179389
  0
ELLIPSE
  5
53E
330
1F
100
AcDbEntity
  8
0
  6
Continuous
100
AcDbEllipse
 10
765.4765061285643
 20
96.3688730593982
 30
0.0
 11
-0.0000000000072115
 21
-18.9103715119863
 31
0.0
210
0.0
220
0.0
230
1.0
 40
0.5288103405933346
 41
0.0
 42
0.6435011087921696
  0
ELLIPSE
  5
53F
330
1F
100
AcDbEntity
  8
0
  6
Continuous
100
AcDbEllipse
 10
765.4765061285583
 20
89.46658745752268
 30
0.0
 11
9.999999999999998
 21
0.0000000000000084
 31
0.0
210
0.0
220
0.0
230
1.0
 40
0.9455185755993172
 41
4.712388980384884
 42
5.355890089178098
  0
ELLIPSE
  5
540
330
1F
100
AcDbEntity
  8
0
  6
Continuous
100
AcDbEllipse
 10
795.4765061285643
 20
96.3688730593982
 30
0.0
 11
-0.0000000000072104
 21
-18.9103715119863
 31
0.0
210
0.0
220
0.0
230
1.0
 40
0.5288103405933346
 41
5.639684198385197
 42
6.283185307178142
  0
ELLIPSE
  5
541
330
1F
100
AcDbEntity
  8
0
  6
Continuous
100
AcDbEllipse
 10
795.4765061285584
 20
89.46658745752268
 30
0.0
 11
9.999999999999996
 21
-0.0000000000076758
 31
0.0
210
0.0
220
0.0
230
1.0
 40
0.9455185755993172
 41
4.068887871592226
 42
4.712388980385517
  0
LINE
  5
542
330
1F
100
AcDbEntity
  8
0
  6
Continuous
100
AcDbLine
 10
764.8160463651952
 20
97.4824186955367
 30
0.0
 11
764.816046365192
 21
94.19418033551949
 31
0.0
  0
LINE
  5
543
330
1F
100
AcDbEntity
  8
0
  6
Continuous
100
AcDbLine
 10
796.1369658919266
 20
97.4824186955367
 30
0.0
 11
796.1369658919238
 21
94.19418033551949
 31
0.0
  0
ELLIPSE
  5
544
330
1F
100
AcDbEntity
  8
0
  6
Continuous
100
AcDbEllipse
 10
780.4765061285634
 20
73.84445430555399
 30
0.0
 11
-29.49999999999995
 21
0.000000000025438
 31
0.0
210
0.0
220
0.0
230
1.0
 40
0.9455185755993172
 41
5.272007611810574
 42
5.723566675755508
  0
ELLIPSE
  5
545
330
1F
100
AcDbEntity
  8
0
  6
Continuous
100
AcDbEllipse
 10
780.4765061285634
 20
73.84445430555399
 30
0.0
 11
-29.49999999999988
 21
0.000000000022593
 31
0.0
210
0.0
220
0.0
230
1.0
 40
0.9455185755993172
 41
3.701211285015563
 42
4.15277034896052
  0
LINE
  5
546
330
1F
100
AcDbEntity
  8
0
  6
Continuous
100
AcDbLine
 10
796.1369658919266
 20
97.4824186955367
 30
0.0
 11
764.8160463651952
 21
97.4824186955367
 31
0.0
  0
LINE
  5
547
330
1F
100
AcDbEntity
  8
0
  6
Continuous
100
AcDbLine
 10
755.476506128562
 20
88.65170991424212
 30
0.0
 11
755.4765061285588
 21
85.36347155422447
 31
0.0
  0
LINE
  5
548
330
1F
100
AcDbEntity
  8
0
  6
Continuous
100
AcDbLine
 10
805.4765061285616
 20
88.65170991424212
 30
0.0
 11
805.4765061285589
 21
85.36347155422447
 31
0.0
  0
LINE
  5
549
330
1F
100
AcDbEntity
  8
0
  6
Continuous
100
AcDbLine
 10
755.4765061285593
 20
80.01140170152996
 30
0.0
 11
755.4765061285588
 21
85.36347155422447
 31
0.0
  0
ELLIPSE
  5
54A
330
1F
100
AcDbEntity
  8
0
  6
Continuous
100
AcDbEllipse
 10
780.4765061285602
 20
70.55621594553679
 30
0.0
 11
29.49999999999995
 21
-0.0000000000283884
 31
0.0
210
0.0
220
0.0
230
1.0
 40
0.9455185755993172
 41
2.130414958220896
 42
2.581974022165839
  0
LINE
  5
54B
330
1F
100
AcDbEntity
  8
0
  6
Continuous
100
AcDbLine
 10
764.8160463651925
 20
94.19418033551949
 30
0.0
 11
796.1369658919238
 21
94.19418033551949
 31
0.0
  0
ELLIPSE
  5
54C
330
1F
100
AcDbEntity
  8
0
  6
Continuous
100
AcDbEllipse
 10
780.4765061285602
 20
70.55621594553679
 30
0.0
 11
29.49999999999997
 21
-0.0000000000254463
 31
0.0
210
0.0
220
0.0
230
1.0
 40
0.9455185755993174
 41
0.5596186314258916
 42
1.011177695370836
  0
LINE
  5
54D
330
1F
100
AcDbEntity
  8
0
  6
Continuous
100
AcDbLine
 10
805.4765061285589
 20
85.36347155422447
 30
0.0
 11
805.4765061285593
 21
80.01140170152996
 31
0.0
  0
LINE
  5
54E
330
1F
100
AcDbEntity
  8
0
  6
Continuous
100
AcDbLine
 10
805.4765061285616
 20
58.54813003542552
 30
0.0
 11
805.4765061285619
 21
55.74896033684911
 31
0.0
  0
ELLIPSE
  5
54F
330
1F
100
AcDbEntity
  8
0
  6
Continuous
100
AcDbEllipse
 10
780.4765061285602
 20
70.55621594553679
 30
0.0
 11
-29.49999999999998
 21
0.000000000028344
 31
0.0
210
0.0
220
0.0
230
1.0
 40
0.9455185755993172
 41
2.130414958220896
 42
2.581974022165839
  0
LINE
  5
550
330
1F
100
AcDbEntity
  8
0
  6
Continuous
100
AcDbLine
 10
796.1369658919289
 20
46.91825155555409
 30
0.0
 11
764.816046365197
 21
46.91825155555409
 31
0.0
  0
ELLIPSE
  5
551
330
1F
100
AcDbEntity
  8
0
  6
Continuous
100
AcDbEllipse
 10
780.4765061285602
 20
70.55621594553679
 30
0.0
 11
-29.49999999999999
 21
0.000000000025463
 31
0.0
210
0.0
220
0.0
230
1.0
 40
0.9455185755993172
 41
0.5596186314258916
 42
1.011177695370835
  0
LINE
  5
552
330
1F
100
AcDbEntity
  8
0
  6
Continuous
100
AcDbLine
 10
755.476506128562
 20
55.74896033684865
 30
0.0
 11
755.4765061285616
 21
58.54813003542552
 31
0.0
  0
LINE
  5
553
330
1F
100
AcDbEntity
  8
0
  6
Continuous
100
AcDbLine
 10
769.6209973009268
 20
51.48386918092149
 30
0.0
 11
769.6209973009286
 21
53.53494855400152
 31
0.0
  0
LINE
  5
554
330
1F
100
AcDbEntity
  8
0
  6
Continuous
100
AcDbLine
 10
761.1209973009267
 20
51.48386918092149
 30
0.0
 11
761.1209973009286
 21
53.53494855400152
 31
0.0
  0
ELLIPSE
  5
555
330
1F
100
AcDbEntity
  8
0
  6
Continuous
100
AcDbEllipse
 10
765.3709973009267
 20
51.48386918092149
 30
0.0
 11
-4.249999999999987
 21
0.0
 31
0.0
210
0.0
220
0.0
230
1.0
 40
0.9455185755993172
 41
0.0
 42
6.283185307179586
  0
ELLIPSE
  5
556
330
1F
100
AcDbEntity
  8
0
  6
Continuous
100
AcDbEllipse
 10
765.3709973009285
 20
53.53494855400152
 30
0.0
 11
-4.249999999999987
 21
0.0000000000000168
 31
0.0
210
0.0
220
0.0
230
1.0
 40
0.9455185755993172
 41
3.141592653589601
 42
6.283185307179394
  0
LINE
  5
557
330
1F
100
AcDbEntity
  8
0
  6
Continuous
100
AcDbLine
 10
791.3320149561955
 20
53.53494855400152
 30
0.0
 11
791.3320149561941
 21
51.48386918092149
 31
0.0
  0
LINE
  5
558
330
1F
100
AcDbEntity
  8
0
  6
Continuous
100
AcDbLine
 10
799.8320149561955
 20
53.53494855400152
 30
0.0
 11
799.8320149561942
 21
51.48386918092149
 31
0.0
  0
ELLIPSE
  5
559
330
1F
100
AcDbEntity
  8
0
  6
Continuous
100
AcDbEllipse
 10
795.5820149561941
 20
51.48386918092149
 30
0.0
 11
4.249999999999987
 21
0.0
 31
0.0
210
0.0
220
0.0
230
1.0
 40
0.9455185755993172
 41
0.0
 42
6.283185307179586
  0
ELLIPSE
  5
55A
330
1F
100
AcDbEntity
  8
0
  6
Continuous
100
AcDbEllipse
 10
795.5820149561959
 20
53.53494855400152
 30
0.0
 11
-4.249999999999987
 21
0.0
 31
0.0
210
0.0
220
0.0
230
1.0
 40
0.9455185755993172
 41
3.141592653589595
 42
6.283185307179389
  0
LINE
  5
55B
330
1F
100
AcDbEntity
  8
0
  6
Continuous
100
AcDbLine
 10
760.4754567295981
 20
125.9355580760963
 30
0.0
 11
756.7422011957928
 21
122.9839936808021
 31
0.0
  0
LINE
  5
55C
330
1F
100
AcDbEntity
  8
0
  6
Continuous
100
AcDbLine
 10
800.4775555275751
 20
125.9355580760963
 30
0.0
 11
804.2108110613666
 21
122.9839936808017
 31
0.0
  0
LINE
  5
55D
330
1F
100
AcDbEntity
  8
0
  6
Continuous
100
AcDbLine
 10
743.4765061285824
 20
96.14587288586939
 30
0.0
 11
743.4765061285693
 21
80.51860147192575
 31
0.0
  0
LINE
  5
55E
330
1F
100
AcDbEntity
  8
0
  6
Continuous
100
AcDbLine
 10
817.4765061285825
 20
96.14587288586893
 30
0.0
 11
817.4765061285688
 21
80.51860147192531
 31
0.0
  0
ELLIPSE
  5
55F
330
1F
100
AcDbEntity
  8
0
  6
Continuous
100
AcDbEllipse
 10
780.4765061285693
 20
80.51860147192575
 30
0.0
 11
36.99999999999985
 21
-0.0000000000319411
 31
0.0
210
0.0
220
0.0
230
1.0
 40
0.9455185755993172
 41
6.194371080514915
 42
6.646941213926572
  0
ELLIPSE
  5
560
330
1F
100
AcDbEntity
  8
0
  6
Continuous
100
AcDbEllipse
 10
780.4765061285693
 20
80.51860147192575
 30
0.0
 11
-36.99999999999988
 21
0.0000000000319272
 31
0.0
210
0.0
220
0.0
230
1.0
 40
0.9455185755993172
 41
4.348633073639537
 42
5.076144887131668
  0
ELLIPSE
  5
561
330
1F
100
AcDbEntity
  8
0
  6
Continuous
100
AcDbEllipse
 10
780.4765061285693
 20
80.51860147192575
 30
0.0
 11
-36.99999999999994
 21
0.0000000000319508
 31
0.0
210
0.0
220
0.0
230
1.0
 40
0.9455185755993172
 41
5.919429400434427
 42
6.371999533846072
  0
ELLIPSE
  5
562
330
1F
100
AcDbEntity
  8
0
  6
Continuous
100
AcDbEllipse
 10
780.4765061285693
 20
80.51860147192531
 30
0.0
 11
36.99999999999983
 21
-0.0000000000319467
 31
0.0
210
0.0
220
0.0
230
1.0
 40
0.9455185755993172
 41
4.430184625887276
 42
4.994593334883928
  0
ELLIPSE
  5
563
330
1F
100
AcDbEntity
  8
0
  6
Continuous
100
AcDbEllipse
 10
780.4765061285825
 20
96.14587288586939
 30
0.0
 11
-36.99999999999988
 21
0.0000000000319286
 31
0.0
210
0.0
220
0.0
230
1.0
 40
0.9455185755993172
 41
5.951442502895365
 42
6.283185307180498
  0
ELLIPSE
  5
564
330
1F
100
AcDbEntity
  8
0
  6
Continuous
100
AcDbEllipse
 10
780.4765061285825
 20
96.14587288586939
 30
0.0
 11
-36.9999999999999
 21
0.0000000000282996
 31
0.0
210
0.0
220
0.0
230
1.0
 40
0.9455185755993172
 41
3.981162043384649
 42
5.443615917386336
  0
ELLIPSE
  5
565
330
1F
100
AcDbEntity
  8
0
  6
Continuous
100
AcDbEllipse
 10
780.476506128582
 20
96.14587288586939
 30
0.0
 11
37.0000000000001
 21
-0.0000000000001666
 31
0.0
210
0.0
220
0.0
230
1.0
 40
0.9455185755993172
 41
0.0
 42
0.3317428042849633
  0
LINE
  5
566
330
1F
100
AcDbEntity
  8
0
  6
Continuous
100
AcDbLine
 10
745.4851280999232
 20
53.10671501361696
 30
0.0
 11
745.4851280999296
 21
60.11559109602251
 31
0.0
  0
ELLIPSE
  5
567
330
1F
100
AcDbEntity
  8
0
  6
Continuous
100
AcDbEllipse
 10
751.4851280999232
 20
53.10671501361696
 30
0.0
 11
-5.999999999999983
 21
0.0000000000051799
 31
0.0
210
0.0
220
0.0
230
1.0
 40
0.9455185755993174
 41
6.257005368400553
 42
7.880161572755286
  0
LINE
  5
568
330
1F
100
AcDbEntity
  8
0
  6
Continuous
100
AcDbLine
 10
745.6771805715102
 20
60.11559109602251
 30
0.0
 11
745.4871841500703
 21
53.25521975888261
 31
0.0
  0
LINE
  5
569
330
1F
100
AcDbEntity
  8
0
  6
Continuous
100
AcDbLine
 10
751.6421897897712
 20
47.43554759362689
 30
0.0
 11
763.522921865529
 21
47.72970590941497
 31
0.0
  0
LINE
  5
56A
330
1F
100
AcDbEntity
  8
0
  6
Continuous
100
AcDbLine
 10
815.4678841572199
 20
53.10671501361696
 30
0.0
 11
815.4678841572263
 21
60.11559109602251
 31
0.0
  0
LINE
  5
56B
330
1F
100
AcDbEntity
  8
0
  6
Continuous
100
AcDbLine
 10
815.4678841572145
 20
107.9304879302345
 30
0.0
 11
815.4678841572216
 21
116.1108793516033
 31
0.0
  0
LINE
  5
56C
330
1F
100
AcDbEntity
  8
0
  6
Continuous
100
AcDbLine
 10
745.4851280999178
 20
107.9304879302345
 30
0.0
 11
745.4851280999251
 21
116.1108793516033
 31
0.0
  0
ELLIPSE
  5
56D
330
1F
100
AcDbEntity
  8
0
  6
Continuous
100
AcDbEllipse
 10
809.46788415722
 20
53.10671501361696
 30
0.0
 11
5.999999999999983
 21
-0.000000000005179
 31
0.0
210
0.0
220
0.0
230
1.0
 40
0.9455185755993172
 41
4.686209041605691
 42
6.309365245960381
  0
LINE
  5
56E
330
1F
100
AcDbEntity
  8
0
  6
Continuous
100
AcDbLine
 10
797.4300903916155
 20
47.72970590941497
 30
0.0
 11
809.3108224673738
 21
47.43554759362689
 31
0.0
  0
ELLIPSE
  5
56F
330
1F
100
AcDbEntity
  8
0
  6
Continuous
100
AcDbEllipse
 10
809.4678841572145
 20
107.9304879302345
 30
0.0
 11
5.999999999999983
 21
-0.0000000000051799
 31
0.0
210
0.0
220
0.0
230
1.0
 40
0.9455185755993174
 41
6.257005368400553
 42
7.880161572755286
  0
LINE
  5
570
330
1F
100
AcDbEntity
  8
0
  6
Continuous
100
AcDbLine
 10
815.0554894337405
 20
92.96551637114191
 30
0.0
 11
815.4658281070679
 21
107.7819831849693
 31
0.0
  0
LINE
  5
571
330
1F
100
AcDbEntity
  8
0
  6
Continuous
100
AcDbLine
 10
767.3123915141841
 20
113.2136725123051
 30
0.0
 11
751.6421897897644
 21
113.6016553502246
 31
0.0
  0
LINE
  5
572
330
1F
100
AcDbEntity
  8
0
  6
Continuous
100
AcDbLine
 10
767.3123915141923
 20
122.9807171460198
 30
0.0
 11
767.3123915141836
 21
113.2136725123051
 31
0.0
  0
LINE
  5
573
330
1F
100
AcDbEntity
  8
0
  6
Continuous
100
AcDbLine
 10
745.4871841500644
 20
107.7819831849693
 30
0.0
 11
745.8975228233953
 21
92.96551637114191
 31
0.0
  0
LINE
  5
574
330
1F
100
AcDbEntity
  8
0
  6
Continuous
100
AcDbLine
 10
815.4658281070737
 20
53.25521975888261
 30
0.0
 11
815.2758316856321
 21
60.11559109602251
 31
0.0
  0
ELLIPSE
  5
575
330
1F
100
AcDbEntity
  8
0
  6
Continuous
100
AcDbEllipse
 10
751.4851280999177
 20
107.9304879302345
 30
0.0
 11
-5.999999999999987
 21
0.0000000000051797
 31
0.0
210
0.0
220
0.0
230
1.0
 40
0.9455185755993172
 41
4.686209041605691
 42
6.309365245960381
  0
LINE
  5
576
330
1F
100
AcDbEntity
  8
0
  6
Continuous
100
AcDbLine
 10
809.3108224673665
 20
113.6016553502246
 30
0.0
 11
793.6406207429476
 21
113.2136725123051
 31
0.0
  0
LINE
  5
577
330
1F
100
AcDbEntity
  8
0
  6
Continuous
100
AcDbLine
 10
793.6406207429476
 20
113.2136725123051
 30
0.0
 11
793.6406207429558
 21
122.9807171460198
 31
0.0
  0
SPLINE
  5
578
330
1F
100
AcDbEntity
  8
0
  6
Continuous
100
AcDbSpline
210
0.0
220
0.0
230
1.0
 70
     8
 71
     3
 72
    14
 73
    10
 74
     0
 42
0.0000000001
 43
0.0000000001
 40
0.5866511256401252
 40
0.5866511256401252
 40
0.5866511256401252
 40
0.5866511256401252
 40
0.812572466010711
 40
0.812572466010711
 40
1.068687482602926
 40
1.068687482602926
 40
1.324802499195141
 40
1.324802499195141
 40
1.534240002584354
 40
1.534240002584354
 40
1.534240002584354
 40
1.534240002584354
 10
809.3108224673738
 20
121.8011499455952
 30
0.0
 10
810.0246504843903
 20
121.7307811724496
 30
0.0
 10
810.7924742581795
 20
121.5458107550244
 30
0.0
 10
812.3396265022856
 20
120.8986871772605
 30
0.0
 10
813.1068559610199
 20
120.4001396697504
 30
0.0
 10
814.3141937276604
 20
119.2585793843696
 30
0.0
 10
814.8081192280583
 20
118.5646814513112
 30
0.0
 10
815.3512570742796
 20
117.2632920895149
 30
0.0
 10
815.4670840447192
 20
116.6629630608264
 30
0.0
 10
815.4677933850912
 20
116.110900695886
 30
0.0
  0
SPLINE
  5
579
330
1F
100
AcDbEntity
  8
0
  6
Continuous
100
AcDbSpline
210
0.0
220
0.0
230
1.0
 70
    12
 71
     2
 72
     6
 73
     3
 74
     0
 42
0.0000000001
 43
0.0000000001
 40
1.544558052653076
 40
1.544558052653076
 40
1.544558052653076
 40
3.409769298934837
 40
3.409769298934837
 40
3.409769298934837
 10
809.3108224673738
 20
121.8011499455952
 30
0.0
 41
1.031133096401546
 10
800.6821676186632
 20
122.6517579928064
 30
0.0
 41
1.034364741457411
 10
793.6406207429558
 20
122.9807171460198
 30
0.0
 41
1.0
  0
SPLINE
  5
57A
330
1F
100
AcDbEntity
  8
0
  6
Continuous
100
AcDbSpline
210
0.0
220
0.0
230
1.0
 70
     8
 71
     3
 72
    14
 73
    10
 74
     0
 42
0.0000000001
 43
0.0000000001
 40
0.6031349626215043
 40
0.6031349626215043
 40
0.6031349626215043
 40
0.6031349626215043
 40
0.8125724660107115
 40
0.8125724660107115
 40
1.068687482602926
 40
1.068687482602926
 40
1.324802499195142
 40
1.324802499195142
 40
1.550723839565726
 40
1.550723839565726
 40
1.550723839565726
 40
1.550723839565726
 10
745.4852188720556
 20
116.110900695886
 30
0.0
 10
745.4859282124275
 20
116.6629630608264
 30
0.0
 10
745.6017551828668
 20
117.2632920895149
 30
0.0
 10
746.1448930290876
 20
118.5646814513112
 30
0.0
 10
746.6388185294849
 20
119.2585793843696
 30
0.0
 10
747.8461562961252
 20
120.4001396697504
 30
0.0
 10
748.6133857548593
 20
120.8986871772605
 30
0.0
 10
750.1605379989655
 20
121.5458107550244
 30
0.0
 10
750.9283617727547
 20
121.7307811724496
 30
0.0
 10
751.6421897897717
 20
121.8011499455952
 30
0.0
  0
SPLINE
  5
57B
330
1F
100
AcDbEntity
  8
0
  6
Continuous
100
AcDbSpline
210
0.0
220
0.0
230
1.0
 70
    12
 71
     2
 72
     6
 73
     3
 74
     0
 42
0.0000000001
 43
0.0000000001
 40
0.0
 40
0.0
 40
0.0
 40
1.865211246281764
 40
1.865211246281764
 40
1.865211246281764
 10
767.3123915141923
 20
122.9807171460198
 30
0.0
 41
1.0
 10
760.270844638484
 20
122.6517579928064
 30
0.0
 41
1.034364741457415
 10
751.6421897897717
 20
121.8011499455952
 30
0.0
 41
1.03113309640155
  0
SPLINE
  5
57C
330
1F
100
AcDbEntity
  8
0
  6
Continuous
100
AcDbSpline
210
0.0
220
0.0
230
1.0
 70
     8
 71
     3
 72
    16
 73
    12
 74
     0
 42
0.0000000001
 43
0.0000000001
 40
0.8743864016572461
 40
0.8743864016572461
 40
0.8743864016572461
 40
0.8743864016572461
 40
1.152950371712304
 40
1.152950371712304
 40
1.431514341767362
 40
1.431514341767362
 40
1.71007831182242
 40
1.71007831182242
 40
1.988642281877479
 40
1.988642281877479
 40
2.267206251932537
 40
2.267206251932537
 40
2.267206251932537
 40
2.267206251932537
 10
1184.270933766151
 20
125.9355580760967
 30
0.0
 10
1186.510847171386
 20
127.7064651558777
 30
0.0
 10
1189.002702039483
 20
129.1724897996751
 30
0.0
 10
1194.299023571931
 20
131.3958968139737
 30
0.0
 10
1197.103109494571
 20
132.1533255723303
 30
0.0
 10
1202.817156348334
 20
132.9107336861867
 30
0.0
 10
1205.726809981944
 20
132.9107336861867
 30
0.0
 10
1211.440856835708
 20
132.1533255723303
 30
0.0
 10
1214.244942758347
 20
131.3958968139737
 30
0.0
 10
1219.541264290795
 20
129.1724897996751
 30
0.0
 10
1222.033119158894
 20
127.7064651558777
 30
0.0
 10
1224.273032564128
 20
125.9355580760967
 30
0.0
  0
LINE
  5
57D
330
1F
100
AcDbEntity
  8
0
  6
Continuous
100
AcDbLine
 10
1165.161134621235
 20
60.11559109602297
 30
0.0
 11
1169.280605136463
 21
60.11559109602297
 31
0.0
  0
LINE
  5
57E
330
1F
100
AcDbEntity
  8
0
  6
Continuous
100
AcDbLine
 10
1165.161134621235
 20
77.4155910960227
 30
0.0
 11
1167.417814654674
 21
77.4155910960227
 31
0.0
  0
LINE
  5
57F
330
1F
100
AcDbEntity
  8
0
  6
Continuous
100
AcDbLine
 10
1165.161134621235
 20
77.4155910960227
 30
0.0
 11
1162.121983165112
 21
85.76559109602261
 31
0.0
  0
LINE
  5
580
330
1F
100
AcDbEntity
  8
0
  6
Continuous
100
AcDbLine
 10
1165.161134621235
 20
60.11559109602297
 30
0.0
 11
1162.121983165112
 21
51.7655910960226
 31
0.0
  0
LINE
  5
581
330
1F
100
AcDbEntity
  8
0
  6
Continuous
100
AcDbLine
 10
1159.271983165113
 20
51.7655910960226
 30
0.0
 11
1162.121983165112
 21
51.7655910960226
 31
0.0
  0
LINE
  5
582
330
1F
100
AcDbEntity
  8
0
  6
Continuous
100
AcDbLine
 10
1159.271983165113
 20
85.76559109602261
 30
0.0
 11
1162.121983165112
 21
85.76559109602261
 31
0.0
  0
LINE
  5
583
330
1F
100
AcDbEntity
  8
0
  6
Continuous
100
AcDbLine
 10
1165.161134621235
 20
60.11559109602297
 30
0.0
 11
1165.161134621235
 21
77.41559109602315
 31
0.0
  0
LINE
  5
584
330
1F
100
AcDbEntity
  8
0
  6
Continuous
100
AcDbLine
 10
1162.121983165112
 20
51.76559109602306
 30
0.0
 11
1162.121983165112
 21
85.76559109602261
 31
0.0
  0
LINE
  5
585
330
1F
100
AcDbEntity
  8
0
  6
Continuous
100
AcDbLine
 10
1159.271983165113
 20
51.76559109602306
 30
0.0
 11
1159.271983165113
 21
85.76559109602261
 31
0.0
  0
LINE
  5
586
330
1F
100
AcDbEntity
  8
0
  6
Continuous
100
AcDbLine
 10
1239.26336119376
 20
60.11559109602297
 30
0.0
 11
1243.38283170899
 21
60.11559109602297
 31
0.0
  0
LINE
  5
587
330
1F
100
AcDbEntity
  8
0
  6
Continuous
100
AcDbLine
 10
1241.126151675551
 20
77.4155910960227
 30
0.0
 11
1243.38283170899
 21
77.4155910960227
 31
0.0
  0
LINE
  5
588
330
1F
100
AcDbEntity
  8
0
  6
Continuous
100
AcDbLine
 10
1243.38283170899
 20
60.11559109602297
 30
0.0
 11
1246.421983165112
 21
51.7655910960226
 31
0.0
  0
LINE
  5
589
330
1F
100
AcDbEntity
  8
0
  6
Continuous
100
AcDbLine
 10
1243.38283170899
 20
77.4155910960227
 30
0.0
 11
1246.421983165112
 21
85.76559109602261
 31
0.0
  0
LINE
  5
58A
330
1F
100
AcDbEntity
  8
0
  6
Continuous
100
AcDbLine
 10
1246.421983165112
 20
51.7655910960226
 30
0.0
 11
1249.271983165112
 21
51.7655910960226
 31
0.0
  0
LINE
  5
58B
330
1F
100
AcDbEntity
  8
0
  6
Continuous
100
AcDbLine
 10
1246.421983165112
 20
85.76559109602261
 30
0.0
 11
1249.271983165112
 21
85.76559109602261
 31
0.0
  0
LINE
  5
58C
330
1F
100
AcDbEntity
  8
0
  6
Continuous
100
AcDbLine
 10
1243.38283170899
 20
60.11559109602297
 30
0.0
 11
1243.38283170899
 21
77.41559109602315
 31
0.0
  0
LINE
  5
58D
330
1F
100
AcDbEntity
  8
0
  6
Continuous
100
AcDbLine
 10
1246.421983165112
 20
51.76559109602306
 30
0.0
 11
1246.421983165112
 21
85.76559109602261
 31
0.0
  0
LINE
  5
58E
330
1F
100
AcDbEntity
  8
0
  6
Continuous
100
AcDbLine
 10
1249.271983165112
 20
51.76559109602306
 30
0.0
 11
1249.271983165112
 21
85.76559109602261
 31
0.0
  0
LINE
  5
58F
330
1F
100
AcDbEntity
  8
0
  6
Continuous
100
AcDbLine
 10
1219.932442928483
 20
47.76172273485201
 30
0.0
 11
1219.932442928482
 21
46.91825155555455
 31
0.0
  0
LINE
  5
590
330
1F
100
AcDbEntity
  8
0
  6
Continuous
100
AcDbLine
 10
1188.611523401751
 20
47.76172273485201
 30
0.0
 11
1188.61152340175
 21
46.91825155555455
 31
0.0
  0
ELLIPSE
  5
591
330
1F
100
AcDbEntity
  8
0
  6
Continuous
100
AcDbEllipse
 10
1204.27198316512
 20
70.55621594554543
 30
0.0
 11
29.50000000001057
 21
-0.0000000000225292
 31
0.0
210
0.0
220
0.0
230
1.0
 40
0.945518575599317
 41
4.100154187464475
 42
4.152770348960485
  0
LINE
  5
592
330
1F
100
AcDbEntity
  8
0
  6
Continuous
100
AcDbLine
 10
1214.575502010087
 20
46.91825155555455
 30
0.0
 11
1219.932442928482
 21
46.91825155555455
 31
0.0
  0
LINE
  5
593
330
1F
100
AcDbEntity
  8
0
  6
Continuous
100
AcDbLine
 10
1188.61152340175
 20
46.91825155555455
 30
0.0
 11
1193.968464320145
 21
46.91825155555455
 31
0.0
  0
ELLIPSE
  5
594
330
1F
100
AcDbEntity
  8
0
  6
Continuous
100
AcDbEllipse
 10
1204.271983165114
 20
70.55621594553679
 30
0.0
 11
29.49999999999932
 21
-0.000000000025327
 31
0.0
210
0.0
220
0.0
230
1.0
 40
0.9455185755993174
 41
5.272007611810554
 42
5.324623773306637
  0
ELLIPSE
  5
595
330
1F
100
AcDbEntity
  8
0
  6
Continuous
100
AcDbEllipse
 10
1204.271983165152
 20
114.052121381013
 30
0.0
 11
-7.499999999999978
 21
0.0
 31
0.0
210
0.0
220
0.0
230
1.0
 40
0.9455185755993172
 41
0.0
 42
6.283185307179586
  0
ELLIPSE
  5
596
330
1F
100
AcDbEntity
  8
0
  6
Continuous
100
AcDbEllipse
 10
1204.271983165152
 20
114.5404736126989
 30
0.0
 11
5.999999999999981
 21
0.0
 31
0.0
210
0.0
220
0.0
230
1.0
 40
0.9455185755993172
 41
0.0
 42
6.283185307179586
  0
LINE
  5
597
330
1F
100
AcDbEntity
  8
0
  6
Continuous
100
AcDbLine
 10
1179.271983165144
 20
106.4012697512699
 30
0.0
 11
1179.271983165143
 21
104.7734289789842
 31
0.0
  0
LINE
  5
598
330
1F
100
AcDbEntity
  8
0
  6
Continuous
100
AcDbLine
 10
1229.271983165144
 20
106.4012697512699
 30
0.0
 11
1229.271983165143
 21
104.7734289789847
 31
0.0
  0
LINE
  5
599
330
1F
100
AcDbEntity
  8
0
  6
Continuous
100
AcDbLine
 10
1184.270933766151
 20
125.9355580760967
 30
0.0
 11
1180.537678232345
 21
122.9839936808021
 31
0.0
  0
LINE
  5
59A
330
1F
100
AcDbEntity
  8
0
  6
Continuous
100
AcDbLine
 10
1224.273032564128
 20
125.9355580760967
 30
0.0
 11
1228.006288097921
 21
122.9839936808026
 31
0.0
  0
LINE
  5
59B
330
1F
100
AcDbEntity
  8
0
  6
Continuous
100
AcDbLine
 10
1196.771983165152
 20
114.052121381013
 30
0.0
 11
1196.771983165144
 21
106.4012697512699
 31
0.0
  0
LINE
  5
59C
330
1F
100
AcDbEntity
  8
0
  6
Continuous
100
AcDbLine
 10
1211.771983165152
 20
114.052121381013
 30
0.0
 11
1211.771983165144
 21
106.4012697512699
 31
0.0
  0
LINE
  5
59D
330
1F
100
AcDbEntity
  8
0
  6
Continuous
100
AcDbLine
 10
1167.271983165135
 20
96.14587288586939
 30
0.0
 11
1167.271983165123
 21
80.51860147192575
 31
0.0
  0
LINE
  5
59E
330
1F
100
AcDbEntity
  8
0
  6
Continuous
100
AcDbLine
 10
1241.271983165136
 20
96.14587288586983
 30
0.0
 11
1241.271983165123
 21
80.51860147192622
 31
0.0
  0
ELLIPSE
  5
59F
330
1F
100
AcDbEntity
  8
0
  6
Continuous
100
AcDbEllipse
 10
1204.271983165144
 20
106.4012697512699
 30
0.0
 11
24.99999999999992
 21
0.0
 31
0.0
210
0.0
220
0.0
230
1.0
 40
0.945518575599317
 41
0.0
 42
6.283185307179586
  0
ELLIPSE
  5
5A0
330
1F
100
AcDbEntity
  8
0
  6
Continuous
100
AcDbEllipse
 10
1204.271983165143
 20
104.7734289789842
 30
0.0
 11
24.99999999999992
 21
0.0
 31
0.0
210
0.0
220
0.0
230
1.0
 40
0.945518575599317
 41
3.141592653589579
 42
6.283185307179373
  0
ELLIPSE
  5
5A1
330
1F
100
AcDbEntity
  8
0
  6
Continuous
100
AcDbEllipse
 10
1204.271983165144
 20
106.4012697512699
 30
0.0
 11
7.49999999999998
 21
0.0000000000000005
 31
0.0
210
0.0
220
0.0
230
1.0
 40
0.9455185755993172
 41
3.141592653589585
 42
6.283185307179378
  0
ELLIPSE
  5
5A2
330
1F
100
AcDbEntity
  8
0
  6
Continuous
100
AcDbEllipse
 10
1204.271983165123
 20
80.51860147192622
 30
0.0
 11
-36.99999999999989
 21
0.0000000000318023
 31
0.0
210
0.0
220
0.0
230
1.0
 40
0.9455185755993172
 41
0.0
 42
0.3456852096577583
  0
ELLIPSE
  5
5A3
330
1F
100
AcDbEntity
  8
0
  6
Continuous
100
AcDbEllipse
 10
1204.271983165123
 20
80.51860147192622
 30
0.0
 11
36.99999999999991
 21
0.0000000000001887
 31
0.0
210
0.0
220
0.0
230
1.0
 40
0.9455185755993172
 41
5.937500097522551
 42
6.283185307179381
  0
ELLIPSE
  5
5A4
330
1F
100
AcDbEntity
  8
0
  6
Continuous
100
AcDbEllipse
 10
1204.271983165123
 20
80.51860147192622
 30
0.0
 11
-36.99999999999986
 21
0.0000000000317607
 31
0.0
210
0.0
220
0.0
230
1.0
 40
0.9455185755993172
 41
1.207040420049715
 42
1.934552233541866
  0
ELLIPSE
  5
5A5
330
1F
100
AcDbEntity
  8
0
  6
Continuous
100
AcDbEllipse
 10
1204.271983165136
 20
96.14587288586983
 30
0.0
 11
36.99999999999988
 21
-0.0000000000317912
 31
0.0
210
0.0
220
0.0
230
1.0
 40
0.945518575599317
 41
2.267206251933461
 42
7.157571708837739
  0
LINE
  5
5A6
330
1F
100
AcDbEntity
  8
0
  6
Continuous
100
AcDbLine
 10
1239.263361193773
 20
53.10671501361742
 30
0.0
 11
1239.26336119378
 21
61.28710643498573
 31
0.0
  0
ELLIPSE
  5
5A7
330
1F
100
AcDbEntity
  8
0
  6
Continuous
100
AcDbEllipse
 10
1233.263361193774
 20
53.10671501361742
 30
0.0
 11
5.99999999999999
 21
0.0000000000000168
 31
0.0
210
0.0
220
0.0
230
1.0
 40
0.9455185755993172
 41
4.686209041604706
 42
6.283185307179349
  0
LINE
  5
5A8
330
1F
100
AcDbEntity
  8
0
  6
Continuous
100
AcDbLine
 10
1233.106299503926
 20
47.43554759362734
 30
0.0
 11
1217.436097779508
 21
47.82353043154683
 31
0.0
  0
LINE
  5
5A9
330
1F
100
AcDbEntity
  8
0
  6
Continuous
100
AcDbLine
 10
1217.436097779508
 20
47.82353043154683
 30
0.0
 11
1217.436097779516
 21
57.59057506526153
 31
0.0
  0
LINE
  5
5AA
330
1F
100
AcDbEntity
  8
0
  6
Continuous
100
AcDbLine
 10
1169.280605136477
 20
53.10671501361742
 30
0.0
 11
1169.280605136485
 21
61.28710643498573
 31
0.0
  0
LINE
  5
5AB
330
1F
100
AcDbEntity
  8
0
  6
Continuous
100
AcDbLine
 10
1169.280605136472
 20
107.930487930235
 30
0.0
 11
1169.280605136479
 21
116.1108793516037
 31
0.0
  0
LINE
  5
5AC
330
1F
100
AcDbEntity
  8
0
  6
Continuous
100
AcDbLine
 10
1239.263361193768
 20
107.930487930235
 30
0.0
 11
1239.263361193774
 21
116.1108793516037
 31
0.0
  0
ELLIPSE
  5
5AD
330
1F
100
AcDbEntity
  8
0
  6
Continuous
100
AcDbEllipse
 10
1175.280605136477
 20
53.10671501361742
 30
0.0
 11
-5.999999999999991
 21
0.0000000000051573
 31
0.0
210
0.0
220
0.0
230
1.0
 40
0.9455185755993172
 41
0.0
 42
1.596976265575691
  0
LINE
  5
5AE
330
1F
100
AcDbEntity
  8
0
  6
Continuous
100
AcDbLine
 10
1191.107868550744
 20
47.82353043154683
 30
0.0
 11
1175.437666826325
 21
47.43554759362734
 31
0.0
  0
ELLIPSE
  5
5AF
330
1F
100
AcDbEntity
  8
0
  6
Continuous
100
AcDbEllipse
 10
1175.280605136472
 20
107.9304879302354
 30
0.0
 11
-6.000000000001062
 21
0.0000000000051581
 31
0.0
210
0.0
220
0.0
230
1.0
 40
0.9455185755993174
 41
0.0
 42
0.0261799387807855
  0
LINE
  5
5B0
330
1F
100
AcDbEntity
  8
0
  6
Continuous
100
AcDbLine
 10
1169.289365115717
 20
107.53991839931
 30
0.0
 11
1169.282661186618
 21
107.7819831849698
 31
0.0
  0
LINE
  5
5B1
330
1F
100
AcDbEntity
  8
0
  6
Continuous
100
AcDbLine
 10
1191.107868550752
 20
57.59057506526153
 30
0.0
 11
1191.107868550744
 21
47.82353043154683
 31
0.0
  0
LINE
  5
5B2
330
1F
100
AcDbEntity
  8
0
  6
Continuous
100
AcDbLine
 10
1239.261305143622
 20
107.7819831849698
 30
0.0
 11
1239.254601214524
 21
107.5399183993096
 31
0.0
  0
ELLIPSE
  5
5B3
330
1F
100
AcDbEntity
  8
0
  6
Continuous
100
AcDbEllipse
 10
1233.263361193764
 20
107.930487930235
 30
0.0
 11
6.000000000004105
 21
0.0000000000000882
 31
0.0
210
0.0
220
0.0
230
1.0
 40
0.945518575599317
 41
6.25700536839941
 42
6.283185307179335
  0
SPLINE
  5
5B4
330
1F
100
AcDbEntity
  8
0
  6
Continuous
100
AcDbSpline
210
0.0
220
0.0
230
1.0
 70
     8
 71
     3
 72
    14
 73
    10
 74
     0
 42
0.0000000001
 43
0.0000000001
 40
0.5866511256401252
 40
0.5866511256401252
 40
0.5866511256401252
 40
0.5866511256401252
 40
0.812572466010711
 40
0.812572466010711
 40
1.068687482602926
 40
1.068687482602926
 40
1.324802499195141
 40
1.324802499195141
 40
1.550723839565726
 40
1.550723839565726
 40
1.550723839565726
 40
1.550723839565726
 10
1175.437666826325
 20
121.8011499455957
 30
0.0
 10
1174.723838809309
 20
121.73078117245
 30
0.0
 10
1173.95601503552
 20
121.5458107550249
 30
0.0
 10
1172.408862791413
 20
120.8986871772609
 30
0.0
 10
1171.641633332678
 20
120.4001396697509
 30
0.0
 10
1170.434295566038
 20
119.2585793843701
 30
0.0
 10
1169.940370065641
 20
118.5646814513116
 30
0.0
 10
1169.378001315642
 20
117.2172137435319
 30
0.0
 10
1169.263968942157
 20
116.5683727927036
 30
0.0
 10
1169.282661186624
 20
115.98147778034
 30
0.0
  0
SPLINE
  5
5B5
330
1F
100
AcDbEntity
  8
0
  6
Continuous
100
AcDbSpline
210
0.0
220
0.0
230
1.0
 70
    12
 71
     2
 72
     6
 73
     3
 74
     0
 42
0.0000000001
 43
0.0000000001
 40
1.544558052653076
 40
1.544558052653076
 40
1.544558052653076
 40
2.002592592117304
 40
2.002592592117304
 40
2.002592592117304
 10
1175.437666826326
 20
121.8011499455957
 30
0.0
 41
1.031133096401546
 10
1177.561586886127
 20
122.0105248164387
 30
0.0
 41
1.031926682145695
 10
1179.563996814698
 20
122.1865498237199
 30
0.0
 41
1.030453085226025
  0
SPLINE
  5
5B6
330
1F
100
AcDbEntity
  8
0
  6
Continuous
100
AcDbSpline
210
0.0
220
0.0
230
1.0
 70
    12
 71
     2
 72
     6
 73
     3
 74
     0
 42
0.0000000001
 43
0.0000000001
 40
0.7905082836052156
 40
0.7905082836052156
 40
0.7905082836052156
 40
1.865211246281762
 40
1.865211246281762
 40
1.865211246281762
 10
1169.527552719771
 20
108.1738411476163
 30
0.0
 41
1.022375629342484
 10
1169.413021927861
 20
111.8884396771942
 30
0.0
 41
1.032995115260151
 10
1169.282661186624
 20
115.98147778034
 30
0.0
 41
1.031133096401547
  0
ELLIPSE
  5
5B7
330
1F
100
AcDbEntity
  8
0
  6
Continuous
100
AcDbEllipse
 10
1204.27198316513
 20
90.28564610564092
 30
0.0
 11
-36.99999999999985
 21
0.0000000000318259
 31
0.0
210
0.0
220
0.0
230
1.0
 40
0.9455185755993175
 41
0.3637559067469622
 42
1.207040420049716
  0
SPLINE
  5
5B8
330
1F
100
AcDbEntity
  8
0
  6
Continuous
100
AcDbSpline
210
0.0
220
0.0
230
1.0
 70
    12
 71
     2
 72
     6
 73
     3
 74
     0
 42
0.0000000001
 43
0.0000000001
 40
0.0
 40
0.0
 40
0.0
 40
1.865211246281761
 40
1.865211246281761
 40
1.865211246281761
 10
1191.107868550752
 20
57.59057506526153
 30
0.0
 41
1.0
 10
1184.066321675043
 20
56.91292871730377
 30
0.0
 41
1.034364741457412
 10
1175.43766682633
 20
55.635042188998
 30
0.0
 41
1.031133096401547
  0
SPLINE
  5
5B9
330
1F
100
AcDbEntity
  8
0
  6
Continuous
100
AcDbSpline
210
0.0
220
0.0
230
1.0
 70
     8
 71
     3
 72
    14
 73
    10
 74
     0
 42
0.0000000001
 43
0.0000000001
 40
0.586651125640125
 40
0.586651125640125
 40
0.586651125640125
 40
0.586651125640125
 40
0.812572466010711
 40
0.812572466010711
 40
1.068687482602926
 40
1.068687482602926
 40
1.324802499195141
 40
1.324802499195141
 40
1.550723839565726
 40
1.550723839565726
 40
1.550723839565726
 40
1.550723839565726
 10
1169.28266118663
 20
61.45471435425327
 30
0.0
 10
1169.263968942163
 20
60.69173406687162
 30
0.0
 10
1169.378001315647
 20
59.88859173589128
 30
0.0
 10
1169.940370065646
 20
58.31033707150584
 30
0.0
 10
1170.434295566044
 20
57.55337559460361
 30
0.0
 10
1171.641633332685
 20
56.41181530922279
 30
0.0
 10
1172.408862791418
 20
55.97633134555656
 30
0.0
 10
1173.956015035525
 20
55.55999472439828
 30
0.0
 10
1174.723838809315
 20
55.52932568712515
 30
0.0
 10
1175.437666826331
 20
55.635042188998
 30
0.0
  0
SPLINE
  5
5BA
330
1F
100
AcDbEntity
  8
0
  6
Continuous
100
AcDbSpline
210
0.0
220
0.0
230
1.0
 70
    12
 71
     2
 72
     6
 73
     3
 74
     0
 42
0.0000000001
 43
0.0000000001
 40
1.544558052653077
 40
1.544558052653077
 40
1.544558052653077
 40
3.409769298934836
 40
3.409769298934836
 40
3.409769298934836
 10
1169.282661186629
 20
61.45471435425327
 30
0.0
 41
1.031133096401546
 10
1169.508610465748
 20
70.67751508390358
 30
0.0
 41
1.034364741457411
 10
1169.692999859959
 20
77.83873120642431
 30
0.0
 41
1.0
  0
ELLIPSE
  5
5BB
330
1F
100
AcDbEntity
  8
0
  6
Continuous
100
AcDbEllipse
 10
1204.27198316513
 20
90.28564610564092
 30
0.0
 11
36.99999999999993
 21
-0.0000000000317982
 31
0.0
210
0.0
220
0.0
230
1.0
 40
0.945518575599317
 41
5.076144887131659
 42
5.919429400434422
  0
SPLINE
  5
5BC
330
1F
100
AcDbEntity
  8
0
  6
Continuous
100
AcDbSpline
210
0.0
220
0.0
230
1.0
 70
    12
 71
     2
 72
     6
 73
     3
 74
     0
 42
0.0000000001
 43
0.0000000001
 40
0.0
 40
0.0
 40
0.0
 40
1.865211246281763
 40
1.865211246281763
 40
1.865211246281763
 10
1238.850966470304
 20
77.83873120642431
 30
0.0
 41
1.0
 10
1239.035355864518
 20
70.67751508390358
 30
0.0
 41
1.034364741457416
 10
1239.261305143633
 20
61.45471435425327
 30
0.0
 41
1.03113309640155
  0
SPLINE
  5
5BD
330
1F
100
AcDbEntity
  8
0
  6
Continuous
100
AcDbSpline
210
0.0
220
0.0
230
1.0
 70
     8
 71
     3
 72
    14
 73
    10
 74
     0
 42
0.0000000001
 43
0.0000000001
 40
0.5866511256401252
 40
0.5866511256401252
 40
0.5866511256401252
 40
0.5866511256401252
 40
0.812572466010711
 40
0.812572466010711
 40
1.068687482602926
 40
1.068687482602926
 40
1.324802499195141
 40
1.324802499195141
 40
1.550723839565726
 40
1.550723839565726
 40
1.550723839565726
 40
1.550723839565726
 10
1233.106299503933
 20
55.635042188998
 30
0.0
 10
1233.82012752095
 20
55.52932568712515
 30
0.0
 10
1234.58795129474
 20
55.55999472439828
 30
0.0
 10
1236.135103538846
 20
55.97633134555656
 30
0.0
 10
1236.902332997579
 20
56.41181530922279
 30
0.0
 10
1238.10967076422
 20
57.55337559460361
 30
0.0
 10
1238.603596264618
 20
58.31033707150584
 30
0.0
 10
1239.165965014617
 20
59.88859173589128
 30
0.0
 10
1239.279997388102
 20
60.69173406687162
 30
0.0
 10
1239.261305143633
 20
61.45471435425327
 30
0.0
  0
SPLINE
  5
5BE
330
1F
100
AcDbEntity
  8
0
  6
Continuous
100
AcDbSpline
210
0.0
220
0.0
230
1.0
 70
    12
 71
     2
 72
     6
 73
     3
 74
     0
 42
0.0000000001
 43
0.0000000001
 40
1.544558052653077
 40
1.544558052653077
 40
1.544558052653077
 40
3.409769298934837
 40
3.409769298934837
 40
3.409769298934837
 10
1233.106299503933
 20
55.635042188998
 30
0.0
 41
1.031133096401549
 10
1224.477644655224
 20
56.91292871730377
 30
0.0
 41
1.034364741457414
 10
1217.436097779516
 20
57.59057506526153
 30
0.0
 41
1.0
  0
SPLINE
  5
5BF
330
1F
100
AcDbEntity
  8
0
  6
Continuous
100
AcDbSpline
210
0.0
220
0.0
230
1.0
 70
     8
 71
     3
 72
    14
 73
    10
 74
     0
 42
0.0000000001
 43
0.0000000001
 40
0.5866511256401258
 40
0.5866511256401258
 40
0.5866511256401258
 40
0.5866511256401258
 40
0.8125724660107115
 40
0.8125724660107115
 40
1.068687482602926
 40
1.068687482602926
 40
1.324802499195142
 40
1.324802499195142
 40
1.550723839565726
 40
1.550723839565726
 40
1.550723839565726
 40
1.550723839565726
 10
1239.261305143629
 20
115.98147778034
 30
0.0
 10
1239.279997388096
 20
116.5683727927036
 30
0.0
 10
1239.165965014612
 20
117.2172137435319
 30
0.0
 10
1238.603596264611
 20
118.5646814513116
 30
0.0
 10
1238.109670764213
 20
119.2585793843701
 30
0.0
 10
1236.902332997574
 20
120.4001396697509
 30
0.0
 10
1236.135103538838
 20
120.8986871772609
 30
0.0
 10
1234.587951294733
 20
121.5458107550249
 30
0.0
 10
1233.820127520944
 20
121.73078117245
 30
0.0
 10
1233.106299503926
 20
121.8011499455957
 30
0.0
  0
SPLINE
  5
5C0
330
1F
100
AcDbEntity
  8
0
  6
Continuous
100
AcDbSpline
210
0.0
220
0.0
230
1.0
 70
    12
 71
     2
 72
     6
 73
     3
 74
     0
 42
0.0000000001
 43
0.0000000001
 40
1.544558052653082
 40
1.544558052653082
 40
1.544558052653082
 40
2.619261015329662
 40
2.619261015329662
 40
2.619261015329662
 10
1239.261305143629
 20
115.98147778034
 30
0.0
 41
1.031133096401543
 10
1239.130944402395
 20
111.8884396771942
 30
0.0
 41
1.032995115260147
 10
1239.016413610486
 20
108.1738411476163
 30
0.0
 41
1.02237562934248
  0
SPLINE
  5
5C1
330
1F
100
AcDbEntity
  8
0
  6
Continuous
100
AcDbSpline
210
0.0
220
0.0
230
1.0
 70
    12
 71
     2
 72
     6
 73
     3
 74
     0
 42
0.0000000001
 43
0.0000000001
 40
1.40717670681752
 40
1.40717670681752
 40
1.40717670681752
 40
1.865211246281764
 40
1.865211246281764
 40
1.865211246281764
 10
1228.979969515556
 20
122.1865498237199
 30
0.0
 41
1.030453085226029
 10
1230.982379444126
 20
122.0105248164387
 30
0.0
 41
1.031926682145699
 10
1233.106299503926
 20
121.8011499455957
 30
0.0
 41
1.03113309640155
  0
SPLINE
  5
5C2
330
1F
100
AcDbEntity
  8
0
  6
Continuous
100
AcDbSpline
210
0.0
220
0.0
230
1.0
 70
     8
 71
     3
 72
    12
 73
     8
 74
     0
 42
0.0000000001
 43
0.0000000001
 40
5.763733087900065
 40
5.763733087900065
 40
5.763733087900065
 40
5.763733087900065
 40
5.771025768647944
 40
5.771025768647944
 40
5.973762484517272
 40
5.973762484517272
 40
6.192104967406812
 40
6.192104967406812
 40
6.192104967406812
 40
6.192104967406812
 10
1043.174463649333
 20
224.6928942448081
 30
0.0
 10
1043.149827180483
 20
224.6496222368283
 30
0.0
 10
1043.125046357603
 20
224.6064628131131
 30
0.0
 10
1042.407102770422
 20
223.3667039790895
 30
0.0
 10
1041.609092113445
 20
222.2498581491259
 30
0.0
 10
1039.468745008467
 20
220.1481471228795
 30
0.0
 10
1038.036955833758
 20
219.1486667904852
 30
0.0
 10
1036.230875987664
 20
218.6419994439408
 30
0.0
  0
SPLINE
  5
5C3
330
1F
100
AcDbEntity
  8
0
  6
Continuous
100
AcDbSpline
210
0.0
220
0.0
230
1.0
 70
     8
 71
     3
 72
    12
 73
     8
 74
     0
 42
0.0000000001
 43
0.0000000001
 40
3.232672993362567
 40
3.232672993362567
 40
3.232672993362567
 40
3.232672993362567
 40
3.383013929562249
 40
3.383013929562249
 40
3.600300188502469
 40
3.600300188502469
 40
3.661044872869315
 40
3.661044872869315
 40
3.661044872869315
 40
3.661044872869315
 10
1036.230875987664
 20
280.7437890456809
 30
0.0
 10
1037.474462353999
 20
280.3949204141014
 30
0.0
 10
1038.55433134005
 20
279.8014555738788
 30
0.0
 10
1040.752808927775
 20
278.1387711253606
 30
0.0
 10
1041.713235362705
 20
276.9847964174783
 30
0.0
 10
1042.754089430605
 20
275.4059704747465
 30
0.0
 10
1042.969253168318
 20
275.0533302158261
 30
0.0
 10
1043.174463649333
 20
274.6928942448081
 30
0.0
  0
LINE
  5
5C4
330
1F
100
AcDbEntity
  8
0
  6
Continuous
100
AcDbLine
 10
950.9439856129942
 20
274.6928942448081
 30
0.0
 11
945.5545297320782
 21
274.6928942448072
 31
0.0
  0
LINE
  5
5C5
330
1F
100
AcDbEntity
  8
0
  6
Continuous
100
AcDbLine
 10
947.9033287346751
 20
265.3533540081767
 30
0.0
 11
942.5138728537586
 21
265.3533540081767
 31
0.0
  0
LINE
  5
5C6
330
1F
100
AcDbEntity
  8
0
  6
Continuous
100
AcDbLine
 10
950.9439856129942
 20
224.6928942448081
 30
0.0
 11
945.5545297320782
 21
224.6928942448072
 31
0.0
  0
LINE
  5
5C7
330
1F
100
AcDbEntity
  8
0
  6
Continuous
100
AcDbLine
 10
947.9033287346751
 20
234.0324344814449
 30
0.0
 11
942.5138728537586
 21
234.032434481444
 31
0.0
  0
SPLINE
  5
5C8
330
1F
100
AcDbEntity
  8
0
  6
Continuous
100
AcDbSpline
210
0.0
220
0.0
230
1.0
 70
     8
 71
     3
 72
     8
 73
     4
 74
     0
 42
0.0000000001
 43
0.0000000001
 40
-0.1443504730161398
 40
-0.1443504730161398
 40
-0.1443504730161398
 40
-0.1443504730161398
 40
0.0
 40
0.0
 40
0.0
 40
0.0
 10
944.7034368650584
 20
225.6928942448072
 30
0.0
 10
944.9867011978044
 20
225.359721258335
 30
0.0
 10
945.270463127605
 20
225.0263185670106
 30
0.0
 10
945.5545297320782
 20
224.6928942448072
 30
0.0
  0
SPLINE
  5
5C9
330
1F
100
AcDbEntity
  8
0
  6
Continuous
100
AcDbSpline
210
0.0
220
0.0
230
1.0
 70
     8
 71
     3
 72
     8
 73
     4
 74
     0
 42
0.0000000001
 43
0.0000000001
 40
-0.1443504730160225
 40
-0.1443504730160225
 40
-0.1443504730160225
 40
-0.1443504730160225
 40
0.0
 40
0.0
 40
0.0
 40
0.0
 10
941.8939224326168
 20
234.3224680958706
 30
0.0
 10
942.1004731658936
 20
234.2249250333303
 30
0.0
 10
942.3071663047904
 20
234.1282432554259
 30
0.0
 10
942.5138728537586
 20
234.032434481444
 30
0.0
  0
SPLINE
  5
5CA
330
1F
100
AcDbEntity
  8
0
  6
Continuous
100
AcDbSpline
210
0.0
220
0.0
230
1.0
 70
     8
 71
     3
 72
     8
 73
     4
 74
     0
 42
0.0000000001
 43
0.0000000001
 40
-0.1443504730161413
 40
-0.1443504730161413
 40
-0.1443504730161413
 40
-0.1443504730161413
 40
0.0
 40
0.0
 40
0.0
 40
0.0
 10
941.8939224326168
 20
265.0633203937492
 30
0.0
 10
942.1004731658932
 20
265.1608634562904
 30
0.0
 10
942.3071663047904
 20
265.2575452341949
 30
0.0
 10
942.5138728537586
 20
265.3533540081767
 30
0.0
  0
SPLINE
  5
5CB
330
1F
100
AcDbEntity
  8
0
  6
Continuous
100
AcDbSpline
210
0.0
220
0.0
230
1.0
 70
     8
 71
     3
 72
     8
 73
     4
 74
     0
 42
0.0000000001
 43
0.0000000001
 40
-0.1443504730159024
 40
-0.1443504730159024
 40
-0.1443504730159024
 40
-0.1443504730159024
 40
0.0
 40
0.0
 40
0.0
 40
0.0
 10
944.7034368650584
 20
273.6928942448081
 30
0.0
 10
944.9867011978044
 20
274.0260672312803
 30
0.0
 10
945.2704631276056
 20
274.3594699226056
 30
0.0
 10
945.5545297320782
 20
274.6928942448072
 30
0.0
  0
ELLIPSE
  5
5CC
330
1F
100
AcDbEntity
  8
0
  6
Continuous
100
AcDbEllipse
 10
950.6530767151875
 20
249.6928942448036
 30
0.0
 11
-0.0000000000029615
 21
29.49999999999987
 31
0.0
210
0.0
220
0.0
230
1.0
 40
0.3255681544571576
 41
0.5596186314246517
 42
1.011177695369582
  0
LINE
  5
5CD
330
1F
100
AcDbEntity
  8
0
  6
Continuous
100
AcDbLine
 10
942.5138728537586
 20
234.032434481444
 30
0.0
 11
942.5138728537586
 21
265.3533540081767
 31
0.0
  0
ELLIPSE
  5
5CE
330
1F
100
AcDbEntity
  8
0
  6
Continuous
100
AcDbEllipse
 10
950.6530767151875
 20
249.6928942448036
 30
0.0
 11
-0.0000000000019672
 21
29.49999999999998
 31
0.0
210
0.0
220
0.0
230
1.0
 40
0.3255681544571577
 41
2.13041495822045
 42
2.581974022165789
  0
LINE
  5
5CF
330
1F
100
AcDbEntity
  8
0
  6
Continuous
100
AcDbLine
 10
957.7404939646422
 20
225.6928942448026
 30
0.0
 11
951.9839298971728
 21
225.6928942448081
 31
0.0
  0
LINE
  5
5D0
330
1F
100
AcDbEntity
  8
0
  6
Continuous
100
AcDbLine
 10
950.9439856129942
 20
224.6928942448081
 30
0.0
 11
957.7319686624841
 21
224.6928942448026
 31
0.0
  0
ELLIPSE
  5
5D1
330
1F
100
AcDbEntity
  8
0
  6
Continuous
100
AcDbEllipse
 10
956.9880511717032
 20
249.6928942448036
 30
0.0
 11
-0.0000000000018985
 21
28.49999999999988
 31
0.0
210
0.0
220
0.0
230
1.0
 40
0.3255681544571576
 41
2.14041764586841
 42
2.571971334517865
  0
SPLINE
  5
5D2
330
1F
100
AcDbEntity
  8
0
  6
Continuous
100
AcDbSpline
210
0.0
220
0.0
230
1.0
 70
     8
 71
     3
 72
     8
 73
     4
 74
     0
 42
0.0000000001
 43
0.0000000001
 40
-0.1443505504637195
 40
-0.1443505504637195
 40
-0.1443505504637195
 40
-0.1443505504637195
 40
0.0
 40
0.0
 40
0.0
 40
0.0
 10
950.9439856129942
 20
224.6928942448081
 30
0.0
 10
951.2904367889191
 20
225.0263185670106
 30
0.0
 10
951.6371517347238
 20
225.3597212583359
 30
0.0
 10
951.9839298971728
 20
225.6928942448081
 30
0.0
  0
ELLIPSE
  5
5D3
330
1F
100
AcDbEntity
  8
0
  6
Continuous
100
AcDbEllipse
 10
956.0425325961041
 20
249.6928942448036
 30
0.0
 11
0.0000000000029587
 21
-29.49999999999988
 31
0.0
210
0.0
220
0.0
230
1.0
 40
0.3255681544571576
 41
5.272007611809355
 42
5.723566675754287
  0
LINE
  5
5D4
330
1F
100
AcDbEntity
  8
0
  6
Continuous
100
AcDbLine
 10
949.1744154647317
 20
234.3224680958716
 30
0.0
 11
949.1744154647317
 21
265.0633203937501
 31
0.0
  0
SPLINE
  5
5D5
330
1F
100
AcDbEntity
  8
0
  6
Continuous
100
AcDbSpline
210
0.0
220
0.0
230
1.0
 70
     8
 71
     3
 72
     8
 73
     4
 74
     0
 42
0.0000000001
 43
0.0000000001
 40
-0.1443505504637693
 40
-0.1443505504637693
 40
-0.1443505504637693
 40
-0.1443505504637693
 40
0.0
 40
0.0
 40
0.0
 40
0.0
 10
947.9033287346751
 20
234.0324344814449
 30
0.0
 10
948.3271399661044
 20
234.1282432554259
 30
0.0
 10
948.7509237028129
 20
234.2249250333303
 30
0.0
 10
949.1744154647317
 20
234.3224680958716
 30
0.0
  0
LINE
  5
5D6
330
1F
100
AcDbEntity
  8
0
  6
Continuous
100
AcDbLine
 10
947.9033287346751
 20
265.3533540081767
 30
0.0
 11
947.9033287346751
 21
234.0324344814449
 31
0.0
  0
ELLIPSE
  5
5D7
330
1F
100
AcDbEntity
  8
0
  6
Continuous
100
AcDbEllipse
 10
956.9880511717032
 20
249.6928942448036
 30
0.0
 11
-0.0000000000028595
 21
28.50000000000003
 31
0.0
210
0.0
220
0.0
230
1.0
 40
0.3255681544571576
 41
0.569621319072633
 42
1.001175007721655
  0
SPLINE
  5
5D8
330
1F
100
AcDbEntity
  8
0
  6
Continuous
100
AcDbSpline
210
0.0
220
0.0
230
1.0
 70
     8
 71
     3
 72
     8
 73
     4
 74
     0
 42
0.0000000001
 43
0.0000000001
 40
-0.144350550463723
 40
-0.144350550463723
 40
-0.144350550463723
 40
-0.144350550463723
 40
0.0
 40
0.0
 40
0.0
 40
0.0
 10
947.9033287346751
 20
265.3533540081767
 30
0.0
 10
948.3271399661047
 20
265.2575452341949
 30
0.0
 10
948.7509237028129
 20
265.1608634562904
 30
0.0
 10
949.1744154647317
 20
265.0633203937501
 30
0.0
  0
ELLIPSE
  5
5D9
330
1F
100
AcDbEntity
  8
0
  6
Continuous
100
AcDbEllipse
 10
956.0425325961041
 20
249.6928942448036
 30
0.0
 11
0.0000000000039566
 21
-29.49999999999988
 31
0.0
210
0.0
220
0.0
230
1.0
 40
0.3255681544571574
 41
3.701211285013123
 42
4.152770348958505
  0
LINE
  5
5DA
330
1F
100
AcDbEntity
  8
0
  6
Continuous
100
AcDbLine
 10
951.9839298971728
 20
273.6928942448081
 30
0.0
 11
957.7404939646422
 21
273.6928942448035
 31
0.0
  0
SPLINE
  5
5DB
330
1F
100
AcDbEntity
  8
0
  6
Continuous
100
AcDbSpline
210
0.0
220
0.0
230
1.0
 70
     8
 71
     3
 72
     8
 73
     4
 74
     0
 42
0.0000000001
 43
0.0000000001
 40
-0.1443505504638201
 40
-0.1443505504638201
 40
-0.1443505504638201
 40
-0.1443505504638201
 40
0.0
 40
0.0
 40
0.0
 40
0.0
 10
950.9439856129947
 20
274.6928942448081
 30
0.0
 10
951.2904367889191
 20
274.3594699226065
 30
0.0
 10
951.6371517347234
 20
274.0260672312812
 30
0.0
 10
951.9839298971728
 20
273.6928942448081
 30
0.0
  0
LINE
  5
5DC
330
1F
100
AcDbEntity
  8
0
  6
Continuous
100
AcDbLine
 10
957.7319686624841
 20
274.6928942448026
 30
0.0
 11
950.9439856129947
 21
274.6928942448081
 31
0.0
  0
LINE
  5
5DD
330
1F
100
AcDbEntity
  8
0
  6
Continuous
100
AcDbLine
 10
943.6074683602392
 20
210.5820457009246
 30
0.0
 11
943.6074683602392
 21
224.6928942448017
 31
0.0
  0
LINE
  5
5DE
330
1F
100
AcDbEntity
  8
0
  6
Continuous
100
AcDbLine
 10
926.307468360239
 20
210.5820457009246
 30
0.0
 11
926.307468360239
 21
224.6928942448017
 31
0.0
  0
LINE
  5
5DF
330
1F
100
AcDbEntity
  8
0
  6
Continuous
100
AcDbLine
 10
926.307468360239
 20
210.5820457009246
 30
0.0
 11
917.9574683602391
 21
207.5428942448012
 31
0.0
  0
LINE
  5
5E0
330
1F
100
AcDbEntity
  8
0
  6
Continuous
100
AcDbLine
 10
943.6074683602392
 20
210.5820457009246
 30
0.0
 11
951.9574683602391
 21
207.5428942448012
 31
0.0
  0
LINE
  5
5E1
330
1F
100
AcDbEntity
  8
0
  6
Continuous
100
AcDbLine
 10
951.9574683602391
 20
204.6928942448017
 30
0.0
 11
951.9574683602391
 21
207.5428942448012
 31
0.0
  0
LINE
  5
5E2
330
1F
100
AcDbEntity
  8
0
  6
Continuous
100
AcDbLine
 10
917.9574683602391
 20
204.6928942448017
 30
0.0
 11
917.9574683602391
 21
207.5428942448012
 31
0.0
  0
LINE
  5
5E3
330
1F
100
AcDbEntity
  8
0
  6
Continuous
100
AcDbLine
 10
943.6074683602392
 20
210.5820457009246
 30
0.0
 11
926.307468360239
 21
210.5820457009246
 31
0.0
  0
LINE
  5
5E4
330
1F
100
AcDbEntity
  8
0
  6
Continuous
100
AcDbLine
 10
951.9574683602391
 20
207.5428942448012
 30
0.0
 11
917.9574683602394
 21
207.5428942448012
 31
0.0
  0
LINE
  5
5E5
330
1F
100
AcDbEntity
  8
0
  6
Continuous
100
AcDbLine
 10
951.9574683602391
 20
204.6928942448017
 30
0.0
 11
917.9574683602394
 21
204.6928942448017
 31
0.0
  0
LINE
  5
5E6
330
1F
100
AcDbEntity
  8
0
  6
Continuous
100
AcDbLine
 10
943.6074683602392
 20
274.6928942448017
 30
0.0
 11
943.6074683602392
 21
288.8037427886789
 31
0.0
  0
LINE
  5
5E7
330
1F
100
AcDbEntity
  8
0
  6
Continuous
100
AcDbLine
 10
926.307468360239
 20
274.6928942448017
 30
0.0
 11
926.307468360239
 21
288.8037427886789
 31
0.0
  0
LINE
  5
5E8
330
1F
100
AcDbEntity
  8
0
  6
Continuous
100
AcDbLine
 10
943.6074683602392
 20
288.8037427886789
 30
0.0
 11
951.9574683602391
 21
291.8428942448014
 31
0.0
  0
LINE
  5
5E9
330
1F
100
AcDbEntity
  8
0
  6
Continuous
100
AcDbLine
 10
926.307468360239
 20
288.8037427886789
 30
0.0
 11
917.9574683602394
 21
291.8428942448014
 31
0.0
  0
LINE
  5
5EA
330
1F
100
AcDbEntity
  8
0
  6
Continuous
100
AcDbLine
 10
951.9574683602391
 20
291.8428942448014
 30
0.0
 11
951.9574683602391
 21
294.6928942448017
 31
0.0
  0
LINE
  5
5EB
330
1F
100
AcDbEntity
  8
0
  6
Continuous
100
AcDbLine
 10
917.9574683602394
 20
291.8428942448023
 30
0.0
 11
917.9574683602394
 21
294.6928942448017
 31
0.0
  0
LINE
  5
5EC
330
1F
100
AcDbEntity
  8
0
  6
Continuous
100
AcDbLine
 10
943.6074683602392
 20
288.8037427886789
 30
0.0
 11
926.307468360239
 21
288.8037427886789
 31
0.0
  0
LINE
  5
5ED
330
1F
100
AcDbEntity
  8
0
  6
Continuous
100
AcDbLine
 10
951.9574683602391
 20
291.8428942448014
 30
0.0
 11
917.9574683602394
 21
291.8428942448014
 31
0.0
  0
LINE
  5
5EE
330
1F
100
AcDbEntity
  8
0
  6
Continuous
100
AcDbLine
 10
951.9574683602391
 20
294.6928942448017
 30
0.0
 11
917.9574683602394
 21
294.6928942448017
 31
0.0
  0
LINE
  5
5EF
330
1F
100
AcDbEntity
  8
0
  6
Continuous
100
AcDbLine
 10
923.6383819291491
 20
260.0569958599404
 30
0.0
 11
923.6383819291491
 21
274.6928942448026
 31
0.0
  0
SPLINE
  5
5F0
330
1F
100
AcDbEntity
  8
0
  6
Continuous
100
AcDbSpline
210
0.0
220
0.0
230
1.0
 70
     8
 71
     3
 72
    16
 73
    12
 74
     0
 42
0.0000000001
 43
0.0000000001
 40
-1.047197551196598
 40
-1.047197551196598
 40
-1.047197551196598
 40
-1.047197551196598
 40
-0.8377580409572791
 40
-0.8377580409572791
 40
-0.6283185307179596
 40
-0.6283185307179596
 40
-0.4188790204786399
 40
-0.4188790204786399
 40
-0.2094395102393203
 40
-0.2094395102393203
 40
-0.0000000000000007
 40
-0.0000000000000007
 40
-0.0000000000000007
 40
-0.0000000000000007
 10
926.1801374016298
 20
254.9928550579248
 30
0.0
 10
925.8428558870377
 20
255.2265072357364
 30
0.0
 10
925.5363427871785
 20
255.4954888401995
 30
0.0
 10
924.9916597177621
 20
256.0839519390343
 30
0.0
 10
924.7533436886692
 20
256.4033985481315
 30
0.0
 10
924.3459969916058
 20
257.0761289888847
 30
0.0
 10
924.1768772881286
 20
257.4294464948703
 30
0.0
 10
923.9069760346001
 20
258.1568236976987
 30
0.0
 10
923.8061565028356
 20
258.5309272625969
 30
0.0
 10
923.6718652486706
 20
259.2890004475144
 30
0.0
 10
923.6383819291491
 20
259.673006012396
 30
0.0
 10
923.6383819291491
 20
260.0569958599404
 30
0.0
  0
LINE
  5
5F1
330
1F
100
AcDbEntity
  8
0
  6
Continuous
100
AcDbLine
 10
926.1801374016298
 20
254.9928550579248
 30
0.0
 11
927.3895501889896
 21
254.1550328844156
 31
0.0
  0
SPLINE
  5
5F2
330
1F
100
AcDbEntity
  8
0
  6
Continuous
100
AcDbSpline
210
0.0
220
0.0
230
1.0
 70
     8
 71
     3
 72
    22
 73
    18
 74
     0
 42
0.0000000001
 43
0.0000000001
 40
-1.047197551196598
 40
-1.047197551196598
 40
-1.047197551196598
 40
-1.047197551196598
 40
-0.697226773480935
 40
-0.697226773480935
 40
-0.4095641560147158
 40
-0.4095641560147158
 40
-0.1453126527206761
 40
-0.1453126527206761
 40
0.1096187875940604
 40
0.1096187875940604
 40
0.3639934797574411
 40
0.3639934797574411
 40
0.6259381720576292
 40
0.6259381720576292
 40
0.9061101540706248
 40
0.9061101540706248
 40
1.047197551196597
 40
1.047197551196597
 40
1.047197551196597
 40
1.047197551196597
 10
927.3895501889896
 20
254.1550328844156
 30
0.0
 10
927.7521381553102
 20
253.9038496315139
 30
0.0
 10
928.1072203668978
 20
253.5543421081307
 30
0.0
 10
928.6691452407781
 20
252.749332783405
 30
0.0
 10
928.8902513696271
 20
252.3246672572773
 30
0.0
 10
929.2142397597459
 20
251.4291696048545
 30
0.0
 10
929.3251788422876
 20
250.965326556519
 30
0.0
 10
929.4395356820128
 20
250.0277113032258
 30
0.0
 10
929.4466128262188
 20
249.5551109495351
 30
0.0
 10
929.3616969794957
 20
248.6293534413913
 30
0.0
 10
929.2699487725007
 20
248.1763723334176
 30
0.0
 10
928.9968950006869
 20
247.3163762969676
 30
0.0
 10
928.8131037788771
 20
246.9114137846951
 30
0.0
 10
928.3677133254064
 20
246.1721602152916
 30
0.0
 10
928.1019908002262
 20
245.8451488074503
 30
0.0
 10
927.6805451115123
 20
245.4488736881845
 30
0.0
 10
927.5357240859397
 20
245.3320177493757
 30
0.0
 10
927.3895501889896
 20
245.2307556051906
 30
0.0
  0
LINE
  5
5F3
330
1F
100
AcDbEntity
  8
0
  6
Continuous
100
AcDbLine
 10
927.3895501889896
 20
245.2307556051906
 30
0.0
 11
926.1801374016298
 21
244.3929334316805
 31
0.0
  0
SPLINE
  5
5F4
330
1F
100
AcDbEntity
  8
0
  6
Continuous
100
AcDbSpline
210
0.0
220
0.0
230
1.0
 70
     8
 71
     3
 72
    16
 73
    12
 74
     0
 42
0.0000000001
 43
0.0000000001
 40
-0.0000000000000004
 40
-0.0000000000000004
 40
-0.0000000000000004
 40
-0.0000000000000004
 40
0.2094395102393192
 40
0.2094395102393192
 40
0.4188790204786388
 40
0.4188790204786388
 40
0.6283185307179585
 40
0.6283185307179585
 40
0.8377580409572779
 40
0.8377580409572779
 40
1.047197551196597
 40
1.047197551196597
 40
1.047197551196597
 40
1.047197551196597
 10
923.6383819291491
 20
239.3287926296649
 30
0.0
 10
923.6383819291491
 20
239.7127824772084
 30
0.0
 10
923.6718652486706
 20
240.0967880420899
 30
0.0
 10
923.8061565028356
 20
240.8548612270075
 30
0.0
 10
923.9069760346001
 20
241.2289647919066
 30
0.0
 10
924.1768772881286
 20
241.9563419947349
 30
0.0
 10
924.3459969916052
 20
242.3096595007215
 30
0.0
 10
924.7533436886692
 20
242.9823899414738
 30
0.0
 10
924.9916597177621
 20
243.301836550571
 30
0.0
 10
925.5363427871785
 20
243.8902996494049
 30
0.0
 10
925.8428558870377
 20
244.1592812538698
 30
0.0
 10
926.1801374016298
 20
244.3929334316805
 30
0.0
  0
LINE
  5
5F5
330
1F
100
AcDbEntity
  8
0
  6
Continuous
100
AcDbLine
 10
923.6383819291491
 20
224.6928942448026
 30
0.0
 11
923.6383819291491
 21
239.3287926296649
 31
0.0
  0
LINE
  5
5F6
330
1F
100
AcDbEntity
  8
0
  6
Continuous
100
AcDbLine
 10
923.6383819291486
 20
274.6928942448026
 30
0.0
 11
924.7913975031719
 21
274.6928942448036
 31
0.0
  0
LINE
  5
5F7
330
1F
100
AcDbEntity
  8
0
  6
Continuous
100
AcDbLine
 10
924.7913975031719
 20
224.6928942448036
 30
0.0
 11
923.6383819291486
 21
224.6928942448026
 31
0.0
  0
LINE
  5
5F8
330
1F
100
AcDbEntity
  8
0
  6
Continuous
100
AcDbLine
 10
924.7913975031719
 20
224.6928942448036
 30
0.0
 11
929.4879785842535
 21
224.6928942448044
 31
0.0
  0
LINE
  5
5F9
330
1F
100
AcDbEntity
  8
0
  6
Continuous
100
AcDbLine
 10
929.4879785842535
 20
274.6928942448036
 30
0.0
 11
924.7913975031719
 21
274.6928942448036
 31
0.0
  0
LINE
  5
5FA
330
1F
100
AcDbEntity
  8
0
  6
Continuous
100
AcDbLine
 10
928.3401611236673
 20
230.3373854171737
 30
0.0
 11
932.9098933292456
 21
230.3373854171737
 31
0.0
  0
LINE
  5
5FB
330
1F
100
AcDbEntity
  8
0
  6
Continuous
100
AcDbLine
 10
928.3401611236673
 20
238.8373854171728
 30
0.0
 11
932.0186166646063
 21
238.8373854171737
 31
0.0
  0
LINE
  5
5FC
330
1F
100
AcDbEntity
  8
0
  6
Continuous
100
AcDbLine
 10
932.9098933292456
 20
269.0484030724407
 30
0.0
 11
928.3401611236673
 21
269.0484030724397
 31
0.0
  0
LINE
  5
5FD
330
1F
100
AcDbEntity
  8
0
  6
Continuous
100
AcDbLine
 10
932.0186166646063
 20
260.5484030724407
 30
0.0
 11
928.3401611236673
 21
260.5484030724397
 31
0.0
  0
ELLIPSE
  5
5FE
330
1F
100
AcDbEntity
  8
0
  6
Continuous
100
AcDbEllipse
 10
928.3401611236673
 20
234.5873854171728
 30
0.0
 11
-0.0000000000000086
 21
-4.24999999999999
 31
0.0
210
0.0
220
0.0
230
1.0
 40
0.3255681544571576
 41
3.141592653595018
 42
6.283185307184811
  0
ELLIPSE
  5
5FF
330
1F
100
AcDbEntity
  8
0
  6
Continuous
100
AcDbEllipse
 10
928.3401611236673
 20
264.7984030724407
 30
0.0
 11
0.0000000000000057
 21
4.249999999999987
 31
0.0
210
0.0
220
0.0
230
1.0
 40
0.3255681544571576
 41
0.0000000000052057
 42
3.141592653594998
  0
LINE
  5
600
330
1F
100
AcDbEntity
  8
0
  6
Continuous
100
AcDbLine
 10
929.4879785842535
 20
269.0484030724379
 30
0.0
 11
929.4879785842535
 21
274.6928942448036
 31
0.0
  0
LINE
  5
601
330
1F
100
AcDbEntity
  8
0
  6
Continuous
100
AcDbLine
 10
929.4879785842535
 20
274.6928942448036
 30
0.0
 11
935.0592735429259
 21
274.6928942448044
 31
0.0
  0
LINE
  5
602
330
1F
100
AcDbEntity
  8
0
  6
Continuous
100
AcDbLine
 10
935.0592735429259
 20
224.6928942448044
 30
0.0
 11
929.4879785842535
 21
224.6928942448044
 31
0.0
  0
LINE
  5
603
330
1F
100
AcDbEntity
  8
0
  6
Continuous
100
AcDbLine
 10
929.4879785842535
 20
224.6928942448044
 30
0.0
 11
929.4879785842535
 21
230.337385417171
 31
0.0
  0
LINE
  5
604
330
1F
100
AcDbEntity
  8
0
  6
Continuous
100
AcDbLine
 10
941.5683542781593
 20
265.3533540081767
 30
0.0
 11
932.0186166646063
 21
265.3533540081749
 31
0.0
  0
LINE
  5
605
330
1F
100
AcDbEntity
  8
0
  6
Continuous
100
AcDbLine
 10
941.5683542781593
 20
234.032434481444
 30
0.0
 11
932.0186166646063
 21
234.032434481444
 31
0.0
  0
ELLIPSE
  5
606
330
1F
100
AcDbEntity
  8
0
  6
Continuous
100
AcDbEllipse
 10
949.7075581395884
 20
249.6928942448036
 30
0.0
 11
0.0000000000038178
 21
-28.50000000000019
 31
0.0
210
0.0
220
0.0
230
1.0
 40
0.3255681544571576
 41
3.711213972661123
 42
4.142767661310571
  0
LINE
  5
607
330
1F
100
AcDbEntity
  8
0
  6
Continuous
100
AcDbLine
 10
941.8939224326168
 20
265.0633203937492
 30
0.0
 11
941.8939224326168
 21
234.3224680958706
 31
0.0
  0
ELLIPSE
  5
608
330
1F
100
AcDbEntity
  8
0
  6
Continuous
100
AcDbEllipse
 10
949.7075581395884
 20
249.6928942448036
 30
0.0
 11
0.0000000000028602
 21
-28.49999999999999
 31
0.0
210
0.0
220
0.0
230
1.0
 40
0.3255681544571575
 41
5.282010299457287
 42
5.71356398810635
  0
ELLIPSE
  5
609
330
1F
100
AcDbEntity
  8
0
  6
Continuous
100
AcDbEllipse
 10
949.7075581395884
 20
249.6928942448036
 30
0.0
 11
-0.0000000000029601
 21
29.49999999999995
 31
0.0
210
0.0
220
0.0
230
1.0
 40
0.3255681544571576
 41
0.5596186314246534
 42
1.011177695369582
  0
ELLIPSE
  5
60A
330
1F
100
AcDbEntity
  8
0
  6
Continuous
100
AcDbEllipse
 10
949.7075581395884
 20
249.6928942448036
 30
0.0
 11
-0.0000000000019713
 21
29.49999999999988
 31
0.0
210
0.0
220
0.0
230
1.0
 40
0.3255681544571576
 41
2.13041495822045
 42
2.581974022165788
  0
LINE
  5
60B
330
1F
100
AcDbEntity
  8
0
  6
Continuous
100
AcDbLine
 10
941.5683542781593
 20
234.032434481444
 30
0.0
 11
941.5683542781593
 21
265.3533540081767
 31
0.0
  0
LINE
  5
60C
330
1F
100
AcDbEntity
  8
0
  6
Continuous
100
AcDbLine
 10
944.6090111564791
 20
274.6928942448072
 30
0.0
 11
945.5545297320782
 21
274.6928942448072
 31
0.0
  0
LINE
  5
60D
330
1F
100
AcDbEntity
  8
0
  6
Continuous
100
AcDbLine
 10
944.6090111564791
 20
274.6928942448072
 30
0.0
 11
935.0592735429259
 21
274.6928942448072
 31
0.0
  0
LINE
  5
60E
330
1F
100
AcDbEntity
  8
0
  6
Continuous
100
AcDbLine
 10
944.6090111564791
 20
224.6928942448072
 30
0.0
 11
935.0592735429259
 21
224.6928942448072
 31
0.0
  0
LINE
  5
60F
330
1F
100
AcDbEntity
  8
0
  6
Continuous
100
AcDbLine
 10
945.5545297320782
 20
224.6928942448072
 30
0.0
 11
944.6090111564791
 21
224.6928942448072
 31
0.0
  0
ELLIPSE
  5
610
330
1F
100
AcDbEntity
  8
0
  6
Continuous
100
AcDbEllipse
 10
940.1578205260353
 20
249.6928942448026
 30
0.0
 11
0.0000000000039531
 21
-29.49999999999995
 31
0.0
210
0.0
220
0.0
230
1.0
 40
0.3255681544571576
 41
3.701211285013123
 42
4.152770348958506
  0
LINE
  5
611
330
1F
100
AcDbEntity
  8
0
  6
Continuous
100
AcDbLine
 10
932.0186166646063
 20
265.3533540081749
 30
0.0
 11
932.0186166646063
 21
234.032434481444
 31
0.0
  0
ELLIPSE
  5
612
330
1F
100
AcDbEntity
  8
0
  6
Continuous
100
AcDbEllipse
 10
940.1578205260353
 20
249.6928942448026
 30
0.0
 11
0.0000000000029581
 21
-29.49999999999998
 31
0.0
210
0.0
220
0.0
230
1.0
 40
0.3255681544571577
 41
5.272007611809355
 42
5.723566675754288
  0
ELLIPSE
  5
613
330
1F
100
AcDbEntity
  8
0
  6
Continuous
100
AcDbEllipse
 10
953.6921503626832
 20
264.6928942448099
 30
0.0
 11
-24.20417177842927
 21
-0.0000000000055775
 31
0.0
210
0.0
220
0.0
230
1.0
 40
0.4131519182536935
 41
0.4273374020250157
 42
0.4613638128249221
  0
ELLIPSE
  5
614
330
1F
100
AcDbEntity
  8
0
  6
Continuous
100
AcDbEllipse
 10
953.6921503626832
 20
234.6928942448099
 30
0.0
 11
-24.20417177842927
 21
-0.0000000000055786
 31
0.0
210
0.0
220
0.0
230
1.0
 40
0.4131519182536935
 41
5.821821494356706
 42
5.855847905156614
  0
LINE
  5
615
330
1F
100
AcDbEntity
  8
0
  6
Continuous
100
AcDbLine
 10
1068.569992723026
 20
255.3259915997465
 30
0.0
 11
1067.319868018008
 21
256.7342659384791
 31
0.0
  0
LINE
  5
616
330
1F
100
AcDbEntity
  8
0
  6
Continuous
100
AcDbLine
 10
1068.569992723026
 20
244.0597968898824
 30
0.0
 11
1067.319868018008
 21
242.651522551149
 31
0.0
  0
ELLIPSE
  5
617
330
1F
100
AcDbEntity
  8
0
  6
Continuous
100
AcDbEllipse
 10
1066.479102226103
 20
249.6928942448154
 30
0.0
 11
-0.000000000000752
 21
7.499999999999976
 31
0.0
210
0.0
220
0.0
230
1.0
 40
0.3255681544571576
 41
5.931662797751834
 42
9.776300470196517
  0
ELLIPSE
  5
618
330
1F
100
AcDbEntity
  8
0
  6
Continuous
100
AcDbEllipse
 10
1067.897380089502
 20
249.6928942448154
 30
0.0
 11
0.0000000000000101
 21
5.999999999999981
 31
0.0
210
0.0
220
0.0
230
1.0
 40
0.3255681544571577
 41
0.0
 42
6.283185307179585
  0
LINE
  5
619
330
1F
100
AcDbEntity
  8
0
  6
Continuous
100
AcDbLine
 10
957.8044337308273
 20
266.1928942448036
 30
0.0
 11
956.9880511717032
 21
266.1928942448036
 31
0.0
  0
LINE
  5
61A
330
1F
100
AcDbEntity
  8
0
  6
Continuous
100
AcDbLine
 10
957.8044337308273
 20
233.1928942448044
 30
0.0
 11
956.9880511717032
 21
233.1928942448044
 31
0.0
  0
LINE
  5
61B
330
1F
100
AcDbEntity
  8
0
  6
Continuous
100
AcDbLine
 10
1044.25941569952
 20
274.6928942448127
 30
0.0
 11
1039.531822821523
 21
274.6928942448127
 31
0.0
  0
LINE
  5
61C
330
1F
100
AcDbEntity
  8
0
  6
Continuous
100
AcDbLine
 10
1044.259415699519
 20
224.6928942448127
 30
0.0
 11
1039.531822821523
 21
224.6928942448127
 31
0.0
  0
LINE
  5
61D
330
1F
100
AcDbEntity
  8
0
  6
Continuous
100
AcDbLine
 10
1036.230875987664
 20
280.7437890456809
 30
0.0
 11
1015.571220015202
 21
286.5395311856196
 31
0.0
  0
LINE
  5
61E
330
1F
100
AcDbEntity
  8
0
  6
Continuous
100
AcDbLine
 10
1036.230875987664
 20
218.6419994439408
 30
0.0
 11
1015.571220015202
 21
212.8462573039974
 31
0.0
  0
LINE
  5
61F
330
1F
100
AcDbEntity
  8
0
  6
Continuous
100
AcDbLine
 10
1066.479102226103
 20
257.1928942448145
 30
0.0
 11
1044.259415699519
 21
257.1928942448126
 31
0.0
  0
LINE
  5
620
330
1F
100
AcDbEntity
  8
0
  6
Continuous
100
AcDbLine
 10
1066.479102226103
 20
242.1928942448154
 30
0.0
 11
1044.259415699519
 21
242.1928942448126
 31
0.0
  0
LINE
  5
621
330
1F
100
AcDbEntity
  8
0
  6
Continuous
100
AcDbLine
 10
1014.475580568141
 20
286.692894244809
 30
0.0
 11
969.0906889393746
 21
286.6928942448054
 31
0.0
  0
LINE
  5
622
330
1F
100
AcDbEntity
  8
0
  6
Continuous
100
AcDbLine
 10
1014.475580568141
 20
212.6928942448099
 30
0.0
 11
969.0906889393746
 21
212.6928942448054
 31
0.0
  0
ELLIPSE
  5
623
330
1F
100
AcDbEntity
  8
0
  6
Continuous
100
AcDbEllipse
 10
956.9880511717032
 20
249.6928942448036
 30
0.0
 11
-0.0000000000000267
 21
-16.49999999999995
 31
0.0
210
0.0
220
0.0
230
1.0
 40
0.3255681544571576
 41
3.141592653595084
 42
6.283185307184877
  0
ELLIPSE
  5
624
330
1F
100
AcDbEntity
  8
0
  6
Continuous
100
AcDbEllipse
 10
1044.25941569952
 20
249.6928942448127
 30
0.0
 11
0.0000000000025081
 21
-24.99999999999992
 31
0.0
210
0.0
220
0.0
230
1.0
 40
0.3255681544571576
 41
1.875488980809974
 42
7.549288979958775
  0
ELLIPSE
  5
625
330
1F
100
AcDbEntity
  8
0
  6
Continuous
100
AcDbEllipse
 10
1039.531822821523
 20
249.6928942448127
 30
0.0
 11
-0.000000000000041
 21
-24.99999999999992
 31
0.0
210
0.0
220
0.0
230
1.0
 40
0.3255681544571576
 41
3.141592653595102
 42
6.283185307184895
  0
ELLIPSE
  5
626
330
1F
100
AcDbEntity
  8
0
  6
Continuous
100
AcDbEllipse
 10
1044.25941569952
 20
249.6928942448127
 30
0.0
 11
-0.0000000000000132
 21
-7.49999999999998
 31
0.0
210
0.0
220
0.0
230
1.0
 40
0.3255681544571576
 41
3.141592653595062
 42
6.283185307184855
  0
ELLIPSE
  5
627
330
1F
100
AcDbEntity
  8
0
  6
Continuous
100
AcDbEllipse
 10
969.0906889393746
 20
249.6928942448054
 30
0.0
 11
-0.0000000000000687
 21
-37.00000000000005
 31
0.0
210
0.0
220
0.0
230
1.0
 40
0.3255681544571576
 41
5.952170205955886
 42
6.283185307184893
  0
ELLIPSE
  5
628
330
1F
100
AcDbEntity
  8
0
  6
Continuous
100
AcDbEllipse
 10
969.0906889393746
 20
249.6928942448054
 30
0.0
 11
-0.0000000000037116
 21
36.99999999999988
 31
0.0
210
0.0
220
0.0
230
1.0
 40
0.3255681544571575
 41
1.207040420048519
 42
1.934552233540653
  0
ELLIPSE
  5
629
330
1F
100
AcDbEntity
  8
0
  6
Continuous
100
AcDbEllipse
 10
969.0906889393746
 20
249.6928942448054
 30
0.0
 11
-0.0000000000037123
 21
36.99999999999993
 31
0.0
210
0.0
220
0.0
230
1.0
 40
0.3255681544571576
 41
0.0
 42
0.3310151012283882
  0
ELLIPSE
  5
62A
330
1F
100
AcDbEntity
  8
0
  6
Continuous
100
AcDbEllipse
 10
1014.475580568141
 20
249.6928942448099
 30
0.0
 11
0.0000000000037125
 21
-36.9999999999999
 31
0.0
210
0.0
220
0.0
230
1.0
 40
0.3255681544571576
 41
3.050512313816668
 42
6.374265646952034
  0
LINE
  5
62B
330
1F
100
AcDbEntity
  8
0
  6
Continuous
100
AcDbLine
 10
959.6520194994173
 20
214.7015162161648
 30
0.0
 11
983.4096012490027
 21
214.7015162161675
 31
0.0
  0
LINE
  5
62C
330
1F
100
AcDbEntity
  8
0
  6
Continuous
100
AcDbLine
 10
959.6520194994177
 20
284.6842722734614
 30
0.0
 11
983.4096012490027
 21
284.6842722734642
 31
0.0
  0
ELLIPSE
  5
62D
330
1F
100
AcDbEntity
  8
0
  6
Continuous
100
AcDbEllipse
 10
959.6520194994173
 20
220.7015162161648
 30
0.0
 11
-0.0000000000000086
 21
-5.999999999999978
 31
0.0
210
0.0
220
0.0
230
1.0
 40
0.3255681544571576
 41
4.686209041607195
 42
6.283185307184955
  0
LINE
  5
62E
330
1F
100
AcDbEntity
  8
0
  6
Continuous
100
AcDbLine
 10
957.8328731617048
 20
262.8570088591965
 30
0.0
 11
957.6992799571266
 21
278.5272105836162
 31
0.0
  0
LINE
  5
62F
330
1F
100
AcDbEntity
  8
0
  6
Continuous
100
AcDbLine
 10
986.1984304296838
 20
262.8570088591992
 30
0.0
 11
957.8328731617048
 21
262.8570088591965
 31
0.0
  0
ELLIPSE
  5
630
330
1F
100
AcDbEntity
  8
0
  6
Continuous
100
AcDbEllipse
 10
959.6520194994173
 20
278.6842722734614
 30
0.0
 11
-0.0000000000006018
 21
5.999999999999983
 31
0.0
210
0.0
220
0.0
230
1.0
 40
0.3255681544571576
 41
0.0
 42
1.59697626557449
  0
LINE
  5
631
330
1F
100
AcDbEntity
  8
0
  6
Continuous
100
AcDbLine
 10
957.6992799571263
 20
220.8585779060137
 30
0.0
 11
957.8328731617048
 21
236.5287796304333
 31
0.0
  0
LINE
  5
632
330
1F
100
AcDbEntity
  8
0
  6
Continuous
100
AcDbLine
 10
957.8328731617048
 20
236.5287796304333
 30
0.0
 11
986.1984304296838
 21
236.5287796304361
 31
0.0
  0
SPLINE
  5
633
330
1F
100
AcDbEntity
  8
0
  6
Continuous
100
AcDbSpline
210
0.0
220
0.0
230
1.0
 70
     8
 71
     3
 72
    14
 73
    10
 74
     0
 42
0.0000000001
 43
0.0000000001
 40
0.5866511256401252
 40
0.5866511256401252
 40
0.5866511256401252
 40
0.5866511256401252
 40
0.812572466010711
 40
0.812572466010711
 40
1.068687482602926
 40
1.068687482602926
 40
1.324802499195141
 40
1.324802499195141
 40
1.550723839565726
 40
1.550723839565726
 40
1.550723839565726
 40
1.550723839565726
 10
981.5123413524457
 20
220.8585779060164
 30
0.0
 10
981.2505613673584
 20
220.1447498889989
 30
0.0
 10
981.0636248034034
 20
219.3769261152098
 30
0.0
 10
980.911587164565
 20
217.829773871104
 30
0.0
 10
980.9808186631602
 20
217.0625444123694
 30
0.0
 10
981.373889391652
 20
215.8552066457283
 30
0.0
 10
981.715249785585
 20
215.3612811453309
 30
0.0
 10
982.5540802812634
 20
214.7989123953308
 30
0.0
 10
983.0281211235833
 20
214.6848800218464
 30
0.0
 10
983.516215179236
 20
214.7035722663137
 30
0.0
  0
SPLINE
  5
634
330
1F
100
AcDbEntity
  8
0
  6
Continuous
100
AcDbSpline
210
0.0
220
0.0
230
1.0
 70
    12
 71
     2
 72
     6
 73
     3
 74
     0
 42
0.0000000001
 43
0.0000000001
 40
1.544558052653076
 40
1.544558052653076
 40
1.544558052653076
 40
3.409769298934837
 40
3.409769298934837
 40
3.409769298934837
 10
981.5123413524457
 20
220.8585779060164
 30
0.0
 41
1.031133096401546
 10
984.6767017918942
 20
229.4872327547278
 30
0.0
 41
1.034364741457411
 10
986.1984304296838
 20
236.5287796304361
 30
0.0
 41
1.0
  0
ELLIPSE
  5
635
330
1F
100
AcDbEntity
  8
0
  6
Continuous
100
AcDbEllipse
 10
997.456246207354
 20
249.6928942448081
 30
0.0
 11
0.000000000003713
 21
-36.99999999999981
 31
0.0
210
0.0
220
0.0
230
1.0
 40
0.3255681544571575
 41
5.076144887130446
 42
5.919429400433219
  0
SPLINE
  5
636
330
1F
100
AcDbEntity
  8
0
  6
Continuous
100
AcDbSpline
210
0.0
220
0.0
230
1.0
 70
    12
 71
     2
 72
     6
 73
     3
 74
     0
 42
0.0000000001
 43
0.0000000001
 40
0.0
 40
0.0
 40
0.0
 40
1.865211246281762
 40
1.865211246281762
 40
1.865211246281762
 10
993.1704297072869
 20
215.1139109396396
 30
0.0
 41
1.0
 10
989.4162289634255
 20
214.9295215454273
 30
0.0
 41
1.034364741457412
 10
983.5162151792356
 20
214.7035722663137
 30
0.0
 41
1.031133096401547
  0
SPLINE
  5
637
330
1F
100
AcDbEntity
  8
0
  6
Continuous
100
AcDbSpline
210
0.0
220
0.0
230
1.0
 70
     8
 71
     3
 72
    14
 73
    10
 74
     0
 42
0.0000000001
 43
0.0000000001
 40
0.5866511256401258
 40
0.5866511256401258
 40
0.5866511256401258
 40
0.5866511256401258
 40
0.8125724660107115
 40
0.8125724660107115
 40
1.068687482602926
 40
1.068687482602926
 40
1.324802499195142
 40
1.324802499195142
 40
1.550723839565726
 40
1.550723839565726
 40
1.550723839565726
 40
1.550723839565726
 10
983.516215179236
 20
284.682216223318
 30
0.0
 10
983.0281211235833
 20
284.7009084677853
 30
0.0
 10
982.5540802812637
 20
284.5868760943009
 30
0.0
 10
981.7152497855854
 20
284.0245073443016
 30
0.0
 10
981.373889391652
 20
283.5305818439043
 30
0.0
 10
980.9808186631602
 20
282.3232440772641
 30
0.0
 10
980.911587164565
 20
281.5560146185304
 30
0.0
 10
981.0636248034034
 20
280.0088623744246
 30
0.0
 10
981.2505613673584
 20
279.2410386006346
 30
0.0
 10
981.5123413524457
 20
278.5272105836189
 30
0.0
  0
SPLINE
  5
638
330
1F
100
AcDbEntity
  8
0
  6
Continuous
100
AcDbSpline
210
0.0
220
0.0
230
1.0
 70
    12
 71
     2
 72
     6
 73
     3
 74
     0
 42
0.0000000001
 43
0.0000000001
 40
1.544558052653082
 40
1.544558052653082
 40
1.544558052653082
 40
3.409769298934839
 40
3.409769298934839
 40
3.409769298934839
 10
983.516215179236
 20
284.682216223318
 30
0.0
 41
1.031133096401543
 10
989.4162289634255
 20
284.4562669441998
 30
0.0
 41
1.034364741457407
 10
993.1704297072869
 20
284.2718775499839
 30
0.0
 41
1.0
  0
ELLIPSE
  5
639
330
1F
100
AcDbEntity
  8
0
  6
Continuous
100
AcDbEllipse
 10
997.456246207354
 20
249.6928942448081
 30
0.0
 11
-0.0000000000037116
 21
36.9999999999999
 31
0.0
210
0.0
220
0.0
230
1.0
 40
0.3255681544571576
 41
0.3637559067457519
 42
1.20704042004852
  0
SPLINE
  5
63A
330
1F
100
AcDbEntity
  8
0
  6
Continuous
100
AcDbSpline
210
0.0
220
0.0
230
1.0
 70
    12
 71
     2
 72
     6
 73
     3
 74
     0
 42
0.0000000001
 43
0.0000000001
 40
0.0
 40
0.0
 40
0.0
 40
1.865211246281764
 40
1.865211246281764
 40
1.865211246281764
 10
986.1984304296838
 20
262.8570088591992
 30
0.0
 41
1.0
 10
984.6767017918942
 20
269.8985557349075
 30
0.0
 41
1.034364741457415
 10
981.5123413524457
 20
278.5272105836189
 30
0.0
 41
1.03113309640155
  0
LINE
  5
63B
330
1F
100
AcDbEntity
  8
0
  6
Continuous
100
AcDbLine
 10
964.1817364566469
 20
52.38779655043448
 30
0.0
 11
958.7922805757306
 21
50.53205807002871
 31
0.0
  0
LINE
  5
63C
330
1F
100
AcDbEntity
  8
0
  6
Continuous
100
AcDbLine
 10
961.1410795783271
 20
61.21850533172903
 30
0.0
 11
955.7516236974116
 21
59.36276685132373
 31
0.0
  0
LINE
  5
63D
330
1F
100
AcDbEntity
  8
0
  6
Continuous
100
AcDbLine
 10
950.943985612108
 20
90.83301654910531
 30
0.0
 11
945.5545297311923
 21
88.97727806869955
 31
0.0
  0
LINE
  5
63E
330
1F
100
AcDbEntity
  8
0
  6
Continuous
100
AcDbLine
 10
947.9033287337887
 20
99.66372533040033
 30
0.0
 11
942.5138728528727
 21
97.80798684999457
 31
0.0
  0
LINE
  5
63F
330
1F
100
AcDbEntity
  8
0
  6
Continuous
100
AcDbLine
 10
955.7516236974116
 20
59.36276685132373
 30
0.0
 11
958.7922805757306
 21
50.53205807002871
 31
0.0
  0
LINE
  5
640
330
1F
100
AcDbEntity
  8
0
  6
Continuous
100
AcDbLine
 10
949.4595241449683
 20
77.63635081494806
 30
0.0
 11
945.5545297311923
 21
88.97727806869955
 31
0.0
  0
LINE
  5
641
330
1F
100
AcDbEntity
  8
0
  6
Continuous
100
AcDbLine
 10
955.7516236974116
 20
59.36276685132373
 30
0.0
 11
951.846629283635
 21
70.70369410507521
 31
0.0
  0
SPLINE
  5
642
330
1F
100
AcDbEntity
  8
0
  6
Continuous
100
AcDbSpline
210
0.0
220
0.0
230
1.0
 70
     8
 71
     3
 72
     8
 73
     4
 74
     0
 42
0.0000000001
 43
0.0000000001
 40
-0.1443504730160225
 40
-0.1443504730160225
 40
-0.1443504730160225
 40
-0.1443504730160225
 40
0.0
 40
0.0
 40
0.0
 40
0.0
 10
954.7116794132325
 20
59.31143086685472
 30
0.0
 10
955.058457575682
 20
59.32767260362254
 30
0.0
 10
955.4051725214867
 20
59.34480348559748
 30
0.0
 10
955.7516236974116
 20
59.36276685132373
 30
0.0
  0
SPLINE
  5
643
330
1F
100
AcDbEntity
  8
0
  6
Continuous
100
AcDbSpline
210
0.0
220
0.0
230
1.0
 70
     8
 71
     3
 72
     8
 73
     4
 74
     0
 42
0.0000000001
 43
0.0000000001
 40
-0.1443504730161398
 40
-0.1443504730161398
 40
-0.1443504730161398
 40
-0.1443504730161398
 40
0.0
 40
0.0
 40
0.0
 40
0.0
 10
944.7034368641721
 20
88.37747774425418
 30
0.0
 10
944.9867011969182
 20
88.57817703612829
 30
0.0
 10
945.2704631267188
 20
88.77813675196433
 30
0.0
 10
945.5545297311923
 20
88.97727806869955
 30
0.0
  0
SPLINE
  5
644
330
1F
100
AcDbEntity
  8
0
  6
Continuous
100
AcDbSpline
210
0.0
220
0.0
230
1.0
 70
    24
 71
     3
 72
     8
 73
     4
 74
     0
 42
0.0000000001
 43
0.0000000001
 40
-0.1443504730160225
 40
-0.1443504730160225
 40
-0.1443504730160225
 40
-0.1443504730160225
 40
0.0
 40
0.0
 40
0.0
 40
0.0
 10
941.8939224317306
 20
96.53690011993797
 30
0.0
 10
942.1004731650077
 20
96.96039188185626
 30
0.0
 10
942.3071663039046
 20
97.38417561856488
 30
0.0
 10
942.5138728528727
 20
97.80798684999457
 30
0.0
  0
SPLINE
  5
645
330
1F
100
AcDbEntity
  8
0
  6
Continuous
100
AcDbSpline
210
0.0
220
0.0
230
1.0
 70
    24
 71
     3
 72
     8
 73
     4
 74
     0
 42
0.0000000001
 43
0.0000000001
 40
-0.1443504730161398
 40
-0.1443504730161398
 40
-0.1443504730161398
 40
-0.1443504730161398
 40
0.0
 40
0.0
 40
0.0
 40
0.0
 10
957.5211938456741
 20
51.15200849117093
 30
0.0
 10
957.9446856075929
 20
50.94545775789413
 30
0.0
 10
958.3684693443011
 20
50.73876461899738
 30
0.0
 10
958.7922805757306
 20
50.53205807002871
 30
0.0
  0
LINE
  5
646
330
1F
100
AcDbEntity
  8
0
  6
Continuous
100
AcDbLine
 10
942.5138728528727
 20
97.8079868499941
 30
0.0
 11
945.5545297311919
 21
88.97727806869955
 31
0.0
  0
LINE
  5
647
330
1F
100
AcDbEntity
  8
0
  6
Continuous
100
AcDbLine
 10
961.9921724453474
 20
61.81830565617485
 30
0.0
 11
951.9839298962869
 21
90.88435253357431
 31
0.0
  0
LINE
  5
648
330
1F
100
AcDbEntity
  8
0
  6
Continuous
100
AcDbLine
 10
950.943985612108
 20
90.83301654910531
 30
0.0
 11
961.1410795783271
 21
61.21850533172903
 31
0.0
  0
LINE
  5
649
330
1F
100
AcDbEntity
  8
0
  6
Continuous
100
AcDbLine
 10
949.174415463845
 20
99.0437749092581
 30
0.0
 11
951.9839298962869
 21
90.88435253357431
 31
0.0
  0
SPLINE
  5
64A
330
1F
100
AcDbEntity
  8
0
  6
Continuous
100
AcDbSpline
210
0.0
220
0.0
230
1.0
 70
     8
 71
     3
 72
     8
 73
     4
 74
     0
 42
0.0000000001
 43
0.0000000001
 40
-0.1443505504637195
 40
-0.1443505504637195
 40
-0.1443505504637195
 40
-0.1443505504637195
 40
0.0
 40
0.0
 40
0.0
 40
0.0
 10
950.943985612108
 20
90.83301654910531
 30
0.0
 10
951.2904367880333
 20
90.85097991483156
 30
0.0
 10
951.6371517338379
 20
90.86811079680648
 30
0.0
 10
951.9839298962869
 20
90.88435253357431
 30
0.0
  0
LINE
  5
64B
330
1F
100
AcDbEntity
  8
0
  6
Continuous
100
AcDbLine
 10
950.943985612108
 20
90.83301654910531
 30
0.0
 11
947.9033287337887
 21
99.66372533039987
 31
0.0
  0
SPLINE
  5
64C
330
1F
100
AcDbEntity
  8
0
  6
Continuous
100
AcDbSpline
210
0.0
220
0.0
230
1.0
 70
    24
 71
     3
 72
     8
 73
     4
 74
     0
 42
0.0000000001
 43
0.0000000001
 40
-0.1443505504637693
 40
-0.1443505504637693
 40
-0.1443505504637693
 40
-0.1443505504637693
 40
0.0
 40
0.0
 40
0.0
 40
0.0
 10
947.9033287337887
 20
99.66372533040033
 30
0.0
 10
948.3271399652185
 20
99.45701878143211
 30
0.0
 10
948.7509237019267
 20
99.25032564253491
 30
0.0
 10
949.1744154638453
 20
99.0437749092581
 30
0.0
  0
SPLINE
  5
64D
330
1F
100
AcDbEntity
  8
0
  6
Continuous
100
AcDbSpline
210
0.0
220
0.0
230
1.0
 70
     8
 71
     3
 72
     8
 73
     4
 74
     0
 42
0.0000000001
 43
0.0000000001
 40
-0.1443505504637693
 40
-0.1443505504637693
 40
-0.1443505504637693
 40
-0.1443505504637693
 40
0.0
 40
0.0
 40
0.0
 40
0.0
 10
961.1410795783271
 20
61.21850533172903
 30
0.0
 10
961.4251461828008
 20
61.41764664846426
 30
0.0
 10
961.7089081126014
 20
61.61760636430074
 30
0.0
 10
961.9921724453474
 20
61.81830565617485
 30
0.0
  0
LINE
  5
64E
330
1F
100
AcDbEntity
  8
0
  6
Continuous
100
AcDbLine
 10
961.9921724453474
 20
61.81830565617485
 30
0.0
 11
964.8016868777885
 21
53.65888328049106
 31
0.0
  0
SPLINE
  5
64F
330
1F
100
AcDbEntity
  8
0
  6
Continuous
100
AcDbSpline
210
0.0
220
0.0
230
1.0
 70
    24
 71
     3
 72
     8
 73
     4
 74
     0
 42
0.0000000001
 43
0.0000000001
 40
-0.1443505504637195
 40
-0.1443505504637195
 40
-0.1443505504637195
 40
-0.1443505504637195
 40
0.0
 40
0.0
 40
0.0
 40
0.0
 10
964.1817364566469
 20
52.38779655043448
 30
0.0
 10
964.388443005615
 20
52.81160778186415
 30
0.0
 10
964.5951361445122
 20
53.23539151857232
 30
0.0
 10
964.8016868777885
 20
53.65888328049106
 30
0.0
  0
LINE
  5
650
330
1F
100
AcDbEntity
  8
0
  6
Continuous
100
AcDbLine
 10
964.1817364566469
 20
52.38779655043448
 30
0.0
 11
961.1410795783271
 21
61.21850533172903
 31
0.0
  0
CIRCLE
  5
651
330
1F
100
AcDbEntity
  8
0
  6
Continuous
100
AcDbCircle
 10
934.9574683593532
 20
68.76559109602306
 30
0.0
 40
6.999999999999974
  0
CIRCLE
  5
652
330
1F
100
AcDbEntity
  8
0
  6
Continuous
100
AcDbCircle
 10
934.9574683593532
 20
68.76559109602306
 30
0.0
 40
16.99999999999995
  0
LINE
  5
653
330
1F
100
AcDbEntity
  8
0
  6
Continuous
100
AcDbLine
 10
947.4023775576847
 20
49.51649460770489
 30
0.0
 11
941.4456105314092
 21
47.46541523462485
 31
0.0
  0
LINE
  5
654
330
1F
100
AcDbEntity
  8
0
  6
Continuous
100
AcDbLine
 10
941.4456105314089
 20
47.46541523462485
 30
0.0
 11
939.7295803862984
 21
52.44912864847368
 31
0.0
  0
LINE
  5
655
330
1F
100
AcDbEntity
  8
0
  6
Continuous
100
AcDbLine
 10
926.9564964663382
 20
89.54485791028957
 30
0.0
 11
932.9132634926136
 21
91.59593728336961
 31
0.0
  0
LINE
  5
656
330
1F
100
AcDbEntity
  8
0
  6
Continuous
100
AcDbLine
 10
926.9564964663382
 20
89.54485791028913
 30
0.0
 11
928.6725266114485
 21
84.56114449644031
 31
0.0
  0
LINE
  5
657
330
1F
100
AcDbEntity
  8
0
  6
Continuous
100
AcDbLine
 10
957.8467620001315
 20
50.20648991557175
 30
0.0
 11
948.2970243865784
 21
46.91825155555409
 31
0.0
  0
LINE
  5
658
330
1F
100
AcDbEntity
  8
0
  6
Continuous
100
AcDbLine
 10
941.5683542772736
 20
97.48241869553716
 30
0.0
 11
932.0186166637205
 21
94.19418033551995
 31
0.0
  0
LINE
  5
659
330
1F
100
AcDbEntity
  8
0
  6
Continuous
100
AcDbLine
 10
954.806105121812
 20
59.03719869686631
 30
0.0
 11
957.8467620001315
 21
50.20648991557175
 31
0.0
  0
LINE
  5
65A
330
1F
100
AcDbEntity
  8
0
  6
Continuous
100
AcDbLine
 10
941.5683542772736
 20
97.48241869553716
 30
0.0
 11
944.6090111555927
 21
88.65170991424259
 31
0.0
  0
LINE
  5
65B
330
1F
100
AcDbEntity
  8
0
  6
Continuous
100
AcDbLine
 10
944.6090111555932
 20
88.65170991424259
 30
0.0
 11
936.1129389038133
 21
85.72627763345066
 31
0.0
  0
LINE
  5
65C
330
1F
100
AcDbEntity
  8
0
  6
Continuous
100
AcDbLine
 10
947.5081048878482
 20
80.23213036162553
 30
0.0
 11
944.6090111555932
 21
88.65170991424259
 31
0.0
  0
LINE
  5
65D
330
1F
100
AcDbEntity
  8
0
  6
Continuous
100
AcDbLine
 10
954.806105121812
 20
59.03719869686631
 30
0.0
 11
951.9070113895573
 21
67.45677824948336
 31
0.0
  0
LINE
  5
65E
330
1F
100
AcDbEntity
  8
0
  6
Continuous
100
AcDbLine
 10
954.806105121812
 20
59.03719869686631
 30
0.0
 11
946.3100328700321
 21
56.11176641607437
 31
0.0
  0
LINE
  5
65F
330
1F
100
AcDbEntity
  8
0
  6
Continuous
100
AcDbLine
 10
934.9208262772881
 20
85.76555160650116
 30
0.0
 11
932.0186166637205
 21
94.19418033551995
 31
0.0
  0
LINE
  5
660
330
1F
100
AcDbEntity
  8
0
  6
Continuous
100
AcDbLine
 10
948.2970243865784
 20
46.91825155555409
 30
0.0
 11
945.3948147730102
 21
55.34688028457288
 31
0.0
  0
ARC
  5
661
330
1F
100
AcDbEntity
  8
0
  6
Continuous
100
AcDbCircle
 10
1042.121340684938
 20
78.82360210900071
 30
0.0
 40
5.999999999999989
100
AcDbArc
 50
303.7967622450639
 51
18.99999999999109
  0
ARC
  5
662
330
1F
100
AcDbEntity
  8
0
  6
Continuous
100
AcDbCircle
 10
1025.596082049144
 20
126.816437995482
 30
0.0
 40
5.99999999999999
100
AcDbArc
 50
18.99999999999109
 51
94.20323775495283
  0
LINE
  5
663
330
1F
100
AcDbEntity
  8
0
  6
Continuous
100
AcDbLine
 10
1031.26919350274
 20
128.7698469222247
 30
0.0
 11
1047.794452138534
 21
80.77701103574339
 31
0.0
  0
LINE
  5
664
330
1F
100
AcDbEntity
  8
0
  6
Continuous
100
AcDbLine
 10
1065.943971161873
 20
120.2135850662945
 30
0.0
 11
1064.037341066788
 21
121.143510698008
 31
0.0
  0
LINE
  5
665
330
1F
100
AcDbEntity
  8
0
  6
Continuous
100
AcDbLine
 10
1069.850789015359
 20
108.8673621591029
 30
0.0
 11
1068.920863383646
 21
106.960732064018
 31
0.0
  0
LINE
  5
666
330
1F
100
AcDbEntity
  8
0
  6
Continuous
100
AcDbLine
 10
1068.920863383646
 20
106.960732064018
 30
0.0
 11
1064.037341066788
 21
121.1435106980076
 31
0.0
  0
LINE
  5
667
330
1F
100
AcDbEntity
  8
0
  6
Continuous
100
AcDbLine
 10
1065.943971161873
 20
120.2135850662949
 30
0.0
 11
1069.850789015359
 21
108.8673621591029
 31
0.0
  0
LINE
  5
668
330
1F
100
AcDbEntity
  8
0
  6
Continuous
100
AcDbLine
 10
963.7188143899452
 20
96.11965796931475
 30
0.0
 11
951.616176622274
 21
91.95238559226311
 31
0.0
  0
LINE
  5
669
330
1F
100
AcDbEntity
  8
0
  6
Continuous
100
AcDbLine
 10
974.4625634870313
 20
64.91754497453723
 30
0.0
 11
962.35992571936
 21
60.75027259748606
 31
0.0
  0
LINE
  5
66A
330
1F
100
AcDbEntity
  8
0
  6
Continuous
100
AcDbLine
 10
1036.120211837204
 20
130.0392341412526
 30
0.0
 11
1031.392618959208
 21
128.4113933689674
 31
0.0
  0
LINE
  5
66B
330
1F
100
AcDbEntity
  8
0
  6
Continuous
100
AcDbLine
 10
1052.398619560062
 20
82.76330536128728
 30
0.0
 11
1047.671026682066
 21
81.13546458900158
 31
0.0
  0
LINE
  5
66C
330
1F
100
AcDbEntity
  8
0
  6
Continuous
100
AcDbLine
 10
1025.15631472072
 20
132.8003000173576
 30
0.0
 11
1002.42955885234
 21
131.1300601830445
 31
0.0
  0
LINE
  5
66D
330
1F
100
AcDbEntity
  8
0
  6
Continuous
100
AcDbLine
 10
1045.458832621589
 20
73.8375066854461
 30
0.0
 11
1026.52160228217
 21
61.16168558869469
 31
0.0
  0
LINE
  5
66E
330
1F
100
AcDbEntity
  8
0
  6
Continuous
100
AcDbLine
 10
1064.037341066788
 20
121.143510698008
 30
0.0
 11
1041.817654540204
 21
113.4926590682645
 31
0.0
  0
LINE
  5
66F
330
1F
100
AcDbEntity
  8
0
  6
Continuous
100
AcDbLine
 10
1068.920863383646
 20
106.960732064018
 30
0.0
 11
1046.701176857062
 21
99.30988043427499
 31
0.0
  0
LINE
  5
670
330
1F
100
AcDbEntity
  8
0
  6
Continuous
100
AcDbLine
 10
1002.42955885234
 20
131.1300601830445
 30
0.0
 11
957.0446672235739
 21
115.5027887691004
 31
0.0
  0
LINE
  5
671
330
1F
100
AcDbEntity
  8
0
  6
Continuous
100
AcDbLine
 10
1026.52160228217
 20
61.16168558869469
 30
0.0
 11
981.1367106534035
 21
45.53441417475153
 31
0.0
  0
LINE
  5
672
330
1F
100
AcDbEntity
  8
0
  6
Continuous
100
AcDbLine
 10
1036.120211837204
 20
130.0392341412526
 30
0.0
 11
1052.398619560062
 21
82.76330536128728
 31
0.0
  0
LINE
  5
673
330
1F
100
AcDbEntity
  8
0
  6
Continuous
100
AcDbLine
 10
964.8048724384221
 20
92.96551637114282
 30
0.0
 11
973.3765054385553
 21
68.07168657271006
 31
0.0
  0
LINE
  5
674
330
1F
100
AcDbEntity
  8
0
  6
Continuous
100
AcDbLine
 10
957.0446672235739
 20
115.5027887691008
 30
0.0
 11
957.6986105717887
 21
113.603599383831
 31
0.0
  0
LINE
  5
675
330
1F
100
AcDbEntity
  8
0
  6
Continuous
100
AcDbLine
 10
980.4827673051882
 20
47.43360356002142
 30
0.0
 11
981.1367106534035
 21
45.53441417475153
 31
0.0
  0
LINE
  5
676
330
1F
100
AcDbEntity
  8
0
  6
Continuous
100
AcDbLine
 10
1002.42955885234
 20
131.1300601830445
 30
0.0
 11
1026.52160228217
 21
61.16168558869469
 31
0.0
  0
LINE
  5
677
330
1F
100
AcDbEntity
  8
0
  6
Continuous
100
AcDbLine
 10
980.4827673051882
 20
47.43360356002097
 30
0.0
 11
1004.240349054773
 21
55.61399498139019
 31
0.0
  0
LINE
  5
678
330
1F
100
AcDbEntity
  8
0
  6
Continuous
100
AcDbLine
 10
957.6986105717887
 20
113.603599383831
 30
0.0
 11
981.4561923213737
 21
121.7839908051997
 31
0.0
  0
LINE
  5
679
330
1F
100
AcDbEntity
  8
0
  6
Continuous
100
AcDbLine
 10
978.4782240939458
 20
53.25521975888307
 30
0.0
 11
980.4827673051882
 21
47.43360356002097
 31
0.0
  0
LINE
  5
67A
330
1F
100
AcDbEntity
  8
0
  6
Continuous
100
AcDbLine
 10
957.6986105717884
 20
113.603599383831
 30
0.0
 11
959.7031537830307
 21
107.7819831849693
 31
0.0
  0
LINE
  5
67B
330
1F
100
AcDbEntity
  8
0
  6
Continuous
100
AcDbLine
 10
964.8048724384215
 20
92.96551637114237
 30
0.0
 11
959.7031537830307
 21
107.7819831849693
 31
0.0
  0
LINE
  5
67C
330
1F
100
AcDbEntity
  8
0
  6
Continuous
100
AcDbLine
 10
993.1704297064012
 20
102.732561004857
 30
0.0
 11
964.8048724384215
 21
92.96551637114237
 31
0.0
  0
LINE
  5
67D
330
1F
100
AcDbEntity
  8
0
  6
Continuous
100
AcDbLine
 10
978.4782240939458
 20
53.25521975888307
 30
0.0
 11
973.3765054385553
 21
68.07168657270961
 31
0.0
  0
LINE
  5
67E
330
1F
100
AcDbEntity
  8
0
  6
Continuous
100
AcDbLine
 10
973.3765054385553
 20
68.07168657270961
 30
0.0
 11
1001.742062706534
 21
77.83873120642431
 31
0.0
  0
SPLINE
  5
67F
330
1F
100
AcDbEntity
  8
0
  6
Continuous
100
AcDbSpline
210
0.0
220
0.0
230
1.0
 70
     8
 71
     3
 72
    14
 73
    10
 74
     0
 42
0.0000000001
 43
0.0000000001
 40
0.5866511256401252
 40
0.5866511256401252
 40
0.5866511256401252
 40
0.5866511256401252
 40
0.812572466010711
 40
0.812572466010711
 40
1.068687482602926
 40
1.068687482602926
 40
1.324802499195141
 40
1.324802499195141
 40
1.550723839565726
 40
1.550723839565726
 40
1.550723839565726
 40
1.550723839565726
 10
981.5123413515593
 20
121.8011499455957
 30
0.0
 10
981.2505613664725
 20
121.73078117245
 30
0.0
 10
981.0636248025176
 20
121.5458107550249
 30
0.0
 10
980.9115871636791
 20
120.8986871772609
 30
0.0
 10
980.9808186622744
 20
120.4001396697509
 30
0.0
 10
981.3738893907657
 20
119.2585793843696
 30
0.0
 10
981.7152497846992
 20
118.5646814513112
 30
0.0
 10
982.554080280377
 20
117.2172137435319
 30
0.0
 10
983.0281211226971
 20
116.5683727927031
 30
0.0
 10
983.5162151783501
 20
115.98147778034
 30
0.0
  0
SPLINE
  5
680
330
1F
100
AcDbEntity
  8
0
  6
Continuous
100
AcDbSpline
210
0.0
220
0.0
230
1.0
 70
    12
 71
     2
 72
     6
 73
     3
 74
     0
 42
0.0000000001
 43
0.0000000001
 40
1.544558052653076
 40
1.544558052653076
 40
1.544558052653076
 40
3.409769298934837
 40
3.409769298934837
 40
3.409769298934837
 10
981.5123413515593
 20
121.8011499455957
 30
0.0
 41
1.031133096401546
 10
984.6767017910083
 20
122.6517579928068
 30
0.0
 41
1.034364741457411
 10
986.1984304287981
 20
122.9807171460203
 30
0.0
 41
1.0
  0
LINE
  5
681
330
1F
100
AcDbEntity
  8
0
  6
Continuous
100
AcDbLine
 10
993.1704297064012
 20
102.732561004857
 30
0.0
 11
986.1984304287981
 21
122.9807171460203
 31
0.0
  0
SPLINE
  5
682
330
1F
100
AcDbEntity
  8
0
  6
Continuous
100
AcDbSpline
210
0.0
220
0.0
230
1.0
 70
    12
 71
     2
 72
     6
 73
     3
 74
     0
 42
0.0000000001
 43
0.0000000001
 40
0.0
 40
0.0
 40
0.0
 40
1.865211246281762
 40
1.865211246281762
 40
1.865211246281762
 10
993.1704297064012
 20
102.732561004857
 30
0.0
 41
1.0
 10
989.4162289625391
 20
108.887171626207
 30
0.0
 41
1.034364741457412
 10
983.5162151783501
 20
115.98147778034
 30
0.0
 41
1.031133096401547
  0
LINE
  5
683
330
1F
100
AcDbEntity
  8
0
  6
Continuous
100
AcDbLine
 10
1008.714061984137
 20
57.59057506526108
 30
0.0
 11
1001.742062706534
 21
77.83873120642431
 31
0.0
  0
SPLINE
  5
684
330
1F
100
AcDbEntity
  8
0
  6
Continuous
100
AcDbSpline
210
0.0
220
0.0
230
1.0
 70
    12
 71
     2
 72
     6
 73
     3
 74
     0
 42
0.0000000001
 43
0.0000000001
 40
0.0
 40
0.0
 40
0.0
 40
1.865211246281761
 40
1.865211246281761
 40
1.865211246281761
 10
1008.714061984137
 20
57.59057506526153
 30
0.0
 41
1.0
 10
1007.312395975899
 20
56.91292871730377
 30
0.0
 41
1.034364741457412
 10
1004.295159316055
 20
55.635042188998
 30
0.0
 41
1.031133096401547
  0
SPLINE
  5
685
330
1F
100
AcDbEntity
  8
0
  6
Continuous
100
AcDbSpline
210
0.0
220
0.0
230
1.0
 70
     8
 71
     3
 72
    14
 73
    10
 74
     0
 42
0.0000000001
 43
0.0000000001
 40
0.586651125640125
 40
0.586651125640125
 40
0.586651125640125
 40
0.586651125640125
 40
0.812572466010711
 40
0.812572466010711
 40
1.068687482602926
 40
1.068687482602926
 40
1.324802499195141
 40
1.324802499195141
 40
1.550723839565726
 40
1.550723839565726
 40
1.550723839565726
 40
1.550723839565726
 10
1002.291285489265
 20
61.45471435425327
 30
0.0
 10
1002.267990773811
 20
60.69173406687162
 30
0.0
 10
1002.293907869453
 20
59.88859173589128
 30
0.0
 10
1002.462484375331
 20
58.31033707150584
 30
0.0
 10
1002.620694939248
 20
57.55337559460361
 30
0.0
 10
1003.01376566774
 20
56.41181530922233
 30
0.0
 10
1003.266146996351
 20
55.97633134555611
 30
0.0
 10
1003.784363347314
 20
55.55999472439828
 30
0.0
 10
1004.045550530036
 20
55.52932568712515
 30
0.0
 10
1004.295159316055
 20
55.635042188998
 30
0.0
  0
SPLINE
  5
686
330
1F
100
AcDbEntity
  8
0
  6
Continuous
100
AcDbSpline
210
0.0
220
0.0
230
1.0
 70
    12
 71
     2
 72
     6
 73
     3
 74
     0
 42
0.0000000001
 43
0.0000000001
 40
1.544558052653077
 40
1.544558052653077
 40
1.544558052653077
 40
3.409769298934836
 40
3.409769298934836
 40
3.409769298934836
 10
1002.291285489265
 20
61.45471435425327
 30
0.0
 41
1.031133096401546
 10
1002.572868804368
 20
70.67751508390358
 30
0.0
 41
1.034364741457411
 10
1001.742062706534
 20
77.83873120642431
 30
0.0
 41
1.0
  0
VIEWPORT
  5
71
330
55
100
AcDbEntity
 67
     1
  8
0
100
AcDbViewport
 10
133.3499908447265
 20
101.5999970436096
 30
0.0
 40
381.3957395593834
 41
218.2856291881582
 68
     1
 69
     1
 12
133.3499908447265
 22
101.5999970436096
 13
0.0
 23
0.0
 14
10.0
 24
10.0
 15
10.0
 25
10.0
 16
0.0
 26
0.0
 36
1.0
 17
0.0
 27
0.0
 37
0.0
 42
50.0
 43
0.0
 44
0.0
 45
218.2856291881582
 50
0.0
 51
0.0
 72
   100
 90
    32800
  1

281
     0
 71
     1
 74
     0
110
0.0
120
0.0
130
0.0
111
1.0
121
0.0
131
0.0
112
0.0
122
1.0
132
0.0
 79
     0
146
0.0
  0
VIEWPORT
  5
73
330
55
100
AcDbEntity
 67
     1
  8
0
100
AcDbViewport
 10
133.349993944168
 20
101.599993944168
 30
0.0
 40
213.3599903106689
 41
162.5599903106689
 68
     2
 69
     2
 12
210.0
 22
148.5
 13
0.0
 23
0.0
 14
10.0
 24
10.0
 15
10.0
 25
10.0
 16
0.0
 26
0.0
 36
1.0
 17
0.0
 27
0.0
 37
0.0
 42
50.0
 43
0.0
 44
0.0
 45
324.0677920111345
 50
0.0
 51
0.0
 72
   100
 90
    32864
  1

281
     0
 71
     1
 74
     0
110
0.0
120
0.0
130
0.0
111
1.0
121
0.0
131
0.0
112
0.0
122
1.0
132
0.0
 79
     0
146
0.0
  0
ENDSEC
  0
SECTION
  2
OBJECTS
  0
DICTIONARY
  5
C
330
0
100
AcDbDictionary
281
     1
  3
ACAD_GROUP
350
D
  3
ACAD_LAYOUT
350
1A
  3
ACAD_MLINESTYLE
350
17
  3
ACAD_PLOTSETTINGS
350
19
  3
ACAD_PLOTSTYLENAME
350
E
  3
AcDbVariableDictionary
350
5E
  0
DICTIONARY
  5
346
330
2
100
AcDbDictionary
280
     1
281
     1
  3
ACAD_LAYERSTATES
360
347
  0
DICTIONARY
  5
2FE
330
1F
100
AcDbDictionary
280
     1
281
     1
  3
ACAD_LAYOUTSELFREF
360
335
  0
DICTIONARY
  5
300
330
55
100
AcDbDictionary
280
     1
281
     1
  3
ACAD_LAYOUTSELFREF
360
339
  0
DICTIONARY
  5
302
330
50
100
AcDbDictionary
280
     1
281
     1
  3
ACAD_LAYOUTSELFREF
360
338
  0
DICTIONARY
  5
D
102
{ACAD_REACTORS
330
C
102
}
330
C
100
AcDbDictionary
281
     1
  0
DICTIONARY
  5
1A
102
{ACAD_REACTORS
330
C
102
}
330
C
100
AcDbDictionary
281
     1
  3
Model
350
22
  3
ﾚｲｱｳﾄ1
350
51
  3
ﾚｲｱｳﾄ2
350
56
  0
DICTIONARY
  5
17
102
{ACAD_REACTORS
330
C
102
}
330
C
100
AcDbDictionary
281
     1
  3
Standard
350
18
  0
DICTIONARY
  5
19
102
{ACAD_REACTORS
330
C
102
}
330
C
100
AcDbDictionary
281
     1
  0
ACDBDICTIONARYWDFLT
  5
E
102
{ACAD_REACTORS
330
C
102
}
330
C
100
AcDbDictionary
281
     1
  3
Normal
350
F
100
AcDbDictionaryWithDefault
340
F
  0
DICTIONARY
  5
5E
102
{ACAD_REACTORS
330
C
102
}
330
C
100
AcDbDictionary
281
     1
  3
DIMASSOC
350
5F
  3
HIDETEXT
350
63
  0
DICTIONARY
  5
347
102
{ACAD_REACTORS
330
346
102
}
330
346
100
AcDbDictionary
281
     1
  0
XRECORD
  5
335
102
{ACAD_REACTORS
330
2FE
102
}
330
2FE
100
AcDbXrecord
280
     1
340
1F
  0
XRECORD
  5
339
102
{ACAD_REACTORS
330
300
102
}
330
300
100
AcDbXrecord
280
     1
340
55
  0
XRECORD
  5
338
102
{ACAD_REACTORS
330
302
102
}
330
302
100
AcDbXrecord
280
     1
340
50
  0
LAYOUT
  5
22
102
{ACAD_REACTORS
330
1A
102
}
330
1A
100
AcDbPlotSettings
  1

  2
none_device
  4
ANSI_A_(8.50_x_11.00_Inches)
  6

 40
6.349999904632568
 41
19.04999923706054
 42
6.350006103515625
 43
19.04998779296875
 44
215.8999938964843
 45
279.3999938964843
 46
0.0
 47
0.0
 48
0.0
 49
0.0
140
0.0
141
0.0
142
1.0
143
78.436453180766
 70
 11952
 72
     0
 73
     1
 74
     0
  7

 75
     0
147
0.0127491741332998
148
0.0
149
0.0
100
AcDbLayout
  1
Model
 70
     1
 71
     0
 10
0.0
 20
0.0
 11
12.0
 21
9.0
 12
0.0
 22
0.0
 32
0.0
 14
0.0
 24
0.0
 34
0.0
 15
0.0
 25
0.0
 35
0.0
146
0.0
 13
0.0
 23
0.0
 33
0.0
 16
1.0
 26
0.0
 36
0.0
 17
0.0
 27
1.0
 37
0.0
 76
     0
330
1F
  0
LAYOUT
  5
51
102
{ACAD_REACTORS
330
1A
102
}
330
1A
100
AcDbPlotSettings
  1

  2
none_device
  4
Letter_(8.50_x_11.00_Inches)
  6

 40
6.349999904632568
 41
6.349999904632568
 42
6.350006103515625
 43
6.350006103515625
 44
215.8999938964843
 45
279.3999938964843
 46
0.0
 47
0.0
 48
0.0
 49
0.0
140
0.0
141
0.0
142
1.0
143
1.0
 70
   688
 72
     1
 73
     1
 74
     5
  7

 75
    16
147
1.0
148
0.0
149
0.0
100
AcDbLayout
  1
ﾚｲｱｳﾄ1
 70
     1
 71
     1
 10
-6.350006103515625
 20
-6.349999904632568
 11
273.0499877929687
 21
209.5499939918517
 12
0.0
 22
0.0
 32
0.0
 14
26.66076962115562
 24
20.31135699206657
 34
-0.0015258207003583
 15
240.039213369355
 25
182.8886381005154
 35
0.0000000349246037
146
0.0
 13
0.0
 23
0.0
 33
0.0
 16
1.0
 26
0.0
 36
0.0
 17
0.0
 27
1.0
 37
0.0
 76
     0
330
50
331
6B
  0
LAYOUT
  5
56
102
{ACAD_REACTORS
330
1A
102
}
330
1A
100
AcDbPlotSettings
  1

  2
none_device
  4
Letter_(8.50_x_11.00_Inches)
  6

 40
6.349999904632568
 41
6.349999904632568
 42
6.350006103515625
 43
6.350006103515625
 44
215.8999938964843
 45
279.3999938964843
 46
0.0
 47
0.0
 48
0.0
 49
0.0
140
0.0
141
0.0
142
1.0
143
1.0
 70
   688
 72
     1
 73
     1
 74
     5
  7

 75
    16
147
1.0
148
0.0
149
0.0
100
AcDbLayout
  1
ﾚｲｱｳﾄ2
 70
     1
 71
     2
 10
-6.350006103515625
 20
-6.349999904632568
 11
273.0499877929687
 21
209.5499939918517
 12
0.0
 22
0.0
 32
0.0
 14
26.66076962115562
 24
20.31135699206657
 34
-0.0015258207003583
 15
240.039213369355
 25
182.8886381005154
 35
0.0000000349246037
146
0.0
 13
0.0
 23
0.0
 33
0.0
 16
1.0
 26
0.0
 36
0.0
 17
0.0
 27
1.0
 37
0.0
 76
     0
330
55
331
71
  0
MLINESTYLE
  5
18
102
{ACAD_REACTORS
330
17
102
}
330
17
100
AcDbMlineStyle
  2
STANDARD
 70
     0
  3

 62
   256
 51
90.0
 52
90.0
 71
     2
 49
0.5
 62
   256
  6
BYLAYER
 49
-0.5
 62
   256
  6
BYLAYER
  0
ACDBPLACEHOLDER
  5
F
102
{ACAD_REACTORS
330
E
102
}
330
E
  0
DICTIONARYVAR
  5
5F
102
{ACAD_REACTORS
330
5E
102
}
330
5E
100
DictionaryVariables
280
     0
  1
2
  0
DICTIONARYVAR
  5
63
102
{ACAD_REACTORS
330
5E
102
}
330
5E
100
DictionaryVariables
280
     0
  1
1
  0
ENDSEC
  0
EOF
