  0
SECTION
  2
HEADER
  9
$ACADVER
  1
AC1024
  9
$ACADMAINTVER
 70
     6
  9
$DWGCODEPAGE
  3
ANSI_932
  9
$LASTSAVEDBY
  1
kanatani
  9
$INSBASE
 10
0.0
 20
0.0
 30
0.0
  9
$EXTMIN
 10
206.3633138373151
 20
40.60372291458318
 30
0.0
  9
$EXTMAX
 10
1195.647784670017
 20
686.7191203902085
 30
0.0
  9
$LIMMIN
 10
0.0
 20
0.0
  9
$LIMMAX
 10
420.0
 20
297.0
  9
$ORTHOMODE
 70
     0
  9
$REGENMODE
 70
     1
  9
$FILLMODE
 70
     1
  9
$QTEXTMODE
 70
     0
  9
$MIRRTEXT
 70
     1
  9
$LTSCALE
 40
1.0
  9
$ATTMODE
 70
     1
  9
$TEXTSIZE
 40
2.5
  9
$TRACEWID
 40
1.0
  9
$TEXTSTYLE
  7
Standard
  9
$CLAYER
  8
0
  9
$CELTYPE
  6
ByLayer
  9
$CECOLOR
 62
   256
  9
$CELTSCALE
 40
1.0
  9
$DISPSILH
 70
     0
  9
$DIMSCALE
 40
1.0
  9
$DIMASZ
 40
2.5
  9
$DIMEXO
 40
0.625
  9
$DIMDLI
 40
3.75
  9
$DIMRND
 40
0.0
  9
$DIMDLE
 40
0.0
  9
$DIMEXE
 40
1.25
  9
$DIMTP
 40
0.0
  9
$DIMTM
 40
0.0
  9
$DIMTXT
 40
2.5
  9
$DIMCEN
 40
2.5
  9
$DIMTSZ
 40
0.0
  9
$DIMTOL
 70
     0
  9
$DIMLIM
 70
     0
  9
$DIMTIH
 70
     0
  9
$DIMTOH
 70
     0
  9
$DIMSE1
 70
     0
  9
$DIMSE2
 70
     0
  9
$DIMTAD
 70
     1
  9
$DIMZIN
 70
     8
  9
$DIMBLK
  1

  9
$DIMASO
 70
     1
  9
$DIMSHO
 70
     1
  9
$DIMPOST
  1

  9
$DIMAPOST
  1

  9
$DIMALT
 70
     0
  9
$DIMALTD
 70
     3
  9
$DIMALTF
 40
0.03937007874016
  9
$DIMLFAC
 40
1.0
  9
$DIMTOFL
 70
     1
  9
$DIMTVP
 40
0.0
  9
$DIMTIX
 70
     0
  9
$DIMSOXD
 70
     0
  9
$DIMSAH
 70
     0
  9
$DIMBLK1
  1

  9
$DIMBLK2
  1

  9
$DIMSTYLE
  2
ISO-25
  9
$DIMCLRD
 70
     0
  9
$DIMCLRE
 70
     0
  9
$DIMCLRT
 70
     0
  9
$DIMTFAC
 40
1.0
  9
$DIMGAP
 40
0.625
  9
$DIMJUST
 70
     0
  9
$DIMSD1
 70
     0
  9
$DIMSD2
 70
     0
  9
$DIMTOLJ
 70
     0
  9
$DIMTZIN
 70
     8
  9
$DIMALTZ
 70
     0
  9
$DIMALTTZ
 70
     0
  9
$DIMUPT
 70
     0
  9
$DIMDEC
 70
     2
  9
$DIMTDEC
 70
     2
  9
$DIMALTU
 70
     2
  9
$DIMALTTD
 70
     3
  9
$DIMTXSTY
  7
Standard
  9
$DIMAUNIT
 70
     0
  9
$DIMADEC
 70
     0
  9
$DIMALTRND
 40
0.0
  9
$DIMAZIN
 70
     0
  9
$DIMDSEP
 70
    44
  9
$DIMATFIT
 70
     3
  9
$DIMFRAC
 70
     0
  9
$DIMLDRBLK
  1

  9
$DIMLUNIT
 70
     2
  9
$DIMLWD
 70
    -2
  9
$DIMLWE
 70
    -2
  9
$DIMTMOVE
 70
     0
  9
$DIMFXL
 40
1.0
  9
$DIMFXLON
 70
     0
  9
$DIMJOGANG
 40
0.7853981633974483
  9
$DIMTFILL
 70
     0
  9
$DIMTFILLCLR
 70
     0
  9
$DIMARCSYM
 70
     0
  9
$DIMLTYPE
  6

  9
$DIMLTEX1
  6

  9
$DIMLTEX2
  6

  9
$DIMTXTDIRECTION
 70
     0
  9
$LUNITS
 70
     2
  9
$LUPREC
 70
     4
  9
$SKETCHINC
 40
1.0
  9
$FILLETRAD
 40
10.0
  9
$AUNITS
 70
     0
  9
$AUPREC
 70
     0
  9
$MENU
  1
.
  9
$ELEVATION
 40
0.0
  9
$PELEVATION
 40
0.0
  9
$THICKNESS
 40
0.0
  9
$LIMCHECK
 70
     0
  9
$CHAMFERA
 40
10.0
  9
$CHAMFERB
 40
10.0
  9
$CHAMFERC
 40
20.0
  9
$CHAMFERD
 40
0.0
  9
$SKPOLY
 70
     0
  9
$TDCREATE
 40
2454284.635016447
  9
$TDUCREATE
 40
2454284.260016447
  9
$TDUPDATE
 40
2456903.562348090
  9
$TDUUPDATE
 40
2456903.187348090
  9
$TDINDWG
 40
0.0029401620
  9
$TDUSRTIMER
 40
0.0029401620
  9
$USRTIMER
 70
     1
  9
$ANGBASE
 50
0.0
  9
$ANGDIR
 70
     0
  9
$PDMODE
 70
     0
  9
$PDSIZE
 40
0.0
  9
$PLINEWID
 40
0.0
  9
$SPLFRAME
 70
     0
  9
$SPLINETYPE
 70
     6
  9
$SPLINESEGS
 70
     8
  9
$HANDSEED
  5
618
  9
$SURFTAB1
 70
     6
  9
$SURFTAB2
 70
     6
  9
$SURFTYPE
 70
     6
  9
$SURFU
 70
     6
  9
$SURFV
 70
     6
  9
$UCSBASE
  2

  9
$UCSNAME
  2

  9
$UCSORG
 10
0.0
 20
0.0
 30
0.0
  9
$UCSXDIR
 10
1.0
 20
0.0
 30
0.0
  9
$UCSYDIR
 10
0.0
 20
1.0
 30
0.0
  9
$UCSORTHOREF
  2

  9
$UCSORTHOVIEW
 70
     0
  9
$UCSORGTOP
 10
0.0
 20
0.0
 30
0.0
  9
$UCSORGBOTTOM
 10
0.0
 20
0.0
 30
0.0
  9
$UCSORGLEFT
 10
0.0
 20
0.0
 30
0.0
  9
$UCSORGRIGHT
 10
0.0
 20
0.0
 30
0.0
  9
$UCSORGFRONT
 10
0.0
 20
0.0
 30
0.0
  9
$UCSORGBACK
 10
0.0
 20
0.0
 30
0.0
  9
$PUCSBASE
  2

  9
$PUCSNAME
  2

  9
$PUCSORG
 10
0.0
 20
0.0
 30
0.0
  9
$PUCSXDIR
 10
1.0
 20
0.0
 30
0.0
  9
$PUCSYDIR
 10
0.0
 20
1.0
 30
0.0
  9
$PUCSORTHOREF
  2

  9
$PUCSORTHOVIEW
 70
     0
  9
$PUCSORGTOP
 10
0.0
 20
0.0
 30
0.0
  9
$PUCSORGBOTTOM
 10
0.0
 20
0.0
 30
0.0
  9
$PUCSORGLEFT
 10
0.0
 20
0.0
 30
0.0
  9
$PUCSORGRIGHT
 10
0.0
 20
0.0
 30
0.0
  9
$PUCSORGFRONT
 10
0.0
 20
0.0
 30
0.0
  9
$PUCSORGBACK
 10
0.0
 20
0.0
 30
0.0
  9
$USERI1
 70
     0
  9
$USERI2
 70
     0
  9
$USERI3
 70
     0
  9
$USERI4
 70
     0
  9
$USERI5
 70
     0
  9
$USERR1
 40
0.0
  9
$USERR2
 40
0.0
  9
$USERR3
 40
0.0
  9
$USERR4
 40
0.0
  9
$USERR5
 40
0.0
  9
$WORLDVIEW
 70
     1
  9
$SHADEDGE
 70
     3
  9
$SHADEDIF
 70
    70
  9
$TILEMODE
 70
     1
  9
$MAXACTVP
 70
    48
  9
$PINSBASE
 10
0.0
 20
0.0
 30
0.0
  9
$PLIMCHECK
 70
     0
  9
$PEXTMIN
 10
26.66076962115563
 20
20.31135699206658
 30
-0.0015258207003583
  9
$PEXTMAX
 10
240.039213369355
 20
182.8886381005154
 30
0.0000000349246037
  9
$PLIMMIN
 10
-6.350006103515625
 20
-6.349999904632568
  9
$PLIMMAX
 10
273.0499877929688
 20
209.5499939918518
  9
$UNITMODE
 70
     0
  9
$VISRETAIN
 70
     1
  9
$PLINEGEN
 70
     0
  9
$PSLTSCALE
 70
     1
  9
$TREEDEPTH
 70
  3020
  9
$CMLSTYLE
  2
Standard
  9
$CMLJUST
 70
     0
  9
$CMLSCALE
 40
20.0
  9
$PROXYGRAPHICS
 70
     1
  9
$MEASUREMENT
 70
     1
  9
$CELWEIGHT
370
    -1
  9
$ENDCAPS
280
     0
  9
$JOINSTYLE
280
     0
  9
$LWDISPLAY
290
     0
  9
$INSUNITS
 70
     4
  9
$HYPERLINKBASE
  1

  9
$STYLESHEET
  1

  9
$XEDIT
290
     1
  9
$CEPSNTYPE
380
     0
  9
$PSTYLEMODE
290
     1
  9
$FINGERPRINTGUID
  2
{FDEAD578-A652-11D2-9A35-0060089B3A3F}
  9
$VERSIONGUID
  2
{B16FFE96-8B71-4570-AD58-A00FF1F43BBE}
  9
$EXTNAMES
290
     1
  9
$PSVPSCALE
 40
0.0
  9
$OLESTARTUP
290
     0
  9
$SORTENTS
280
   127
  9
$INDEXCTL
280
     0
  9
$HIDETEXT
280
     1
  9
$XCLIPFRAME
280
     2
  9
$HALOGAP
280
     0
  9
$OBSCOLOR
 70
   257
  9
$OBSLTYPE
280
     0
  9
$INTERSECTIONDISPLAY
280
     0
  9
$INTERSECTIONCOLOR
 70
   257
  9
$DIMASSOC
280
     2
  9
$PROJECTNAME
  1

  9
$CAMERADISPLAY
290
     0
  9
$LENSLENGTH
 40
50.0
  9
$CAMERAHEIGHT
 40
0.0
  9
$STEPSPERSEC
 40
2.0
  9
$STEPSIZE
 40
6.0
  9
$3DDWFPREC
 40
2.0
  9
$PSOLWIDTH
 40
0.25
  9
$PSOLHEIGHT
 40
4.0
  9
$LOFTANG1
 40
1.570796326794896
  9
$LOFTANG2
 40
1.570796326794896
  9
$LOFTMAG1
 40
0.0
  9
$LOFTMAG2
 40
0.0
  9
$LOFTPARAM
 70
     7
  9
$LOFTNORMALS
280
     1
  9
$LATITUDE
 40
37.795
  9
$LONGITUDE
 40
-122.394
  9
$NORTHDIRECTION
 40
0.0
  9
$TIMEZONE
 70
 -8000
  9
$LIGHTGLYPHDISPLAY
280
     1
  9
$TILEMODELIGHTSYNCH
280
     1
  9
$CMATERIAL
347
5C5
  9
$SOLIDHIST
280
     1
  9
$SHOWHIST
280
     1
  9
$DWFFRAME
280
     2
  9
$DGNFRAME
280
     0
  9
$REALWORLDSCALE
290
     1
  9
$INTERFERECOLOR
 62
     1
  9
$INTERFEREOBJVS
345
5E7
  9
$INTERFEREVPVS
346
5E4
  9
$CSHADOW
280
     0
  9
$SHADOWPLANELOCATION
 40
0.0
  0
ENDSEC
  0
SECTION
  2
CLASSES
  0
CLASS
  1
ACDBDICTIONARYWDFLT
  2
AcDbDictionaryWithDefault
  3
ObjectDBX Classes
 90
        0
 91
        1
280
     0
281
     0
  0
CLASS
  1
DICTIONARYVAR
  2
AcDbDictionaryVar
  3
ObjectDBX Classes
 90
        0
 91
        9
280
     0
281
     0
  0
CLASS
  1
MATERIAL
  2
AcDbMaterial
  3
ObjectDBX Classes
 90
     1153
 91
        3
280
     0
281
     0
  0
CLASS
  1
VISUALSTYLE
  2
AcDbVisualStyle
  3
ObjectDBX Classes
 90
     4095
 91
       19
280
     0
281
     0
  0
CLASS
  1
TABLESTYLE
  2
AcDbTableStyle
  3
ObjectDBX Classes
 90
     4095
 91
        1
280
     0
281
     0
  0
CLASS
  1
SCALE
  2
AcDbScale
  3
ObjectDBX Classes
 90
     1153
 91
       17
280
     0
281
     0
  0
CLASS
  1
MLEADERSTYLE
  2
AcDbMLeaderStyle
  3
ACDB_MLEADERSTYLE_CLASS
 90
     4095
 91
        1
280
     0
281
     0
  0
CLASS
  1
CELLSTYLEMAP
  2
AcDbCellStyleMap
  3
ObjectDBX Classes
 90
     1152
 91
        1
280
     0
281
     0
  0
ENDSEC
  0
SECTION
  2
TABLES
  0
TABLE
  2
VPORT
  5
8
330
0
100
AcDbSymbolTable
 70
     1
  0
VPORT
  5
5C2
330
8
100
AcDbSymbolTableRecord
100
AcDbViewportTableRecord
  2
*Active
 70
     0
 10
0.0
 20
0.0
 11
1.0
 21
1.0
 12
791.7288556435409
 22
365.7265971632852
 13
0.0
 23
0.0
 14
10.0
 24
10.0
 15
10.0
 25
10.0
 16
0.0
 26
0.0
 36
1.0
 17
0.0
 27
0.0
 37
0.0
 40
820.0721271130513
 41
1.920754716981132
 42
50.0
 43
0.0
 44
0.0
 50
0.0
 51
0.0
 71
     0
 72
   100
 73
     1
 74
     3
 75
     0
 76
     0
 77
     0
 78
     0
281
     0
 65
     1
110
0.0
120
0.0
130
0.0
111
1.0
121
0.0
131
0.0
112
0.0
122
1.0
132
0.0
 79
     0
146
0.0
348
5E3
 60
     3
 61
     5
292
     1
282
     1
141
0.0
142
0.0
 63
   250
421
  3355443
  0
ENDTAB
  0
TABLE
  2
LTYPE
  5
5
330
0
100
AcDbSymbolTable
 70
     3
  0
LTYPE
  5
14
330
5
100
AcDbSymbolTableRecord
100
AcDbLinetypeTableRecord
  2
ByBlock
 70
     0
  3

 72
    65
 73
     0
 40
0.0
  0
LTYPE
  5
15
330
5
100
AcDbSymbolTableRecord
100
AcDbLinetypeTableRecord
  2
ByLayer
 70
     0
  3

 72
    65
 73
     0
 40
0.0
  0
LTYPE
  5
16
330
5
100
AcDbSymbolTableRecord
100
AcDbLinetypeTableRecord
  2
Continuous
 70
     0
  3
Solid line
 72
    65
 73
     0
 40
0.0
  0
LTYPE
  5
86
330
5
100
AcDbSymbolTableRecord
100
AcDbLinetypeTableRecord
  2
HIDDEN
 70
     0
  3
Hidden __ __ __ __ __ __ __ __ __ __ __ __ __ _
 72
    65
 73
     2
 40
0.375
 49
0.25
 74
     0
 49
-0.125
 74
     0
  0
LTYPE
  5
2F9
330
5
100
AcDbSymbolTableRecord
100
AcDbLinetypeTableRecord
  2
CENTER
 70
     0
  3
Center ____ _ ____ _ ____ _ ____ _ ____ _ ____
 72
    65
 73
     4
 40
50.8
 49
31.75
 74
     0
 49
-6.349999999999999
 74
     0
 49
6.349999999999999
 74
     0
 49
-6.349999999999999
 74
     0
  0
ENDTAB
  0
TABLE
  2
LAYER
  5
2
102
{ACAD_XDICTIONARY
360
2FA
102
}
330
0
100
AcDbSymbolTable
 70
     2
  0
LAYER
  5
10
102
{ACAD_XDICTIONARY
360
60A
102
}
330
2
100
AcDbSymbolTableRecord
100
AcDbLayerTableRecord
  2
0
 70
     0
 62
     7
  6
Continuous
370
    -3
390
F
347
5D5
  0
LAYER
  5
314
102
{ACAD_XDICTIONARY
360
60C
102
}
330
2
100
AcDbSymbolTableRecord
100
AcDbLayerTableRecord
  2
Visible (ISO)
 70
     0
 62
     7
  6
Continuous
370
    35
390
F
347
5D5
  0
ENDTAB
  0
TABLE
  2
STYLE
  5
3
330
0
100
AcDbSymbolTable
 70
     1
  0
STYLE
  5
11
330
3
100
AcDbSymbolTableRecord
100
AcDbTextStyleTableRecord
  2
Standard
 70
     0
 40
0.0
 41
1.0
 50
0.0
 71
     0
 42
2.5
  3
txt
  4

  0
ENDTAB
  0
TABLE
  2
VIEW
  5
6
330
0
100
AcDbSymbolTable
 70
     0
  0
ENDTAB
  0
TABLE
  2
UCS
  5
7
330
0
100
AcDbSymbolTable
 70
     0
  0
ENDTAB
  0
TABLE
  2
APPID
  5
9
330
0
100
AcDbSymbolTable
 70
     1
  0
APPID
  5
12
330
9
100
AcDbSymbolTableRecord
100
AcDbRegAppTableRecord
  2
ACAD
 70
     0
  0
ENDTAB
  0
TABLE
  2
DIMSTYLE
  5
A
330
0
100
AcDbSymbolTable
 70
     1
100
AcDbDimStyleTable
 71
     0
  0
DIMSTYLE
105
27
330
A
100
AcDbSymbolTableRecord
100
AcDbDimStyleTableRecord
  2
ISO-25
 70
     0
 41
2.5
 42
0.625
 43
3.75
 44
1.25
 73
     0
 74
     0
 77
     1
 78
     8
140
2.5
141
2.5
143
0.03937007874016
147
0.625
171
     3
172
     1
271
     2
272
     2
274
     3
278
    44
283
     0
284
     8
340
11
  0
ENDTAB
  0
TABLE
  2
BLOCK_RECORD
  5
1
330
0
100
AcDbSymbolTable
 70
     1
  0
BLOCK_RECORD
  5
1F
102
{ACAD_XDICTIONARY
360
2B2
102
}
330
1
100
AcDbSymbolTableRecord
100
AcDbBlockTableRecord
  2
*Model_Space
340
22
 70
     0
280
     1
281
     0
  0
BLOCK_RECORD
  5
55
102
{ACAD_XDICTIONARY
360
2B4
102
}
330
1
100
AcDbSymbolTableRecord
100
AcDbBlockTableRecord
  2
*Paper_Space
340
56
 70
     0
280
     1
281
     0
  0
BLOCK_RECORD
  5
50
102
{ACAD_XDICTIONARY
360
2B6
102
}
330
1
100
AcDbSymbolTableRecord
100
AcDbBlockTableRecord
  2
*Paper_Space0
340
51
 70
     0
280
     1
281
     0
  0
ENDTAB
  0
ENDSEC
  0
SECTION
  2
BLOCKS
  0
BLOCK
  5
20
330
1F
100
AcDbEntity
  8
0
100
AcDbBlockBegin
  2
*Model_Space
 70
     0
 10
0.0
 20
0.0
 30
0.0
  3
*Model_Space
  1

  0
ENDBLK
  5
21
330
1F
100
AcDbEntity
  8
0
100
AcDbBlockEnd
  0
BLOCK
  5
57
330
55
100
AcDbEntity
 67
     1
  8
0
100
AcDbBlockBegin
  2
*Paper_Space
 70
     0
 10
0.0
 20
0.0
 30
0.0
  3
*Paper_Space
  1

  0
ENDBLK
  5
58
330
55
100
AcDbEntity
 67
     1
  8
0
100
AcDbBlockEnd
  0
BLOCK
  5
52
330
50
100
AcDbEntity
 67
     1
  8
0
100
AcDbBlockBegin
  2
*Paper_Space0
 70
     0
 10
0.0
 20
0.0
 30
0.0
  3
*Paper_Space0
  1

  0
VIEWPORT
  5
6B
330
50
100
AcDbEntity
 67
     1
  8
0
100
AcDbViewport
 10
133.3499908447266
 20
101.5999970436096
 30
0.0
 40
381.3957395593835
 41
218.2856291881582
 68
     0
 69
     0
 12
133.3499908447266
 22
101.5999970436096
 13
0.0
 23
0.0
 14
10.0
 24
10.0
 15
10.0
 25
10.0
 16
0.0
 26
0.0
 36
1.0
 17
0.0
 27
0.0
 37
0.0
 42
50.0
 43
0.0
 44
0.0
 45
218.2856291881582
 50
0.0
 51
0.0
 72
   100
 90
    32800
  1

281
     0
 71
     1
 74
     0
110
0.0
120
0.0
130
0.0
111
1.0
121
0.0
131
0.0
112
0.0
122
1.0
132
0.0
 79
     0
146
0.0
170
     0
 61
     5
348
5E3
292
     1
282
     1
141
0.0
142
0.0
 63
   250
421
  3355443
  0
VIEWPORT
  5
6D
330
50
100
AcDbEntity
 67
     1
  8
0
100
AcDbViewport
 10
133.3499939441681
 20
101.5999939441681
 30
0.0
 40
213.3599903106689
 41
162.5599903106689
 68
     0
 69
     0
 12
210.0
 22
148.5
 13
0.0
 23
0.0
 14
10.0
 24
10.0
 15
10.0
 25
10.0
 16
0.0
 26
0.0
 36
1.0
 17
0.0
 27
0.0
 37
0.0
 42
50.0
 43
0.0
 44
0.0
 45
324.0677920111345
 50
0.0
 51
0.0
 72
   100
 90
    32864
  1

281
     0
 71
     1
 74
     0
110
0.0
120
0.0
130
0.0
111
1.0
121
0.0
131
0.0
112
0.0
122
1.0
132
0.0
 79
     0
146
0.0
170
     0
 61
     5
348
5E3
292
     1
282
     1
141
0.0
142
0.0
 63
   250
421
  3355443
  0
ENDBLK
  5
53
330
50
100
AcDbEntity
 67
     1
  8
0
100
AcDbBlockEnd
  0
ENDSEC
  0
SECTION
  2
ENTITIES
  0
CIRCLE
  5
198
330
1F
100
AcDbEntity
  8
0
100
AcDbCircle
 10
446.7797433974393
 20
87.07050113844218
 30
0.0
 40
3.500016424380518
  0
LINE
  5
199
330
1F
100
AcDbEntity
  8
0
  6
Continuous
100
AcDbLine
 10
335.2451967700741
 20
441.4821595359904
 30
0.0
 11
322.7452326364593
 21
441.482168243534
 31
0.0
  0
LINE
  5
19A
330
1F
100
AcDbEntity
  8
0
  6
Continuous
100
AcDbLine
 10
335.2451967700741
 20
441.4821595359904
 30
0.0
 11
335.2452036916249
 21
431.4821822178623
 31
0.0
  0
LINE
  5
19B
330
1F
100
AcDbEntity
  8
0
  6
Continuous
100
AcDbLine
 10
322.7452326364593
 20
441.482168243534
 30
0.0
 11
322.7452292572488
 21
431.4821737820597
 31
0.0
  0
LINE
  5
19C
330
1F
100
AcDbEntity
  8
0
  6
Continuous
100
AcDbLine
 10
322.7452278973061
 20
431.7321608035514
 30
0.0
 11
320.7452144294785
 21
431.73216440409
 31
0.0
  0
LINE
  5
19D
330
1F
100
AcDbEntity
  8
0
  6
Continuous
100
AcDbLine
 10
320.7451845054176
 20
441.2321714684758
 30
0.0
 11
317.6812753857458
 21
441.136437362383
 31
0.0
  0
LINE
  5
19E
330
1F
100
AcDbEntity
  8
0
  6
Continuous
100
AcDbLine
 10
335.2452036916249
 20
431.4821822178623
 30
0.0
 11
322.7452292572488
 21
431.4821737820597
 31
0.0
  0
LINE
  5
19F
330
1F
100
AcDbEntity
  8
0
  6
Continuous
100
AcDbLine
 10
320.7466027144784
 20
431.7321702143515
 30
0.0
 11
317.6812609690684
 21
431.8279598127534
 31
0.0
  0
LINE
  5
1A0
330
1F
100
AcDbEntity
  8
0
  6
Continuous
100
AcDbLine
 10
322.7452331392352
 20
441.2321817370806
 30
0.0
 11
320.7452145210267
 21
441.2321767659462
 31
0.0
  0
LINE
  5
1A1
330
1F
100
AcDbEntity
  8
0
  6
Continuous
100
AcDbLine
 10
319.6812761141694
 20
441.1989846328749
 30
0.0
 11
319.6812829125939
 21
431.7654429020786
 31
0.0
  0
ARC
  5
1A2
330
1F
100
AcDbEntity
  8
0
  6
HIDDEN
 48
10.0
100
AcDbCircle
 10
283.1812497081901
 20
436.4821519745775
 30
0.0
 40
29.5
100
AcDbArc
 50
32.06379000000323
 51
57.93620999999713
  0
ARC
  5
1A3
330
1F
100
AcDbEntity
  8
0
  6
HIDDEN
 48
10.0
100
AcDbCircle
 10
283.1812497081901
 20
436.4821519745775
 30
0.0
 40
29.5
100
AcDbArc
 50
212.0637900000033
 51
237.9362099999971
  0
ARC
  5
1A4
330
1F
100
AcDbEntity
  8
0
  6
HIDDEN
 48
10.0
100
AcDbCircle
 10
283.1812497081901
 20
436.4821519745775
 30
0.0
 40
29.5
100
AcDbArc
 50
302.0637880000064
 51
327.9362119999961
  0
ARC
  5
1A5
330
1F
100
AcDbEntity
  8
0
  6
HIDDEN
 48
10.0
100
AcDbCircle
 10
283.1812497081901
 20
436.4821519745775
 30
0.0
 40
29.5
100
AcDbArc
 50
122.0637900000029
 51
147.9362099999967
  0
LINE
  5
1A6
330
1F
100
AcDbEntity
  8
0
  6
HIDDEN
 48
10.0
100
AcDbLine
 10
267.52078970819
 20
411.4821519745775
 30
0.0
 11
298.8417097081901
 21
411.4821519745775
 31
0.0
  0
LINE
  5
1A7
330
1F
100
AcDbEntity
  8
0
  6
HIDDEN
 48
10.0
100
AcDbLine
 10
267.52078970819
 20
461.4821519745775
 30
0.0
 11
298.8417097081901
 21
461.4821519745775
 31
0.0
  0
LINE
  5
1A8
330
1F
100
AcDbEntity
  8
0
  6
HIDDEN
 48
10.0
100
AcDbLine
 10
308.1812497081901
 20
452.1426129745774
 30
0.0
 11
308.1812497081901
 21
420.8216909745775
 31
0.0
  0
LINE
  5
1A9
330
1F
100
AcDbEntity
  8
0
  6
HIDDEN
 48
10.0
100
AcDbLine
 10
258.1812297081901
 20
452.1426129745774
 30
0.0
 11
258.1812297081901
 21
420.8216909745775
 31
0.0
  0
CIRCLE
  5
1AA
330
1F
100
AcDbEntity
  8
0
  6
Continuous
100
AcDbCircle
 10
283.18124970819
 20
436.4821708769263
 30
0.0
 40
40.99999310326615
  0
CIRCLE
  5
1AB
330
1F
100
AcDbEntity
  8
0
  6
Continuous
100
AcDbCircle
 10
283.1812602402206
 20
436.4821708769263
 30
0.0
 40
34.50000626290057
  0
CIRCLE
  5
1AC
330
1F
100
AcDbEntity
  8
0
  6
Continuous
100
AcDbCircle
 10
283.18124970819
 20
436.4821708769263
 30
0.0
 40
24.9999971821963
  0
CIRCLE
  5
1AD
330
1F
100
AcDbEntity
  8
0
  6
Continuous
100
AcDbCircle
 10
283.1812602402206
 20
436.4821708769263
 30
0.0
 40
7.999978168122083
  0
CIRCLE
  5
1AE
330
1F
100
AcDbEntity
  8
0
  6
Continuous
100
AcDbCircle
 10
283.1812602402206
 20
436.4821708769263
 30
0.0
 40
7.499976352949602
  0
LINE
  5
1AF
330
1F
100
AcDbEntity
  8
0
100
AcDbLine
 10
298.8417139623749
 20
90.82052413414237
 30
0.0
 11
298.841705778216
 21
76.08486983578825
 31
0.0
  0
LINE
  5
1B0
330
1F
100
AcDbEntity
  8
0
100
AcDbLine
 10
267.5207898938118
 20
90.82051211575322
 30
0.0
 11
267.5207817096587
 21
76.08486801195971
 31
0.0
  0
LINE
  5
1B1
330
1F
100
AcDbEntity
  8
0
100
AcDbLine
 10
258.1812545674084
 20
90.82049955941887
 30
0.0
 11
258.181241957238
 21
61.72048787304726
 31
0.0
  0
LINE
  5
1B2
330
1F
100
AcDbEntity
  8
0
100
AcDbLine
 10
308.1812349043957
 20
90.82053669048816
 30
0.0
 11
308.1812743273642
 21
61.72048787304726
 31
0.0
  0
ARC
  5
1B3
330
1F
100
AcDbEntity
  8
0
100
AcDbCircle
 10
315.6812555179947
 20
84.07051432458297
 30
0.0
 40
0.5
100
AcDbArc
 50
269.9996699999928
 51
359.9988799999979
  0
ARC
  5
1B4
330
1F
100
AcDbEntity
  8
0
100
AcDbCircle
 10
315.681251372441
 20
90.0705123773614
 30
0.0
 40
0.5
100
AcDbArc
 50
359.9988799999979
 51
89.99966599998723
  0
ARC
  5
1B5
330
1F
100
AcDbEntity
  8
0
100
AcDbCircle
 10
308.6812546823869
 20
84.07052243821523
 30
0.0
 40
0.5
100
AcDbArc
 50
179.9988799999979
 51
269.9996699999928
  0
ARC
  5
1B6
330
1F
100
AcDbEntity
  8
0
100
AcDbCircle
 10
308.6812470934103
 20
90.0704992273428
 30
0.0
 40
0.5
100
AcDbArc
 50
89.99966599998723
 51
179.9988799999979
  0
LINE
  5
1B7
330
1F
100
AcDbEntity
  8
0
100
AcDbLine
 10
315.6812522155785
 20
83.57050890116227
 30
0.0
 11
308.6812548086398
 21
83.57051495464213
 31
0.0
  0
LINE
  5
1B8
330
1F
100
AcDbEntity
  8
0
100
AcDbLine
 10
315.681256389192
 20
90.57051677070592
 30
0.0
 11
308.6812486814917
 21
90.57050568083946
 31
0.0
  0
LINE
  5
1B9
330
1F
100
AcDbEntity
  8
0
100
AcDbLine
 10
316.1812478746826
 20
90.07050393562975
 30
0.0
 11
316.1812451555209
 21
84.07049834125462
 31
0.0
  0
LINE
  5
1BA
330
1F
100
AcDbEntity
  8
0
100
AcDbLine
 10
291.1812194250195
 20
183.3205733265313
 30
0.0
 11
291.1812133441701
 21
184.3205615542987
 31
0.0
  0
LINE
  5
1BB
330
1F
100
AcDbEntity
  8
0
100
AcDbLine
 10
291.1812219156934
 20
184.3205903538331
 30
0.0
 11
290.6812237353143
 21
186.1865929639782
 31
0.0
  0
ARC
  5
1BC
330
1F
100
AcDbEntity
  8
0
100
AcDbCircle
 10
309.4486169152681
 20
173.3205749763838
 30
0.0
 40
5.0
100
AcDbArc
 50
20.00000999999903
 51
89.99993599998836
  0
ARC
  5
1BD
330
1F
100
AcDbEntity
  8
0
100
AcDbCircle
 10
319.1812492977667
 20
122.749471516671
 30
0.0
 40
5.0
100
AcDbArc
 50
0.0000600000060386
 51
44.99997000000901
  0
ARC
  5
1BE
330
1F
100
AcDbEntity
  8
0
100
AcDbCircle
 10
323.6812423914923
 20
112.3204948480803
 30
0.0
 40
0.5
100
AcDbArc
 50
269.9996699999928
 51
359.9988799999979
  0
ARC
  5
1BF
330
1F
100
AcDbEntity
  8
0
100
AcDbCircle
 10
322.6812519968678
 20
133.391624268185
 30
0.0
 40
5.0
100
AcDbArc
 50
180.000060000006
 51
224.999970000009
  0
ARC
  5
1C0
330
1F
100
AcDbEntity
  8
0
100
AcDbCircle
 10
258.6812420286433
 20
163.5573012685548
 30
0.0
 40
10.0
100
AcDbArc
 50
159.9999499999983
 51
180.000060000006
  0
ARC
  5
1C1
330
1F
100
AcDbEntity
  8
0
100
AcDbCircle
 10
307.181251884819
 20
182.3205675263583
 30
0.0
 40
1.0
100
AcDbArc
 50
0.0002699999946057
 51
90.00011600000645
  0
ARC
  5
1C2
330
1F
100
AcDbEntity
  8
0
100
AcDbCircle
 10
307.6812470649925
 20
163.557314959576
 30
0.0
 40
10.0
100
AcDbArc
 50
359.99997000001
 51
19.99996999999862
  0
ARC
  5
1C3
330
1F
100
AcDbEntity
  8
0
100
AcDbCircle
 10
242.6812447924185
 20
112.32049815099
 30
0.0
 40
0.5
100
AcDbArc
 50
179.998990000009
 51
270.000040000004
  0
ARC
  5
1C4
330
1F
100
AcDbEntity
  8
0
100
AcDbCircle
 10
247.1812505731163
 20
122.7494723760951
 30
0.0
 40
5.0
100
AcDbArc
 50
135.0001640000101
 51
180.000060000006
  0
ARC
  5
1C5
330
1F
100
AcDbEntity
  8
0
100
AcDbCircle
 10
259.1812595973088
 20
182.3205717536042
 30
0.0
 40
1.0
100
AcDbArc
 50
89.99966599998723
 51
180.0002699999946
  0
ARC
  5
1C6
330
1F
100
AcDbEntity
  8
0
100
AcDbCircle
 10
243.6812532790232
 20
133.3916094024004
 30
0.0
 40
5.0
100
AcDbArc
 50
315.0001599999932
 51
0.0000600000060386
  0
ARC
  5
1C7
330
1F
100
AcDbEntity
  8
0
100
AcDbCircle
 10
256.9138907099648
 20
173.3205682690657
 30
0.0
 40
5.0
100
AcDbArc
 50
90.00002599999742
 51
159.9999499999983
  0
ARC
  5
1C8
330
1F
100
AcDbEntity
  8
0
100
AcDbCircle
 10
310.6812454585661
 20
106.8204989873338
 30
0.0
 40
3.0
100
AcDbArc
 50
317.4486400000037
 51
359.9998399999904
  0
ARC
  5
1C9
330
1F
100
AcDbEntity
  8
0
100
AcDbCircle
 10
323.6812520248284
 20
108.3205114624261
 30
0.0
 40
0.5
100
AcDbArc
 50
269.9996699999928
 51
359.9988799999979
  0
ARC
  5
1CA
330
1F
100
AcDbEntity
  8
0
100
AcDbCircle
 10
323.6812563881831
 20
111.3205182879312
 30
0.0
 40
0.5
100
AcDbArc
 50
359.9988799999979
 51
89.99966599998723
  0
ARC
  5
1CB
330
1F
100
AcDbEntity
  8
0
100
AcDbCircle
 10
242.6812579319419
 20
111.3205221058786
 30
0.0
 40
0.5
100
AcDbArc
 50
90.00004000000402
 51
179.998990000009
  0
ARC
  5
1CC
330
1F
100
AcDbEntity
  8
0
100
AcDbCircle
 10
242.6812432604486
 20
108.3204864751261
 30
0.0
 40
0.5
100
AcDbArc
 50
179.998990000009
 51
270.000040000004
  0
ARC
  5
1CD
330
1F
100
AcDbEntity
  8
0
100
AcDbCircle
 10
255.6812463279
 20
106.8205032715767
 30
0.0
 40
3.0
100
AcDbArc
 50
179.9998399999904
 51
222.5520000000053
  0
ARC
  5
1CE
330
1F
100
AcDbEntity
  8
0
100
AcDbCircle
 10
264.6812602385464
 20
101.8205110469638
 30
0.0
 40
2.0
100
AcDbArc
 50
359.8415999999924
 51
90.00011600000645
  0
ARC
  5
1CF
330
1F
100
AcDbEntity
  8
0
100
AcDbCircle
 10
301.6812496126458
 20
101.8205071983234
 30
0.0
 40
2.0
100
AcDbArc
 50
90.00011600000645
 51
180.0003199999996
  0
LINE
  5
1D0
330
1F
100
AcDbEntity
  8
0
100
AcDbLine
 10
290.6812269489826
 20
206.8205701066241
 30
0.0
 11
290.6812252823572
 21
186.1865871903849
 31
0.0
  0
LINE
  5
1D1
330
1F
100
AcDbEntity
  8
0
100
AcDbLine
 10
275.1812796268496
 20
183.3205638027186
 30
0.0
 11
275.1812845173474
 21
184.3205756796361
 31
0.0
  0
LINE
  5
1D2
330
1F
100
AcDbEntity
  8
0
100
AcDbLine
 10
275.1812845173474
 20
184.3205756796361
 30
0.0
 11
291.1812133441701
 21
184.3205615542987
 31
0.0
  0
LINE
  5
1D3
330
1F
100
AcDbEntity
  8
0
100
AcDbLine
 10
275.1812759456743
 20
184.3205808300168
 30
0.0
 11
275.6812789355929
 21
186.1866102752754
 31
0.0
  0
LINE
  5
1D4
330
1F
100
AcDbEntity
  8
0
100
AcDbLine
 10
277.1812865459642
 20
208.3205611999823
 30
0.0
 11
289.1812284623181
 21
208.3205763853127
 31
0.0
  0
LINE
  5
1D5
330
1F
100
AcDbEntity
  8
0
100
AcDbLine
 10
277.1812951545219
 20
208.3206143591088
 30
0.0
 11
275.6812837254527
 21
206.8206073007714
 31
0.0
  0
LINE
  5
1D6
330
1F
100
AcDbEntity
  8
0
100
AcDbLine
 10
289.1811855670685
 20
208.3205438277091
 30
0.0
 11
290.6811926254059
 21
206.8205323986399
 31
0.0
  0
LINE
  5
1D7
330
1F
100
AcDbEntity
  8
0
100
AcDbLine
 10
275.6812854176567
 20
206.8205712849909
 30
0.0
 11
275.6812823568853
 21
186.1865965532217
 31
0.0
  0
LINE
  5
1D8
330
1F
100
AcDbEntity
  8
0
100
AcDbLine
 10
275.6812854176567
 20
206.8205712849909
 30
0.0
 11
290.6812269489826
 21
206.8205701066241
 31
0.0
  0
LINE
  5
1D9
330
1F
100
AcDbEntity
  8
0
100
AcDbLine
 10
275.6812823568853
 20
186.1865965532217
 30
0.0
 11
290.6812237353143
 21
186.1865929639782
 31
0.0
  0
LINE
  5
1DA
330
1F
100
AcDbEntity
  8
0
100
AcDbLine
 10
304.3912649522056
 20
106.5205335680139
 30
0.0
 11
304.3912589341851
 21
107.8205051121884
 31
0.0
  0
LINE
  5
1DB
330
1F
100
AcDbEntity
  8
0
100
AcDbLine
 10
312.8912673022571
 20
106.5205045805556
 30
0.0
 11
312.8912724495424
 21
107.8205044149396
 31
0.0
  0
LINE
  5
1DC
330
1F
100
AcDbEntity
  8
0
100
AcDbLine
 10
304.3912690725331
 20
101.8204917922423
 30
0.0
 11
304.9108821850393
 21
101.5204913874756
 31
0.0
  0
LINE
  5
1DD
330
1F
100
AcDbEntity
  8
0
100
AcDbLine
 10
312.8912748807613
 20
101.8205073922374
 30
0.0
 11
304.3912527863542
 21
101.8205015779658
 31
0.0
  0
LINE
  5
1DE
330
1F
100
AcDbEntity
  8
0
100
AcDbLine
 10
304.3912527863542
 20
101.8205015779658
 30
0.0
 11
304.3912649522056
 21
106.5205335680139
 31
0.0
  0
LINE
  5
1DF
330
1F
100
AcDbEntity
  8
0
100
AcDbLine
 10
312.8912673022571
 20
106.5205045805556
 30
0.0
 11
304.3912649522056
 21
106.5205335680139
 31
0.0
  0
LINE
  5
1E0
330
1F
100
AcDbEntity
  8
0
100
AcDbLine
 10
312.8912789842332
 20
105.820517522987
 30
0.0
 11
304.3912603184951
 21
105.820509648563
 31
0.0
  0
LINE
  5
1E1
330
1F
100
AcDbEntity
  8
0
100
AcDbLine
 10
312.3716586610472
 20
101.520498441481
 30
0.0
 11
312.8912817380995
 21
101.8205032719329
 31
0.0
  0
LINE
  5
1E2
330
1F
100
AcDbEntity
  8
0
100
AcDbLine
 10
312.8912748807613
 20
101.8205073922374
 30
0.0
 11
312.8912673022571
 21
106.5205045805556
 31
0.0
  0
LINE
  5
1E3
330
1F
100
AcDbEntity
  8
0
100
AcDbLine
 10
312.3716689470545
 20
101.520492261024
 30
0.0
 11
304.9108950425489
 21
101.5204836619044
 31
0.0
  0
LINE
  5
1E4
330
1F
100
AcDbEntity
  8
0
100
AcDbLine
 10
259.1812490366645
 20
183.3205579155027
 30
0.0
 11
283.1812520451347
 21
183.3205633434765
 31
0.0
  0
LINE
  5
1E5
330
1F
100
AcDbEntity
  8
0
100
AcDbLine
 10
256.9138876814616
 20
178.3205625015614
 30
0.0
 11
283.181252502136
 21
178.320570656095
 31
0.0
  0
LINE
  5
1E6
330
1F
100
AcDbEntity
  8
0
100
AcDbLine
 10
308.1812603404444
 20
182.3205763579144
 30
0.0
 11
308.181252808303
 21
178.3205682873171
 31
0.0
  0
LINE
  5
1E7
330
1F
100
AcDbEntity
  8
0
100
AcDbLine
 10
252.2154249775058
 20
175.0307113702731
 30
0.0
 11
249.2843208276022
 21
166.977546304809
 31
0.0
  0
LINE
  5
1E8
330
1F
100
AcDbEntity
  8
0
100
AcDbLine
 10
247.2167983900031
 20
129.8560914874795
 30
0.0
 11
243.6457114696848
 21
126.2849983476509
 31
0.0
  0
LINE
  5
1E9
330
1F
100
AcDbEntity
  8
0
100
AcDbLine
 10
314.1470536067568
 20
175.0307267870374
 30
0.0
 11
317.0781675700405
 21
166.9775552680852
 31
0.0
  0
LINE
  5
1EA
330
1F
100
AcDbEntity
  8
0
100
AcDbLine
 10
307.1812481888901
 20
183.3205612298538
 30
0.0
 11
283.1812520451347
 21
183.3205633434765
 31
0.0
  0
LINE
  5
1EB
330
1F
100
AcDbEntity
  8
0
100
AcDbLine
 10
258.1812562920643
 20
182.3205714937212
 30
0.0
 11
258.1812487599232
 21
178.320563423124
 31
0.0
  0
LINE
  5
1EC
330
1F
100
AcDbEntity
  8
0
100
AcDbLine
 10
242.181257197788
 20
122.7494688325536
 30
0.0
 11
242.1812560120597
 21
112.3205136192803
 31
0.0
  0
LINE
  5
1ED
330
1F
100
AcDbEntity
  8
0
100
AcDbLine
 10
248.6812552927404
 20
163.5573175052748
 30
0.0
 11
248.6812526618996
 21
133.3916210025767
 31
0.0
  0
LINE
  5
1EE
330
1F
100
AcDbEntity
  8
0
100
AcDbLine
 10
283.1812602402206
 20
165.3206417317407
 30
0.0
 11
249.2843274327841
 21
165.32063125362
 31
0.0
  0
LINE
  5
1EF
330
1F
100
AcDbEntity
  8
0
100
AcDbLine
 10
283.1812520443946
 20
130.8205088468133
 30
0.0
 11
248.6812434819219
 21
130.820494840675
 31
0.0
  0
LINE
  5
1F0
330
1F
100
AcDbEntity
  8
0
100
AcDbLine
 10
324.1812546734373
 20
122.7494678496795
 30
0.0
 11
324.1812543448761
 21
112.3205121213677
 31
0.0
  0
LINE
  5
1F1
330
1F
100
AcDbEntity
  8
0
100
AcDbLine
 10
317.6812526807069
 20
163.5573223777227
 30
0.0
 11
317.6812569072047
 21
133.3916217547199
 31
0.0
  0
LINE
  5
1F2
330
1F
100
AcDbEntity
  8
0
100
AcDbLine
 10
319.1457006376679
 20
129.8560759198874
 30
0.0
 11
322.7167757769834
 21
126.2849998153685
 31
0.0
  0
LINE
  5
1F3
330
1F
100
AcDbEntity
  8
0
100
AcDbLine
 10
323.6812504367465
 20
107.8205050089292
 30
0.0
 11
283.1812555018394
 21
107.8205160046141
 31
0.0
  0
LINE
  5
1F4
330
1F
100
AcDbEntity
  8
0
100
AcDbLine
 10
283.1812484901964
 20
124.8205387531805
 30
0.0
 11
322.7167900763745
 21
124.8205396525712
 31
0.0
  0
LINE
  5
1F5
330
1F
100
AcDbEntity
  8
0
100
AcDbLine
 10
323.6812614049338
 20
111.8205226812756
 30
0.0
 11
283.1812475828381
 21
111.8204983601922
 31
0.0
  0
LINE
  5
1F6
330
1F
100
AcDbEntity
  8
0
100
AcDbLine
 10
283.1812520443946
 20
130.8205088468133
 30
0.0
 11
317.6812468700596
 21
130.8204961078561
 31
0.0
  0
LINE
  5
1F7
330
1F
100
AcDbEntity
  8
0
100
AcDbLine
 10
299.6812558939458
 20
90.82053248329271
 30
0.0
 11
299.6812593030893
 21
101.820520216637
 31
0.0
  0
LINE
  5
1F8
330
1F
100
AcDbEntity
  8
0
100
AcDbLine
 10
253.4712694226321
 20
106.5205294521082
 30
0.0
 11
253.471256547273
 21
107.8205051165875
 31
0.0
  0
LINE
  5
1F9
330
1F
100
AcDbEntity
  8
0
100
AcDbLine
 10
266.6812420911974
 20
90.82050587169579
 30
0.0
 11
266.6812496909354
 21
101.8204985436884
 31
0.0
  0
LINE
  5
1FA
330
1F
100
AcDbEntity
  8
0
100
AcDbLine
 10
261.9712726372277
 20
106.5205116115131
 30
0.0
 11
261.971275213011
 21
107.8205129910113
 31
0.0
  0
LINE
  5
1FB
330
1F
100
AcDbEntity
  8
0
100
AcDbLine
 10
261.9712693878275
 20
103.8204922284365
 30
0.0
 11
283.1812513983675
 21
103.8205058738646
 31
0.0
  0
LINE
  5
1FC
330
1F
100
AcDbEntity
  8
0
100
AcDbLine
 10
304.3912668531862
 20
103.8205227566104
 30
0.0
 11
283.1812513983675
 21
103.8205058738646
 31
0.0
  0
LINE
  5
1FD
330
1F
100
AcDbEntity
  8
0
100
AcDbLine
 10
324.1812477400438
 20
111.3205012745264
 30
0.0
 11
324.1812485270698
 21
108.3205030206943
 31
0.0
  0
LINE
  5
1FE
330
1F
100
AcDbEntity
  8
0
100
AcDbLine
 10
242.6812492118852
 20
111.820499754128
 30
0.0
 11
283.1812475828381
 21
111.8204983601922
 31
0.0
  0
LINE
  5
1FF
330
1F
100
AcDbEntity
  8
0
100
AcDbLine
 10
313.6812456781995
 20
107.8204970757446
 30
0.0
 11
313.6812596748903
 21
106.8205205155951
 31
0.0
  0
LINE
  5
200
330
1F
100
AcDbEntity
  8
0
100
AcDbLine
 10
283.1812602402206
 20
165.3206417317407
 30
0.0
 11
317.0781956044052
 21
165.3206273409443
 31
0.0
  0
LINE
  5
201
330
1F
100
AcDbEntity
  8
0
100
AcDbLine
 10
242.681257130886
 20
107.8205173985498
 30
0.0
 11
283.1812555018394
 21
107.8205160046141
 31
0.0
  0
LINE
  5
202
330
1F
100
AcDbEntity
  8
0
100
AcDbLine
 10
242.1812494072274
 20
111.3205027724388
 30
0.0
 11
242.1812493370858
 21
108.320505033645
 31
0.0
  0
LINE
  5
203
330
1F
100
AcDbEntity
  8
0
100
AcDbLine
 10
258.1812545674084
 20
90.82049955941887
 30
0.0
 11
308.1812349043957
 21
90.82053669048816
 31
0.0
  0
LINE
  5
204
330
1F
100
AcDbEntity
  8
0
100
AcDbLine
 10
252.6812447239565
 20
107.8205006467916
 30
0.0
 11
252.681252713099
 21
106.8205160300073
 31
0.0
  0
LINE
  5
205
330
1F
100
AcDbEntity
  8
0
100
AcDbLine
 10
253.4712632569517
 20
101.8204938567934
 30
0.0
 11
253.9908763694582
 21
101.5204934520267
 31
0.0
  0
LINE
  5
206
330
1F
100
AcDbEntity
  8
0
100
AcDbLine
 10
261.9712759225186
 20
101.8205053364838
 30
0.0
 11
253.4712572567805
 21
101.8204974620598
 31
0.0
  0
LINE
  5
207
330
1F
100
AcDbEntity
  8
0
100
AcDbLine
 10
253.4712572567805
 20
101.8204974620598
 30
0.0
 11
253.4712694226321
 21
106.5205294521082
 31
0.0
  0
LINE
  5
208
330
1F
100
AcDbEntity
  8
0
100
AcDbLine
 10
261.9712726372277
 20
106.5205116115131
 30
0.0
 11
253.4712694226321
 21
106.5205294521082
 31
0.0
  0
LINE
  5
209
330
1F
100
AcDbEntity
  8
0
100
AcDbLine
 10
261.9712834546596
 20
105.8205134070811
 30
0.0
 11
253.4712579315833
 21
105.8205096529617
 31
0.0
  0
LINE
  5
20A
330
1F
100
AcDbEntity
  8
0
100
AcDbLine
 10
261.4516631314736
 20
101.5204943255751
 30
0.0
 11
261.9712827798569
 21
101.8205012161793
 31
0.0
  0
LINE
  5
20B
330
1F
100
AcDbEntity
  8
0
100
AcDbLine
 10
261.9712759225186
 20
101.8205053364838
 30
0.0
 11
261.9712726372277
 21
106.5205116115131
 31
0.0
  0
LINE
  5
20C
330
1F
100
AcDbEntity
  8
0
100
AcDbLine
 10
261.4516691316446
 20
101.5204907203086
 30
0.0
 11
253.9908960843061
 21
101.5204816061508
 31
0.0
  0
LINE
  5
20D
330
1F
100
AcDbEntity
  8
0
100
AcDbLine
 10
309.4486156010994
 20
178.3205681788033
 30
0.0
 11
283.181252502136
 21
178.320570656095
 31
0.0
  0
LINE
  5
20E
330
1F
100
AcDbEntity
  8
0
100
AcDbLine
 10
283.1812484901964
 20
124.8205387531805
 30
0.0
 11
243.6457214832392
 21
124.8205407600439
 31
0.0
  0
LINE
  5
20F
330
1F
100
AcDbEntity
  8
0
100
AcDbLine
 10
335.2451836113266
 20
163.8205345014886
 30
0.0
 11
322.7452194777118
 21
163.8205432090321
 31
0.0
  0
LINE
  5
210
330
1F
100
AcDbEntity
  8
0
100
AcDbLine
 10
335.2451836113266
 20
163.8205345014886
 30
0.0
 11
335.2451905328774
 21
153.8205571833604
 31
0.0
  0
LINE
  5
211
330
1F
100
AcDbEntity
  8
0
100
AcDbLine
 10
322.7452194777118
 20
163.8205432090321
 30
0.0
 11
322.7452160985013
 21
153.8205487475579
 31
0.0
  0
LINE
  5
212
330
1F
100
AcDbEntity
  8
0
100
AcDbLine
 10
322.7452147385586
 20
154.0705357690494
 30
0.0
 11
320.7452012707311
 21
154.0705393695882
 31
0.0
  0
LINE
  5
213
330
1F
100
AcDbEntity
  8
0
100
AcDbLine
 10
320.7451713466701
 20
163.5705464339741
 30
0.0
 11
317.6812622269983
 21
163.4748123278811
 31
0.0
  0
LINE
  5
214
330
1F
100
AcDbEntity
  8
0
100
AcDbLine
 10
335.2451905328774
 20
153.8205571833604
 30
0.0
 11
322.7452160985013
 21
153.8205487475579
 31
0.0
  0
LINE
  5
215
330
1F
100
AcDbEntity
  8
0
100
AcDbLine
 10
320.7465895557309
 20
154.0705451798497
 30
0.0
 11
317.6812478103209
 21
154.1663347782515
 31
0.0
  0
LINE
  5
216
330
1F
100
AcDbEntity
  8
0
100
AcDbLine
 10
322.7452199804877
 20
163.5705567025787
 30
0.0
 11
320.7452013622792
 21
163.5705517314443
 31
0.0
  0
LINE
  5
217
330
1F
100
AcDbEntity
  8
0
100
AcDbLine
 10
319.681262955422
 20
163.5373595983729
 30
0.0
 11
319.6812697538464
 21
154.1038178675768
 31
0.0
  0
CIRCLE
  5
218
330
1F
100
AcDbEntity
  8
0
100
AcDbCircle
 10
446.7797433974393
 20
120.3204831318365
 30
0.0
 40
4.7936192
  0
CIRCLE
  5
219
330
1F
100
AcDbEntity
  8
0
100
AcDbCircle
 10
446.7797433974393
 20
120.3204831318365
 30
0.0
 40
4.1938467
  0
CIRCLE
  5
21A
330
1F
100
AcDbEntity
  8
0
100
AcDbCircle
 10
446.7797433974393
 20
158.8205431318366
 30
0.0
 40
5.0
  0
ARC
  5
21B
330
1F
100
AcDbEntity
  8
0
100
AcDbCircle
 10
473.0471033974394
 20
173.3205431318365
 30
0.0
 40
5.0
100
AcDbArc
 50
20.00017000000381
 51
90.0
  0
ARC
  5
21C
330
1F
100
AcDbEntity
  8
0
100
AcDbCircle
 10
482.7797433974393
 20
122.7494331318365
 30
0.0
 40
5.0
100
AcDbArc
 50
0.0
 51
44.9999999999905
  0
ARC
  5
21D
330
1F
100
AcDbEntity
  8
0
100
AcDbCircle
 10
487.2797433974393
 20
112.3204831318365
 30
0.0
 40
0.5
100
AcDbArc
 50
270.0
 51
0.0
  0
ARC
  5
21E
330
1F
100
AcDbEntity
  8
0
100
AcDbCircle
 10
486.2797433974393
 20
133.3915831318366
 30
0.0
 40
5.0
100
AcDbArc
 50
180.0
 51
224.9999999999905
  0
ARC
  5
21F
330
1F
100
AcDbEntity
  8
0
100
AcDbCircle
 10
422.2797433974393
 20
163.5572931318366
 30
0.0
 40
10.0
100
AcDbArc
 50
160.0000300000025
 51
180.0
  0
ARC
  5
220
330
1F
100
AcDbEntity
  8
0
100
AcDbCircle
 10
470.7797433974393
 20
182.3205431318366
 30
0.0
 40
1.0
100
AcDbArc
 50
0.0
 51
90.0
  0
ARC
  5
221
330
1F
100
AcDbEntity
  8
0
100
AcDbCircle
 10
471.2797433974393
 20
163.5572931318366
 30
0.0
 40
10.0
100
AcDbArc
 50
0.0
 51
19.99996999999748
  0
ARC
  5
222
330
1F
100
AcDbEntity
  8
0
100
AcDbCircle
 10
406.2797433974393
 20
112.3204831318365
 30
0.0
 40
0.5
100
AcDbArc
 50
180.0
 51
270.0
  0
ARC
  5
223
330
1F
100
AcDbEntity
  8
0
100
AcDbCircle
 10
410.7797433974393
 20
122.7494331318365
 30
0.0
 40
5.0
100
AcDbArc
 50
135.0000000000095
 51
180.0
  0
ARC
  5
224
330
1F
100
AcDbEntity
  8
0
100
AcDbCircle
 10
422.7797433974393
 20
182.3205431318366
 30
0.0
 40
1.0
100
AcDbArc
 50
90.0
 51
180.0
  0
ARC
  5
225
330
1F
100
AcDbEntity
  8
0
100
AcDbCircle
 10
407.2797433974393
 20
133.3915831318366
 30
0.0
 40
5.0
100
AcDbArc
 50
315.0000000000095
 51
0.0
  0
ARC
  5
226
330
1F
100
AcDbEntity
  8
0
100
AcDbCircle
 10
420.5123833974393
 20
173.3205431318365
 30
0.0
 40
5.0
100
AcDbArc
 50
90.0
 51
159.9998299999962
  0
ARC
  5
227
330
1F
100
AcDbEntity
  8
0
100
AcDbCircle
 10
474.2797433974393
 20
106.8204831318365
 30
0.0
 40
3.0
100
AcDbArc
 50
317.3314610000048
 51
0.0
  0
ARC
  5
228
330
1F
100
AcDbEntity
  8
0
100
AcDbCircle
 10
487.2797433974393
 20
108.3204831318365
 30
0.0
 40
0.5
100
AcDbArc
 50
270.0
 51
0.0
  0
ARC
  5
229
330
1F
100
AcDbEntity
  8
0
100
AcDbCircle
 10
487.2797433974393
 20
111.3204831318365
 30
0.0
 40
0.5
100
AcDbArc
 50
0.0
 51
90.0
  0
ARC
  5
22A
330
1F
100
AcDbEntity
  8
0
100
AcDbCircle
 10
406.2797433974393
 20
111.3204831318365
 30
0.0
 40
0.5
100
AcDbArc
 50
90.0
 51
180.0
  0
ARC
  5
22B
330
1F
100
AcDbEntity
  8
0
100
AcDbCircle
 10
406.2797433974393
 20
108.3204831318365
 30
0.0
 40
0.5
100
AcDbArc
 50
180.0
 51
270.0
  0
ARC
  5
22C
330
1F
100
AcDbEntity
  8
0
100
AcDbCircle
 10
419.2797433974393
 20
106.8204831318365
 30
0.0
 40
3.0
100
AcDbArc
 50
180.0
 51
222.6693599999928
  0
ARC
  5
22D
330
1F
100
AcDbEntity
  8
0
100
AcDbCircle
 10
428.2797433974393
 20
101.8204831318365
 30
0.0
 40
2.0
100
AcDbArc
 50
359.8417570000045
 51
90.0
  0
ARC
  5
22E
330
1F
100
AcDbEntity
  8
0
100
AcDbCircle
 10
465.2797433974393
 20
101.8204831318365
 30
0.0
 40
2.0
100
AcDbArc
 50
90.0
 51
180.0
  0
LINE
  5
22F
330
1F
100
AcDbEntity
  8
0
100
AcDbLine
 10
425.5739333974394
 20
106.5204731318366
 30
0.0
 11
425.5739333974394
 21
107.8204831318365
 31
0.0
  0
LINE
  5
230
330
1F
100
AcDbEntity
  8
0
100
AcDbLine
 10
425.0543233974394
 20
101.5204631318366
 30
0.0
 11
417.5935533974394
 21
101.5204631318366
 31
0.0
  0
LINE
  5
231
330
1F
100
AcDbEntity
  8
0
100
AcDbLine
 10
425.5739333974394
 20
101.8204831318365
 30
0.0
 11
425.5739333974394
 21
106.5204731318366
 31
0.0
  0
LINE
  5
232
330
1F
100
AcDbEntity
  8
0
100
AcDbLine
 10
425.0542933974394
 20
101.5204631318366
 30
0.0
 11
425.5739133974392
 21
101.8204631318365
 31
0.0
  0
LINE
  5
233
330
1F
100
AcDbEntity
  8
0
100
AcDbLine
 10
417.0739333974394
 20
101.8204631318365
 30
0.0
 11
417.5935533974394
 21
101.5204731318366
 31
0.0
  0
LINE
  5
234
330
1F
100
AcDbEntity
  8
0
100
AcDbLine
 10
425.5739333974394
 20
101.8204831318365
 30
0.0
 11
417.0739133974392
 21
101.8204831318365
 31
0.0
  0
LINE
  5
235
330
1F
100
AcDbEntity
  8
0
100
AcDbLine
 10
417.0739133974392
 20
101.8204831318365
 30
0.0
 11
417.0739133974394
 21
106.5204731318366
 31
0.0
  0
LINE
  5
236
330
1F
100
AcDbEntity
  8
0
100
AcDbLine
 10
425.5739333974394
 20
106.5204731318366
 30
0.0
 11
417.0739133974394
 21
106.5204731318366
 31
0.0
  0
LINE
  5
237
330
1F
100
AcDbEntity
  8
0
100
AcDbLine
 10
425.5739333974394
 20
105.8204631318365
 30
0.0
 11
417.0739133974392
 21
105.8204631318365
 31
0.0
  0
LINE
  5
238
330
1F
100
AcDbEntity
  8
0
100
AcDbLine
 10
417.0739133974394
 20
106.5204731318366
 30
0.0
 11
417.0739133974394
 21
107.8204831318365
 31
0.0
  0
LINE
  5
239
330
1F
100
AcDbEntity
  8
0
100
AcDbLine
 10
454.7797133974394
 20
183.3205431318366
 30
0.0
 11
454.7797133974394
 21
184.3205431318366
 31
0.0
  0
LINE
  5
23A
330
1F
100
AcDbEntity
  8
0
100
AcDbLine
 10
454.7796933974394
 20
184.3205431318366
 30
0.0
 11
454.2796933974394
 21
186.1865631318365
 31
0.0
  0
LINE
  5
23B
330
1F
100
AcDbEntity
  8
0
100
AcDbLine
 10
454.2797133974394
 20
206.8205431318366
 30
0.0
 11
454.2797133974394
 21
186.1865631318365
 31
0.0
  0
LINE
  5
23C
330
1F
100
AcDbEntity
  8
0
100
AcDbLine
 10
438.7797733974394
 20
183.3205431318366
 30
0.0
 11
438.7797733974394
 21
184.3205431318366
 31
0.0
  0
LINE
  5
23D
330
1F
100
AcDbEntity
  8
0
100
AcDbLine
 10
438.7797733974394
 20
184.3205431318366
 30
0.0
 11
454.7797133974394
 21
184.3205431318366
 31
0.0
  0
LINE
  5
23E
330
1F
100
AcDbEntity
  8
0
100
AcDbLine
 10
438.7797733974394
 20
184.3205431318366
 30
0.0
 11
439.2797733974394
 21
186.1865631318365
 31
0.0
  0
LINE
  5
23F
330
1F
100
AcDbEntity
  8
0
100
AcDbLine
 10
440.7797733974395
 20
208.3205431318366
 30
0.0
 11
452.7797133974394
 21
208.3205431318366
 31
0.0
  0
LINE
  5
240
330
1F
100
AcDbEntity
  8
0
100
AcDbLine
 10
440.7797733974395
 20
208.3205731318365
 30
0.0
 11
439.2797733974394
 21
206.8205431318366
 31
0.0
  0
LINE
  5
241
330
1F
100
AcDbEntity
  8
0
100
AcDbLine
 10
452.7796933974395
 20
208.3205431318366
 30
0.0
 11
454.2797133974394
 21
206.8205431318366
 31
0.0
  0
LINE
  5
242
330
1F
100
AcDbEntity
  8
0
100
AcDbLine
 10
439.2797733974394
 20
206.8205431318366
 30
0.0
 11
439.2797733974394
 21
186.1865631318365
 31
0.0
  0
LINE
  5
243
330
1F
100
AcDbEntity
  8
0
100
AcDbLine
 10
439.2797733974394
 20
206.8205431318366
 30
0.0
 11
454.2797133974394
 21
206.8205431318366
 31
0.0
  0
LINE
  5
244
330
1F
100
AcDbEntity
  8
0
100
AcDbLine
 10
439.2797733974394
 20
186.1865631318365
 30
0.0
 11
454.2797133974394
 21
186.1865631318365
 31
0.0
  0
LINE
  5
245
330
1F
100
AcDbEntity
  8
0
100
AcDbLine
 10
422.7797433974393
 20
183.3205431318366
 30
0.0
 11
446.7797433974393
 21
183.3205431318366
 31
0.0
  0
LINE
  5
246
330
1F
100
AcDbEntity
  8
0
100
AcDbLine
 10
420.5123833974393
 20
178.3205431318366
 30
0.0
 11
446.7797433974393
 21
178.3205431318366
 31
0.0
  0
LINE
  5
247
330
1F
100
AcDbEntity
  8
0
100
AcDbLine
 10
471.7797433974393
 20
182.3205431318366
 30
0.0
 11
471.7797433974393
 21
178.3205431318366
 31
0.0
  0
LINE
  5
248
330
1F
100
AcDbEntity
  8
0
100
AcDbLine
 10
415.8139233974394
 20
175.0306831318365
 30
0.0
 11
412.8828033974392
 21
166.9774931318366
 31
0.0
  0
LINE
  5
249
330
1F
100
AcDbEntity
  8
0
100
AcDbLine
 10
410.8152833974394
 20
129.8560431318365
 30
0.0
 11
407.2442033974392
 21
126.2849731318365
 31
0.0
  0
LINE
  5
24A
330
1F
100
AcDbEntity
  8
0
100
AcDbLine
 10
477.7455333974393
 20
175.0306831318365
 30
0.0
 11
480.6766433974392
 21
166.9774931318366
 31
0.0
  0
LINE
  5
24B
330
1F
100
AcDbEntity
  8
0
100
AcDbLine
 10
406.2797433974393
 20
111.8204831318365
 30
0.0
 11
446.7797433974393
 21
111.8204831318365
 31
0.0
  0
LINE
  5
24C
330
1F
100
AcDbEntity
  8
0
100
AcDbLine
 10
470.7797433974393
 20
183.3205431318366
 30
0.0
 11
446.7797433974393
 21
183.3205431318366
 31
0.0
  0
LINE
  5
24D
330
1F
100
AcDbEntity
  8
0
100
AcDbLine
 10
421.7797433974393
 20
182.3205431318366
 30
0.0
 11
421.7797433974393
 21
178.3205431318366
 31
0.0
  0
LINE
  5
24E
330
1F
100
AcDbEntity
  8
0
100
AcDbLine
 10
405.7797433974393
 20
122.7494331318365
 30
0.0
 11
405.7797433974393
 21
112.3204831318365
 31
0.0
  0
LINE
  5
24F
330
1F
100
AcDbEntity
  8
0
100
AcDbLine
 10
412.2797433974393
 20
163.5572931318366
 30
0.0
 11
412.2797433974393
 21
133.3915831318366
 31
0.0
  0
LINE
  5
250
330
1F
100
AcDbEntity
  8
0
100
AcDbLine
 10
446.7797433974393
 20
165.3206031318364
 30
0.0
 11
412.8828033974392
 21
165.3206031318364
 31
0.0
  0
LINE
  5
251
330
1F
100
AcDbEntity
  8
0
100
AcDbLine
 10
446.7797433974393
 20
130.8204831318365
 30
0.0
 11
412.2797433974393
 21
130.8204831318365
 31
0.0
  0
LINE
  5
252
330
1F
100
AcDbEntity
  8
0
100
AcDbLine
 10
487.7797433974393
 20
122.7494331318365
 30
0.0
 11
487.7797433974393
 21
112.3204831318365
 31
0.0
  0
LINE
  5
253
330
1F
100
AcDbEntity
  8
0
100
AcDbLine
 10
481.2797433974393
 20
163.5572931318366
 30
0.0
 11
481.2797433974393
 21
133.3915831318366
 31
0.0
  0
LINE
  5
254
330
1F
100
AcDbEntity
  8
0
100
AcDbLine
 10
482.7441933974393
 20
129.8560431318365
 30
0.0
 11
486.3152633974395
 21
126.2849731318365
 31
0.0
  0
LINE
  5
255
330
1F
100
AcDbEntity
  8
0
100
AcDbLine
 10
487.2797433974393
 20
107.8204831318365
 30
0.0
 11
446.7797433974393
 21
107.8204831318365
 31
0.0
  0
LINE
  5
256
330
1F
100
AcDbEntity
  8
0
100
AcDbLine
 10
448.4315633974394
 20
124.8205131318364
 30
0.0
 11
486.3152833974394
 21
124.8205131318364
 31
0.0
  0
LINE
  5
257
330
1F
100
AcDbEntity
  8
0
100
AcDbLine
 10
487.2797433974393
 20
111.8204831318365
 30
0.0
 11
446.7797433974393
 21
111.8204831318365
 31
0.0
  0
LINE
  5
258
330
1F
100
AcDbEntity
  8
0
100
AcDbLine
 10
446.7797433974393
 20
130.8204831318365
 30
0.0
 11
481.2797433974393
 21
130.8204831318365
 31
0.0
  0
LINE
  5
259
330
1F
100
AcDbEntity
  8
0
100
AcDbLine
 10
463.2797433974393
 20
90.82048313183651
 30
0.0
 11
463.2797433974393
 21
101.8204831318365
 31
0.0
  0
LINE
  5
25A
330
1F
100
AcDbEntity
  8
0
100
AcDbLine
 10
430.2797433974393
 20
90.82048313183651
 30
0.0
 11
430.2797433974393
 21
101.8204831318365
 31
0.0
  0
LINE
  5
25B
330
1F
100
AcDbEntity
  8
0
100
AcDbLine
 10
425.5739333974394
 20
103.8204831318365
 30
0.0
 11
446.7797433974393
 21
103.8204831318365
 31
0.0
  0
LINE
  5
25C
330
1F
100
AcDbEntity
  8
0
100
AcDbLine
 10
467.9855833974392
 20
103.8204831318365
 30
0.0
 11
446.7797433974393
 21
103.8204831318365
 31
0.0
  0
LINE
  5
25D
330
1F
100
AcDbEntity
  8
0
100
AcDbLine
 10
487.7797433974393
 20
111.3204831318365
 30
0.0
 11
487.7797433974393
 21
108.3204831318365
 31
0.0
  0
LINE
  5
25E
330
1F
100
AcDbEntity
  8
0
100
AcDbLine
 10
477.2797433974393
 20
107.8204831318365
 30
0.0
 11
477.2797433974393
 21
106.8204831318365
 31
0.0
  0
LINE
  5
25F
330
1F
100
AcDbEntity
  8
0
100
AcDbLine
 10
446.7797433974393
 20
165.3206031318364
 30
0.0
 11
480.6766733974394
 21
165.3206031318364
 31
0.0
  0
LINE
  5
260
330
1F
100
AcDbEntity
  8
0
100
AcDbLine
 10
406.2797433974393
 20
107.8204831318365
 30
0.0
 11
446.7797433974393
 21
107.8204831318365
 31
0.0
  0
LINE
  5
261
330
1F
100
AcDbEntity
  8
0
100
AcDbLine
 10
405.7797433974393
 20
111.3204831318365
 30
0.0
 11
405.7797433974393
 21
108.3204831318365
 31
0.0
  0
LINE
  5
262
330
1F
100
AcDbEntity
  8
0
100
AcDbLine
 10
421.7797433974387
 20
90.82048313183651
 30
0.0
 11
471.7797433974388
 21
90.82048313183651
 31
0.0
  0
LINE
  5
263
330
1F
100
AcDbEntity
  8
0
100
AcDbLine
 10
416.2797433974393
 20
107.8204831318365
 30
0.0
 11
416.2797433974393
 21
106.8204831318365
 31
0.0
  0
LINE
  5
264
330
1F
100
AcDbEntity
  8
0
100
AcDbLine
 10
467.9855833974392
 20
106.5204731318366
 30
0.0
 11
467.9855833974392
 21
107.8204831318365
 31
0.0
  0
LINE
  5
265
330
1F
100
AcDbEntity
  8
0
100
AcDbLine
 10
476.4856033974393
 20
105.8204631318365
 30
0.0
 11
467.9855833974392
 21
105.8204631318365
 31
0.0
  0
LINE
  5
266
330
1F
100
AcDbEntity
  8
0
100
AcDbLine
 10
476.4856033974393
 20
106.5204731318366
 30
0.0
 11
467.9855833974392
 21
106.5204731318366
 31
0.0
  0
LINE
  5
267
330
1F
100
AcDbEntity
  8
0
100
AcDbLine
 10
467.9855833974392
 20
101.8204831318365
 30
0.0
 11
467.9855833974392
 21
106.5204731318366
 31
0.0
  0
LINE
  5
268
330
1F
100
AcDbEntity
  8
0
100
AcDbLine
 10
476.4856033974393
 20
101.8204831318365
 30
0.0
 11
467.9855833974392
 21
101.8204831318365
 31
0.0
  0
LINE
  5
269
330
1F
100
AcDbEntity
  8
0
100
AcDbLine
 10
467.9856133974393
 20
101.8204831318365
 30
0.0
 11
468.5052333974393
 21
101.5204931318365
 31
0.0
  0
LINE
  5
26A
330
1F
100
AcDbEntity
  8
0
100
AcDbLine
 10
475.9659733974394
 20
101.5204631318366
 30
0.0
 11
476.4856033974393
 21
101.8204631318365
 31
0.0
  0
LINE
  5
26B
330
1F
100
AcDbEntity
  8
0
100
AcDbLine
 10
476.4856033974393
 20
101.8204831318365
 30
0.0
 11
476.4856033974393
 21
106.5204731318366
 31
0.0
  0
LINE
  5
26C
330
1F
100
AcDbEntity
  8
0
100
AcDbLine
 10
475.9659933974393
 20
101.5204631318366
 30
0.0
 11
468.5052233974391
 21
101.5204631318366
 31
0.0
  0
LINE
  5
26D
330
1F
100
AcDbEntity
  8
0
100
AcDbLine
 10
473.0471033974394
 20
178.3205431318366
 30
0.0
 11
446.7797433974393
 21
178.3205431318366
 31
0.0
  0
LINE
  5
26E
330
1F
100
AcDbEntity
  8
0
100
AcDbLine
 10
476.4856033974393
 20
106.5204731318366
 30
0.0
 11
476.4856033974393
 21
107.8204831318365
 31
0.0
  0
LINE
  5
26F
330
1F
100
AcDbEntity
  8
0
100
AcDbLine
 10
445.1279233974393
 20
124.8205131318364
 30
0.0
 11
407.2442033974392
 21
124.8205131318364
 31
0.0
  0
LINE
  5
270
330
1F
100
AcDbEntity
  8
0
  6
Continuous
100
AcDbLine
 10
300.18124970819
 20
481.4821708769263
 30
0.0
 11
300.18124970819
 21
478.632222269733
 31
0.0
  0
LINE
  5
271
330
1F
100
AcDbEntity
  8
0
  6
HIDDEN
 48
10.0
100
AcDbLine
 10
272.9232565270072
 20
476.178178363356
 30
0.0
 11
276.2812558117056
 21
474.9559665332732
 31
0.0
  0
LINE
  5
272
330
1F
100
AcDbEntity
  8
0
  6
Continuous
100
AcDbLine
 10
266.18124970819
 20
478.6320682524949
 30
0.0
 11
272.9232565270072
 21
476.178178363356
 31
0.0
  0
LINE
  5
273
330
1F
100
AcDbEntity
  8
0
  6
Continuous
100
AcDbLine
 10
266.18124970819
 20
481.4821708769263
 30
0.0
 11
266.18124970819
 21
478.6320682524949
 31
0.0
  0
LINE
  5
274
330
1F
100
AcDbEntity
  8
0
  6
Continuous
100
AcDbLine
 10
266.18124970819
 20
481.4821708769263
 30
0.0
 11
300.18124970819
 21
481.4821708769263
 31
0.0
  0
LINE
  5
275
330
1F
100
AcDbEntity
  8
0
  6
HIDDEN
 48
10.0
100
AcDbLine
 10
293.4389954246754
 20
476.1782423108075
 30
0.0
 11
290.0812436046744
 21
474.9561205505122
 31
0.0
  0
LINE
  5
276
330
1F
100
AcDbEntity
  8
0
  6
Continuous
100
AcDbLine
 10
300.18124970819
 20
478.632222269733
 30
0.0
 11
293.4389954246754
 21
476.1782423108075
 31
0.0
  0
LINE
  5
277
330
1F
100
AcDbEntity
  8
0
  6
HIDDEN
 48
10.0
100
AcDbLine
 10
290.0812436046744
 20
461.4821519745775
 30
0.0
 11
290.0812436046744
 21
474.9561205505122
 31
0.0
  0
LINE
  5
278
330
1F
100
AcDbEntity
  8
0
  6
HIDDEN
 48
10.0
100
AcDbLine
 10
276.2812558117056
 20
461.4821519745775
 30
0.0
 11
276.2812558117056
 21
474.9559665332732
 31
0.0
  0
LINE
  5
279
330
1F
100
AcDbEntity
  8
0
  6
Continuous
100
AcDbLine
 10
300.18124970819
 20
391.4821708769264
 30
0.0
 11
300.18124970819
 21
394.3321332216904
 31
0.0
  0
LINE
  5
27A
330
1F
100
AcDbEntity
  8
0
  6
HIDDEN
 48
10.0
100
AcDbLine
 10
272.9232344545171
 20
396.7861690943376
 30
0.0
 11
276.2812558117056
 21
398.0083889581501
 31
0.0
  0
LINE
  5
27B
330
1F
100
AcDbEntity
  8
0
  6
Continuous
100
AcDbLine
 10
266.18124970819
 20
394.3322872389286
 30
0.0
 11
272.9232344545171
 21
396.7861690943376
 31
0.0
  0
LINE
  5
27C
330
1F
100
AcDbEntity
  8
0
  6
Continuous
100
AcDbLine
 10
266.18124970819
 20
391.4821708769264
 30
0.0
 11
266.18124970819
 21
394.3322872389286
 31
0.0
  0
LINE
  5
27D
330
1F
100
AcDbEntity
  8
0
  6
Continuous
100
AcDbLine
 10
266.18124970819
 20
391.4821708769264
 30
0.0
 11
300.18124970819
 21
391.4821708769264
 31
0.0
  0
LINE
  5
27E
330
1F
100
AcDbEntity
  8
0
  6
HIDDEN
 48
10.0
100
AcDbLine
 10
293.4390174974013
 20
396.7861051468003
 30
0.0
 11
290.0812436046744
 21
398.0082349409111
 31
0.0
  0
LINE
  5
27F
330
1F
100
AcDbEntity
  8
0
  6
Continuous
100
AcDbLine
 10
300.18124970819
 20
394.3321332216904
 30
0.0
 11
293.4390174974013
 21
396.7861051468003
 31
0.0
  0
LINE
  5
280
330
1F
100
AcDbEntity
  8
0
  6
HIDDEN
 48
10.0
100
AcDbLine
 10
276.2812558117056
 20
411.4821519745775
 30
0.0
 11
276.2812558117056
 21
398.0083889581501
 31
0.0
  0
LINE
  5
281
330
1F
100
AcDbEntity
  8
0
  6
HIDDEN
 48
10.0
100
AcDbLine
 10
290.0812436046744
 20
411.4821519745775
 30
0.0
 11
290.0812436046744
 21
398.0082349409111
 31
0.0
  0
LINE
  5
282
330
1F
100
AcDbEntity
  8
0
100
AcDbLine
 10
488.9296656411105
 20
86.47051839062584
 30
0.0
 11
485.2535528143985
 21
76.37048176953254
 31
0.0
  0
LINE
  5
283
330
1F
100
AcDbEntity
  8
0
100
AcDbLine
 10
471.7797433974387
 20
76.37048176953254
 30
0.0
 11
485.2535528143985
 21
76.37048176953254
 31
0.0
  0
LINE
  5
284
330
1F
100
AcDbEntity
  8
0
100
AcDbLine
 10
491.7797433974393
 20
86.47051839062584
 30
0.0
 11
488.9296656411105
 21
86.47051839062584
 31
0.0
  0
LINE
  5
285
330
1F
100
AcDbEntity
  8
0
100
AcDbLine
 10
488.9297891486657
 20
52.47048787304726
 30
0.0
 11
485.2536874294437
 21
62.57049397656334
 31
0.0
  0
LINE
  5
286
330
1F
100
AcDbEntity
  8
0
100
AcDbLine
 10
471.7797433974391
 20
62.57049397656334
 30
0.0
 11
485.2536874294437
 21
62.57049397656334
 31
0.0
  0
LINE
  5
287
330
1F
100
AcDbEntity
  8
0
100
AcDbLine
 10
491.7797433974393
 20
52.47048787304726
 30
0.0
 11
488.9297891486657
 21
52.47048787304726
 31
0.0
  0
LINE
  5
288
330
1F
100
AcDbEntity
  8
0
100
AcDbLine
 10
491.7797433974393
 20
86.47051839062584
 30
0.0
 11
491.7797433974393
 21
52.47048787304726
 31
0.0
  0
ARC
  5
289
330
1F
100
AcDbEntity
  8
0
100
AcDbCircle
 10
446.7872202040796
 20
64.22048787304726
 30
0.0
 40
3.0
100
AcDbArc
 50
90.00000865141489
 51
149.9999966606939
  0
LINE
  5
28A
330
1F
100
AcDbEntity
  8
0
100
AcDbLine
 10
444.1891293365305
 20
65.72048672092325
 30
0.0
 11
443.3231014928415
 21
64.22048252180758
 31
0.0
  0
ARC
  5
28B
330
1F
100
AcDbEntity
  8
0
100
AcDbCircle
 10
438.9930002333764
 20
66.72048787304726
 30
0.0
 40
5.0
100
AcDbArc
 50
269.9999974955313
 51
330.0000016696572
  0
LINE
  5
28C
330
1F
100
AcDbEntity
  8
0
100
AcDbLine
 10
421.7797433974395
 20
61.72048787304726
 30
0.0
 11
438.9930000148203
 21
61.72048787304726
 31
0.0
  0
LINE
  5
28D
330
1F
100
AcDbEntity
  8
0
100
AcDbLine
 10
446.7872202040796
 20
67.22048787304726
 30
0.0
 11
446.7722665907984
 21
67.22048787304726
 31
0.0
  0
ARC
  5
28E
330
1F
100
AcDbEntity
  8
0
100
AcDbCircle
 10
454.5664865615016
 20
66.72048787304726
 30
0.0
 40
5.0
100
AcDbArc
 50
210.0000051605315
 51
269.9999974955313
  0
LINE
  5
28F
330
1F
100
AcDbEntity
  8
0
100
AcDbLine
 10
450.2363508747151
 20
64.22049313422855
 30
0.0
 11
449.3703230310265
 21
65.72049733334558
 31
0.0
  0
ARC
  5
290
330
1F
100
AcDbEntity
  8
0
100
AcDbCircle
 10
446.7722665907984
 20
64.22048787304726
 30
0.0
 40
3.0
100
AcDbArc
 50
30.00000333930606
 51
90.00000500896346
  0
LINE
  5
291
330
1F
100
AcDbEntity
  8
0
100
AcDbLine
 10
401.7797433974391
 20
86.47051839062584
 30
0.0
 11
404.6298430103697
 21
86.47051839062584
 31
0.0
  0
LINE
  5
292
330
1F
100
AcDbEntity
  8
0
100
AcDbLine
 10
404.6298430103697
 20
86.47051839062584
 30
0.0
 11
408.3059558370823
 21
76.37048176953254
 31
0.0
  0
LINE
  5
293
330
1F
100
AcDbEntity
  8
0
100
AcDbLine
 10
401.7797433974391
 20
52.47048787304726
 30
0.0
 11
404.6296870266883
 21
52.47048787304726
 31
0.0
  0
LINE
  5
294
330
1F
100
AcDbEntity
  8
0
100
AcDbLine
 10
404.6296870266883
 20
52.47048787304726
 30
0.0
 11
408.3057887459089
 21
62.57049397656334
 31
0.0
  0
LINE
  5
295
330
1F
100
AcDbEntity
  8
0
100
AcDbLine
 10
401.7797433974391
 20
86.47051839062584
 30
0.0
 11
401.7797433974391
 21
52.47048787304726
 31
0.0
  0
LINE
  5
296
330
1F
100
AcDbEntity
  8
0
100
AcDbLine
 10
421.7797433974391
 20
76.37048176953254
 30
0.0
 11
408.3059558370823
 21
76.37048176953254
 31
0.0
  0
LINE
  5
297
330
1F
100
AcDbEntity
  8
0
100
AcDbLine
 10
421.7797433974395
 20
62.57049397656334
 30
0.0
 11
408.3057887459089
 21
62.57049397656334
 31
0.0
  0
LINE
  5
298
330
1F
100
AcDbEntity
  8
0
100
AcDbLine
 10
421.7797433974387
 20
83.32046345898522
 30
0.0
 11
471.7797433974387
 21
83.32046345898522
 31
0.0
  0
LINE
  5
299
330
1F
100
AcDbEntity
  8
0
100
AcDbLine
 10
454.5664863429453
 20
61.72048787304726
 30
0.0
 11
471.7797433974391
 21
61.72048787304726
 31
0.0
  0
LINE
  5
29A
330
1F
100
AcDbEntity
  8
0
100
AcDbLine
 10
293.0391966412728
 20
83.32046345898522
 30
0.0
 11
308.1812459482557
 21
83.32046345898522
 31
0.0
  0
LINE
  5
29B
330
1F
100
AcDbEntity
  8
0
100
AcDbLine
 10
298.311939787879
 20
61.72048787304726
 30
0.0
 11
308.1812743273642
 21
61.72048787304726
 31
0.0
  0
LINE
  5
29C
330
1F
100
AcDbEntity
  8
0
100
AcDbLine
 10
258.1812502629991
 20
83.32046345898522
 30
0.0
 11
273.3233027751071
 21
83.32046345898522
 31
0.0
  0
LINE
  5
29D
330
1F
100
AcDbEntity
  8
0
100
AcDbLine
 10
258.181241957238
 20
61.72048787304726
 30
0.0
 11
268.0505596285012
 21
61.72048787304726
 31
0.0
  0
CIRCLE
  5
29E
330
1F
100
AcDbEntity
  8
0
100
AcDbCircle
 10
283.18124970819
 20
69.47050313183655
 30
0.0
 40
5.25
  0
CIRCLE
  5
29F
330
1F
100
AcDbEntity
  8
0
100
AcDbCircle
 10
283.18124970819
 20
69.47050313183655
 30
0.0
 40
17.00001525878906
  0
LINE
  5
2A0
330
1F
100
AcDbEntity
  8
0
100
AcDbLine
 10
431.6742288710719
 20
61.72048787304726
 30
0.0
 11
431.6742288710719
 21
90.82048313183651
 31
0.0
  0
LINE
  5
2A1
330
1F
100
AcDbEntity
  8
0
100
AcDbLine
 10
421.7797433974387
 20
90.82048313183651
 30
0.0
 11
421.7797433974395
 21
61.72048787304726
 31
0.0
  0
LINE
  5
2A2
330
1F
100
AcDbEntity
  8
0
100
AcDbLine
 10
471.7797433974388
 20
90.82048313183651
 30
0.0
 11
471.7797433974391
 21
61.72048787304726
 31
0.0
  0
LINE
  5
2A3
330
1F
100
AcDbEntity
  8
0
100
AcDbLine
 10
461.8852579238065
 20
61.72048787304726
 30
0.0
 11
461.8852579238065
 21
90.82048313183651
 31
0.0
  0
TEXT
  5
2A4
330
1F
100
AcDbEntity
  8
0
100
AcDbText
 10
206.3633138373152
 20
638.7191183902086
 30
0.0
 40
48.000002
  1
DHC2S06RD000 8A
 41
1.32095
100
AcDbText
  0
LINE
  5
302
330
1F
100
AcDbEntity
  8
0
  6
CENTER
100
AcDbLine
 10
283.1812602402206
 20
370.1770662629933
 30
0.0
 11
283.1812602402206
 21
502.7872754908594
 31
0.0
  0
LINE
  5
303
330
1F
100
AcDbEntity
  8
0
  6
CENTER
100
AcDbLine
 10
345.541778420471
 20
436.4821708769264
 30
0.0
 11
236.6532280225492
 21
436.4821708769262
 31
0.0
  0
LINE
  5
30E
330
1F
100
AcDbEntity
  8
0
  6
CENTER
100
AcDbLine
 10
283.1812602402206
 20
40.60372291458318
 30
0.0
 11
283.1812602402206
 21
215.7085237475167
 31
0.0
  0
LINE
  5
30F
330
1F
100
AcDbEntity
  8
0
  6
CENTER
100
AcDbLine
 10
314.0123917018063
 20
69.47050313183663
 30
0.0
 11
252.3501287786348
 21
69.47050313183641
 31
0.0
  0
LINE
  5
310
330
1F
100
AcDbEntity
  8
0
  6
CENTER
100
AcDbLine
 10
503.907500825775
 20
69.47050313183652
 30
0.0
 11
389.6520070331571
 21
69.47050313183652
 31
0.0
  0
LINE
  5
311
330
1F
100
AcDbEntity
  8
0
  6
CENTER
100
AcDbLine
 10
446.7797539294661
 20
45.12966340443862
 30
0.0
 11
446.7797539294661
 21
215.227257413776
 31
0.0
  0
LINE
  5
46A
330
1F
100
AcDbEntity
  8
Visible (ISO)
100
AcDbLine
 10
997.8018331510455
 20
146.1522955410565
 30
0.0
 11
1003.982290049966
 21
135.8662879326307
 31
0.0
  0
LINE
  5
46B
330
1F
100
AcDbEntity
  8
Visible (ISO)
100
AcDbLine
 10
1003.469096211278
 20
133.8079798692124
 30
0.0
 11
995.7435250876271
 21
146.6654893797445
 31
0.0
  0
LINE
  5
46C
330
1F
100
AcDbEntity
  8
Visible (ISO)
100
AcDbLine
 10
1003.982290049966
 20
135.8662879326307
 30
0.0
 11
1003.469096211277
 21
133.8079798692124
 31
0.0
  0
LINE
  5
46D
330
1F
100
AcDbEntity
  8
Visible (ISO)
100
AcDbLine
 10
997.8018331510449
 20
146.152295541056
 30
0.0
 11
995.7435250876271
 21
146.665489379744
 31
0.0
  0
LINE
  5
46E
330
1F
100
AcDbEntity
  8
Visible (ISO)
100
AcDbLine
 10
962.008991124301
 20
147.4734673488692
 30
0.0
 11
988.3450940345836
 21
103.6428316302145
 31
0.0
  0
ARC
  5
46F
330
1F
100
AcDbEntity
  8
Visible (ISO)
100
AcDbCircle
 10
956.8659873200884
 20
144.3832388994092
 30
0.0
 40
6.000000000000001
100
AcDbArc
 50
30.99999999999683
 51
100.9999999999858
  0
ARC
  5
470
330
1F
100
AcDbEntity
  8
Visible (ISO)
100
AcDbCircle
 10
983.2020902303709
 20
100.552603180754
 30
0.0
 40
5.999999999999996
100
AcDbArc
 50
320.9999999999908
 51
30.99999999999683
  0
LINE
  5
471
330
1F
100
AcDbEntity
  8
Visible (ISO)
100
AcDbLine
 10
946.2650540859179
 20
148.4349263899339
 30
0.0
 11
981.8026812547115
 21
89.29038264148815
 31
0.0
  0
LINE
  5
472
330
1F
100
AcDbEntity
  8
Visible (ISO)
100
AcDbLine
 10
966.5869272102016
 20
149.5625223816446
 30
0.0
 11
992.3388309557042
 21
106.704157346539
 31
0.0
  0
LINE
  5
473
330
1F
100
AcDbEntity
  8
Visible (ISO)
100
AcDbLine
 10
917.1213658620461
 20
130.9236318429921
 30
0.0
 11
952.6589930308402
 21
71.77908809454632
 31
0.0
  0
LINE
  5
474
330
1F
100
AcDbEntity
  8
Visible (ISO)
100
AcDbLine
 10
908.2020309205674
 20
133.1474718106406
 30
0.0
 11
950.4351530631913
 21
62.85975315306726
 31
0.0
  0
LINE
  5
475
330
1F
100
AcDbEntity
  8
Visible (ISO)
100
AcDbLine
 10
893.6301868086314
 20
124.3918245371697
 30
0.0
 11
935.8633089512556
 21
54.10410587959635
 31
0.0
  0
LINE
  5
476
330
1F
100
AcDbEntity
  8
Visible (ISO)
100
AcDbLine
 10
1003.469096211277
 20
133.8079798692124
 30
0.0
 11
983.3256646447782
 21
121.7045851088265
 31
0.0
  0
LINE
  5
477
330
1F
100
AcDbEntity
  8
Visible (ISO)
100
AcDbLine
 10
995.7435250876271
 20
146.665489379744
 30
0.0
 11
975.6000935211275
 21
134.5620946193576
 31
0.0
  0
LINE
  5
478
330
1F
100
AcDbEntity
  8
Visible (ISO)
100
AcDbLine
 10
987.8649659991125
 20
96.776680834455
 30
0.0
 11
981.8026812547115
 21
89.29038264148815
 31
0.0
  0
LINE
  5
479
330
1F
100
AcDbEntity
  8
Visible (ISO)
100
AcDbLine
 10
955.7211333478292
 20
150.273002000095
 30
0.0
 11
946.2650540859179
 21
148.4349263899339
 31
0.0
  0
LINE
  5
47A
330
1F
100
AcDbEntity
  8
Visible (ISO)
100
AcDbLine
 10
992.3388309557042
 20
106.7041573465394
 30
0.0
 11
988.0529944521933
 21
104.128966971989
 31
0.0
  0
LINE
  5
47B
330
1F
100
AcDbEntity
  8
Visible (ISO)
100
AcDbLine
 10
966.5869272102016
 20
149.5625223816446
 30
0.0
 11
962.3010907066911
 21
146.9873320070947
 31
0.0
  0
LINE
  5
47C
330
1F
100
AcDbEntity
  8
Visible (ISO)
100
AcDbLine
 10
981.8026812547115
 20
89.29038264148815
 30
0.0
 11
952.6589930308402
 21
71.77908809454632
 31
0.0
  0
LINE
  5
47D
330
1F
100
AcDbEntity
  8
Visible (ISO)
100
AcDbLine
 10
946.2650540859179
 20
148.4349263899339
 30
0.0
 11
917.1213658620461
 21
130.9236318429921
 31
0.0
  0
LINE
  5
47E
330
1F
100
AcDbEntity
  8
Visible (ISO)
100
AcDbLine
 10
952.6589930308402
 20
71.77908809454632
 30
0.0
 11
950.4351530631913
 21
62.85975315306726
 31
0.0
  0
LINE
  5
47F
330
1F
100
AcDbEntity
  8
Visible (ISO)
100
AcDbLine
 10
917.1213658620461
 20
130.9236318429921
 30
0.0
 11
908.202030920567
 21
133.1474718106406
 31
0.0
  0
LINE
  5
480
330
1F
100
AcDbEntity
  8
Visible (ISO)
100
AcDbLine
 10
950.4351530631913
 20
62.85975315306726
 30
0.0
 11
935.8633089512556
 21
54.10410587959635
 31
0.0
  0
LINE
  5
481
330
1F
100
AcDbEntity
  8
Visible (ISO)
100
AcDbLine
 10
908.202030920567
 20
133.1474718106406
 30
0.0
 11
893.6301868086314
 21
124.3918245371697
 31
0.0
  0
LINE
  5
482
330
1F
100
AcDbEntity
  8
Visible (ISO)
100
AcDbLine
 10
923.2448761159597
 20
75.10470474679826
 30
0.0
 11
908.8016070991287
 21
66.42631318456373
 31
0.0
  0
LINE
  5
483
330
1F
100
AcDbEntity
  8
Visible (ISO)
100
AcDbLine
 10
906.2486196439278
 20
103.3912256699678
 30
0.0
 11
891.8053506270974
 21
94.71283410773324
 31
0.0
  0
LINE
  5
484
330
1F
100
AcDbEntity
  8
Visible (ISO)
100
AcDbLine
 10
898.3504364337175
 20
50.23023243265154
 30
0.0
 11
893.9521035798213
 21
57.55028755793958
 31
0.0
  0
LINE
  5
485
330
1F
100
AcDbEntity
  8
Visible (ISO)
100
AcDbLine
 10
876.9968655421115
 20
85.76854234246914
 30
0.0
 11
872.5985326882149
 21
93.08859746775718
 31
0.0
  0
LINE
  5
486
330
1F
100
AcDbEntity
  8
Visible (ISO)
100
AcDbLine
 10
901.7690236964369
 20
63.18014644622284
 30
0.0
 11
895.5668853557979
 21
59.45352576357212
 31
0.0
  0
LINE
  5
487
330
1F
100
AcDbEntity
  8
Visible (ISO)
100
AcDbLine
 10
901.7690236964369
 20
63.18014644622284
 30
0.0
 11
898.7804663984254
 21
68.15394103913243
 31
0.0
  0
LINE
  5
488
330
1F
100
AcDbEntity
  8
Visible (ISO)
100
AcDbLine
 10
888.6261148969881
 20
85.05361989955011
 30
0.0
 11
885.6375575989762
 21
90.02741449245972
 31
0.0
  0
LINE
  5
489
330
1F
100
AcDbEntity
  8
Visible (ISO)
100
AcDbLine
 10
885.6375575989762
 20
90.02741449245972
 30
0.0
 11
879.4354192583375
 21
86.30079380980854
 31
0.0
  0
LINE
  5
48A
330
1F
100
AcDbEntity
  8
Visible (ISO)
100
AcDbLine
 10
880.8273387749556
 20
98.03296298689387
 30
0.0
 11
885.6375575989765
 21
90.02741449245972
 31
0.0
  0
LINE
  5
48B
330
1F
100
AcDbEntity
  8
Visible (ISO)
100
AcDbLine
 10
901.7690236964369
 20
63.18014644622238
 30
0.0
 11
906.5792425204579
 21
55.17459795178822
 31
0.0
  0
LINE
  5
48C
330
1F
100
AcDbEntity
  8
Visible (ISO)
100
AcDbLine
 10
880.8273387749556
 20
98.03296298689387
 30
0.0
 11
872.5985326882149
 21
93.08859746775718
 31
0.0
  0
LINE
  5
48D
330
1F
100
AcDbEntity
  8
Visible (ISO)
100
AcDbLine
 10
906.5792425204579
 20
55.17459795178822
 30
0.0
 11
898.3504364337179
 21
50.230232432652
 31
0.0
  0
LINE
  5
48E
330
1F
100
AcDbEntity
  8
Visible (ISO)
100
AcDbLine
 10
868.6136804491063
 20
87.48839992311971
 30
0.0
 11
871.3825766411984
 21
82.88018280186182
 31
0.0
  0
LINE
  5
48F
330
1F
100
AcDbEntity
  8
Visible (ISO)
100
AcDbLine
 10
868.6136804491059
 20
87.48839992311971
 30
0.0
 11
874.0138344435292
 21
90.73313979505295
 31
0.0
  0
LINE
  5
490
330
1F
100
AcDbEntity
  8
Visible (ISO)
100
AcDbLine
 10
891.5349806839801
 20
49.340950233423
 30
0.0
 11
888.7660844918876
 21
53.9491673546809
 31
0.0
  0
LINE
  5
491
330
1F
100
AcDbEntity
  8
Visible (ISO)
100
AcDbLine
 10
896.9351346784035
 20
52.58569010535623
 30
0.0
 11
891.5349806839801
 21
49.340950233423
 31
0.0
  0
CIRCLE
  5
492
330
1F
100
AcDbEntity
  8
Visible (ISO)
100
AcDbCircle
 10
881.8315235329821
 20
69.47050313183675
 30
0.0
 40
16.99999999999997
  0
CIRCLE
  5
493
330
1F
100
AcDbEntity
  8
Visible (ISO)
100
AcDbCircle
 10
881.8315235329821
 20
69.47050313183675
 30
0.0
 40
5.249999999999984
  0
LINE
  5
494
330
1F
100
AcDbEntity
  8
Visible (ISO)
100
AcDbLine
 10
912.322263435162
 20
58.62535305368604
 30
0.0
 11
907.512044611141
 21
66.63090154812019
 31
0.0
  0
SPLINE
  5
495
330
1F
100
AcDbEntity
  8
Visible (ISO)
100
AcDbSpline
210
0.0
220
0.0
230
1.0
 70
    24
 71
     3
 72
     8
 73
     4
 74
     0
 42
0.0000000001
 43
0.0000000001
 40
-0.1443505504637152
 40
-0.1443505504637152
 40
-0.1443505504637152
 40
-0.1443505504637152
 40
0.0
 40
0.0
 40
0.0
 40
0.0
 10
912.322263435162
 20
58.62535305368559
 30
0.0
 10
912.4363376403774
 20
59.08287970097174
 30
0.0
 10
912.5504044450378
 20
59.54037666625166
 30
0.0
 10
912.6643926609542
 20
59.99755842929793
 30
0.0
  0
LINE
  5
496
330
1F
100
AcDbEntity
  8
Visible (ISO)
100
AcDbLine
 10
908.2198335574096
 20
67.39454695342104
 30
0.0
 11
912.6643926609542
 21
59.99755842929793
 31
0.0
  0
SPLINE
  5
497
330
1F
100
AcDbEntity
  8
Visible (ISO)
100
AcDbSpline
210
0.0
220
0.0
230
1.0
 70
     8
 71
     3
 72
     8
 73
     4
 74
     0
 42
0.0000000001
 43
0.0000000001
 40
-0.1443505504638844
 40
-0.1443505504638844
 40
-0.1443505504638844
 40
-0.1443505504638844
 40
0.0
 40
0.0
 40
0.0
 40
0.0
 10
907.5120446111407
 20
66.63090154812019
 30
0.0
 10
907.7484998708802
 20
66.88475191733189
 30
0.0
 10
907.9844869590798
 20
67.1393394562356
 30
0.0
 10
908.2198335574096
 20
67.39454695342104
 30
0.0
  0
SPLINE
  5
498
330
1F
100
AcDbEntity
  8
Visible (ISO)
100
AcDbSpline
210
0.0
220
0.0
230
1.0
 70
    24
 71
     3
 72
     8
 73
     4
 74
     0
 42
0.0000000001
 43
0.0000000001
 40
-0.1443505504638185
 40
-0.1443505504638185
 40
-0.1443505504638185
 40
-0.1443505504638185
 40
0.0
 40
0.0
 40
0.0
 40
0.0
 10
886.5703596896594
 20
101.4837180887912
 30
0.0
 10
887.0278863369451
 20
101.3696438835759
 30
0.0
 10
887.485383302225
 20
101.2555770789159
 30
0.0
 10
887.9425650652718
 20
101.141588862999
 30
0.0
  0
LINE
  5
499
330
1F
100
AcDbEntity
  8
Visible (ISO)
100
AcDbLine
 10
891.3805785136803
 20
93.47816959435661
 30
0.0
 11
886.5703596896594
 21
101.4837180887912
 31
0.0
  0
SPLINE
  5
49A
330
1F
100
AcDbEntity
  8
Visible (ISO)
100
AcDbSpline
210
0.0
220
0.0
230
1.0
 70
     8
 71
     3
 72
     8
 73
     4
 74
     0
 42
0.0000000001
 43
0.0000000001
 40
-0.1443505504637152
 40
-0.1443505504637152
 40
-0.1443505504637152
 40
-0.1443505504637152
 40
0.0
 40
0.0
 40
0.0
 40
0.0
 10
891.3805785136803
 20
93.47816959435661
 30
0.0
 10
891.7157241064421
 20
93.56777166721489
 30
0.0
 10
892.0513007881824
 20
93.65661428893147
 30
0.0
 10
892.3871241688159
 20
93.74460033887638
 30
0.0
  0
LINE
  5
49B
330
1F
100
AcDbEntity
  8
Visible (ISO)
100
AcDbLine
 10
887.9425650652713
 20
101.1415888629995
 30
0.0
 11
892.3871241688159
 21
93.74460033887638
 31
0.0
  0
LINE
  5
49C
330
1F
100
AcDbEntity
  8
Visible (ISO)
100
AcDbLine
 10
891.3805785136803
 20
93.47816959435661
 30
0.0
 11
907.5120446111407
 21
66.63090154812019
 31
0.0
  0
LINE
  5
49D
330
1F
100
AcDbEntity
  8
Visible (ISO)
100
AcDbLine
 10
908.2198335574096
 20
67.39454695342104
 30
0.0
 11
892.3871241688159
 21
93.74460033887638
 31
0.0
  0
LINE
  5
49E
330
1F
100
AcDbEntity
  8
Visible (ISO)
100
AcDbLine
 10
881.6845060756575
 20
98.54800106180395
 30
0.0
 11
886.4947248996784
 21
90.54245256736979
 31
0.0
  0
SPLINE
  5
49F
330
1F
100
AcDbEntity
  8
Visible (ISO)
100
AcDbSpline
210
0.0
220
0.0
230
1.0
 70
    24
 71
     3
 72
     8
 73
     4
 74
     0
 42
0.0000000001
 43
0.0000000001
 40
-0.1443504730162512
 40
-0.1443504730162512
 40
-0.1443504730162512
 40
-0.1443504730162512
 40
0.0
 40
0.0
 40
0.0
 40
0.0
 10
906.0642044455482
 20
56.03176525249003
 30
0.0
 10
906.521386208594
 20
55.91777703657365
 30
0.0
 10
906.9788831738735
 20
55.80371023191403
 30
0.0
 10
907.4364098211601
 20
55.68963602669831
 30
0.0
  0
SPLINE
  5
4A0
330
1F
100
AcDbEntity
  8
Visible (ISO)
100
AcDbSpline
210
0.0
220
0.0
230
1.0
 70
    24
 71
     3
 72
     8
 73
     4
 74
     0
 42
0.0000000001
 43
0.0000000001
 40
-0.1443504730160477
 40
-0.1443504730160477
 40
-0.1443504730160477
 40
-0.1443504730160477
 40
0.0
 40
0.0
 40
0.0
 40
0.0
 10
881.3423768498653
 20
97.17579568619207
 30
0.0
 10
881.4563650657822
 20
97.63297744923832
 30
0.0
 10
881.5704318704417
 20
98.09047441451779
 30
0.0
 10
881.6845060756575
 20
98.54800106180395
 30
0.0
  0
SPLINE
  5
4A1
330
1F
100
AcDbEntity
  8
Visible (ISO)
100
AcDbSpline
210
0.0
220
0.0
230
1.0
 70
     8
 71
     3
 72
     8
 73
     4
 74
     0
 42
0.0000000001
 43
0.0000000001
 40
-0.1443504730162512
 40
-0.1443504730162512
 40
-0.1443504730162512
 40
-0.1443504730162512
 40
0.0
 40
0.0
 40
0.0
 40
0.0
 10
885.7869359534095
 20
89.77880716206849
 30
0.0
 10
886.0222825517391
 20
90.03401465925392
 30
0.0
 10
886.2582696399384
 20
90.28860219815673
 30
0.0
 10
886.4947248996784
 20
90.54245256736979
 30
0.0
  0
SPLINE
  5
4A2
330
1F
100
AcDbEntity
  8
Visible (ISO)
100
AcDbSpline
210
0.0
220
0.0
230
1.0
 70
     8
 71
     3
 72
     8
 73
     4
 74
     0
 42
0.0000000001
 43
0.0000000001
 40
-0.1443504730161496
 40
-0.1443504730161496
 40
-0.1443504730161496
 40
-0.1443504730161496
 40
0.0
 40
0.0
 40
0.0
 40
0.0
 10
901.6196453420036
 20
63.42875377661361
 30
0.0
 10
901.9554687226365
 20
63.51673982655805
 30
0.0
 10
902.2910454043774
 20
63.60558244827465
 30
0.0
 10
902.6261909971388
 20
63.69518452113291
 30
0.0
  0
LINE
  5
4A3
330
1F
100
AcDbEntity
  8
Visible (ISO)
100
AcDbLine
 10
902.6261909971388
 20
63.69518452113291
 30
0.0
 11
898.8224563681249
 21
70.02566202050733
 31
0.0
  0
LINE
  5
4A4
330
1F
100
AcDbEntity
  8
Visible (ISO)
100
AcDbLine
 10
890.2984595286923
 20
84.21197506799538
 30
0.0
 11
886.4947248996784
 21
90.54245256736979
 31
0.0
  0
LINE
  5
4A5
330
1F
100
AcDbEntity
  8
Visible (ISO)
100
AcDbLine
 10
902.6261909971392
 20
63.69518452113246
 30
0.0
 11
907.4364098211601
 21
55.68963602669786
 31
0.0
  0
LINE
  5
4A6
330
1F
100
AcDbEntity
  8
Visible (ISO)
100
AcDbLine
 10
886.5703596896594
 20
101.4837180887912
 30
0.0
 11
881.6845060756575
 21
98.54800106180395
 31
0.0
  0
LINE
  5
4A7
330
1F
100
AcDbEntity
  8
Visible (ISO)
100
AcDbLine
 10
891.3805785136803
 20
93.47816959435661
 30
0.0
 11
886.4947248996784
 21
90.54245256736979
 31
0.0
  0
LINE
  5
4A8
330
1F
100
AcDbEntity
  8
Visible (ISO)
100
AcDbLine
 10
907.5120446111407
 20
66.63090154812019
 30
0.0
 11
902.6261909971388
 21
63.69518452113291
 31
0.0
  0
LINE
  5
4A9
330
1F
100
AcDbEntity
  8
Visible (ISO)
100
AcDbLine
 10
912.322263435162
 20
58.62535305368559
 30
0.0
 11
907.4364098211601
 21
55.68963602669831
 31
0.0
  0
ELLIPSE
  5
4AA
330
1F
100
AcDbEntity
  8
Visible (ISO)
100
AcDbEllipse
 10
1000.892061600505
 20
319.0849628622991
 30
0.0
 11
0.0000000000000251
 21
5.999999999999983
 31
0.0
210
0.0
220
0.0
230
1.0
 40
0.515038074910054
 41
0.0
 42
6.283185307179585
  0
ELLIPSE
  5
4AB
330
1F
100
AcDbEntity
  8
Visible (ISO)
100
AcDbEllipse
 10
999.6063106494522
 20
319.0849628622982
 30
0.0
 11
-0.0000000000013049
 21
7.49999999999998
 31
0.0
210
0.0
220
0.0
230
1.0
 40
0.515038074910054
 41
5.638607990059639
 42
10.06935527788858
  0
LINE
  5
4AC
330
1F
100
AcDbEntity
  8
Visible (ISO)
100
AcDbLine
 10
1002.748858179584
 20
314.2888399912627
 30
0.0
 11
1001.927306373301
 21
313.0898092735033
 31
0.0
  0
LINE
  5
4AD
330
1F
100
AcDbEntity
  8
Visible (ISO)
100
AcDbLine
 10
1002.748858179585
 20
323.8810857333328
 30
0.0
 11
1001.927306373301
 21
325.0801164510904
 31
0.0
  0
ELLIPSE
  5
4AE
330
1F
100
AcDbEntity
  8
Visible (ISO)
100
AcDbEllipse
 10
979.4628790829522
 20
319.0849628622946
 30
0.0
 11
-0.0000000000000224
 21
-7.499999999999983
 31
0.0
210
0.0
220
0.0
230
1.0
 40
0.515038074910054
 41
3.14159265359167
 42
6.283185307181463
  0
ELLIPSE
  5
4AF
330
1F
100
AcDbEntity
  8
Visible (ISO)
100
AcDbEllipse
 10
975.1770425794418
 20
319.0849628622936
 30
0.0
 11
-0.0000000000001032
 21
-24.99999999999995
 31
0.0
210
0.0
220
0.0
230
1.0
 40
0.515038074910054
 41
3.141592653591724
 42
6.283185307181518
  0
ELLIPSE
  5
4B0
330
1F
100
AcDbEntity
  8
Visible (ISO)
100
AcDbEllipse
 10
964.0338676703143
 20
319.0849628622918
 30
0.0
 11
0.0000000000060056
 21
-34.49999999999992
 31
0.0
210
0.0
220
0.0
230
1.0
 40
0.515038074910054
 41
2.921115367720425
 42
6.50366259304824
  0
ELLIPSE
  5
4B1
330
1F
100
AcDbEntity
  8
Visible (ISO)
100
AcDbEllipse
 10
979.4628790829522
 20
319.0849628622946
 30
0.0
 11
0.0000000000043514
 21
-24.99999999999995
 31
0.0
210
0.0
220
0.0
230
1.0
 40
0.515038074910054
 41
1.875488980809949
 42
7.549288979958745
  0
ELLIPSE
  5
4B2
330
1F
100
AcDbEntity
  8
Visible (ISO)
100
AcDbEllipse
 10
934.8901794464429
 20
319.0849628622864
 30
0.0
 11
-0.0000000000001436
 21
-34.49999999999992
 31
0.0
210
0.0
220
0.0
230
1.0
 40
0.515038074910054
 41
3.141592653591719
 42
6.283185307181512
  0
ELLIPSE
  5
4B3
330
1F
100
AcDbEntity
  8
Visible (ISO)
100
AcDbEllipse
 10
929.3185919918789
 20
319.0849628622855
 30
0.0
 11
0.0000000000071318
 21
-40.99999999999991
 31
0.0
210
0.0
220
0.0
230
1.0
 40
0.5150380749100542
 41
2.570782315950847
 42
6.853995644817838
  0
ELLIPSE
  5
4B4
330
1F
100
AcDbEntity
  8
Visible (ISO)
100
AcDbEllipse
 10
914.7467478799432
 20
319.0849628622836
 30
0.0
 11
-0.0000000000001599
 21
-40.99999999999989
 31
0.0
210
0.0
220
0.0
230
1.0
 40
0.515038074910054
 41
3.141592653591716
 42
6.28318530718151
  0
ELLIPSE
  5
4B5
330
1F
100
AcDbEntity
  8
Visible (ISO)
100
AcDbEllipse
 10
900.3034788631127
 20
319.0849628622809
 30
0.0
 11
-0.0000000000019887
 21
16.49999999999996
 31
0.0
210
0.0
220
0.0
230
1.0
 40
0.5150380749100542
 41
0.7375630462893624
 42
2.40402960730041
  0
LINE
  5
4B6
330
1F
100
AcDbEntity
  8
Visible (ISO)
100
AcDbLine
 10
999.6063106494522
 20
311.5849628622982
 30
0.0
 11
979.4628790829522
 21
311.5849628622946
 31
0.0
  0
LINE
  5
4B7
330
1F
100
AcDbEntity
  8
Visible (ISO)
100
AcDbLine
 10
999.6063106494522
 20
326.5849628622982
 30
0.0
 11
979.4628790829522
 21
326.5849628622945
 31
0.0
  0
LINE
  5
4B8
330
1F
100
AcDbEntity
  8
Visible (ISO)
100
AcDbLine
 10
975.3079035259549
 20
288.6350464224852
 30
0.0
 11
967.9198251140794
 21
285.4200981431932
 31
0.0
  0
LINE
  5
4B9
330
1F
100
AcDbEntity
  8
Visible (ISO)
100
AcDbLine
 10
975.3079035259554
 20
349.5348793020976
 30
0.0
 11
967.9198251140794
 21
352.7498275813859
 31
0.0
  0
LINE
  5
4BA
330
1F
100
AcDbEntity
  8
Visible (ISO)
100
AcDbLine
 10
979.4628790829522
 20
294.0849628622946
 30
0.0
 11
975.1770425794418
 21
294.0849628622936
 31
0.0
  0
LINE
  5
4BB
330
1F
100
AcDbEntity
  8
Visible (ISO)
100
AcDbLine
 10
979.4628790829522
 20
344.0849628622946
 30
0.0
 11
975.1770425794418
 21
344.0849628622936
 31
0.0
  0
LINE
  5
4BC
330
1F
100
AcDbEntity
  8
Visible (ISO)
100
AcDbLine
 10
964.0338676703143
 20
284.5849628622927
 30
0.0
 11
934.8901794464424
 21
284.5849628622864
 31
0.0
  0
LINE
  5
4BD
330
1F
100
AcDbEntity
  8
Visible (ISO)
100
AcDbLine
 10
964.0338676703143
 20
353.5849628622918
 30
0.0
 11
934.8901794464429
 21
353.5849628622873
 31
0.0
  0
LINE
  5
4BE
330
1F
100
AcDbEntity
  8
Visible (ISO)
100
AcDbLine
 10
929.3185919918789
 20
278.0849628622864
 30
0.0
 11
914.7467478799432
 21
278.0849628622836
 31
0.0
  0
LINE
  5
4BF
330
1F
100
AcDbEntity
  8
Visible (ISO)
100
AcDbLine
 10
929.3185919918789
 20
360.0849628622855
 30
0.0
 11
914.7467478799432
 21
360.0849628622837
 31
0.0
  0
ELLIPSE
  5
4C0
330
1F
100
AcDbEntity
  8
Visible (ISO)
100
AcDbEllipse
 10
885.4744845609664
 20
319.0849628622782
 30
0.0
 11
0.0000000000051348
 21
-29.49999999999983
 31
0.0
210
0.0
220
0.0
230
1.0
 40
0.515038074910054
 41
5.27200761180933
 42
5.723566675754269
  0
LINE
  5
4C1
330
1F
100
AcDbEntity
  8
Visible (ISO)
100
AcDbLine
 10
872.5985326882149
 20
334.7454226256505
 30
0.0
 11
872.5985326882144
 21
303.4245030989195
 31
0.0
  0
ELLIPSE
  5
4C2
330
1F
100
AcDbEntity
  8
Visible (ISO)
100
AcDbEllipse
 10
885.4744845609664
 20
319.0849628622782
 30
0.0
 11
0.0000000000067044
 21
-29.4999999999999
 31
0.0
210
0.0
220
0.0
230
1.0
 40
0.515038074910054
 41
3.701211285013943
 42
4.152770348959061
  0
LINE
  5
4C3
330
1F
100
AcDbEntity
  8
Visible (ISO)
100
AcDbLine
 10
886.4947248996779
 20
294.0849628622837
 30
0.0
 11
885.6375575989757
 21
294.0849628622837
 31
0.0
  0
LINE
  5
4C4
330
1F
100
AcDbEntity
  8
Visible (ISO)
100
AcDbLine
 10
885.6375575989757
 20
294.0849628622837
 30
0.0
 11
877.4087515122358
 21
294.0849628622828
 31
0.0
  0
LINE
  5
4C5
330
1F
100
AcDbEntity
  8
Visible (ISO)
100
AcDbLine
 10
885.6375575989762
 20
344.0849628622836
 30
0.0
 11
877.4087515122362
 21
344.0849628622828
 31
0.0
  0
LINE
  5
4C6
330
1F
100
AcDbEntity
  8
Visible (ISO)
100
AcDbLine
 10
885.6375575989762
 20
344.0849628622836
 30
0.0
 11
886.4947248996784
 21
344.0849628622828
 31
0.0
  0
LINE
  5
4C7
330
1F
100
AcDbEntity
  8
Visible (ISO)
100
AcDbLine
 10
880.8273387749553
 20
303.4245030989205
 30
0.0
 11
880.8273387749553
 21
334.7454226256514
 31
0.0
  0
ELLIPSE
  5
4C8
330
1F
100
AcDbEntity
  8
Visible (ISO)
100
AcDbEllipse
 10
893.7032906477064
 20
319.0849628622791
 30
0.0
 11
-0.0000000000035721
 21
29.49999999999983
 31
0.0
210
0.0
220
0.0
230
1.0
 40
0.515038074910054
 41
2.130414958219859
 42
2.581974022164965
  0
ELLIPSE
  5
4C9
330
1F
100
AcDbEntity
  8
Visible (ISO)
100
AcDbEllipse
 10
893.7032906477064
 20
319.0849628622791
 30
0.0
 11
-0.000000000005132
 21
29.49999999999994
 31
0.0
210
0.0
220
0.0
230
1.0
 40
0.515038074910054
 41
0.5596186314246268
 42
1.011177695369569
  0
ELLIPSE
  5
4CA
330
1F
100
AcDbEntity
  8
Visible (ISO)
100
AcDbEllipse
 10
893.7032906477064
 20
319.0849628622791
 30
0.0
 11
0.0000000000049585
 21
-28.49999999999998
 31
0.0
210
0.0
220
0.0
230
1.0
 40
0.515038074910054
 41
5.282010299457272
 42
5.638607990059663
  0
LINE
  5
4CB
330
1F
100
AcDbEntity
  8
Visible (ISO)
100
AcDbLine
 10
881.3423768498653
 20
334.4553890112256
 30
0.0
 11
881.3423768498653
 21
303.7145367133462
 31
0.0
  0
ELLIPSE
  5
4CC
330
1F
100
AcDbEntity
  8
Visible (ISO)
100
AcDbEllipse
 10
893.7032906477064
 20
319.0849628622791
 30
0.0
 11
0.0000000000064768
 21
-28.49999999999987
 31
0.0
210
0.0
220
0.0
230
1.0
 40
0.515038074910054
 41
3.786169970708625
 42
4.142767661311136
  0
LINE
  5
4CD
330
1F
100
AcDbEntity
  8
Visible (ISO)
100
AcDbLine
 10
880.8273387749553
 20
303.4245030989205
 30
0.0
 11
872.5985326882144
 21
303.4245030989195
 31
0.0
  0
LINE
  5
4CE
330
1F
100
AcDbEntity
  8
Visible (ISO)
100
AcDbLine
 10
880.8273387749553
 20
334.7454226256514
 30
0.0
 11
872.5985326882149
 21
334.7454226256505
 31
0.0
  0
LINE
  5
4CF
330
1F
100
AcDbEntity
  8
Visible (ISO)
100
AcDbLine
 10
875.5191566369569
 20
294.0849628622791
 30
0.0
 11
875.5191566369569
 21
296.7998113782932
 31
0.0
  0
LINE
  5
4D0
330
1F
100
AcDbEntity
  8
Visible (ISO)
100
AcDbLine
 10
877.4087515122358
 20
294.08496286228
 30
0.0
 11
875.5191566369569
 21
294.0849628622791
 31
0.0
  0
LINE
  5
4D1
330
1F
100
AcDbEntity
  8
Visible (ISO)
100
AcDbLine
 10
875.5191566369569
 20
344.0849628622791
 30
0.0
 11
877.4087515122362
 21
344.0849628622791
 31
0.0
  0
LINE
  5
4D2
330
1F
100
AcDbEntity
  8
Visible (ISO)
100
AcDbLine
 10
875.5191566369569
 20
341.3701143462658
 30
0.0
 11
875.5191566369569
 21
344.0849628622791
 31
0.0
  0
ELLIPSE
  5
4D3
330
1F
100
AcDbEntity
  8
Visible (ISO)
100
AcDbEllipse
 10
870.8025922674735
 20
334.1904716899153
 30
0.0
 11
0.0000000000000292
 21
4.24999999999999
 31
0.0
210
0.0
220
0.0
230
1.0
 40
0.515038074910054
 41
0.0000000000019602
 42
3.141592653591753
  0
ELLIPSE
  5
4D4
330
1F
100
AcDbEntity
  8
Visible (ISO)
100
AcDbEllipse
 10
870.8025922674735
 20
303.9794540346484
 30
0.0
 11
-0.0000000000000155
 21
-4.24999999999999
 31
0.0
210
0.0
220
0.0
230
1.0
 40
0.515038074910054
 41
3.141592653591729
 42
6.283185307181522
  0
LINE
  5
4D5
330
1F
100
AcDbEntity
  8
Visible (ISO)
100
AcDbLine
 10
872.5985326882149
 20
329.9404716899162
 30
0.0
 11
870.8025922674735
 21
329.9404716899153
 31
0.0
  0
LINE
  5
4D6
330
1F
100
AcDbEntity
  8
Visible (ISO)
100
AcDbLine
 10
874.0085029549121
 20
338.4404716899162
 30
0.0
 11
870.8025922674735
 21
338.4404716899153
 31
0.0
  0
LINE
  5
4D7
330
1F
100
AcDbEntity
  8
Visible (ISO)
100
AcDbLine
 10
870.8025922674735
 20
308.2294540346484
 30
0.0
 11
872.5985326882144
 21
308.2294540346484
 31
0.0
  0
LINE
  5
4D8
330
1F
100
AcDbEntity
  8
Visible (ISO)
100
AcDbLine
 10
870.8025922674735
 20
299.7294540346484
 30
0.0
 11
874.0085029549115
 21
299.7294540346493
 31
0.0
  0
LINE
  5
4D9
330
1F
100
AcDbEntity
  8
Visible (ISO)
100
AcDbLine
 10
875.5191566369569
 20
344.0849628622791
 30
0.0
 11
873.3896963841241
 21
344.0849628622782
 31
0.0
  0
LINE
  5
4DA
330
1F
100
AcDbEntity
  8
Visible (ISO)
100
AcDbLine
 10
873.3896963841241
 20
294.0849628622782
 30
0.0
 11
875.5191566369569
 21
294.0849628622791
 31
0.0
  0
LINE
  5
4DB
330
1F
100
AcDbEntity
  8
Visible (ISO)
100
AcDbLine
 10
873.3896963841237
 20
294.0849628622791
 30
0.0
 11
873.0385391627002
 21
294.0849628622782
 31
0.0
  0
LINE
  5
4DC
330
1F
100
AcDbEntity
  8
Visible (ISO)
100
AcDbLine
 10
873.0385391627008
 20
344.0849628622782
 30
0.0
 11
873.3896963841241
 21
344.0849628622791
 31
0.0
  0
LINE
  5
4DD
330
1F
100
AcDbEntity
  8
Visible (ISO)
100
AcDbLine
 10
873.0385391627008
 20
338.4404716899116
 30
0.0
 11
873.0385391627008
 21
344.0849628622782
 31
0.0
  0
LINE
  5
4DE
330
1F
100
AcDbEntity
  8
Visible (ISO)
100
AcDbLine
 10
873.0385391627008
 20
294.0849628622782
 30
0.0
 11
873.0385391627008
 21
299.7294540346438
 31
0.0
  0
LINE
  5
4DF
330
1F
100
AcDbEntity
  8
Visible (ISO)
100
AcDbLine
 10
898.8315235329821
 20
364.0849628622773
 30
0.0
 11
864.8315235329826
 21
364.0849628622773
 31
0.0
  0
LINE
  5
4E0
330
1F
100
AcDbEntity
  8
Visible (ISO)
100
AcDbLine
 10
898.8315235329821
 20
361.2349628622778
 30
0.0
 11
864.8315235329826
 21
361.2349628622778
 31
0.0
  0
LINE
  5
4E1
330
1F
100
AcDbEntity
  8
Visible (ISO)
100
AcDbLine
 10
888.7315235329822
 20
357.5588634961887
 30
0.0
 11
874.9315235329826
 21
357.5588634961887
 31
0.0
  0
LINE
  5
4E2
330
1F
100
AcDbEntity
  8
Visible (ISO)
100
AcDbLine
 10
864.8315235329826
 20
361.2349628622778
 30
0.0
 11
864.8315235329826
 21
364.0849628622773
 31
0.0
  0
LINE
  5
4E3
330
1F
100
AcDbEntity
  8
Visible (ISO)
100
AcDbLine
 10
898.8315235329821
 20
361.2349628622778
 30
0.0
 11
898.8315235329821
 21
364.0849628622773
 31
0.0
  0
LINE
  5
4E4
330
1F
100
AcDbEntity
  8
Visible (ISO)
100
AcDbLine
 10
874.9315235329826
 20
357.5588634961887
 30
0.0
 11
864.8315235329826
 21
361.2349628622778
 31
0.0
  0
LINE
  5
4E5
330
1F
100
AcDbEntity
  8
Visible (ISO)
100
AcDbLine
 10
888.7315235329822
 20
357.5588634961887
 30
0.0
 11
898.8315235329821
 21
361.2349628622778
 31
0.0
  0
LINE
  5
4E6
330
1F
100
AcDbEntity
  8
Visible (ISO)
100
AcDbLine
 10
874.9315235329826
 20
344.0849628622773
 30
0.0
 11
874.9315235329826
 21
357.5588634961887
 31
0.0
  0
LINE
  5
4E7
330
1F
100
AcDbEntity
  8
Visible (ISO)
100
AcDbLine
 10
888.7315235329822
 20
344.0849628622773
 30
0.0
 11
888.7315235329822
 21
357.5588634961887
 31
0.0
  0
LINE
  5
4E8
330
1F
100
AcDbEntity
  8
Visible (ISO)
100
AcDbLine
 10
898.8315235329817
 20
274.0849628622782
 30
0.0
 11
864.8315235329821
 21
274.0849628622782
 31
0.0
  0
LINE
  5
4E9
330
1F
100
AcDbEntity
  8
Visible (ISO)
100
AcDbLine
 10
898.8315235329817
 20
276.9349628622777
 30
0.0
 11
864.8315235329821
 21
276.9349628622777
 31
0.0
  0
LINE
  5
4EA
330
1F
100
AcDbEntity
  8
Visible (ISO)
100
AcDbLine
 10
888.7315235329818
 20
280.6110622283659
 30
0.0
 11
874.931523532982
 21
280.6110622283659
 31
0.0
  0
LINE
  5
4EB
330
1F
100
AcDbEntity
  8
Visible (ISO)
100
AcDbLine
 10
864.8315235329821
 20
274.0849628622782
 30
0.0
 11
864.8315235329821
 21
276.9349628622777
 31
0.0
  0
LINE
  5
4EC
330
1F
100
AcDbEntity
  8
Visible (ISO)
100
AcDbLine
 10
898.8315235329817
 20
274.0849628622782
 30
0.0
 11
898.8315235329817
 21
276.9349628622777
 31
0.0
  0
LINE
  5
4ED
330
1F
100
AcDbEntity
  8
Visible (ISO)
100
AcDbLine
 10
888.7315235329818
 20
280.6110622283659
 30
0.0
 11
898.8315235329817
 21
276.9349628622777
 31
0.0
  0
LINE
  5
4EE
330
1F
100
AcDbEntity
  8
Visible (ISO)
100
AcDbLine
 10
874.931523532982
 20
280.6110622283659
 30
0.0
 11
864.8315235329821
 21
276.9349628622777
 31
0.0
  0
LINE
  5
4EF
330
1F
100
AcDbEntity
  8
Visible (ISO)
100
AcDbLine
 10
874.931523532982
 20
280.6110622283659
 30
0.0
 11
874.931523532982
 21
294.0849628622782
 31
0.0
  0
LINE
  5
4F0
330
1F
100
AcDbEntity
  8
Visible (ISO)
100
AcDbLine
 10
888.7315235329818
 20
280.6110622283659
 30
0.0
 11
888.7315235329818
 21
294.0849628622782
 31
0.0
  0
LINE
  5
4F1
330
1F
100
AcDbEntity
  8
Visible (ISO)
100
AcDbLine
 10
898.009991478267
 20
344.0849628622818
 30
0.0
 11
891.3805785136803
 21
344.0849628622846
 31
0.0
  0
SPLINE
  5
4F2
330
1F
100
AcDbEntity
  8
Visible (ISO)
100
AcDbSpline
210
0.0
220
0.0
230
1.0
 70
     8
 71
     3
 72
     8
 73
     4
 74
     0
 42
0.0000000001
 43
0.0000000001
 40
-0.1443505504637693
 40
-0.1443505504637693
 40
-0.1443505504637693
 40
-0.1443505504637693
 40
0.0
 40
0.0
 40
0.0
 40
0.0
 10
891.3805785136803
 20
344.0849628622846
 30
0.0
 10
891.7157241064417
 20
343.751538540082
 30
0.0
 10
892.0513007881824
 20
343.4181358487576
 30
0.0
 10
892.3871241688159
 20
343.0849628622846
 30
0.0
  0
LINE
  5
4F3
330
1F
100
AcDbEntity
  8
Visible (ISO)
100
AcDbLine
 10
892.3871241688159
 20
343.0849628622846
 30
0.0
 11
897.6260889685347
 21
343.0849628622827
 31
0.0
  0
ELLIPSE
  5
4F4
330
1F
100
AcDbEntity
  8
Visible (ISO)
100
AcDbEllipse
 10
899.4463115624105
 20
319.0849628622809
 30
0.0
 11
0.0000000000067002
 21
-29.49999999999995
 31
0.0
210
0.0
220
0.0
230
1.0
 40
0.515038074910054
 41
3.701211285013943
 42
4.152770348959061
  0
SPLINE
  5
4F5
330
1F
100
AcDbEntity
  8
Visible (ISO)
100
AcDbSpline
210
0.0
220
0.0
230
1.0
 70
     8
 71
     3
 72
     8
 73
     4
 74
     0
 42
0.0000000001
 43
0.0000000001
 40
-0.1443505504637454
 40
-0.1443505504637454
 40
-0.1443505504637454
 40
-0.1443505504637454
 40
0.0
 40
0.0
 40
0.0
 40
0.0
 10
886.570359689659
 20
334.7454226256532
 30
0.0
 10
887.0278863369451
 20
334.6496138516713
 30
0.0
 10
887.485383302225
 20
334.5529320737669
 30
0.0
 10
887.9425650652713
 20
334.4553890112256
 30
0.0
  0
ELLIPSE
  5
4F6
330
1F
100
AcDbEntity
  8
Visible (ISO)
100
AcDbEllipse
 10
900.3034788631127
 20
319.0849628622809
 30
0.0
 11
-0.0000000000049613
 21
28.49999999999991
 31
0.0
210
0.0
220
0.0
230
1.0
 40
0.515038074910054
 41
0.5696213190725903
 42
1.001175007721646
  0
LINE
  5
4F7
330
1F
100
AcDbEntity
  8
Visible (ISO)
100
AcDbLine
 10
886.5703596896594
 20
334.7454226256532
 30
0.0
 11
886.570359689659
 21
303.4245030989214
 31
0.0
  0
SPLINE
  5
4F8
330
1F
100
AcDbEntity
  8
Visible (ISO)
100
AcDbSpline
210
0.0
220
0.0
230
1.0
 70
     8
 71
     3
 72
     8
 73
     4
 74
     0
 42
0.0000000001
 43
0.0000000001
 40
-0.1443505504638185
 40
-0.1443505504638185
 40
-0.1443505504638185
 40
-0.1443505504638185
 40
0.0
 40
0.0
 40
0.0
 40
0.0
 10
886.570359689659
 20
303.4245030989214
 30
0.0
 10
887.0278863369447
 20
303.5203118729023
 30
0.0
 10
887.4853833022246
 20
303.6169936508068
 30
0.0
 10
887.9425650652713
 20
303.714536713348
 30
0.0
  0
LINE
  5
4F9
330
1F
100
AcDbEntity
  8
Visible (ISO)
100
AcDbLine
 10
887.9425650652713
 20
303.714536713348
 30
0.0
 11
887.9425650652713
 21
334.4553890112266
 31
0.0
  0
ELLIPSE
  5
4FA
330
1F
100
AcDbEntity
  8
Visible (ISO)
100
AcDbEllipse
 10
899.4463115624105
 20
319.0849628622809
 30
0.0
 11
0.0000000000051376
 21
-29.49999999999983
 31
0.0
210
0.0
220
0.0
230
1.0
 40
0.515038074910054
 41
5.272007611809329
 42
5.723566675754268
  0
SPLINE
  5
4FB
330
1F
100
AcDbEntity
  8
Visible (ISO)
100
AcDbSpline
210
0.0
220
0.0
230
1.0
 70
     8
 71
     3
 72
     8
 73
     4
 74
     0
 42
0.0000000001
 43
0.0000000001
 40
-0.1443505504637152
 40
-0.1443505504637152
 40
-0.1443505504637152
 40
-0.1443505504637152
 40
0.0
 40
0.0
 40
0.0
 40
0.0
 10
891.3805785136803
 20
294.0849628622855
 30
0.0
 10
891.7157241064421
 20
294.4183871844871
 30
0.0
 10
892.0513007881824
 20
294.7517898758124
 30
0.0
 10
892.3871241688159
 20
295.0849628622846
 30
0.0
  0
ELLIPSE
  5
4FC
330
1F
100
AcDbEntity
  8
Visible (ISO)
100
AcDbEllipse
 10
900.3034788631127
 20
319.0849628622809
 30
0.0
 11
-0.0000000000034445
 21
28.50000000000008
 31
0.0
210
0.0
220
0.0
230
1.0
 40
0.515038074910054
 41
2.140417645867778
 42
2.571971334516963
  0
LINE
  5
4FD
330
1F
100
AcDbEntity
  8
Visible (ISO)
100
AcDbLine
 10
891.3805785136803
 20
294.0849628622855
 30
0.0
 11
898.009991478267
 21
294.0849628622818
 31
0.0
  0
LINE
  5
4FE
330
1F
100
AcDbEntity
  8
Visible (ISO)
100
AcDbLine
 10
897.6260889685347
 20
295.0849628622819
 30
0.0
 11
892.3871241688159
 21
295.0849628622846
 31
0.0
  0
ELLIPSE
  5
4FF
330
1F
100
AcDbEntity
  8
Visible (ISO)
100
AcDbEllipse
 10
894.5604579484081
 20
319.0849628622791
 30
0.0
 11
-0.000000000003568
 21
29.49999999999983
 31
0.0
210
0.0
220
0.0
230
1.0
 40
0.515038074910054
 41
2.130414958219859
 42
2.581974022164965
  0
LINE
  5
500
330
1F
100
AcDbEntity
  8
Visible (ISO)
100
AcDbLine
 10
881.684506075657
 20
303.4245030989205
 30
0.0
 11
881.6845060756575
 21
334.7454226256514
 31
0.0
  0
ELLIPSE
  5
501
330
1F
100
AcDbEntity
  8
Visible (ISO)
100
AcDbEllipse
 10
894.5604579484081
 20
319.08496286228
 30
0.0
 11
-0.0000000000051362
 21
29.49999999999995
 31
0.0
210
0.0
220
0.0
230
1.0
 40
0.515038074910054
 41
0.5596186314246268
 42
1.011177695369569
  0
SPLINE
  5
502
330
1F
100
AcDbEntity
  8
Visible (ISO)
100
AcDbSpline
210
0.0
220
0.0
230
1.0
 70
     8
 71
     3
 72
     8
 73
     4
 74
     0
 42
0.0000000001
 43
0.0000000001
 40
-0.1443504730158617
 40
-0.1443504730158617
 40
-0.1443504730158617
 40
-0.1443504730158617
 40
0.0
 40
0.0
 40
0.0
 40
0.0
 10
881.3423768498653
 20
334.4553890112256
 30
0.0
 10
881.4563650657822
 20
334.552932073766
 30
0.0
 10
881.5704318704417
 20
334.6496138516704
 30
0.0
 10
881.6845060756575
 20
334.7454226256514
 30
0.0
  0
SPLINE
  5
503
330
1F
100
AcDbEntity
  8
Visible (ISO)
100
AcDbSpline
210
0.0
220
0.0
230
1.0
 70
     8
 71
     3
 72
     8
 73
     4
 74
     0
 42
0.0000000001
 43
0.0000000001
 40
-0.1443504730160477
 40
-0.1443504730160477
 40
-0.1443504730160477
 40
-0.1443504730160477
 40
0.0
 40
0.0
 40
0.0
 40
0.0
 10
881.3423768498653
 20
303.7145367133462
 30
0.0
 10
881.4563650657817
 20
303.6169936508059
 30
0.0
 10
881.5704318704417
 20
303.5203118729014
 30
0.0
 10
881.684506075657
 20
303.4245030989205
 30
0.0
  0
LINE
  5
504
330
1F
100
AcDbEntity
  8
Visible (ISO)
100
AcDbLine
 10
884.8835068970796
 20
341.8665464997002
 30
0.0
 11
885.4312081012688
 21
342.6659003115401
 31
0.0
  0
LINE
  5
505
330
1F
100
AcDbEntity
  8
Visible (ISO)
100
AcDbLine
 10
884.8835068970796
 20
296.3033792248671
 30
0.0
 11
885.4312081012688
 21
295.504025413029
 31
0.0
  0
LINE
  5
506
330
1F
100
AcDbEntity
  8
Visible (ISO)
100
AcDbLine
 10
886.570359689659
 20
303.4245030989214
 30
0.0
 11
881.684506075657
 21
303.4245030989205
 31
0.0
  0
LINE
  5
507
330
1F
100
AcDbEntity
  8
Visible (ISO)
100
AcDbLine
 10
891.3805785136803
 20
294.0849628622855
 30
0.0
 11
886.4947248996779
 21
294.0849628622837
 31
0.0
  0
LINE
  5
508
330
1F
100
AcDbEntity
  8
Visible (ISO)
100
AcDbLine
 10
886.5703596896594
 20
334.7454226256532
 30
0.0
 11
881.6845060756575
 21
334.7454226256514
 31
0.0
  0
LINE
  5
509
330
1F
100
AcDbEntity
  8
Visible (ISO)
100
AcDbLine
 10
891.3805785136803
 20
344.0849628622846
 30
0.0
 11
886.4947248996784
 21
344.0849628622836
 31
0.0
  0
SPLINE
  5
50A
330
1F
100
AcDbEntity
  8
Visible (ISO)
100
AcDbSpline
210
0.0
220
0.0
230
1.0
 70
     8
 71
     3
 72
    10
 73
     6
 74
     0
 42
0.0000000001
 43
0.0000000001
 40
3.362069939458795
 40
3.362069939458795
 40
3.362069939458795
 40
3.362069939458795
 40
3.610570516628191
 40
3.610570516628191
 40
3.765365897231941
 40
3.765365897231941
 40
3.765365897231941
 40
3.765365897231941
 10
975.3079035259554
 20
349.5348793020976
 30
0.0
 10
977.1535837399609
 20
348.731725072088
 30
0.0
 10
978.7811509185511
 20
347.5582339302718
 30
0.0
 10
981.0732149353178
 20
345.3033626416391
 30
0.0
 10
981.8732751381796
 20
344.3512071087953
 30
0.0
 10
982.6046409857001
 20
343.3293291720084
 30
0.0
  0
SPLINE
  5
50B
330
1F
100
AcDbEntity
  8
Visible (ISO)
100
AcDbSpline
210
0.0
220
0.0
230
1.0
 70
     8
 71
     3
 72
    12
 73
     8
 74
     0
 42
0.0000000001
 43
0.0000000001
 40
5.659412063537443
 40
5.659412063537443
 40
5.659412063537443
 40
5.659412063537443
 40
5.700007879023125
 40
5.700007879023125
 40
6.045123715401571
 40
6.045123715401571
 40
6.062708021310584
 40
6.062708021310584
 40
6.062708021310584
 40
6.062708021310584
 10
982.6046409856997
 20
294.8405965525699
 30
0.0
 10
982.4128368576783
 20
294.5726042648876
 30
0.0
 10
982.2162933822143
 20
294.3094586839943
 30
0.0
 10
980.302156768543
 20
291.8576151057077
 30
0.0
 10
978.2192550116958
 20
289.999720969884
 30
0.0
 10
975.5680910896311
 20
288.7506096814595
 30
0.0
 10
975.4385068664499
 20
288.6918789249839
 30
0.0
 10
975.3079035259549
 20
288.6350464224852
 30
0.0
  0
ELLIPSE
  5
50C
330
1F
100
AcDbEntity
  8
Visible (ISO)
100
AcDbEllipse
 10
1139.187097472149
 20
141.0092917368434
 30
0.0
 11
5.999999999999983
 21
0.0
 31
0.0
210
0.0
220
0.0
230
1.0
 40
0.8571673007021137
 41
0.0
 42
6.283185307179586
  0
ELLIPSE
  5
50D
330
1F
100
AcDbEntity
  8
Visible (ISO)
100
AcDbEllipse
 10
1139.187097472148
 20
140.2367346244782
 30
0.0
 11
-7.499999999999983
 21
0.0
 31
0.0
210
0.0
220
0.0
230
1.0
 40
0.8571673007021137
 41
0.0
 42
6.283185307179586
  0
ELLIPSE
  5
50E
330
1F
100
AcDbEntity
  8
Visible (ISO)
100
AcDbEllipse
 10
1139.187097472142
 20
128.1333398640913
 30
0.0
 11
7.499999999999983
 21
0.0
 31
0.0
210
0.0
220
0.0
230
1.0
 40
0.8571673007021139
 41
3.141592653589366
 42
6.283185307179159
  0
ELLIPSE
  5
50F
330
1F
100
AcDbEntity
  8
Visible (ISO)
100
AcDbEllipse
 10
1139.187097472141
 20
125.5581494895414
 30
0.0
 11
24.99999999999995
 21
0.0000000000000019
 31
0.0
210
0.0
220
0.0
230
1.0
 40
0.8571673007021137
 41
3.141592653589388
 42
6.283185307179182
  0
ELLIPSE
  5
510
330
1F
100
AcDbEntity
  8
Visible (ISO)
100
AcDbEllipse
 10
1139.187097472138
 20
118.8626545157108
 30
0.0
 11
34.49999999999992
 21
-0.0000000000167727
 31
0.0
210
0.0
220
0.0
230
1.0
 40
0.8571673007021137
 41
2.490886775442262
 42
6.933891185328265
  0
ELLIPSE
  5
511
330
1F
100
AcDbEntity
  8
Visible (ISO)
100
AcDbEllipse
 10
1139.187097472142
 20
128.1333398640913
 30
0.0
 11
24.99999999999995
 21
0.0
 31
0.0
210
0.0
220
0.0
230
1.0
 40
0.8571673007021137
 41
0.0
 42
6.283185307179586
  0
ELLIPSE
  5
512
330
1F
100
AcDbEntity
  8
Visible (ISO)
100
AcDbEllipse
 10
1139.187097472129
 20
101.351359968769
 30
0.0
 11
34.49999999999993
 21
0.0000000000000038
 31
0.0
210
0.0
220
0.0
230
1.0
 40
0.8571673007021139
 41
3.141592653589384
 42
6.283185307179176
  0
ELLIPSE
  5
513
330
1F
100
AcDbEntity
  8
Visible (ISO)
100
AcDbEllipse
 10
1139.187097472128
 20
98.00361248185348
 30
0.0
 11
40.99999999999993
 21
-0.0000000000199396
 31
0.0
210
0.0
220
0.0
230
1.0
 40
0.8571673007021137
 41
2.570782315951777
 42
6.853995644818769
  0
ELLIPSE
  5
514
330
1F
100
AcDbEntity
  8
Visible (ISO)
100
AcDbEllipse
 10
1139.187097472124
 20
89.24796520838256
 30
0.0
 11
40.99999999999989
 21
-0.0000000000000038
 31
0.0
210
0.0
220
0.0
230
1.0
 40
0.8571673007021139
 41
3.141592653589386
 42
6.283185307179179
  0
LINE
  5
515
330
1F
100
AcDbEntity
  8
Visible (ISO)
100
AcDbLine
 10
1146.687097472148
 20
140.2367346244782
 30
0.0
 11
1146.687097472143
 21
128.1333398640918
 31
0.0
  0
LINE
  5
516
330
1F
100
AcDbEntity
  8
Visible (ISO)
100
AcDbLine
 10
1131.687097472149
 20
140.2367346244778
 30
0.0
 11
1131.687097472144
 21
128.1333398640913
 31
0.0
  0
LINE
  5
517
330
1F
100
AcDbEntity
  8
Visible (ISO)
100
AcDbLine
 10
1164.015792488929
 20
139.7274913584129
 30
0.0
 11
1166.637243699771
 21
136.7760047686602
 31
0.0
  0
LINE
  5
518
330
1F
100
AcDbEntity
  8
Visible (ISO)
100
AcDbLine
 10
1114.358402455346
 20
139.7274913584124
 30
0.0
 11
1111.736951244499
 21
136.7760047686597
 31
0.0
  0
LINE
  5
519
330
1F
100
AcDbEntity
  8
Visible (ISO)
100
AcDbLine
 10
1164.187097472142
 20
128.1333398640918
 30
0.0
 11
1164.187097472141
 21
125.5581494895418
 31
0.0
  0
LINE
  5
51A
330
1F
100
AcDbEntity
  8
Visible (ISO)
100
AcDbLine
 10
1114.187097472142
 20
128.1333398640913
 30
0.0
 11
1114.187097472141
 21
125.5581494895414
 31
0.0
  0
LINE
  5
51B
330
1F
100
AcDbEntity
  8
Visible (ISO)
100
AcDbLine
 10
1173.687097472138
 20
118.8626545157113
 30
0.0
 11
1173.687097472129
 21
101.3513599687694
 31
0.0
  0
LINE
  5
51C
330
1F
100
AcDbEntity
  8
Visible (ISO)
100
AcDbLine
 10
1104.687097472138
 20
118.8626545157104
 30
0.0
 11
1104.687097472129
 21
101.3513599687685
 31
0.0
  0
LINE
  5
51D
330
1F
100
AcDbEntity
  8
Visible (ISO)
100
AcDbLine
 10
1180.187097472127
 20
98.00361248185394
 30
0.0
 11
1180.187097472124
 21
89.24796520838302
 31
0.0
  0
LINE
  5
51E
330
1F
100
AcDbEntity
  8
Visible (ISO)
100
AcDbLine
 10
1098.187097472128
 20
98.00361248185348
 30
0.0
 11
1098.187097472124
 21
89.24796520838212
 31
0.0
  0
ELLIPSE
  5
51F
330
1F
100
AcDbEntity
  8
Visible (ISO)
100
AcDbEllipse
 10
1139.187097472116
 20
71.65941495020391
 30
0.0
 11
29.49999999999987
 21
-0.0000000000143427
 31
0.0
210
0.0
220
0.0
230
1.0
 40
0.8571673007021139
 41
5.272007611810211
 42
5.723566675755147
  0
LINE
  5
520
330
1F
100
AcDbEntity
  8
Visible (ISO)
100
AcDbLine
 10
1123.526637708753
 20
50.23023243265154
 30
0.0
 11
1154.847557235484
 21
50.23023243265154
 31
0.0
  0
ELLIPSE
  5
521
330
1F
100
AcDbEntity
  8
Visible (ISO)
100
AcDbEllipse
 10
1139.187097472116
 20
71.65941495020391
 30
0.0
 11
29.49999999999983
 21
-0.00000000001176
 31
0.0
210
0.0
220
0.0
230
1.0
 40
0.8571673007021139
 41
3.701211285015212
 42
4.152770348960149
  0
LINE
  5
522
330
1F
100
AcDbEntity
  8
Visible (ISO)
100
AcDbLine
 10
1114.187097472119
 20
61.39332492797397
 30
0.0
 11
1114.187097472118
 21
58.2357809270857
 31
0.0
  0
LINE
  5
523
330
1F
100
AcDbEntity
  8
Visible (ISO)
100
AcDbLine
 10
1164.187097472119
 20
61.39332492797397
 30
0.0
 11
1164.187097472118
 21
58.2357809270857
 31
0.0
  0
ELLIPSE
  5
524
330
1F
100
AcDbEntity
  8
Visible (ISO)
100
AcDbEllipse
 10
1139.187097472118
 20
76.60378046934105
 30
0.0
 11
-29.50000000000027
 21
0.0000000000143566
 31
0.0
210
0.0
220
0.0
230
1.0
 40
0.8571673007021137
 41
0.7498629386817833
 42
1.011177695370505
  0
LINE
  5
525
330
1F
100
AcDbEntity
  8
Visible (ISO)
100
AcDbLine
 10
1154.847557235487
 20
55.17459795178822
 30
0.0
 11
1149.22939835666
 21
55.17459795178822
 31
0.0
  0
LINE
  5
526
330
1F
100
AcDbEntity
  8
Visible (ISO)
100
AcDbLine
 10
1129.144796587583
 20
55.17459795178822
 30
0.0
 11
1123.526637708755
 21
55.17459795178822
 31
0.0
  0
ELLIPSE
  5
527
330
1F
100
AcDbEntity
  8
Visible (ISO)
100
AcDbEllipse
 10
1139.187097472118
 20
76.60378046934059
 30
0.0
 11
-29.49999999999954
 21
0.0000000000169781
 31
0.0
210
0.0
220
0.0
230
1.0
 40
0.8571673007021136
 41
2.130414958220569
 42
2.391729714909288
  0
LINE
  5
528
330
1F
100
AcDbEntity
  8
Visible (ISO)
100
AcDbLine
 10
1123.526637708755
 20
55.17459795178822
 30
0.0
 11
1123.526637708753
 21
50.23023243265154
 31
0.0
  0
LINE
  5
529
330
1F
100
AcDbEntity
  8
Visible (ISO)
100
AcDbLine
 10
1154.847557235487
 20
55.17459795178822
 30
0.0
 11
1154.847557235484
 21
50.23023243265154
 31
0.0
  0
ELLIPSE
  5
52A
330
1F
100
AcDbEntity
  8
Visible (ISO)
100
AcDbEllipse
 10
1154.292606299751
 20
52.98391126140635
 30
0.0
 11
4.249999999999994
 21
-0.0000000000020687
 31
0.0
210
0.0
220
0.0
230
1.0
 40
0.8571673007021136
 41
3.998605538996494
 42
6.165118353600229
  0
ELLIPSE
  5
52B
330
1F
100
AcDbEntity
  8
Visible (ISO)
100
AcDbEllipse
 10
1124.081588644483
 20
52.98391126140635
 30
0.0
 11
-4.249999999999987
 21
0.0000000000020687
 31
0.0
210
0.0
220
0.0
230
1.0
 40
0.8571673007021139
 41
0.1180669535804884
 42
2.284579768184244
  0
LINE
  5
52C
330
1F
100
AcDbEntity
  8
Visible (ISO)
100
AcDbLine
 10
1184.187097472114
 20
52.47050313183675
 30
0.0
 11
1184.187097472114
 21
86.4705031318363
 31
0.0
  0
LINE
  5
52D
330
1F
100
AcDbEntity
  8
Visible (ISO)
100
AcDbLine
 10
1181.337097472115
 20
52.47050313183675
 30
0.0
 11
1181.337097472115
 21
86.4705031318363
 31
0.0
  0
LINE
  5
52E
330
1F
100
AcDbEntity
  8
Visible (ISO)
100
AcDbLine
 10
1177.660998106025
 20
62.57050313183666
 30
0.0
 11
1177.660998106025
 21
76.37050313183639
 31
0.0
  0
LINE
  5
52F
330
1F
100
AcDbEntity
  8
Visible (ISO)
100
AcDbLine
 10
1181.337097472115
 20
86.4705031318363
 30
0.0
 11
1184.187097472114
 21
86.4705031318363
 31
0.0
  0
LINE
  5
530
330
1F
100
AcDbEntity
  8
Visible (ISO)
100
AcDbLine
 10
1181.337097472115
 20
52.47050313183629
 30
0.0
 11
1184.187097472114
 21
52.47050313183629
 31
0.0
  0
LINE
  5
531
330
1F
100
AcDbEntity
  8
Visible (ISO)
100
AcDbLine
 10
1177.660998106025
 20
76.37050313183639
 30
0.0
 11
1181.337097472115
 21
86.4705031318363
 31
0.0
  0
LINE
  5
532
330
1F
100
AcDbEntity
  8
Visible (ISO)
100
AcDbLine
 10
1177.660998106025
 20
62.57050313183666
 30
0.0
 11
1181.337097472115
 21
52.47050313183629
 31
0.0
  0
LINE
  5
533
330
1F
100
AcDbEntity
  8
Visible (ISO)
100
AcDbLine
 10
1177.335506852712
 20
76.37050313183639
 30
0.0
 11
1177.660998106025
 21
76.37050313183639
 31
0.0
  0
LINE
  5
534
330
1F
100
AcDbEntity
  8
Visible (ISO)
100
AcDbLine
 10
1165.87736136323
 20
62.57050313183666
 30
0.0
 11
1177.660998106025
 21
62.57050313183666
 31
0.0
  0
LINE
  5
535
330
1F
100
AcDbEntity
  8
Visible (ISO)
100
AcDbLine
 10
1094.187097472114
 20
52.47050313183675
 30
0.0
 11
1094.187097472114
 21
86.4705031318363
 31
0.0
  0
LINE
  5
536
330
1F
100
AcDbEntity
  8
Visible (ISO)
100
AcDbLine
 10
1097.037097472114
 20
52.47050313183675
 30
0.0
 11
1097.037097472114
 21
86.4705031318363
 31
0.0
  0
LINE
  5
537
330
1F
100
AcDbEntity
  8
Visible (ISO)
100
AcDbLine
 10
1100.713196838203
 20
62.57050313183666
 30
0.0
 11
1100.713196838203
 21
76.37050313183639
 31
0.0
  0
LINE
  5
538
330
1F
100
AcDbEntity
  8
Visible (ISO)
100
AcDbLine
 10
1094.187097472114
 20
86.4705031318363
 30
0.0
 11
1097.037097472114
 21
86.4705031318363
 31
0.0
  0
LINE
  5
539
330
1F
100
AcDbEntity
  8
Visible (ISO)
100
AcDbLine
 10
1094.187097472114
 20
52.47050313183629
 30
0.0
 11
1097.037097472114
 21
52.47050313183629
 31
0.0
  0
LINE
  5
53A
330
1F
100
AcDbEntity
  8
Visible (ISO)
100
AcDbLine
 10
1100.713196838203
 20
62.57050313183666
 30
0.0
 11
1097.037097472114
 21
52.47050313183629
 31
0.0
  0
LINE
  5
53B
330
1F
100
AcDbEntity
  8
Visible (ISO)
100
AcDbLine
 10
1100.713196838203
 20
76.37050313183639
 30
0.0
 11
1097.037097472114
 21
86.4705031318363
 31
0.0
  0
LINE
  5
53C
330
1F
100
AcDbEntity
  8
Visible (ISO)
100
AcDbLine
 10
1100.713196838203
 20
76.37050313183639
 30
0.0
 11
1101.038688091516
 21
76.37050313183639
 31
0.0
  0
LINE
  5
53D
330
1F
100
AcDbEntity
  8
Visible (ISO)
100
AcDbLine
 10
1100.713196838203
 20
62.57050313183666
 30
0.0
 11
1112.496833580998
 21
62.57050313183666
 31
0.0
  0
LINE
  5
53E
330
1F
100
AcDbEntity
  8
Visible (ISO)
100
AcDbLine
 10
1154.847557235487
 20
55.68963602669786
 30
0.0
 11
1151.363162048299
 21
55.68963602669786
 31
0.0
  0
LINE
  5
53F
330
1F
100
AcDbEntity
  8
Visible (ISO)
100
AcDbLine
 10
1127.011032895944
 20
55.68963602669786
 30
0.0
 11
1123.526637708756
 21
55.68963602669786
 31
0.0
  0
ELLIPSE
  5
540
330
1F
100
AcDbEntity
  8
Visible (ISO)
100
AcDbEllipse
 10
1139.187097472118
 20
77.11881854425022
 30
0.0
 11
-29.49999999999932
 21
0.0000000000169781
 31
0.0
210
0.0
220
0.0
230
1.0
 40
0.8571673007021139
 41
2.130414958220576
 42
2.321397239791362
  0
ELLIPSE
  5
541
330
1F
100
AcDbEntity
  8
Visible (ISO)
100
AcDbEllipse
 10
1139.187097472118
 20
77.11881854425112
 30
0.0
 11
-29.50000000000049
 21
0.0000000000143469
 31
0.0
210
0.0
220
0.0
230
1.0
 40
0.8571673007021139
 41
0.8201954137997233
 42
1.011177695370512
  0
LINE
  5
542
330
1F
100
AcDbEntity
  8
Visible (ISO)
100
AcDbLine
 10
1123.526637708756
 20
56.76878883128032
 30
0.0
 11
1123.526637708756
 21
55.68963602669786
 31
0.0
  0
LINE
  5
543
330
1F
100
AcDbEntity
  8
Visible (ISO)
100
AcDbLine
 10
1154.847557235489
 20
56.76878883128032
 30
0.0
 11
1154.847557235487
 21
55.68963602669786
 31
0.0
  0
SPLINE
  5
544
330
1F
100
AcDbEntity
  8
Visible (ISO)
100
AcDbSpline
210
0.0
220
0.0
230
1.0
 70
     8
 71
     3
 72
    18
 73
    14
 74
     0
 42
0.0000000001
 43
0.0000000001
 40
0.6507058781481003
 40
0.6507058781481003
 40
0.6507058781481003
 40
0.6507058781481003
 40
0.9692762363282811
 40
0.9692762363282811
 40
1.297240130559127
 40
1.297240130559127
 40
1.630039755741062
 40
1.630039755741062
 40
1.963869721351066
 40
1.963869721351066
 40
2.295428583848168
 40
2.295428583848168
 40
2.490886775441676
 40
2.490886775441676
 40
2.490886775441676
 40
2.490886775441676
 10
1114.358402455346
 20
139.7274913584124
 30
0.0
 10
1116.438862127108
 20
142.0698766739679
 30
0.0
 10
1118.923395706823
 20
144.08836901015
 30
0.0
 10
1124.51026004313
 20
147.3753141187426
 30
0.0
 10
1127.628338544615
 20
148.6206715464264
 30
0.0
 10
1134.173330945378
 20
150.194827353811
 30
0.0
 10
1137.603955841958
 20
150.5099922041863
 30
0.0
 10
1144.417674220047
 20
150.1635757823337
 30
0.0
 10
1147.800331717634
 20
149.4989160544146
 30
0.0
 10
1154.156910245388
 20
147.2396210127931
 30
0.0
 10
1157.133313425232
 20
145.6509188890027
 30
0.0
 10
1161.310919614248
 20
142.4807522782125
 30
0.0
 10
1162.739330713109
 20
141.164657077185
 30
0.0
 10
1164.015792488929
 20
139.7274913584129
 30
0.0
  0
ELLIPSE
  5
545
330
1F
100
AcDbEntity
  8
Visible (ISO)
100
AcDbEllipse
 10
733.4160909735344
 20
118.8626545157108
 30
0.0
 11
34.49999999999992
 21
-0.00000000000024
 31
0.0
210
0.0
220
0.0
230
1.0
 40
0.8571673007021137
 41
0.0
 42
3.141592653589365
  0
ELLIPSE
  5
546
330
1F
100
AcDbEntity
  8
Visible (ISO)
100
AcDbEllipse
 10
733.4160909735239
 20
98.00361248185348
 30
0.0
 11
40.99999999999989
 21
-0.000000000000297
 31
0.0
210
0.0
220
0.0
230
1.0
 40
0.8571673007021139
 41
0.0
 42
3.141592653589372
  0
ELLIPSE
  5
547
330
1F
100
AcDbEntity
  8
Visible (ISO)
100
AcDbEllipse
 10
733.4160909735239
 20
89.24796520838711
 30
0.0
 11
41.00000000000672
 21
-0.0000000000168809
 31
0.0
210
0.0
220
0.0
230
1.0
 40
0.8571673007021136
 41
4.003511550485214
 42
4.056636154627397
  0
ELLIPSE
  5
548
330
1F
100
AcDbEntity
  8
Visible (ISO)
100
AcDbEllipse
 10
733.4160909735244
 20
89.24796520837711
 30
0.0
 11
40.99999999999218
 21
-0.0000000000205225
 31
0.0
210
0.0
220
0.0
230
1.0
 40
0.8571673007021136
 41
5.368141806143035
 42
5.421266410285237
  0
ELLIPSE
  5
549
330
1F
100
AcDbEntity
  8
Visible (ISO)
100
AcDbEllipse
 10
733.4160909735194
 20
89.24796520838256
 30
0.0
 11
40.99999999999989
 21
-0.0000000000205322
 31
0.0
210
0.0
220
0.0
230
1.0
 40
0.8571673007021139
 41
5.908025315054919
 42
9.799937952895204
  0
ELLIPSE
  5
54A
330
1F
100
AcDbEntity
  8
Visible (ISO)
100
AcDbEllipse
 10
733.4160909735194
 20
89.24796520838256
 30
0.0
 11
-16.49999999999996
 21
0.0000000000067994
 31
0.0
210
0.0
220
0.0
230
1.0
 40
0.8571673007021137
 41
4.187001313157809
 42
5.237776647612572
  0
LINE
  5
54B
330
1F
100
AcDbEntity
  8
Visible (ISO)
100
AcDbLine
 10
758.2447859903252
 20
139.7274913584124
 30
0.0
 11
760.8662372011679
 21
136.7760047686597
 31
0.0
  0
LINE
  5
54C
330
1F
100
AcDbEntity
  8
Visible (ISO)
100
AcDbLine
 10
708.5873959567427
 20
139.7274913584129
 30
0.0
 11
705.9659447458946
 21
136.7760047686602
 31
0.0
  0
LINE
  5
54D
330
1F
100
AcDbEntity
  8
Visible (ISO)
100
AcDbLine
 10
767.9160909735344
 20
118.8626545157104
 30
0.0
 11
767.9160909735335
 21
116.9923350486451
 31
0.0
  0
LINE
  5
54E
330
1F
100
AcDbEntity
  8
Visible (ISO)
100
AcDbLine
 10
698.9160909735344
 20
118.8626545157113
 30
0.0
 11
698.9160909735335
 21
116.9923350486456
 31
0.0
  0
LINE
  5
54F
330
1F
100
AcDbEntity
  8
Visible (ISO)
100
AcDbLine
 10
774.4160909735239
 20
98.00361248185348
 30
0.0
 11
774.4160909735194
 21
89.24796520838212
 31
0.0
  0
LINE
  5
550
330
1F
100
AcDbEntity
  8
Visible (ISO)
100
AcDbLine
 10
692.4160909735239
 20
98.00361248185394
 30
0.0
 11
692.4160909735198
 21
89.24796520838302
 31
0.0
  0
ELLIPSE
  5
551
330
1F
100
AcDbEntity
  8
Visible (ISO)
100
AcDbEllipse
 10
748.5215998011474
 20
56.22865113334004
 30
0.0
 11
-4.24999999999999
 21
0.0000000000000019
 31
0.0
210
0.0
220
0.0
230
1.0
 40
0.8571673007021139
 41
3.141592653589388
 42
6.283185307179181
  0
ELLIPSE
  5
552
330
1F
100
AcDbEntity
  8
Visible (ISO)
100
AcDbEllipse
 10
748.5215998011455
 20
52.98391126140635
 30
0.0
 11
4.24999999999999
 21
0.0
 31
0.0
210
0.0
220
0.0
230
1.0
 40
0.8571673007021139
 41
0.0
 42
6.283185307179586
  0
LINE
  5
553
330
1F
100
AcDbEntity
  8
Visible (ISO)
100
AcDbLine
 10
752.7715998011474
 20
56.22865113334004
 30
0.0
 11
752.7715998011456
 21
52.98391126140635
 31
0.0
  0
LINE
  5
554
330
1F
100
AcDbEntity
  8
Visible (ISO)
100
AcDbLine
 10
744.2715998011474
 20
56.22865113334004
 30
0.0
 11
744.2715998011456
 21
52.98391126140635
 31
0.0
  0
ELLIPSE
  5
555
330
1F
100
AcDbEntity
  8
Visible (ISO)
100
AcDbEllipse
 10
718.31058214588
 20
56.22865113334004
 30
0.0
 11
-4.24999999999999
 21
0.0000000000000247
 31
0.0
210
0.0
220
0.0
230
1.0
 40
0.8571673007021139
 41
3.141592653589396
 42
6.283185307179189
  0
ELLIPSE
  5
556
330
1F
100
AcDbEntity
  8
Visible (ISO)
100
AcDbEllipse
 10
718.3105821458782
 20
52.98391126140635
 30
0.0
 11
-4.24999999999999
 21
0.0
 31
0.0
210
0.0
220
0.0
230
1.0
 40
0.8571673007021139
 41
0.0
 42
6.283185307179586
  0
LINE
  5
557
330
1F
100
AcDbEntity
  8
Visible (ISO)
100
AcDbLine
 10
714.0605821458782
 20
52.98391126140635
 30
0.0
 11
714.06058214588
 21
56.22865113334004
 31
0.0
  0
LINE
  5
558
330
1F
100
AcDbEntity
  8
Visible (ISO)
100
AcDbLine
 10
722.5605821458782
 20
52.98391126140635
 30
0.0
 11
722.56058214588
 21
56.22865113334004
 31
0.0
  0
LINE
  5
559
330
1F
100
AcDbEntity
  8
Visible (ISO)
100
AcDbLine
 10
708.416090973513
 20
58.2357809270857
 30
0.0
 11
708.416090973513
 21
61.15911551660341
 31
0.0
  0
ELLIPSE
  5
55A
330
1F
100
AcDbEntity
  8
Visible (ISO)
100
AcDbEllipse
 10
733.4160909735108
 20
71.65941495020391
 30
0.0
 11
-29.50000000000005
 21
0.0000000000147521
 31
0.0
210
0.0
220
0.0
230
1.0
 40
0.8571673007021137
 41
0.5596186314255594
 42
0.8564602203802937
  0
LINE
  5
55B
330
1F
100
AcDbEntity
  8
Visible (ISO)
100
AcDbLine
 10
745.7391319556952
 20
50.23023243265154
 30
0.0
 11
721.093049991334
 21
50.23023243265154
 31
0.0
  0
ELLIPSE
  5
55C
330
1F
100
AcDbEntity
  8
Visible (ISO)
100
AcDbEllipse
 10
733.4160909735108
 20
71.65941495020437
 30
0.0
 11
-29.50000000000026
 21
0.0000000000173847
 31
0.0
210
0.0
220
0.0
230
1.0
 40
0.8571673007021137
 41
2.28513243321078
 42
2.581974022165541
  0
LINE
  5
55D
330
1F
100
AcDbEntity
  8
Visible (ISO)
100
AcDbLine
 10
758.4160909735126
 20
61.15911551660341
 30
0.0
 11
758.416090973513
 21
58.2357809270857
 31
0.0
  0
LINE
  5
55E
330
1F
100
AcDbEntity
  8
Visible (ISO)
100
AcDbLine
 10
758.4160909735085
 20
85.08304897332257
 30
0.0
 11
758.4160909735094
 21
78.73104518099674
 31
0.0
  0
ELLIPSE
  5
55F
330
1F
100
AcDbEntity
  8
Visible (ISO)
100
AcDbEllipse
 10
733.4160909735108
 20
71.65941495020391
 30
0.0
 11
29.49999999999984
 21
-0.0000000000147729
 31
0.0
210
0.0
220
0.0
230
1.0
 40
0.8571673007021136
 41
0.5596186314255647
 42
1.011177695370509
  0
LINE
  5
560
330
1F
100
AcDbEntity
  8
Visible (ISO)
100
AcDbLine
 10
717.7556312101412
 20
93.08859746775718
 30
0.0
 11
749.0765507368726
 21
93.08859746775718
 31
0.0
  0
ELLIPSE
  5
561
330
1F
100
AcDbEntity
  8
Visible (ISO)
100
AcDbEllipse
 10
733.4160909735108
 20
71.65941495020391
 30
0.0
 11
29.49999999999991
 21
-0.0000000000173903
 31
0.0
210
0.0
220
0.0
230
1.0
 40
0.8571673007021137
 41
2.130414958220569
 42
2.58197402216555
  0
LINE
  5
562
330
1F
100
AcDbEntity
  8
Visible (ISO)
100
AcDbLine
 10
708.4160909735094
 20
78.73104518099674
 30
0.0
 11
708.4160909735085
 21
85.08304897332257
 31
0.0
  0
LINE
  5
563
330
1F
100
AcDbEntity
  8
Visible (ISO)
100
AcDbLine
 10
758.4160909735108
 20
90.02741449245926
 30
0.0
 11
758.4160909735085
 21
85.08304897332257
 31
0.0
  0
LINE
  5
564
330
1F
100
AcDbEntity
  8
Visible (ISO)
100
AcDbLine
 10
708.4160909735112
 20
90.02741449245926
 30
0.0
 11
708.4160909735085
 21
85.08304897332257
 31
0.0
  0
LINE
  5
565
330
1F
100
AcDbEntity
  8
Visible (ISO)
100
AcDbLine
 10
749.0765507368753
 20
98.03296298689341
 30
0.0
 11
717.7556312101435
 21
98.03296298689341
 31
0.0
  0
ELLIPSE
  5
566
330
1F
100
AcDbEntity
  8
Visible (ISO)
100
AcDbEllipse
 10
733.4160909735135
 20
76.60378046934105
 30
0.0
 11
-29.49999999999983
 21
0.0000000000121667
 31
0.0
210
0.0
220
0.0
230
1.0
 40
0.8571673007021137
 41
3.701211285015219
 42
4.152770348960186
  0
ELLIPSE
  5
567
330
1F
100
AcDbEntity
  8
Visible (ISO)
100
AcDbEllipse
 10
733.416090973513
 20
76.60378046934105
 30
0.0
 11
-29.49999999999994
 21
0.0000000000147743
 31
0.0
210
0.0
220
0.0
230
1.0
 40
0.8571673007021139
 41
5.272007611810249
 42
5.723566675755192
  0
LINE
  5
568
330
1F
100
AcDbEntity
  8
Visible (ISO)
100
AcDbLine
 10
749.0765507368753
 20
98.03296298689341
 30
0.0
 11
749.0765507368726
 21
93.08859746775718
 31
0.0
  0
LINE
  5
569
330
1F
100
AcDbEntity
  8
Visible (ISO)
100
AcDbLine
 10
717.7556312101435
 20
98.03296298689341
 30
0.0
 11
717.7556312101412
 21
93.08859746775718
 31
0.0
  0
ELLIPSE
  5
56A
330
1F
100
AcDbEntity
  8
Visible (ISO)
100
AcDbEllipse
 10
750.50226959835
 20
87.30271818801751
 30
0.0
 11
9.999999999999978
 21
-0.0000000000041182
 31
0.0
210
0.0
220
0.0
230
1.0
 40
0.8571673007021139
 41
3.95991460422182
 42
4.712388980385188
  0
ELLIPSE
  5
56B
330
1F
100
AcDbEntity
  8
Visible (ISO)
100
AcDbEllipse
 10
750.5022695983523
 20
92.4457219922306
 30
0.0
 11
-0.0000000000027426
 21
-17.14334601404224
 31
0.0
210
0.0
220
0.0
230
1.0
 40
0.5833166986076641
 41
5.530710931015867
 42
6.283185307179038
  0
ELLIPSE
  5
56C
330
1F
100
AcDbEntity
  8
Visible (ISO)
100
AcDbEllipse
 10
716.3299123486661
 20
87.30271818801751
 30
0.0
 11
9.999999999999976
 21
0.0000000000000038
 31
0.0
210
0.0
220
0.0
230
1.0
 40
0.8571673007021137
 41
4.712388980384998
 42
5.464863356548153
  0
ELLIPSE
  5
56D
330
1F
100
AcDbEntity
  8
Visible (ISO)
100
AcDbEllipse
 10
716.3299123486687
 20
92.4457219922306
 30
0.0
 11
-0.0000000000027415
 21
-17.14334601404224
 31
0.0
210
0.0
220
0.0
230
1.0
 40
0.5833166986076641
 41
0.0
 42
0.7524743761629669
  0
ELLIPSE
  5
56E
330
1F
100
AcDbEntity
  8
Visible (ISO)
100
AcDbEllipse
 10
748.5215998011419
 20
87.09017876706869
 30
0.0
 11
-4.24999999999999
 21
0.0000000000000019
 31
0.0
210
0.0
220
0.0
230
1.0
 40
0.8571673007021139
 41
3.141592653589388
 42
6.283185307179181
  0
ELLIPSE
  5
56F
330
1F
100
AcDbEntity
  8
Visible (ISO)
100
AcDbEllipse
 10
718.3105821458741
 20
87.09017876706869
 30
0.0
 11
-4.24999999999999
 21
0.0000000000000419
 31
0.0
210
0.0
220
0.0
230
1.0
 40
0.8571673007021139
 41
3.141592653589402
 42
6.283185307179196
  0
ELLIPSE
  5
570
330
1F
100
AcDbEntity
  8
Visible (ISO)
100
AcDbEllipse
 10
718.3105821458728
 20
83.84543889513546
 30
0.0
 11
4.24999999999999
 21
0.0
 31
0.0
210
0.0
220
0.0
230
1.0
 40
0.8571673007021139
 41
0.0
 42
6.283185307179586
  0
ELLIPSE
  5
571
330
1F
100
AcDbEntity
  8
Visible (ISO)
100
AcDbEllipse
 10
748.5215998011401
 20
83.84543889513546
 30
0.0
 11
-4.24999999999999
 21
0.0
 31
0.0
210
0.0
220
0.0
230
1.0
 40
0.8571673007021139
 41
0.0
 42
6.283185307179586
  0
LINE
  5
572
330
1F
100
AcDbEntity
  8
Visible (ISO)
100
AcDbLine
 10
722.5605821458741
 20
87.09017876706869
 30
0.0
 11
722.5605821458728
 21
83.84543889513546
 31
0.0
  0
LINE
  5
573
330
1F
100
AcDbEntity
  8
Visible (ISO)
100
AcDbLine
 10
714.0605821458741
 20
87.09017876706869
 30
0.0
 11
714.0605821458727
 21
83.84543889513546
 31
0.0
  0
LINE
  5
574
330
1F
100
AcDbEntity
  8
Visible (ISO)
100
AcDbLine
 10
744.2715998011401
 20
83.84543889513546
 30
0.0
 11
744.2715998011419
 21
87.09017876706869
 31
0.0
  0
LINE
  5
575
330
1F
100
AcDbEntity
  8
Visible (ISO)
100
AcDbLine
 10
752.7715998011402
 20
83.84543889513546
 30
0.0
 11
752.7715998011419
 21
87.09017876706869
 31
0.0
  0
LINE
  5
576
330
1F
100
AcDbEntity
  8
Visible (ISO)
100
AcDbLine
 10
758.4160909735094
 20
78.73104518099674
 30
0.0
 11
750.5022695983513
 21
78.73104518099674
 31
0.0
  0
LINE
  5
577
330
1F
100
AcDbEntity
  8
Visible (ISO)
100
AcDbLine
 10
708.4160909735094
 20
78.73104518099674
 30
0.0
 11
716.3299123486678
 21
78.73104518099674
 31
0.0
  0
ELLIPSE
  5
578
330
1F
100
AcDbEntity
  8
Visible (ISO)
100
AcDbEllipse
 10
733.4160909735112
 20
71.65941495020391
 30
0.0
 11
15.00000000000033
 21
-0.0000000000088415
 31
0.0
210
0.0
220
0.0
230
1.0
 40
0.8571673007021136
 41
2.18598137692664
 42
2.323270702958936
  0
ELLIPSE
  5
579
330
1F
100
AcDbEntity
  8
Visible (ISO)
100
AcDbEllipse
 10
733.4160909735108
 20
71.65941495020391
 30
0.0
 11
-15.00000000000033
 21
0.0000000000061742
 31
0.0
210
0.0
220
0.0
230
1.0
 40
0.8571673007021137
 41
3.959914604221816
 42
4.097203930254126
  0
LINE
  5
57A
330
1F
100
AcDbEntity
  8
Visible (ISO)
100
AcDbLine
 10
758.4160909735076
 20
75.30237597818817
 30
0.0
 11
750.5022695983496
 21
75.30237597818817
 31
0.0
  0
LINE
  5
57B
330
1F
100
AcDbEntity
  8
Visible (ISO)
100
AcDbLine
 10
758.4160909735094
 20
78.73104518099674
 30
0.0
 11
758.4160909735076
 21
75.30237597818817
 31
0.0
  0
ELLIPSE
  5
57C
330
1F
100
AcDbEntity
  8
Visible (ISO)
100
AcDbEllipse
 10
733.4160909735057
 20
61.15911551660341
 30
0.0
 11
-0.0000000000041131
 21
-25.71501902106336
 31
0.0
210
0.0
220
0.0
230
1.0
 40
0.5833166986076641
 41
3.756777703720405
 42
3.894067029752754
  0
LINE
  5
57D
330
1F
100
AcDbEntity
  8
Visible (ISO)
100
AcDbLine
 10
708.416090973508
 20
75.30237597818817
 30
0.0
 11
708.4160909735094
 21
78.73104518099674
 31
0.0
  0
LINE
  5
57E
330
1F
100
AcDbEntity
  8
Visible (ISO)
100
AcDbLine
 10
716.3299123486661
 20
75.30237597818817
 30
0.0
 11
708.416090973508
 21
75.30237597818817
 31
0.0
  0
ELLIPSE
  5
57F
330
1F
100
AcDbEntity
  8
Visible (ISO)
100
AcDbEllipse
 10
733.4160909735057
 20
61.15911551660341
 30
0.0
 11
-0.0000000000041131
 21
-25.71501902106336
 31
0.0
210
0.0
220
0.0
230
1.0
 40
0.5833166986076641
 41
2.38911827742608
 42
2.526407603458327
  0
LINE
  5
580
330
1F
100
AcDbEntity
  8
Visible (ISO)
100
AcDbLine
 10
724.7594461269184
 20
82.15971438380487
 30
0.0
 11
742.0727358200995
 21
82.15971438380487
 31
0.0
  0
LINE
  5
581
330
1F
100
AcDbEntity
  8
Visible (ISO)
100
AcDbLine
 10
708.416090973508
 20
75.30237597818817
 30
0.0
 11
708.4160909735071
 21
71.29744372378175
 31
0.0
  0
LINE
  5
582
330
1F
100
AcDbEntity
  8
Visible (ISO)
100
AcDbLine
 10
758.4160909735071
 20
71.29744372378175
 30
0.0
 11
758.4160909735076
 21
75.30237597818817
 31
0.0
  0
LINE
  5
583
330
1F
100
AcDbEntity
  8
Visible (ISO)
100
AcDbLine
 10
758.4160909735085
 20
62.61400129187316
 30
0.0
 11
758.4160909735071
 21
68.34391481069409
 31
0.0
  0
LINE
  5
584
330
1F
100
AcDbEntity
  8
Visible (ISO)
100
AcDbLine
 10
708.4160909735071
 20
68.34391481069409
 30
0.0
 11
708.4160909735085
 21
62.61400129187316
 31
0.0
  0
LINE
  5
585
330
1F
100
AcDbEntity
  8
Visible (ISO)
100
AcDbLine
 10
758.4160909735071
 20
71.29744372378175
 30
0.0
 11
758.4160909735071
 21
68.34391481069409
 31
0.0
  0
LINE
  5
586
330
1F
100
AcDbEntity
  8
Visible (ISO)
100
AcDbLine
 10
758.4160909735085
 20
62.61400129187316
 30
0.0
 11
758.4160909735089
 21
61.15911551660341
 31
0.0
  0
LINE
  5
587
330
1F
100
AcDbEntity
  8
Visible (ISO)
100
AcDbLine
 10
708.4160909735089
 20
61.15911551660341
 30
0.0
 11
708.4160909735085
 21
62.61400129187316
 31
0.0
  0
LINE
  5
588
330
1F
100
AcDbEntity
  8
Visible (ISO)
100
AcDbLine
 10
708.4160909735071
 20
68.34391481069409
 30
0.0
 11
708.4160909735071
 21
71.29744372378175
 31
0.0
  0
LINE
  5
589
330
1F
100
AcDbEntity
  8
Visible (ISO)
100
AcDbLine
 10
741.4507388579407
 20
61.15911551660341
 30
0.0
 11
758.4160909735089
 21
61.15911551660341
 31
0.0
  0
LINE
  5
58A
330
1F
100
AcDbEntity
  8
Visible (ISO)
100
AcDbLine
 10
741.4507388579407
 20
61.15911551660341
 30
0.0
 11
739.2594712530961
 21
61.15911551660341
 31
0.0
  0
LINE
  5
58B
330
1F
100
AcDbEntity
  8
Visible (ISO)
100
AcDbLine
 10
727.5727106939227
 20
61.15911551660341
 30
0.0
 11
739.2594712530961
 21
61.15911551660341
 31
0.0
  0
LINE
  5
58C
330
1F
100
AcDbEntity
  8
Visible (ISO)
100
AcDbLine
 10
727.5727106939227
 20
61.15911551660341
 30
0.0
 11
725.3814430890773
 21
61.15911551660341
 31
0.0
  0
LINE
  5
58D
330
1F
100
AcDbEntity
  8
Visible (ISO)
100
AcDbLine
 10
708.4160909735089
 20
61.15911551660341
 30
0.0
 11
725.3814430890773
 21
61.15911551660341
 31
0.0
  0
LINE
  5
58E
330
1F
100
AcDbEntity
  8
Visible (ISO)
100
AcDbLine
 10
688.4160909735099
 20
86.4705031318363
 30
0.0
 11
688.4160909735099
 21
52.47050313183675
 31
0.0
  0
LINE
  5
58F
330
1F
100
AcDbEntity
  8
Visible (ISO)
100
AcDbLine
 10
691.2660909735097
 20
86.4705031318363
 30
0.0
 11
691.2660909735097
 21
52.47050313183675
 31
0.0
  0
LINE
  5
590
330
1F
100
AcDbEntity
  8
Visible (ISO)
100
AcDbLine
 10
694.9421903395984
 20
76.37050313183639
 30
0.0
 11
694.9421903395984
 21
62.57050313183666
 31
0.0
  0
LINE
  5
591
330
1F
100
AcDbEntity
  8
Visible (ISO)
100
AcDbLine
 10
691.2660909735097
 20
52.47050313183629
 30
0.0
 11
688.4160909735099
 21
52.47050313183629
 31
0.0
  0
LINE
  5
592
330
1F
100
AcDbEntity
  8
Visible (ISO)
100
AcDbLine
 10
691.2660909735097
 20
86.4705031318363
 30
0.0
 11
688.4160909735099
 21
86.4705031318363
 31
0.0
  0
LINE
  5
593
330
1F
100
AcDbEntity
  8
Visible (ISO)
100
AcDbLine
 10
694.9421903395984
 20
62.57050313183666
 30
0.0
 11
691.2660909735097
 21
52.47050313183629
 31
0.0
  0
LINE
  5
594
330
1F
100
AcDbEntity
  8
Visible (ISO)
100
AcDbLine
 10
694.9421903395984
 20
76.37050313183639
 30
0.0
 11
691.2660909735097
 21
86.4705031318363
 31
0.0
  0
LINE
  5
595
330
1F
100
AcDbEntity
  8
Visible (ISO)
100
AcDbLine
 10
708.4160909735098
 20
62.57050313183666
 30
0.0
 11
694.9421903395984
 21
62.57050313183666
 31
0.0
  0
LINE
  5
596
330
1F
100
AcDbEntity
  8
Visible (ISO)
100
AcDbLine
 10
708.4160909735098
 20
76.37050313183639
 30
0.0
 11
694.9421903395984
 21
76.37050313183639
 31
0.0
  0
LINE
  5
597
330
1F
100
AcDbEntity
  8
Visible (ISO)
100
AcDbLine
 10
778.4160909735094
 20
86.4705031318363
 30
0.0
 11
778.4160909735094
 21
52.47050313183675
 31
0.0
  0
LINE
  5
598
330
1F
100
AcDbEntity
  8
Visible (ISO)
100
AcDbLine
 10
775.5660909735095
 20
86.4705031318363
 30
0.0
 11
775.5660909735095
 21
52.47050313183675
 31
0.0
  0
LINE
  5
599
330
1F
100
AcDbEntity
  8
Visible (ISO)
100
AcDbLine
 10
771.8899916074208
 20
76.37050313183639
 30
0.0
 11
771.8899916074208
 21
62.57050313183666
 31
0.0
  0
LINE
  5
59A
330
1F
100
AcDbEntity
  8
Visible (ISO)
100
AcDbLine
 10
778.4160909735094
 20
52.47050313183629
 30
0.0
 11
775.5660909735095
 21
52.47050313183629
 31
0.0
  0
LINE
  5
59B
330
1F
100
AcDbEntity
  8
Visible (ISO)
100
AcDbLine
 10
778.4160909735094
 20
86.4705031318363
 30
0.0
 11
775.5660909735095
 21
86.4705031318363
 31
0.0
  0
LINE
  5
59C
330
1F
100
AcDbEntity
  8
Visible (ISO)
100
AcDbLine
 10
771.8899916074208
 20
76.37050313183639
 30
0.0
 11
775.5660909735095
 21
86.4705031318363
 31
0.0
  0
LINE
  5
59D
330
1F
100
AcDbEntity
  8
Visible (ISO)
100
AcDbLine
 10
771.8899916074208
 20
62.57050313183666
 30
0.0
 11
775.5660909735095
 21
52.47050313183629
 31
0.0
  0
LINE
  5
59E
330
1F
100
AcDbEntity
  8
Visible (ISO)
100
AcDbLine
 10
771.8899916074208
 20
62.57050313183666
 30
0.0
 11
758.4160909735094
 21
62.57050313183666
 31
0.0
  0
LINE
  5
59F
330
1F
100
AcDbEntity
  8
Visible (ISO)
100
AcDbLine
 10
771.8899916074208
 20
76.37050313183639
 30
0.0
 11
758.4160909735094
 21
76.37050313183639
 31
0.0
  0
ELLIPSE
  5
5A0
330
1F
100
AcDbEntity
  8
Visible (ISO)
100
AcDbEllipse
 10
733.4160909735149
 20
80.05453557123795
 30
0.0
 11
29.49999999999995
 21
-0.0000000000173778
 31
0.0
210
0.0
220
0.0
230
1.0
 40
0.8571673007021136
 41
2.130414958220573
 42
2.58197402216555
  0
LINE
  5
5A1
330
1F
100
AcDbEntity
  8
Visible (ISO)
100
AcDbLine
 10
717.7556312101453
 20
101.4837180887912
 30
0.0
 11
749.0765507368771
 21
101.4837180887912
 31
0.0
  0
ELLIPSE
  5
5A2
330
1F
100
AcDbEntity
  8
Visible (ISO)
100
AcDbEllipse
 10
733.4160909735149
 20
80.05453557123795
 30
0.0
 11
29.49999999999984
 21
-0.0000000000147729
 31
0.0
210
0.0
220
0.0
230
1.0
 40
0.8571673007021139
 41
0.5596186314255647
 42
1.011177695370509
  0
ELLIPSE
  5
5A3
330
1F
100
AcDbEntity
  8
Visible (ISO)
100
AcDbEllipse
 10
733.4160909735135
 20
77.11881854425112
 30
0.0
 11
-29.49999999999984
 21
0.0000000000121653
 31
0.0
210
0.0
220
0.0
230
1.0
 40
0.8571673007021139
 41
3.701211285015217
 42
4.152770348960186
  0
LINE
  5
5A4
330
1F
100
AcDbEntity
  8
Visible (ISO)
100
AcDbLine
 10
749.0765507368753
 20
98.54800106180348
 30
0.0
 11
717.7556312101439
 21
98.54800106180348
 31
0.0
  0
ELLIPSE
  5
5A5
330
1F
100
AcDbEntity
  8
Visible (ISO)
100
AcDbEllipse
 10
733.4160909735135
 20
77.11881854425112
 30
0.0
 11
-29.49999999999994
 21
0.0000000000147729
 31
0.0
210
0.0
220
0.0
230
1.0
 40
0.8571673007021139
 41
5.272007611810249
 42
5.723566675755192
  0
LINE
  5
5A6
330
1F
100
AcDbEntity
  8
Visible (ISO)
100
AcDbLine
 10
708.4160909735112
 20
90.54245256736933
 30
0.0
 11
708.4160909735112
 21
90.02741449245926
 31
0.0
  0
SPLINE
  5
5A7
330
1F
100
AcDbEntity
  8
Visible (ISO)
100
AcDbSpline
210
0.0
220
0.0
230
1.0
 70
     8
 71
     3
 72
     8
 73
     4
 74
     0
 42
0.0000000001
 43
0.0000000001
 40
-0.0352749969214825
 40
-0.0352749969214825
 40
-0.0352749969214825
 40
-0.0352749969214825
 40
0.0
 40
0.0
 40
0.0
 40
0.0
 10
708.6605212644838
 20
90.35622159015659
 30
0.0
 10
708.5790478168466
 20
90.41834146376416
 30
0.0
 10
708.4975700410439
 20
90.48041902632579
 30
0.0
 10
708.4160909735112
 20
90.54245256736933
 30
0.0
  0
SPLINE
  5
5A8
330
1F
100
AcDbEntity
  8
Visible (ISO)
100
AcDbSpline
210
0.0
220
0.0
230
1.0
 70
     8
 71
     3
 72
     8
 73
     4
 74
     0
 42
0.0000000001
 43
0.0000000001
 40
-0.0541680490473913
 40
-0.0541680490473913
 40
-0.0541680490473913
 40
-0.0541680490473913
 40
0.0
 40
0.0
 40
0.0
 40
0.0
 10
717.8638571785998
 20
98.03296298689341
 30
0.0
 10
717.8276593362809
 20
98.20462810730809
 30
0.0
 10
717.7915838070405
 20
98.37631249471499
 30
0.0
 10
717.7556312101439
 20
98.54800106180348
 30
0.0
  0
SPLINE
  5
5A9
330
1F
100
AcDbEntity
  8
Visible (ISO)
100
AcDbSpline
210
0.0
220
0.0
230
1.0
 70
     8
 71
     3
 72
     8
 73
     4
 74
     0
 42
0.0000000001
 43
0.0000000001
 40
-0.0541680490474264
 40
-0.0541680490474264
 40
-0.0541680490474264
 40
-0.0541680490474264
 40
0.0
 40
0.0
 40
0.0
 40
0.0
 10
748.9683247684195
 20
98.03296298689341
 30
0.0
 10
749.0045226107388
 20
98.20462810730809
 30
0.0
 10
749.0405981399788
 20
98.37631249471499
 30
0.0
 10
749.0765507368753
 20
98.54800106180348
 30
0.0
  0
SPLINE
  5
5AA
330
1F
100
AcDbEntity
  8
Visible (ISO)
100
AcDbSpline
210
0.0
220
0.0
230
1.0
 70
     8
 71
     3
 72
     8
 73
     4
 74
     0
 42
0.0000000001
 43
0.0000000001
 40
-0.0352749969215014
 40
-0.0352749969215014
 40
-0.0352749969215014
 40
-0.0352749969215014
 40
0.0
 40
0.0
 40
0.0
 40
0.0
 10
758.1716606825382
 20
90.35622159015659
 30
0.0
 10
758.2531341301757
 20
90.41834146376372
 30
0.0
 10
758.3346119059785
 20
90.48041902632579
 30
0.0
 10
758.4160909735112
 20
90.54245256736933
 30
0.0
  0
LINE
  5
5AB
330
1F
100
AcDbEntity
  8
Visible (ISO)
100
AcDbLine
 10
758.4160909735112
 20
90.02741449245926
 30
0.0
 11
758.4160909735112
 21
90.54245256736933
 31
0.0
  0
LINE
  5
5AC
330
1F
100
AcDbEntity
  8
Visible (ISO)
100
AcDbLine
 10
749.0765507368771
 20
101.4837180887912
 30
0.0
 11
749.0765507368753
 21
98.54800106180348
 31
0.0
  0
LINE
  5
5AD
330
1F
100
AcDbEntity
  8
Visible (ISO)
100
AcDbLine
 10
758.4160909735126
 20
93.47816959435661
 30
0.0
 11
758.4160909735112
 21
90.54245256736933
 31
0.0
  0
LINE
  5
5AE
330
1F
100
AcDbEntity
  8
Visible (ISO)
100
AcDbLine
 10
717.7556312101453
 20
101.4837180887912
 30
0.0
 11
717.7556312101439
 21
98.54800106180348
 31
0.0
  0
LINE
  5
5AF
330
1F
100
AcDbEntity
  8
Visible (ISO)
100
AcDbLine
 10
708.4160909735126
 20
93.47816959435661
 30
0.0
 11
708.4160909735112
 21
90.54245256736933
 31
0.0
  0
SPLINE
  5
5B0
330
1F
100
AcDbEntity
  8
Visible (ISO)
100
AcDbSpline
210
0.0
220
0.0
230
1.0
 70
     8
 71
     3
 72
    18
 73
    14
 74
     0
 42
0.0000000001
 43
0.0000000001
 40
0.6507058781481003
 40
0.6507058781481003
 40
0.6507058781481003
 40
0.6507058781481003
 40
0.9692762363282811
 40
0.9692762363282811
 40
1.297240130559127
 40
1.297240130559127
 40
1.630039755741062
 40
1.630039755741062
 40
1.963869721351066
 40
1.963869721351066
 40
2.295428583848168
 40
2.295428583848168
 40
2.490886775441676
 40
2.490886775441676
 40
2.490886775441676
 40
2.490886775441676
 10
758.2447859903252
 20
139.7274913584124
 30
0.0
 10
756.1643263185621
 20
142.0698766739679
 30
0.0
 10
753.6797927388468
 20
144.08836901015
 30
0.0
 10
748.0929284025389
 20
147.3753141187426
 30
0.0
 10
744.9748499010549
 20
148.6206715464264
 30
0.0
 10
738.4298575002901
 20
150.194827353811
 30
0.0
 10
734.9992326037102
 20
150.5099922041863
 30
0.0
 10
728.1855142256215
 20
150.1635757823337
 30
0.0
 10
724.8028567280345
 20
149.4989160544146
 30
0.0
 10
718.4462782002799
 20
147.2396210127931
 30
0.0
 10
715.4698750204373
 20
145.6509188890027
 30
0.0
 10
711.2922688314222
 20
142.4807522782125
 30
0.0
 10
709.8638577325616
 20
141.164657077185
 30
0.0
 10
708.5873959567427
 20
139.7274913584129
 30
0.0
  0
LINE
  5
5B1
330
1F
100
AcDbEntity
  8
0
  6
CENTER
100
AcDbLine
 10
881.8315235329821
 20
263.987026273152
 30
0.0
 11
881.8315235329821
 21
374.1828994514171
 31
0.0
  0
LINE
  5
5B2
330
1F
100
AcDbEntity
  8
Visible (ISO)
100
AcDbLine
 10
790.5438378698152
 20
69.4705031318363
 30
0.0
 11
676.2883440771973
 21
69.4705031318363
 31
0.0
  0
LINE
  5
5B3
330
1F
100
AcDbEntity
  8
0
100
AcDbLine
 10
733.4160909735062
 20
45.12966340443838
 30
0.0
 11
733.4160909735062
 21
159.7822203887108
 31
0.0
  0
LINE
  5
5B4
330
1F
100
AcDbEntity
  8
0
  6
CENTER
100
AcDbLine
 10
865.3467556308871
 20
319.0849628622846
 30
0.0
 11
1011.798914476075
 21
319.0849628622846
 31
0.0
  0
LINE
  5
5B5
330
1F
100
AcDbEntity
  8
0
  6
CENTER
100
AcDbLine
 10
860.0689703662403
 20
56.39424196444863
 30
0.0
 11
1010.325741980887
 21
146.6776187699038
 31
0.0
  0
LINE
  5
5B6
330
1F
100
AcDbEntity
  8
0
  6
CENTER
100
AcDbLine
 10
881.8315235329748
 20
45.4298881988848
 30
0.0
 11
881.8315235329748
 21
93.51111806478868
 31
0.0
  0
LINE
  5
5B7
330
1F
100
AcDbEntity
  8
0
  6
CENTER
100
AcDbLine
 10
857.7909086000229
 20
69.47050313183675
 30
0.0
 11
905.8721384659268
 21
69.47050313183675
 31
0.0
  0
LINE
  5
5B8
330
1F
100
AcDbEntity
  8
0
  6
CENTER
100
AcDbLine
 10
1139.187097472098
 20
42.92152624339727
 30
0.0
 11
1139.18709747216
 21
155.9093823889398
 31
0.0
  0
LINE
  5
5B9
330
1F
100
AcDbEntity
  8
0
  6
CENTER
100
AcDbLine
 10
1082.726410274207
 20
69.4705031318363
 30
0.0
 11
1195.647784670017
 21
69.4705031318363
 31
0.0
  0
VIEWPORT
  5
71
330
55
100
AcDbEntity
 67
     1
  8
0
100
AcDbViewport
 10
133.3499908447266
 20
101.5999970436096
 30
0.0
 40
381.3957395593835
 41
218.2856291881582
 68
     1
 69
     1
 12
133.3499908447266
 22
101.5999970436096
 13
0.0
 23
0.0
 14
10.0
 24
10.0
 15
10.0
 25
10.0
 16
0.0
 26
0.0
 36
1.0
 17
0.0
 27
0.0
 37
0.0
 42
50.0
 43
0.0
 44
0.0
 45
218.2856291881582
 50
0.0
 51
0.0
 72
   100
 90
    32800
  1

281
     0
 71
     1
 74
     0
110
0.0
120
0.0
130
0.0
111
1.0
121
0.0
131
0.0
112
0.0
122
1.0
132
0.0
 79
     0
146
0.0
170
     0
 61
     5
348
5E3
292
     1
282
     1
141
0.0
142
0.0
 63
   250
421
  3355443
  0
VIEWPORT
  5
73
330
55
100
AcDbEntity
 67
     1
  8
0
100
AcDbViewport
 10
133.3499939441681
 20
101.5999939441681
 30
0.0
 40
213.3599903106689
 41
162.5599903106689
 68
     2
 69
     2
 12
210.0
 22
148.5
 13
0.0
 23
0.0
 14
10.0
 24
10.0
 15
10.0
 25
10.0
 16
0.0
 26
0.0
 36
1.0
 17
0.0
 27
0.0
 37
0.0
 42
50.0
 43
0.0
 44
0.0
 45
324.0677920111345
 50
0.0
 51
0.0
 72
   100
 90
    32864
  1

281
     0
 71
     1
 74
     0
110
0.0
120
0.0
130
0.0
111
1.0
121
0.0
131
0.0
112
0.0
122
1.0
132
0.0
 79
     0
146
0.0
170
     0
 61
     5
348
5E3
292
     1
282
     1
141
0.0
142
0.0
 63
   250
421
  3355443
  0
ENDSEC
  0
SECTION
  2
OBJECTS
  0
DICTIONARY
  5
C
330
0
100
AcDbDictionary
281
     1
  3
ACAD_COLOR
350
5F1
  3
ACAD_GROUP
350
D
  3
ACAD_LAYOUT
350
1A
  3
ACAD_MATERIAL
350
5C4
  3
ACAD_MLEADERSTYLE
350
606
  3
ACAD_MLINESTYLE
350
17
  3
ACAD_PLOTSETTINGS
350
19
  3
ACAD_PLOTSTYLENAME
350
E
  3
ACAD_SCALELIST
350
5F4
  3
ACAD_TABLESTYLE
350
5F2
  3
ACAD_VISUALSTYLE
350
5DD
  3
ACDB_RECOMPOSE_DATA
350
617
  3
AcDbVariableDictionary
350
5E
  0
DICTIONARY
  5
2FA
330
2
100
AcDbDictionary
280
     1
281
     1
  3
ACAD_LAYERSTATES
360
2FB
  0
DICTIONARY
  5
60A
330
10
100
AcDbDictionary
280
     1
281
     1
  3
ADSK_XREC_LAYER_RECONCILED
360
60B
  0
DICTIONARY
  5
60C
330
314
100
AcDbDictionary
280
     1
281
     1
  3
ADSK_XREC_LAYER_RECONCILED
360
60D
  0
DICTIONARY
  5
2B2
330
1F
100
AcDbDictionary
280
     1
281
     1
  3
ACAD_LAYOUTSELFREF
360
2E9
  0
DICTIONARY
  5
2B4
330
55
100
AcDbDictionary
280
     1
281
     1
  3
ACAD_LAYOUTSELFREF
360
2ED
  0
DICTIONARY
  5
2B6
330
50
100
AcDbDictionary
280
     1
281
     1
  3
ACAD_LAYOUTSELFREF
360
2EC
  0
DICTIONARY
  5
5F1
102
{ACAD_REACTORS
330
C
102
}
330
C
100
AcDbDictionary
281
     1
  0
DICTIONARY
  5
D
102
{ACAD_REACTORS
330
C
102
}
330
C
100
AcDbDictionary
281
     1
  0
DICTIONARY
  5
1A
102
{ACAD_REACTORS
330
C
102
}
330
C
100
AcDbDictionary
281
     1
  3
Model
350
22
  3
ﾚｲｱｳﾄ1
350
51
  3
ﾚｲｱｳﾄ2
350
56
  0
DICTIONARY
  5
5C4
102
{ACAD_REACTORS
330
C
102
}
330
C
100
AcDbDictionary
281
     1
  3
ByBlock
350
5CD
  3
ByLayer
350
5C5
  3
Global
350
5D5
  0
DICTIONARY
  5
606
102
{ACAD_REACTORS
330
C
102
}
330
C
100
AcDbDictionary
281
     1
  3
Standard
350
607
  0
DICTIONARY
  5
17
102
{ACAD_REACTORS
330
C
102
}
330
C
100
AcDbDictionary
281
     1
  3
Standard
350
18
  0
DICTIONARY
  5
19
102
{ACAD_REACTORS
330
C
102
}
330
C
100
AcDbDictionary
281
     1
  0
ACDBDICTIONARYWDFLT
  5
E
102
{ACAD_REACTORS
330
C
102
}
330
C
100
AcDbDictionary
281
     1
  3
Normal
350
F
100
AcDbDictionaryWithDefault
340
F
  0
DICTIONARY
  5
5F4
102
{ACAD_REACTORS
330
C
102
}
330
C
100
AcDbDictionary
281
     1
  3
A0
350
5F5
  3
A1
350
5F6
  3
A2
350
5F7
  3
A3
350
5F8
  3
A4
350
5F9
  3
A5
350
5FA
  3
A6
350
5FB
  3
A7
350
5FC
  3
A8
350
5FD
  3
A9
350
5FE
  3
B0
350
5FF
  3
B1
350
600
  3
B2
350
601
  3
B3
350
602
  3
B4
350
603
  3
B5
350
604
  3
B6
350
605
  0
DICTIONARY
  5
5F2
102
{ACAD_REACTORS
330
C
102
}
330
C
100
AcDbDictionary
281
     1
  3
Standard
350
5F3
  0
DICTIONARY
  5
5DD
102
{ACAD_REACTORS
330
C
102
}
330
C
100
AcDbDictionary
281
     1
  3
2dWireframe
350
5E3
  3
3D Hidden
350
5E5
  3
3dWireframe
350
5E4
  3
Basic
350
5E2
  3
Brighten
350
5E9
  3
ColorChange
350
5ED
  3
Conceptual
350
5E6
  3
Dim
350
5E8
  3
EdgeColorOff
350
5F0
  3
Facepattern
350
5EC
  3
Flat
350
5DE
  3
FlatWithEdges
350
5DF
  3
Gouraud
350
5E0
  3
GouraudWithEdges
350
5E1
  3
JitterOff
350
5EE
  3
Linepattern
350
5EB
  3
OverhangOff
350
5EF
  3
Realistic
350
5E7
  3
Thicken
350
5EA
  0
XRECORD
  5
617
102
{ACAD_REACTORS
330
C
102
}
330
C
100
AcDbXrecord
280
     1
 90
        1
330
5F3
  0
DICTIONARY
  5
5E
102
{ACAD_REACTORS
330
C
102
}
330
C
100
AcDbDictionary
281
     1
  3
CANNOSCALE
350
611
  3
CMLEADERSTYLE
350
60F
  3
CTABLESTYLE
350
60E
  3
DIMASSOC
350
5F
  3
HIDETEXT
350
63
  3
LAYEREVAL
350
613
  3
LAYERNOTIFY
350
614
  3
LIGHTINGUNITS
350
612
  3
MSLTSCALE
350
610
  0
DICTIONARY
  5
2FB
102
{ACAD_REACTORS
330
2FA
102
}
330
2FA
100
AcDbDictionary
281
     1
  0
XRECORD
  5
60B
102
{ACAD_REACTORS
330
60A
102
}
330
60A
100
AcDbXrecord
280
     1
290
     1
  0
XRECORD
  5
60D
102
{ACAD_REACTORS
330
60C
102
}
330
60C
100
AcDbXrecord
280
     1
290
     1
  0
XRECORD
  5
2E9
102
{ACAD_REACTORS
330
2B2
102
}
330
2B2
100
AcDbXrecord
280
     1
340
1F
  0
XRECORD
  5
2ED
102
{ACAD_REACTORS
330
2B4
102
}
330
2B4
100
AcDbXrecord
280
     1
340
55
  0
XRECORD
  5
2EC
102
{ACAD_REACTORS
330
2B6
102
}
330
2B6
100
AcDbXrecord
280
     1
340
50
  0
LAYOUT
  5
22
102
{ACAD_REACTORS
330
1A
102
}
330
1A
100
AcDbPlotSettings
  1

  2
none_device
  4
ANSI_A_(8.50_x_11.00_Inches)
  6

 40
6.349999904632568
 41
19.04999923706055
 42
6.350006103515625
 43
19.04998779296875
 44
215.8999938964844
 45
279.3999938964844
 46
0.0
 47
0.0
 48
0.0
 49
0.0
140
0.0
141
0.0
142
1.0
143
78.436453180766
 70
 11952
 72
     0
 73
     1
 74
     0
  7

 75
     0
147
0.0127491741332998
 76
     0
 77
     2
 78
   300
148
0.0
149
0.0
100
AcDbLayout
  1
Model
 70
     1
 71
     0
 10
0.0
 20
0.0
 11
12.0
 21
9.0
 12
0.0
 22
0.0
 32
0.0
 14
0.0
 24
0.0
 34
0.0
 15
0.0
 25
0.0
 35
0.0
146
0.0
 13
0.0
 23
0.0
 33
0.0
 16
1.0
 26
0.0
 36
0.0
 17
0.0
 27
1.0
 37
0.0
 76
     0
330
1F
331
5C2
  0
LAYOUT
  5
51
102
{ACAD_REACTORS
330
1A
102
}
330
1A
100
AcDbPlotSettings
  1

  2
none_device
  4
Letter_(8.50_x_11.00_Inches)
  6

 40
6.349999904632568
 41
6.349999904632568
 42
6.350006103515625
 43
6.350006103515625
 44
215.8999938964844
 45
279.3999938964844
 46
0.0
 47
0.0
 48
0.0
 49
0.0
140
0.0
141
0.0
142
1.0
143
1.0
 70
   688
 72
     1
 73
     1
 74
     5
  7

 75
    16
147
1.0
 76
     0
 77
     2
 78
   300
148
0.0
149
0.0
100
AcDbLayout
  1
ﾚｲｱｳﾄ1
 70
     1
 71
     1
 10
-6.350006103515625
 20
-6.349999904632568
 11
273.0499877929688
 21
209.5499939918518
 12
0.0
 22
0.0
 32
0.0
 14
26.66076962115563
 24
20.31135699206658
 34
-0.0015258207003583
 15
240.039213369355
 25
182.8886381005154
 35
0.0000000349246037
146
0.0
 13
0.0
 23
0.0
 33
0.0
 16
1.0
 26
0.0
 36
0.0
 17
0.0
 27
1.0
 37
0.0
 76
     0
330
50
331
6B
  0
LAYOUT
  5
56
102
{ACAD_REACTORS
330
1A
102
}
330
1A
100
AcDbPlotSettings
  1

  2
none_device
  4
Letter_(8.50_x_11.00_Inches)
  6

 40
6.349999904632568
 41
6.349999904632568
 42
6.350006103515625
 43
6.350006103515625
 44
215.8999938964844
 45
279.3999938964844
 46
0.0
 47
0.0
 48
0.0
 49
0.0
140
0.0
141
0.0
142
1.0
143
1.0
 70
   688
 72
     1
 73
     1
 74
     5
  7

 75
    16
147
1.0
 76
     0
 77
     2
 78
   300
148
0.0
149
0.0
100
AcDbLayout
  1
ﾚｲｱｳﾄ2
 70
     1
 71
     2
 10
-6.350006103515625
 20
-6.349999904632568
 11
273.0499877929688
 21
209.5499939918518
 12
0.0
 22
0.0
 32
0.0
 14
26.66076962115563
 24
20.31135699206658
 34
-0.0015258207003583
 15
240.039213369355
 25
182.8886381005154
 35
0.0000000349246037
146
0.0
 13
0.0
 23
0.0
 33
0.0
 16
1.0
 26
0.0
 36
0.0
 17
0.0
 27
1.0
 37
0.0
 76
     0
330
55
331
71
  0
MATERIAL
  5
5CD
102
{ACAD_XDICTIONARY
360
5CE
102
}
102
{ACAD_REACTORS
330
5C4
102
}
330
5C4
100
AcDbMaterial
  1
ByBlock
 72
     0
 43
0.0008202099737533
 43
0.0
 43
0.0
 43
0.0
 43
0.0
 43
0.0008202099737533
 43
0.0
 43
0.0
 43
0.0
 43
0.0
 43
1.0
 43
0.0
 43
0.0
 43
0.0
 43
0.0
 43
1.0
 77
     0
 47
0.0008202099737533
 47
0.0
 47
0.0
 47
0.0
 47
0.0
 47
0.0008202099737533
 47
0.0
 47
0.0
 47
0.0
 47
0.0
 47
1.0
 47
0.0
 47
0.0
 47
0.0
 47
0.0
 47
1.0
171
     0
 49
0.0008202099737533
 49
0.0
 49
0.0
 49
0.0
 49
0.0
 49
0.0008202099737533
 49
0.0
 49
0.0
 49
0.0
 49
0.0
 49
1.0
 49
0.0
 49
0.0
 49
0.0
 49
0.0
 49
1.0
175
     0
142
0.0008202099737533
142
0.0
142
0.0
142
0.0
142
0.0
142
0.0008202099737533
142
0.0
142
0.0
142
0.0
142
0.0
142
1.0
142
0.0
142
0.0
142
0.0
142
0.0
142
1.0
179
     0
144
0.0008202099737533
144
0.0
144
0.0
144
0.0
144
0.0
144
0.0008202099737533
144
0.0
144
0.0
144
0.0
144
0.0
144
1.0
144
0.0
144
0.0
144
0.0
144
0.0
144
1.0
147
0.0008202099737533
147
0.0
147
0.0
147
0.0
147
0.0
147
0.0008202099737533
147
0.0
147
0.0
147
0.0
147
0.0
147
1.0
147
0.0
147
0.0
147
0.0
147
0.0
147
1.0
  0
MATERIAL
  5
5C5
102
{ACAD_XDICTIONARY
360
5C6
102
}
102
{ACAD_REACTORS
330
5C4
102
}
330
5C4
100
AcDbMaterial
  1
ByLayer
 72
     0
 43
0.0008202099737533
 43
0.0
 43
0.0
 43
0.0
 43
0.0
 43
0.0008202099737533
 43
0.0
 43
0.0
 43
0.0
 43
0.0
 43
1.0
 43
0.0
 43
0.0
 43
0.0
 43
0.0
 43
1.0
 77
     0
 47
0.0008202099737533
 47
0.0
 47
0.0
 47
0.0
 47
0.0
 47
0.0008202099737533
 47
0.0
 47
0.0
 47
0.0
 47
0.0
 47
1.0
 47
0.0
 47
0.0
 47
0.0
 47
0.0
 47
1.0
171
     0
 49
0.0008202099737533
 49
0.0
 49
0.0
 49
0.0
 49
0.0
 49
0.0008202099737533
 49
0.0
 49
0.0
 49
0.0
 49
0.0
 49
1.0
 49
0.0
 49
0.0
 49
0.0
 49
0.0
 49
1.0
175
     0
142
0.0008202099737533
142
0.0
142
0.0
142
0.0
142
0.0
142
0.0008202099737533
142
0.0
142
0.0
142
0.0
142
0.0
142
1.0
142
0.0
142
0.0
142
0.0
142
0.0
142
1.0
179
     0
144
0.0008202099737533
144
0.0
144
0.0
144
0.0
144
0.0
144
0.0008202099737533
144
0.0
144
0.0
144
0.0
144
0.0
144
1.0
144
0.0
144
0.0
144
0.0
144
0.0
144
1.0
147
0.0008202099737533
147
0.0
147
0.0
147
0.0
147
0.0
147
0.0008202099737533
147
0.0
147
0.0
147
0.0
147
0.0
147
1.0
147
0.0
147
0.0
147
0.0
147
0.0
147
1.0
  0
MATERIAL
  5
5D5
102
{ACAD_XDICTIONARY
360
5D6
102
}
102
{ACAD_REACTORS
330
5C4
102
}
330
5C4
100
AcDbMaterial
  1
Global
 72
     0
 43
0.0008202099737533
 43
0.0
 43
0.0
 43
0.0
 43
0.0
 43
0.0008202099737533
 43
0.0
 43
0.0
 43
0.0
 43
0.0
 43
1.0
 43
0.0
 43
0.0
 43
0.0
 43
0.0
 43
1.0
 77
     0
 47
0.0008202099737533
 47
0.0
 47
0.0
 47
0.0
 47
0.0
 47
0.0008202099737533
 47
0.0
 47
0.0
 47
0.0
 47
0.0
 47
1.0
 47
0.0
 47
0.0
 47
0.0
 47
0.0
 47
1.0
171
     0
 49
0.0008202099737533
 49
0.0
 49
0.0
 49
0.0
 49
0.0
 49
0.0008202099737533
 49
0.0
 49
0.0
 49
0.0
 49
0.0
 49
1.0
 49
0.0
 49
0.0
 49
0.0
 49
0.0
 49
1.0
175
     0
142
0.0008202099737533
142
0.0
142
0.0
142
0.0
142
0.0
142
0.0008202099737533
142
0.0
142
0.0
142
0.0
142
0.0
142
1.0
142
0.0
142
0.0
142
0.0
142
0.0
142
1.0
179
     0
144
0.0008202099737533
144
0.0
144
0.0
144
0.0
144
0.0
144
0.0008202099737533
144
0.0
144
0.0
144
0.0
144
0.0
144
1.0
144
0.0
144
0.0
144
0.0
144
0.0
144
1.0
147
0.0008202099737533
147
0.0
147
0.0
147
0.0
147
0.0
147
0.0008202099737533
147
0.0
147
0.0
147
0.0
147
0.0
147
1.0
147
0.0
147
0.0
147
0.0
147
0.0
147
1.0
  0
MLEADERSTYLE
  5
607
102
{ACAD_REACTORS
330
606
102
}
330
606
100
AcDbMLeaderStyle
179
     2
170
     2
171
     1
172
     0
 90
        2
 40
0.0
 41
0.0
173
     1
 91
-1056964608
340
14
 92
       -2
290
     1
 42
2.0
291
     1
 43
0.36
  3
Standard
 44
4.0
300

342
11
174
     1
178
     6
175
     1
176
     0
 93
-1056964608
 45
4.0
292
     0
297
     0
 46
4.0
 94
-1056964608
 47
1.0
 49
1.0
140
1.0
293
     1
141
0.0
294
     1
177
     0
142
1.0
295
     1
296
     0
143
0.125
271
     0
272
     9
273
     9
  0
MLINESTYLE
  5
18
102
{ACAD_REACTORS
330
17
102
}
330
17
100
AcDbMlineStyle
  2
STANDARD
 70
     0
  3

 62
   256
 51
90.0
 52
90.0
 71
     2
 49
0.5
 62
   256
  6
BYLAYER
 49
-0.5
 62
   256
  6
BYLAYER
  0
ACDBPLACEHOLDER
  5
F
102
{ACAD_REACTORS
330
E
102
}
330
E
  0
SCALE
  5
5F5
102
{ACAD_REACTORS
330
5F4
102
}
330
5F4
100
AcDbScale
 70
     0
300
1:1
140
1.0
141
1.0
290
     1
  0
SCALE
  5
5F6
102
{ACAD_REACTORS
330
5F4
102
}
330
5F4
100
AcDbScale
 70
     0
300
1:2
140
1.0
141
2.0
290
     0
  0
SCALE
  5
5F7
102
{ACAD_REACTORS
330
5F4
102
}
330
5F4
100
AcDbScale
 70
     0
300
1:4
140
1.0
141
4.0
290
     0
  0
SCALE
  5
5F8
102
{ACAD_REACTORS
330
5F4
102
}
330
5F4
100
AcDbScale
 70
     0
300
1:5
140
1.0
141
5.0
290
     0
  0
SCALE
  5
5F9
102
{ACAD_REACTORS
330
5F4
102
}
330
5F4
100
AcDbScale
 70
     0
300
1:8
140
1.0
141
8.0
290
     0
  0
SCALE
  5
5FA
102
{ACAD_REACTORS
330
5F4
102
}
330
5F4
100
AcDbScale
 70
     0
300
1:10
140
1.0
141
10.0
290
     0
  0
SCALE
  5
5FB
102
{ACAD_REACTORS
330
5F4
102
}
330
5F4
100
AcDbScale
 70
     0
300
1:16
140
1.0
141
16.0
290
     0
  0
SCALE
  5
5FC
102
{ACAD_REACTORS
330
5F4
102
}
330
5F4
100
AcDbScale
 70
     0
300
1:20
140
1.0
141
20.0
290
     0
  0
SCALE
  5
5FD
102
{ACAD_REACTORS
330
5F4
102
}
330
5F4
100
AcDbScale
 70
     0
300
1:30
140
1.0
141
30.0
290
     0
  0
SCALE
  5
5FE
102
{ACAD_REACTORS
330
5F4
102
}
330
5F4
100
AcDbScale
 70
     0
300
1:40
140
1.0
141
40.0
290
     0
  0
SCALE
  5
5FF
102
{ACAD_REACTORS
330
5F4
102
}
330
5F4
100
AcDbScale
 70
     0
300
1:50
140
1.0
141
50.0
290
     0
  0
SCALE
  5
600
102
{ACAD_REACTORS
330
5F4
102
}
330
5F4
100
AcDbScale
 70
     0
300
1:100
140
1.0
141
100.0
290
     0
  0
SCALE
  5
601
102
{ACAD_REACTORS
330
5F4
102
}
330
5F4
100
AcDbScale
 70
     0
300
2:1
140
2.0
141
1.0
290
     0
  0
SCALE
  5
602
102
{ACAD_REACTORS
330
5F4
102
}
330
5F4
100
AcDbScale
 70
     0
300
4:1
140
4.0
141
1.0
290
     0
  0
SCALE
  5
603
102
{ACAD_REACTORS
330
5F4
102
}
330
5F4
100
AcDbScale
 70
     0
300
8:1
140
8.0
141
1.0
290
     0
  0
SCALE
  5
604
102
{ACAD_REACTORS
330
5F4
102
}
330
5F4
100
AcDbScale
 70
     0
300
10:1
140
10.0
141
1.0
290
     0
  0
SCALE
  5
605
102
{ACAD_REACTORS
330
5F4
102
}
330
5F4
100
AcDbScale
 70
     0
300
100:1
140
100.0
141
1.0
290
     0
  0
TABLESTYLE
  5
5F3
102
{ACAD_XDICTIONARY
360
615
102
}
102
{ACAD_REACTORS
330
5F2
102
}
330
5F2
100
AcDbTableStyle
280
     0
  3
Standard
 70
     0
 71
     0
 40
1.5
 41
1.5
280
     0
281
     0
  7
Standard
140
4.5
170
     2
 62
     0
 63
     7
283
     0
 90
      512
 91
        0
  1

274
    -2
284
     1
 64
     0
275
    -2
285
     1
 65
     0
276
    -2
286
     1
 66
     0
277
    -2
287
     1
 67
     0
278
    -2
288
     1
 68
     0
279
    -2
289
     1
 69
     0
  7
Standard
140
6.0
170
     5
 62
     0
 63
     7
283
     0
 90
      512
 91
        0
  1

274
    -2
284
     1
 64
     0
275
    -2
285
     1
 65
     0
276
    -2
286
     1
 66
     0
277
    -2
287
     1
 67
     0
278
    -2
288
     1
 68
     0
279
    -2
289
     1
 69
     0
  7
Standard
140
4.5
170
     5
 62
     0
 63
     7
283
     0
 90
      512
 91
        0
  1

274
    -2
284
     1
 64
     0
275
    -2
285
     1
 65
     0
276
    -2
286
     1
 66
     0
277
    -2
287
     1
 67
     0
278
    -2
288
     1
 68
     0
279
    -2
289
     1
 69
     0
  0
VISUALSTYLE
  5
5E3
102
{ACAD_REACTORS
330
5DD
102
}
330
5DD
100
AcDbVisualStyle
  2
2dWireframe
 70
     4
177
     2
291
     0
 71
     0
176
     1
 72
     2
176
     1
 73
     0
176
     1
 90
        0
176
     1
 40
0.6
176
     1
 41
30.0
176
     1
 63
     7
421
 16777215
176
     1
 74
     1
176
     1
 91
        4
176
     1
 64
     7
176
     1
 65
   257
176
     1
 75
     1
176
     1
175
     1
176
     1
 42
1.0
176
     1
 92
        0
176
     1
 66
   257
176
     1
 43
1.0
176
     1
 76
     1
176
     1
 77
     6
176
     1
 78
     2
176
     1
 67
     7
176
     1
 79
     5
176
     1
170
     0
176
     1
171
     0
176
     1
290
     0
176
     1
 93
        1
176
     1
 44
0.0
176
     1
173
     0
176
     1
  0
VISUALSTYLE
  5
5E5
102
{ACAD_REACTORS
330
5DD
102
}
330
5DD
100
AcDbVisualStyle
  2
3D Hidden
 70
     6
177
     2
291
     0
 71
     1
176
     1
 72
     2
176
     1
 73
     2
176
     1
 90
        0
176
     1
 40
0.6
176
     1
 41
30.0
176
     1
 63
     7
421
 16777215
176
     1
 74
     2
176
     1
 91
        2
176
     1
 64
     7
176
     1
 65
   257
176
     1
 75
     2
176
     1
175
     1
176
     1
 42
179.0
176
     1
 92
        0
176
     1
 66
   257
176
     1
 43
1.0
176
     1
 76
     1
176
     1
 77
     6
176
     1
 78
     2
176
     1
 67
     7
176
     1
 79
     3
176
     1
170
     0
176
     1
171
     0
176
     1
290
     0
176
     1
 93
        1
176
     1
 44
0.0
176
     1
173
     0
176
     1
  0
VISUALSTYLE
  5
5E4
102
{ACAD_REACTORS
330
5DD
102
}
330
5DD
100
AcDbVisualStyle
  2
3dWireframe
 70
     5
177
     2
291
     0
 71
     0
176
     1
 72
     2
176
     1
 73
     0
176
     1
 90
        0
176
     1
 40
0.6
176
     1
 41
30.0
176
     1
 63
     7
421
 16777215
176
     1
 74
     1
176
     1
 91
        4
176
     1
 64
     7
176
     1
 65
   257
176
     1
 75
     1
176
     1
175
     1
176
     1
 42
1.0
176
     1
 92
        0
176
     1
 66
   257
176
     1
 43
1.0
176
     1
 76
     1
176
     1
 77
     6
176
     1
 78
     2
176
     1
 67
     7
176
     1
 79
     5
176
     1
170
     0
176
     1
171
     0
176
     1
290
     0
176
     1
 93
        1
176
     1
 44
0.0
176
     1
173
     0
176
     1
  0
VISUALSTYLE
  5
5E2
102
{ACAD_REACTORS
330
5DD
102
}
330
5DD
100
AcDbVisualStyle
  2
Basic
 70
     7
177
     2
291
     1
 71
     1
176
     1
 72
     0
176
     1
 73
     1
176
     1
 90
        0
176
     1
 40
0.6
176
     1
 41
30.0
176
     1
 63
     7
421
 16777215
176
     1
 74
     0
176
     1
 91
        4
176
     1
 64
     7
176
     1
 65
   257
176
     1
 75
     1
176
     1
175
     1
176
     1
 42
1.0
176
     1
 92
        8
176
     1
 66
     7
176
     1
 43
1.0
176
     1
 76
     1
176
     1
 77
     6
176
     1
 78
     2
176
     1
 67
     7
176
     1
 79
     5
176
     1
170
     0
176
     1
171
     0
176
     1
290
     0
176
     1
 93
        1
176
     1
 44
0.0
176
     1
173
     0
176
     1
  0
VISUALSTYLE
  5
5E9
102
{ACAD_REACTORS
330
5DD
102
}
330
5DD
100
AcDbVisualStyle
  2
Brighten
 70
    12
177
     2
291
     1
 71
     2
176
     1
 72
     2
176
     1
 73
     0
176
     1
 90
        0
176
     1
 40
0.6
176
     1
 41
30.0
176
     1
 63
     7
421
 16777215
176
     1
 74
     1
176
     1
 91
        4
176
     1
 64
     7
176
     1
 65
   257
176
     1
 75
     1
176
     1
175
     1
176
     1
 42
1.0
176
     1
 92
        8
176
     1
 66
     7
176
     1
 43
1.0
176
     1
 76
     1
176
     1
 77
     6
176
     1
 78
     2
176
     1
 67
     7
176
     1
 79
     5
176
     1
170
     0
176
     1
171
     0
176
     1
290
     0
176
     1
 93
        1
176
     1
 44
50.0
176
     1
173
     0
176
     1
  0
VISUALSTYLE
  5
5ED
102
{ACAD_REACTORS
330
5DD
102
}
330
5DD
100
AcDbVisualStyle
  2
ColorChange
 70
    16
177
     2
291
     1
 71
     2
176
     1
 72
     2
176
     1
 73
     3
176
     1
 90
        0
176
     1
 40
0.6
176
     1
 41
30.0
176
     1
 63
     8
421
  8421504
176
     1
 74
     1
176
     1
 91
        4
176
     1
 64
     7
176
     1
 65
   257
176
     1
 75
     1
176
     1
175
     1
176
     1
 42
1.0
176
     1
 92
        8
176
     1
 66
     8
424
  8421504
176
     1
 43
1.0
176
     1
 76
     1
176
     1
 77
     6
176
     1
 78
     2
176
     1
 67
     7
176
     1
 79
     5
176
     1
170
     0
176
     1
171
     0
176
     1
290
     0
176
     1
 93
        1
176
     1
 44
0.0
176
     1
173
     0
176
     1
  0
VISUALSTYLE
  5
5E6
102
{ACAD_REACTORS
330
5DD
102
}
330
5DD
100
AcDbVisualStyle
  2
Conceptual
 70
     9
177
     2
291
     0
 71
     3
176
     1
 72
     2
176
     1
 73
     0
176
     1
 90
        0
176
     1
 40
0.6
176
     1
 41
30.0
176
     1
 63
     7
421
 16777215
176
     1
 74
     2
176
     1
 91
        2
176
     1
 64
     7
176
     1
 65
   257
176
     1
 75
     1
176
     1
175
     1
176
     1
 42
179.0
176
     1
 92
        8
176
     1
 66
     7
176
     1
 43
1.0
176
     1
 76
     1
176
     1
 77
     6
176
     1
 78
     2
176
     1
 67
     7
176
     1
 79
     3
176
     1
170
     0
176
     1
171
     0
176
     1
290
     0
176
     1
 93
        1
176
     1
 44
0.0
176
     1
173
     0
176
     1
  0
VISUALSTYLE
  5
5E8
102
{ACAD_REACTORS
330
5DD
102
}
330
5DD
100
AcDbVisualStyle
  2
Dim
 70
    11
177
     2
291
     1
 71
     2
176
     1
 72
     2
176
     1
 73
     0
176
     1
 90
        0
176
     1
 40
0.6
176
     1
 41
30.0
176
     1
 63
     7
421
 16777215
176
     1
 74
     1
176
     1
 91
        4
176
     1
 64
     7
176
     1
 65
   257
176
     1
 75
     1
176
     1
175
     1
176
     1
 42
1.0
176
     1
 92
        8
176
     1
 66
     7
176
     1
 43
1.0
176
     1
 76
     1
176
     1
 77
     6
176
     1
 78
     2
176
     1
 67
     7
176
     1
 79
     5
176
     1
170
     0
176
     1
171
     0
176
     1
290
     0
176
     1
 93
        1
176
     1
 44
-50.0
176
     1
173
     0
176
     1
  0
VISUALSTYLE
  5
5F0
102
{ACAD_REACTORS
330
5DD
102
}
330
5DD
100
AcDbVisualStyle
  2
EdgeColorOff
 70
    22
177
     2
291
     1
 71
     2
176
     0
 72
     2
176
     0
 73
     0
176
     0
 90
        0
176
     0
 40
0.6
176
     0
 41
30.0
176
     0
 63
     7
421
 16777215
176
     0
 74
     1
176
     0
 91
        4
176
     0
 64
     7
176
     0
 65
   257
176
     0
 75
     1
176
     0
175
     1
176
     0
 42
1.0
176
     0
 92
        8
176
     2
 66
     7
176
     0
 43
1.0
176
     0
 76
     1
176
     0
 77
     6
176
     0
 78
     2
176
     0
 67
     7
176
     0
 79
     5
176
     0
170
     0
176
     0
171
     0
176
     0
290
     0
176
     0
 93
        1
176
     0
 44
0.0
176
     0
173
     0
176
     0
  0
VISUALSTYLE
  5
5EC
102
{ACAD_REACTORS
330
5DD
102
}
330
5DD
100
AcDbVisualStyle
  2
Facepattern
 70
    15
177
     2
291
     1
 71
     2
176
     1
 72
     2
176
     1
 73
     0
176
     1
 90
        0
176
     1
 40
0.6
176
     1
 41
30.0
176
     1
 63
     7
421
 16777215
176
     1
 74
     1
176
     1
 91
        4
176
     1
 64
     7
176
     1
 65
   257
176
     1
 75
     1
176
     1
175
     1
176
     1
 42
1.0
176
     1
 92
        8
176
     1
 66
     7
176
     1
 43
1.0
176
     1
 76
     1
176
     1
 77
     6
176
     1
 78
     2
176
     1
 67
     7
176
     1
 79
     5
176
     1
170
     0
176
     1
171
     0
176
     1
290
     0
176
     1
 93
        1
176
     1
 44
0.0
176
     1
173
     0
176
     1
  0
VISUALSTYLE
  5
5DE
102
{ACAD_REACTORS
330
5DD
102
}
330
5DD
100
AcDbVisualStyle
  2
Flat
 70
     0
177
     2
291
     1
 71
     2
176
     1
 72
     1
176
     1
 73
     1
176
     1
 90
        2
176
     1
 40
0.6
176
     1
 41
30.0
176
     1
 63
     7
421
 16777215
176
     1
 74
     0
176
     1
 91
        4
176
     1
 64
     7
176
     1
 65
   257
176
     1
 75
     1
176
     1
175
     1
176
     1
 42
1.0
176
     1
 92
        8
176
     1
 66
     7
176
     1
 43
1.0
176
     1
 76
     1
176
     1
 77
     6
176
     1
 78
     2
176
     1
 67
     7
176
     1
 79
     5
176
     1
170
     0
176
     1
171
     0
176
     1
290
     0
176
     1
 93
       13
176
     1
 44
0.0
176
     1
173
     0
176
     1
  0
VISUALSTYLE
  5
5DF
102
{ACAD_REACTORS
330
5DD
102
}
330
5DD
100
AcDbVisualStyle
  2
FlatWithEdges
 70
     1
177
     2
291
     1
 71
     2
176
     1
 72
     1
176
     1
 73
     1
176
     1
 90
        2
176
     1
 40
0.6
176
     1
 41
30.0
176
     1
 63
     7
421
 16777215
176
     1
 74
     1
176
     1
 91
        4
176
     1
 64
     7
176
     1
 65
   257
176
     1
 75
     1
176
     1
175
     1
176
     1
 42
1.0
176
     1
 92
        0
176
     1
 66
   257
176
     1
 43
1.0
176
     1
 76
     1
176
     1
 77
     6
176
     1
 78
     2
176
     1
 67
     7
176
     1
 79
     5
176
     1
170
     0
176
     1
171
     0
176
     1
290
     0
176
     1
 93
       13
176
     1
 44
0.0
176
     1
173
     0
176
     1
  0
VISUALSTYLE
  5
5E0
102
{ACAD_REACTORS
330
5DD
102
}
330
5DD
100
AcDbVisualStyle
  2
Gouraud
 70
     2
177
     2
291
     1
 71
     2
176
     1
 72
     2
176
     1
 73
     1
176
     1
 90
        2
176
     1
 40
0.6
176
     1
 41
30.0
176
     1
 63
     7
421
 16777215
176
     1
 74
     0
176
     1
 91
        4
176
     1
 64
     7
176
     1
 65
   257
176
     1
 75
     1
176
     1
175
     1
176
     1
 42
1.0
176
     1
 92
        0
176
     1
 66
     7
176
     1
 43
1.0
176
     1
 76
     1
176
     1
 77
     6
176
     1
 78
     2
176
     1
 67
     7
176
     1
 79
     5
176
     1
170
     0
176
     1
171
     0
176
     1
290
     0
176
     1
 93
       13
176
     1
 44
0.0
176
     1
173
     0
176
     1
  0
VISUALSTYLE
  5
5E1
102
{ACAD_REACTORS
330
5DD
102
}
330
5DD
100
AcDbVisualStyle
  2
GouraudWithEdges
 70
     3
177
     2
291
     1
 71
     2
176
     1
 72
     2
176
     1
 73
     1
176
     1
 90
        2
176
     1
 40
0.6
176
     1
 41
30.0
176
     1
 63
     7
421
 16777215
176
     1
 74
     1
176
     1
 91
        4
176
     1
 64
     7
176
     1
 65
   257
176
     1
 75
     1
176
     1
175
     1
176
     1
 42
1.0
176
     1
 92
        0
176
     1
 66
   257
176
     1
 43
1.0
176
     1
 76
     1
176
     1
 77
     6
176
     1
 78
     2
176
     1
 67
     7
176
     1
 79
     5
176
     1
170
     0
176
     1
171
     0
176
     1
290
     0
176
     1
 93
       13
176
     1
 44
0.0
176
     1
173
     0
176
     1
  0
VISUALSTYLE
  5
5EE
102
{ACAD_REACTORS
330
5DD
102
}
330
5DD
100
AcDbVisualStyle
  2
JitterOff
 70
    20
177
     2
291
     1
 71
     2
176
     0
 72
     2
176
     0
 73
     0
176
     0
 90
        0
176
     0
 40
0.6
176
     0
 41
30.0
176
     0
 63
     7
421
 16777215
176
     0
 74
     1
176
     0
 91
        4
176
     0
 64
     7
176
     0
 65
   257
176
     0
 75
     1
176
     0
175
     1
176
     0
 42
1.0
176
     0
 92
       10
176
     2
 66
     7
176
     0
 43
1.0
176
     0
 76
     1
176
     0
 77
     6
176
     0
 78
     2
176
     0
 67
     7
176
     0
 79
     5
176
     0
170
     0
176
     0
171
     0
176
     0
290
     0
176
     0
 93
        1
176
     0
 44
0.0
176
     0
173
     0
176
     0
  0
VISUALSTYLE
  5
5EB
102
{ACAD_REACTORS
330
5DD
102
}
330
5DD
100
AcDbVisualStyle
  2
Linepattern
 70
    14
177
     2
291
     1
 71
     2
176
     1
 72
     2
176
     1
 73
     0
176
     1
 90
        0
176
     1
 40
0.6
176
     1
 41
30.0
176
     1
 63
     7
421
 16777215
176
     1
 74
     1
176
     1
 91
        4
176
     1
 64
     7
176
     1
 65
   257
176
     1
 75
     7
176
     1
175
     7
176
     1
 42
1.0
176
     1
 92
        8
176
     1
 66
     7
176
     1
 43
1.0
176
     1
 76
     1
176
     1
 77
     6
176
     1
 78
     2
176
     1
 67
     7
176
     1
 79
     5
176
     1
170
     0
176
     1
171
     0
176
     1
290
     0
176
     1
 93
        1
176
     1
 44
0.0
176
     1
173
     0
176
     1
  0
VISUALSTYLE
  5
5EF
102
{ACAD_REACTORS
330
5DD
102
}
330
5DD
100
AcDbVisualStyle
  2
OverhangOff
 70
    21
177
     2
291
     1
 71
     2
176
     0
 72
     2
176
     0
 73
     0
176
     0
 90
        0
176
     0
 40
0.6
176
     0
 41
30.0
176
     0
 63
     7
421
 16777215
176
     0
 74
     1
176
     0
 91
        4
176
     0
 64
     7
176
     0
 65
   257
176
     0
 75
     1
176
     0
175
     1
176
     0
 42
1.0
176
     0
 92
        9
176
     2
 66
     7
176
     0
 43
1.0
176
     0
 76
     1
176
     0
 77
     6
176
     0
 78
     2
176
     0
 67
     7
176
     0
 79
     5
176
     0
170
     0
176
     0
171
     0
176
     0
290
     0
176
     0
 93
        1
176
     0
 44
0.0
176
     0
173
     0
176
     0
  0
VISUALSTYLE
  5
5E7
102
{ACAD_REACTORS
330
5DD
102
}
330
5DD
100
AcDbVisualStyle
  2
Realistic
 70
     8
177
     2
291
     0
 71
     2
176
     1
 72
     2
176
     1
 73
     0
176
     1
 90
        0
176
     1
 40
0.6
176
     1
 41
30.0
176
     1
 63
     7
421
 16777215
176
     1
 74
     1
176
     1
 91
        0
176
     1
 64
     7
176
     1
 65
   257
176
     1
 75
     1
176
     1
175
     1
176
     1
 42
1.0
176
     1
 92
        8
176
     1
 66
     8
424
  7895160
176
     1
 43
1.0
176
     1
 76
     1
176
     1
 77
     6
176
     1
 78
     2
176
     1
 67
     7
176
     1
 79
     5
176
     1
170
     0
176
     1
171
     0
176
     1
290
     0
176
     1
 93
       13
176
     1
 44
0.0
176
     1
173
     0
176
     1
  0
VISUALSTYLE
  5
5EA
102
{ACAD_REACTORS
330
5DD
102
}
330
5DD
100
AcDbVisualStyle
  2
Thicken
 70
    13
177
     2
291
     1
 71
     2
176
     1
 72
     2
176
     1
 73
     0
176
     1
 90
        0
176
     1
 40
0.6
176
     1
 41
30.0
176
     1
 63
     7
421
 16777215
176
     1
 74
     1
176
     1
 91
        4
176
     1
 64
     7
176
     1
 65
   257
176
     1
 75
     1
176
     1
175
     1
176
     1
 42
1.0
176
     1
 92
       12
176
     1
 66
     7
176
     1
 43
1.0
176
     1
 76
     1
176
     1
 77
     6
176
     1
 78
     2
176
     1
 67
     7
176
     1
 79
     5
176
     1
170
     0
176
     1
171
     0
176
     1
290
     0
176
     1
 93
        1
176
     1
 44
0.0
176
     1
173
     0
176
     1
  0
DICTIONARYVAR
  5
611
102
{ACAD_REACTORS
330
5E
102
}
330
5E
100
DictionaryVariables
280
     0
  1
1:1
  0
DICTIONARYVAR
  5
60F
102
{ACAD_REACTORS
330
5E
102
}
330
5E
100
DictionaryVariables
280
     0
  1
STANDARD
  0
DICTIONARYVAR
  5
60E
102
{ACAD_REACTORS
330
5E
102
}
330
5E
100
DictionaryVariables
280
     0
  1
STANDARD
  0
DICTIONARYVAR
  5
5F
102
{ACAD_REACTORS
330
5E
102
}
330
5E
100
DictionaryVariables
280
     0
  1
2
  0
DICTIONARYVAR
  5
63
102
{ACAD_REACTORS
330
5E
102
}
330
5E
100
DictionaryVariables
280
     0
  1
1
  0
DICTIONARYVAR
  5
613
102
{ACAD_REACTORS
330
5E
102
}
330
5E
100
DictionaryVariables
280
     0
  1
1
  0
DICTIONARYVAR
  5
614
102
{ACAD_REACTORS
330
5E
102
}
330
5E
100
DictionaryVariables
280
     0
  1
15
  0
DICTIONARYVAR
  5
612
102
{ACAD_REACTORS
330
5E
102
}
330
5E
100
DictionaryVariables
280
     0
  1
0
  0
DICTIONARYVAR
  5
610
102
{ACAD_REACTORS
330
5E
102
}
330
5E
100
DictionaryVariables
280
     0
  1
0
  0
DICTIONARY
  5
5CE
330
5CD
100
AcDbDictionary
280
     1
281
     1
  3
BUMPTILE
360
5D0
  3
DIFFUSETILE
360
5CF
  3
OPACITYTILE
360
5D3
  3
REFLECTIONTILE
360
5D2
  3
REFRACTIONTILE
360
5D4
  3
SPECULARTILE
360
5D1
  0
DICTIONARY
  5
5C6
330
5C5
100
AcDbDictionary
280
     1
281
     1
  3
BUMPTILE
360
5C8
  3
DIFFUSETILE
360
5C7
  3
OPACITYTILE
360
5CB
  3
REFLECTIONTILE
360
5CA
  3
REFRACTIONTILE
360
5CC
  3
SPECULARTILE
360
5C9
  0
DICTIONARY
  5
5D6
330
5D5
100
AcDbDictionary
280
     1
281
     1
  3
BUMPTILE
360
5D8
  3
DIFFUSETILE
360
5D7
  3
OPACITYTILE
360
5DB
  3
REFLECTIONTILE
360
5DA
  3
REFRACTIONTILE
360
5DC
  3
SPECULARTILE
360
5D9
  0
DICTIONARY
  5
615
330
5F3
100
AcDbDictionary
280
     1
281
     1
  3
ACAD_ROUNDTRIP_2008_TABLESTYLE_CELLSTYLEMAP
360
616
  0
XRECORD
  5
5D0
102
{ACAD_REACTORS
330
5CE
102
}
330
5CE
100
AcDbXrecord
280
     1
270
     1
271
     1
  0
XRECORD
  5
5CF
102
{ACAD_REACTORS
330
5CE
102
}
330
5CE
100
AcDbXrecord
280
     1
270
     1
271
     1
  0
XRECORD
  5
5D3
102
{ACAD_REACTORS
330
5CE
102
}
330
5CE
100
AcDbXrecord
280
     1
270
     1
271
     1
  0
XRECORD
  5
5D2
102
{ACAD_REACTORS
330
5CE
102
}
330
5CE
100
AcDbXrecord
280
     1
270
     1
271
     1
  0
XRECORD
  5
5D4
102
{ACAD_REACTORS
330
5CE
102
}
330
5CE
100
AcDbXrecord
280
     1
270
     1
271
     1
  0
XRECORD
  5
5D1
102
{ACAD_REACTORS
330
5CE
102
}
330
5CE
100
AcDbXrecord
280
     1
270
     1
271
     1
  0
XRECORD
  5
5C8
102
{ACAD_REACTORS
330
5C6
102
}
330
5C6
100
AcDbXrecord
280
     1
270
     1
271
     1
  0
XRECORD
  5
5C7
102
{ACAD_REACTORS
330
5C6
102
}
330
5C6
100
AcDbXrecord
280
     1
270
     1
271
     1
  0
XRECORD
  5
5CB
102
{ACAD_REACTORS
330
5C6
102
}
330
5C6
100
AcDbXrecord
280
     1
270
     1
271
     1
  0
XRECORD
  5
5CA
102
{ACAD_REACTORS
330
5C6
102
}
330
5C6
100
AcDbXrecord
280
     1
270
     1
271
     1
  0
XRECORD
  5
5CC
102
{ACAD_REACTORS
330
5C6
102
}
330
5C6
100
AcDbXrecord
280
     1
270
     1
271
     1
  0
XRECORD
  5
5C9
102
{ACAD_REACTORS
330
5C6
102
}
330
5C6
100
AcDbXrecord
280
     1
270
     1
271
     1
  0
XRECORD
  5
5D8
102
{ACAD_REACTORS
330
5D6
102
}
330
5D6
100
AcDbXrecord
280
     1
270
     1
271
     1
  0
XRECORD
  5
5D7
102
{ACAD_REACTORS
330
5D6
102
}
330
5D6
100
AcDbXrecord
280
     1
270
     1
271
     1
  0
XRECORD
  5
5DB
102
{ACAD_REACTORS
330
5D6
102
}
330
5D6
100
AcDbXrecord
280
     1
270
     1
271
     1
  0
XRECORD
  5
5DA
102
{ACAD_REACTORS
330
5D6
102
}
330
5D6
100
AcDbXrecord
280
     1
270
     1
271
     1
  0
XRECORD
  5
5DC
102
{ACAD_REACTORS
330
5D6
102
}
330
5D6
100
AcDbXrecord
280
     1
270
     1
271
     1
  0
XRECORD
  5
5D9
102
{ACAD_REACTORS
330
5D6
102
}
330
5D6
100
AcDbXrecord
280
     1
270
     1
271
     1
  0
CELLSTYLEMAP
  5
616
102
{ACAD_REACTORS
330
615
102
}
330
615
100
AcDbCellStyleMap
 90
        3
300
CELLSTYLE
  1
TABLEFORMAT_BEGIN
 90
        5
170
     1
 91
        0
 92
    32768
 62
   257
 93
        1
300
CONTENTFORMAT
  1
CONTENTFORMAT_BEGIN
 90
        0
 91
        0
 92
      512
 93
        0
300

 40
0.0
140
1.0
 94
        5
 62
     0
340
11
144
6.0
309
CONTENTFORMAT_END
171
     1
301
MARGIN
  1
CELLMARGIN_BEGIN
 40
1.5
 40
1.5
 40
1.5
 40
1.5
 40
4.5
 40
4.5
309
CELLMARGIN_END
 94
        6
 95
        1
302
GRIDFORMAT
  1
GRIDFORMAT_BEGIN
 90
        0
 91
        1
 62
     0
 92
       -2
340
0
 93
        0
 40
1.125
309
GRIDFORMAT_END
 95
        2
302
GRIDFORMAT
  1
GRIDFORMAT_BEGIN
 90
        0
 91
        1
 62
     0
 92
       -2
340
0
 93
        0
 40
1.125
309
GRIDFORMAT_END
 95
        4
302
GRIDFORMAT
  1
GRIDFORMAT_BEGIN
 90
        0
 91
        1
 62
     0
 92
       -2
340
0
 93
        0
 40
1.125
309
GRIDFORMAT_END
 95
        8
302
GRIDFORMAT
  1
GRIDFORMAT_BEGIN
 90
        0
 91
        1
 62
     0
 92
       -2
340
0
 93
        0
 40
1.125
309
GRIDFORMAT_END
 95
       16
302
GRIDFORMAT
  1
GRIDFORMAT_BEGIN
 90
        0
 91
        1
 62
     0
 92
       -2
340
0
 93
        0
 40
1.125
309
GRIDFORMAT_END
 95
       32
302
GRIDFORMAT
  1
GRIDFORMAT_BEGIN
 90
        0
 91
        1
 62
     0
 92
       -2
340
0
 93
        0
 40
1.125
309
GRIDFORMAT_END
309
TABLEFORMAT_END
  1
CELLSTYLE_BEGIN
 90
        1
 91
        1
300
_TITLE
309
CELLSTYLE_END
300
CELLSTYLE
  1
TABLEFORMAT_BEGIN
 90
        5
170
     1
 91
        0
 92
        0
 62
   257
 93
        1
300
CONTENTFORMAT
  1
CONTENTFORMAT_BEGIN
 90
        0
 91
        0
 92
      512
 93
        0
300

 40
0.0
140
1.0
 94
        5
 62
     0
340
11
144
4.5
309
CONTENTFORMAT_END
171
     1
301
MARGIN
  1
CELLMARGIN_BEGIN
 40
1.5
 40
1.5
 40
1.5
 40
1.5
 40
4.5
 40
4.5
309
CELLMARGIN_END
 94
        6
 95
        1
302
GRIDFORMAT
  1
GRIDFORMAT_BEGIN
 90
        0
 91
        1
 62
     0
 92
       -2
340
0
 93
        0
 40
1.125
309
GRIDFORMAT_END
 95
        2
302
GRIDFORMAT
  1
GRIDFORMAT_BEGIN
 90
        0
 91
        1
 62
     0
 92
       -2
340
0
 93
        0
 40
1.125
309
GRIDFORMAT_END
 95
        4
302
GRIDFORMAT
  1
GRIDFORMAT_BEGIN
 90
        0
 91
        1
 62
     0
 92
       -2
340
0
 93
        0
 40
1.125
309
GRIDFORMAT_END
 95
        8
302
GRIDFORMAT
  1
GRIDFORMAT_BEGIN
 90
        0
 91
        1
 62
     0
 92
       -2
340
0
 93
        0
 40
1.125
309
GRIDFORMAT_END
 95
       16
302
GRIDFORMAT
  1
GRIDFORMAT_BEGIN
 90
        0
 91
        1
 62
     0
 92
       -2
340
0
 93
        0
 40
1.125
309
GRIDFORMAT_END
 95
       32
302
GRIDFORMAT
  1
GRIDFORMAT_BEGIN
 90
        0
 91
        1
 62
     0
 92
       -2
340
0
 93
        0
 40
1.125
309
GRIDFORMAT_END
309
TABLEFORMAT_END
  1
CELLSTYLE_BEGIN
 90
        2
 91
        1
300
_HEADER
309
CELLSTYLE_END
300
CELLSTYLE
  1
TABLEFORMAT_BEGIN
 90
        5
170
     1
 91
        0
 92
        0
 62
   257
 93
        1
300
CONTENTFORMAT
  1
CONTENTFORMAT_BEGIN
 90
        0
 91
        0
 92
      512
 93
        0
300

 40
0.0
140
1.0
 94
        2
 62
     0
340
11
144
4.5
309
CONTENTFORMAT_END
171
     1
301
MARGIN
  1
CELLMARGIN_BEGIN
 40
1.5
 40
1.5
 40
1.5
 40
1.5
 40
4.5
 40
4.5
309
CELLMARGIN_END
 94
        6
 95
        1
302
GRIDFORMAT
  1
GRIDFORMAT_BEGIN
 90
        0
 91
        1
 62
     0
 92
       -2
340
0
 93
        0
 40
1.125
309
GRIDFORMAT_END
 95
        2
302
GRIDFORMAT
  1
GRIDFORMAT_BEGIN
 90
        0
 91
        1
 62
     0
 92
       -2
340
0
 93
        0
 40
1.125
309
GRIDFORMAT_END
 95
        4
302
GRIDFORMAT
  1
GRIDFORMAT_BEGIN
 90
        0
 91
        1
 62
     0
 92
       -2
340
0
 93
        0
 40
1.125
309
GRIDFORMAT_END
 95
        8
302
GRIDFORMAT
  1
GRIDFORMAT_BEGIN
 90
        0
 91
        1
 62
     0
 92
       -2
340
0
 93
        0
 40
1.125
309
GRIDFORMAT_END
 95
       16
302
GRIDFORMAT
  1
GRIDFORMAT_BEGIN
 90
        0
 91
        1
 62
     0
 92
       -2
340
0
 93
        0
 40
1.125
309
GRIDFORMAT_END
 95
       32
302
GRIDFORMAT
  1
GRIDFORMAT_BEGIN
 90
        0
 91
        1
 62
     0
 92
       -2
340
0
 93
        0
 40
1.125
309
GRIDFORMAT_END
309
TABLEFORMAT_END
  1
CELLSTYLE_BEGIN
 90
        3
 91
        2
300
_DATA
309
CELLSTYLE_END
  0
ENDSEC
  0
EOF
