  0
SECTION
  2
HEADER
  9
$ACADVER
  1
AC1024
  9
$ACADMAINTVER
 70
     6
  9
$DWGCODEPAGE
  3
ANSI_932
  9
$LASTSAVEDBY
  1
kanatani
  9
$INSBASE
 10
0.0
 20
0.0
 30
0.0
  9
$EXTMIN
 10
206.3633138373151
 20
40.60372291458318
 30
0.0
  9
$EXTMAX
 10
1171.617466931467
 20
686.7191203902085
 30
0.0
  9
$LIMMIN
 10
0.0
 20
0.0
  9
$LIMMAX
 10
420.0
 20
297.0
  9
$ORTHOMODE
 70
     0
  9
$REGENMODE
 70
     1
  9
$FILLMODE
 70
     1
  9
$QTEXTMODE
 70
     0
  9
$MIRRTEXT
 70
     1
  9
$LTSCALE
 40
1.0
  9
$ATTMODE
 70
     1
  9
$TEXTSIZE
 40
2.5
  9
$TRACEWID
 40
1.0
  9
$TEXTSTYLE
  7
Standard
  9
$CLAYER
  8
0
  9
$CELTYPE
  6
ByLayer
  9
$CECOLOR
 62
   256
  9
$CELTSCALE
 40
1.0
  9
$DISPSILH
 70
     0
  9
$DIMSCALE
 40
1.0
  9
$DIMASZ
 40
2.5
  9
$DIMEXO
 40
0.625
  9
$DIMDLI
 40
3.75
  9
$DIMRND
 40
0.0
  9
$DIMDLE
 40
0.0
  9
$DIMEXE
 40
1.25
  9
$DIMTP
 40
0.0
  9
$DIMTM
 40
0.0
  9
$DIMTXT
 40
2.5
  9
$DIMCEN
 40
2.5
  9
$DIMTSZ
 40
0.0
  9
$DIMTOL
 70
     0
  9
$DIMLIM
 70
     0
  9
$DIMTIH
 70
     0
  9
$DIMTOH
 70
     0
  9
$DIMSE1
 70
     0
  9
$DIMSE2
 70
     0
  9
$DIMTAD
 70
     1
  9
$DIMZIN
 70
     8
  9
$DIMBLK
  1

  9
$DIMASO
 70
     1
  9
$DIMSHO
 70
     1
  9
$DIMPOST
  1

  9
$DIMAPOST
  1

  9
$DIMALT
 70
     0
  9
$DIMALTD
 70
     3
  9
$DIMALTF
 40
0.03937007874016
  9
$DIMLFAC
 40
1.0
  9
$DIMTOFL
 70
     1
  9
$DIMTVP
 40
0.0
  9
$DIMTIX
 70
     0
  9
$DIMSOXD
 70
     0
  9
$DIMSAH
 70
     0
  9
$DIMBLK1
  1

  9
$DIMBLK2
  1

  9
$DIMSTYLE
  2
ISO-25
  9
$DIMCLRD
 70
     0
  9
$DIMCLRE
 70
     0
  9
$DIMCLRT
 70
     0
  9
$DIMTFAC
 40
1.0
  9
$DIMGAP
 40
0.625
  9
$DIMJUST
 70
     0
  9
$DIMSD1
 70
     0
  9
$DIMSD2
 70
     0
  9
$DIMTOLJ
 70
     0
  9
$DIMTZIN
 70
     8
  9
$DIMALTZ
 70
     0
  9
$DIMALTTZ
 70
     0
  9
$DIMUPT
 70
     0
  9
$DIMDEC
 70
     2
  9
$DIMTDEC
 70
     2
  9
$DIMALTU
 70
     2
  9
$DIMALTTD
 70
     3
  9
$DIMTXSTY
  7
Standard
  9
$DIMAUNIT
 70
     0
  9
$DIMADEC
 70
     0
  9
$DIMALTRND
 40
0.0
  9
$DIMAZIN
 70
     0
  9
$DIMDSEP
 70
    44
  9
$DIMATFIT
 70
     3
  9
$DIMFRAC
 70
     0
  9
$DIMLDRBLK
  1

  9
$DIMLUNIT
 70
     2
  9
$DIMLWD
 70
    -2
  9
$DIMLWE
 70
    -2
  9
$DIMTMOVE
 70
     0
  9
$DIMFXL
 40
1.0
  9
$DIMFXLON
 70
     0
  9
$DIMJOGANG
 40
0.7853981633974483
  9
$DIMTFILL
 70
     0
  9
$DIMTFILLCLR
 70
     0
  9
$DIMARCSYM
 70
     0
  9
$DIMLTYPE
  6

  9
$DIMLTEX1
  6

  9
$DIMLTEX2
  6

  9
$DIMTXTDIRECTION
 70
     0
  9
$LUNITS
 70
     2
  9
$LUPREC
 70
     4
  9
$SKETCHINC
 40
1.0
  9
$FILLETRAD
 40
10.0
  9
$AUNITS
 70
     0
  9
$AUPREC
 70
     0
  9
$MENU
  1
.
  9
$ELEVATION
 40
0.0
  9
$PELEVATION
 40
0.0
  9
$THICKNESS
 40
0.0
  9
$LIMCHECK
 70
     0
  9
$CHAMFERA
 40
10.0
  9
$CHAMFERB
 40
10.0
  9
$CHAMFERC
 40
20.0
  9
$CHAMFERD
 40
0.0
  9
$SKPOLY
 70
     0
  9
$TDCREATE
 40
2454284.630201100
  9
$TDUCREATE
 40
2454284.255201100
  9
$TDUPDATE
 40
2456903.561729907
  9
$TDUUPDATE
 40
2456903.186729908
  9
$TDINDWG
 40
0.0074873843
  9
$TDUSRTIMER
 40
0.0074871991
  9
$USRTIMER
 70
     1
  9
$ANGBASE
 50
0.0
  9
$ANGDIR
 70
     0
  9
$PDMODE
 70
     0
  9
$PDSIZE
 40
0.0
  9
$PLINEWID
 40
0.0
  9
$SPLFRAME
 70
     0
  9
$SPLINETYPE
 70
     6
  9
$SPLINESEGS
 70
     8
  9
$HANDSEED
  5
6D7
  9
$SURFTAB1
 70
     6
  9
$SURFTAB2
 70
     6
  9
$SURFTYPE
 70
     6
  9
$SURFU
 70
     6
  9
$SURFV
 70
     6
  9
$UCSBASE
  2

  9
$UCSNAME
  2

  9
$UCSORG
 10
0.0
 20
0.0
 30
0.0
  9
$UCSXDIR
 10
1.0
 20
0.0
 30
0.0
  9
$UCSYDIR
 10
0.0
 20
1.0
 30
0.0
  9
$UCSORTHOREF
  2

  9
$UCSORTHOVIEW
 70
     0
  9
$UCSORGTOP
 10
0.0
 20
0.0
 30
0.0
  9
$UCSORGBOTTOM
 10
0.0
 20
0.0
 30
0.0
  9
$UCSORGLEFT
 10
0.0
 20
0.0
 30
0.0
  9
$UCSORGRIGHT
 10
0.0
 20
0.0
 30
0.0
  9
$UCSORGFRONT
 10
0.0
 20
0.0
 30
0.0
  9
$UCSORGBACK
 10
0.0
 20
0.0
 30
0.0
  9
$PUCSBASE
  2

  9
$PUCSNAME
  2

  9
$PUCSORG
 10
0.0
 20
0.0
 30
0.0
  9
$PUCSXDIR
 10
1.0
 20
0.0
 30
0.0
  9
$PUCSYDIR
 10
0.0
 20
1.0
 30
0.0
  9
$PUCSORTHOREF
  2

  9
$PUCSORTHOVIEW
 70
     0
  9
$PUCSORGTOP
 10
0.0
 20
0.0
 30
0.0
  9
$PUCSORGBOTTOM
 10
0.0
 20
0.0
 30
0.0
  9
$PUCSORGLEFT
 10
0.0
 20
0.0
 30
0.0
  9
$PUCSORGRIGHT
 10
0.0
 20
0.0
 30
0.0
  9
$PUCSORGFRONT
 10
0.0
 20
0.0
 30
0.0
  9
$PUCSORGBACK
 10
0.0
 20
0.0
 30
0.0
  9
$USERI1
 70
     0
  9
$USERI2
 70
     0
  9
$USERI3
 70
     0
  9
$USERI4
 70
     0
  9
$USERI5
 70
     0
  9
$USERR1
 40
0.0
  9
$USERR2
 40
0.0
  9
$USERR3
 40
0.0
  9
$USERR4
 40
0.0
  9
$USERR5
 40
0.0
  9
$WORLDVIEW
 70
     1
  9
$SHADEDGE
 70
     3
  9
$SHADEDIF
 70
    70
  9
$TILEMODE
 70
     1
  9
$MAXACTVP
 70
    48
  9
$PINSBASE
 10
0.0
 20
0.0
 30
0.0
  9
$PLIMCHECK
 70
     0
  9
$PEXTMIN
 10
26.66076962115563
 20
20.31135699206658
 30
-0.0015258207003583
  9
$PEXTMAX
 10
240.039213369355
 20
182.8886381005154
 30
0.0000000349246037
  9
$PLIMMIN
 10
-6.350006103515625
 20
-6.349999904632568
  9
$PLIMMAX
 10
273.0499877929688
 20
209.5499939918518
  9
$UNITMODE
 70
     0
  9
$VISRETAIN
 70
     1
  9
$PLINEGEN
 70
     0
  9
$PSLTSCALE
 70
     1
  9
$TREEDEPTH
 70
  3020
  9
$CMLSTYLE
  2
Standard
  9
$CMLJUST
 70
     0
  9
$CMLSCALE
 40
20.0
  9
$PROXYGRAPHICS
 70
     1
  9
$MEASUREMENT
 70
     1
  9
$CELWEIGHT
370
    -1
  9
$ENDCAPS
280
     0
  9
$JOINSTYLE
280
     0
  9
$LWDISPLAY
290
     0
  9
$INSUNITS
 70
     4
  9
$HYPERLINKBASE
  1

  9
$STYLESHEET
  1

  9
$XEDIT
290
     1
  9
$CEPSNTYPE
380
     0
  9
$PSTYLEMODE
290
     1
  9
$FINGERPRINTGUID
  2
{FDEAD578-A652-11D2-9A35-0060089B3A3F}
  9
$VERSIONGUID
  2
{3E4E90CA-6755-4032-9BD1-FE0CAC6D6EBA}
  9
$EXTNAMES
290
     1
  9
$PSVPSCALE
 40
0.0
  9
$OLESTARTUP
290
     0
  9
$SORTENTS
280
   127
  9
$INDEXCTL
280
     0
  9
$HIDETEXT
280
     1
  9
$XCLIPFRAME
280
     2
  9
$HALOGAP
280
     0
  9
$OBSCOLOR
 70
   257
  9
$OBSLTYPE
280
     0
  9
$INTERSECTIONDISPLAY
280
     0
  9
$INTERSECTIONCOLOR
 70
   257
  9
$DIMASSOC
280
     2
  9
$PROJECTNAME
  1

  9
$CAMERADISPLAY
290
     0
  9
$LENSLENGTH
 40
50.0
  9
$CAMERAHEIGHT
 40
0.0
  9
$STEPSPERSEC
 40
2.0
  9
$STEPSIZE
 40
6.0
  9
$3DDWFPREC
 40
2.0
  9
$PSOLWIDTH
 40
0.25
  9
$PSOLHEIGHT
 40
4.0
  9
$LOFTANG1
 40
1.570796326794896
  9
$LOFTANG2
 40
1.570796326794896
  9
$LOFTMAG1
 40
0.0
  9
$LOFTMAG2
 40
0.0
  9
$LOFTPARAM
 70
     7
  9
$LOFTNORMALS
280
     1
  9
$LATITUDE
 40
37.795
  9
$LONGITUDE
 40
-122.394
  9
$NORTHDIRECTION
 40
0.0
  9
$TIMEZONE
 70
 -8000
  9
$LIGHTGLYPHDISPLAY
280
     1
  9
$TILEMODELIGHTSYNCH
280
     1
  9
$CMATERIAL
347
686
  9
$SOLIDHIST
280
     1
  9
$SHOWHIST
280
     1
  9
$DWFFRAME
280
     2
  9
$DGNFRAME
280
     0
  9
$REALWORLDSCALE
290
     1
  9
$INTERFERECOLOR
 62
     1
  9
$INTERFEREOBJVS
345
6A8
  9
$INTERFEREVPVS
346
6A5
  9
$CSHADOW
280
     0
  9
$SHADOWPLANELOCATION
 40
0.0
  0
ENDSEC
  0
SECTION
  2
CLASSES
  0
CLASS
  1
ACDBDICTIONARYWDFLT
  2
AcDbDictionaryWithDefault
  3
ObjectDBX Classes
 90
        0
 91
        1
280
     0
281
     0
  0
CLASS
  1
DICTIONARYVAR
  2
AcDbDictionaryVar
  3
ObjectDBX Classes
 90
        0
 91
        9
280
     0
281
     0
  0
CLASS
  1
MATERIAL
  2
AcDbMaterial
  3
ObjectDBX Classes
 90
     1153
 91
        3
280
     0
281
     0
  0
CLASS
  1
VISUALSTYLE
  2
AcDbVisualStyle
  3
ObjectDBX Classes
 90
     4095
 91
       19
280
     0
281
     0
  0
CLASS
  1
TABLESTYLE
  2
AcDbTableStyle
  3
ObjectDBX Classes
 90
     4095
 91
        1
280
     0
281
     0
  0
CLASS
  1
SCALE
  2
AcDbScale
  3
ObjectDBX Classes
 90
     1153
 91
       17
280
     0
281
     0
  0
CLASS
  1
MLEADERSTYLE
  2
AcDbMLeaderStyle
  3
ACDB_MLEADERSTYLE_CLASS
 90
     4095
 91
        1
280
     0
281
     0
  0
CLASS
  1
CELLSTYLEMAP
  2
AcDbCellStyleMap
  3
ObjectDBX Classes
 90
     1152
 91
        1
280
     0
281
     0
  0
ENDSEC
  0
SECTION
  2
TABLES
  0
TABLE
  2
VPORT
  5
8
330
0
100
AcDbSymbolTable
 70
     1
  0
VPORT
  5
683
330
8
100
AcDbSymbolTableRecord
100
AcDbViewportTableRecord
  2
*Active
 70
     0
 10
0.0
 20
0.0
 11
1.0
 21
1.0
 12
952.1207609415492
 22
330.5319017444704
 13
0.0
 23
0.0
 14
10.0
 24
10.0
 15
10.0
 25
10.0
 16
0.0
 26
0.0
 36
1.0
 17
0.0
 27
0.0
 37
0.0
 40
1040.394215475613
 41
1.920754716981132
 42
50.0
 43
0.0
 44
0.0
 50
0.0
 51
0.0
 71
     0
 72
   100
 73
     1
 74
     3
 75
     0
 76
     0
 77
     0
 78
     0
281
     0
 65
     1
110
0.0
120
0.0
130
0.0
111
1.0
121
0.0
131
0.0
112
0.0
122
1.0
132
0.0
 79
     0
146
0.0
348
6A4
 60
     3
 61
     5
292
     1
282
     1
141
0.0
142
0.0
 63
   250
421
  3355443
  0
ENDTAB
  0
TABLE
  2
LTYPE
  5
5
330
0
100
AcDbSymbolTable
 70
     3
  0
LTYPE
  5
14
330
5
100
AcDbSymbolTableRecord
100
AcDbLinetypeTableRecord
  2
ByBlock
 70
     0
  3

 72
    65
 73
     0
 40
0.0
  0
LTYPE
  5
15
330
5
100
AcDbSymbolTableRecord
100
AcDbLinetypeTableRecord
  2
ByLayer
 70
     0
  3

 72
    65
 73
     0
 40
0.0
  0
LTYPE
  5
16
330
5
100
AcDbSymbolTableRecord
100
AcDbLinetypeTableRecord
  2
Continuous
 70
     0
  3
Solid line
 72
    65
 73
     0
 40
0.0
  0
LTYPE
  5
86
330
5
100
AcDbSymbolTableRecord
100
AcDbLinetypeTableRecord
  2
HIDDEN
 70
     0
  3
Hidden __ __ __ __ __ __ __ __ __ __ __ __ __ _
 72
    65
 73
     2
 40
0.375
 49
0.25
 74
     0
 49
-0.125
 74
     0
  0
LTYPE
  5
343
330
5
100
AcDbSymbolTableRecord
100
AcDbLinetypeTableRecord
  2
CENTER
 70
     0
  3
Center ____ _ ____ _ ____ _ ____ _ ____ _ ____
 72
    65
 73
     4
 40
50.8
 49
31.75
 74
     0
 49
-6.349999999999999
 74
     0
 49
6.349999999999999
 74
     0
 49
-6.349999999999999
 74
     0
  0
ENDTAB
  0
TABLE
  2
LAYER
  5
2
102
{ACAD_XDICTIONARY
360
345
102
}
330
0
100
AcDbSymbolTable
 70
     1
  0
LAYER
  5
10
102
{ACAD_XDICTIONARY
360
6CB
102
}
330
2
100
AcDbSymbolTableRecord
100
AcDbLayerTableRecord
  2
0
 70
     0
 62
     7
  6
Continuous
370
    -3
390
F
347
696
  0
ENDTAB
  0
TABLE
  2
STYLE
  5
3
330
0
100
AcDbSymbolTable
 70
     1
  0
STYLE
  5
11
330
3
100
AcDbSymbolTableRecord
100
AcDbTextStyleTableRecord
  2
Standard
 70
     0
 40
0.0
 41
1.0
 50
0.0
 71
     0
 42
2.5
  3
txt
  4

  0
ENDTAB
  0
TABLE
  2
VIEW
  5
6
330
0
100
AcDbSymbolTable
 70
     0
  0
ENDTAB
  0
TABLE
  2
UCS
  5
7
330
0
100
AcDbSymbolTable
 70
     0
  0
ENDTAB
  0
TABLE
  2
APPID
  5
9
330
0
100
AcDbSymbolTable
 70
     1
  0
APPID
  5
12
330
9
100
AcDbSymbolTableRecord
100
AcDbRegAppTableRecord
  2
ACAD
 70
     0
  0
ENDTAB
  0
TABLE
  2
DIMSTYLE
  5
A
330
0
100
AcDbSymbolTable
 70
     1
100
AcDbDimStyleTable
 71
     0
  0
DIMSTYLE
105
27
330
A
100
AcDbSymbolTableRecord
100
AcDbDimStyleTableRecord
  2
ISO-25
 70
     0
 41
2.5
 42
0.625
 43
3.75
 44
1.25
 73
     0
 74
     0
 77
     1
 78
     8
140
2.5
141
2.5
143
0.03937007874016
147
0.625
171
     3
172
     1
271
     2
272
     2
274
     3
278
    44
283
     0
284
     8
340
11
  0
ENDTAB
  0
TABLE
  2
BLOCK_RECORD
  5
1
330
0
100
AcDbSymbolTable
 70
     1
  0
BLOCK_RECORD
  5
1F
102
{ACAD_XDICTIONARY
360
2FC
102
}
330
1
100
AcDbSymbolTableRecord
100
AcDbBlockTableRecord
  2
*Model_Space
340
22
 70
     0
280
     1
281
     0
  0
BLOCK_RECORD
  5
55
102
{ACAD_XDICTIONARY
360
2FE
102
}
330
1
100
AcDbSymbolTableRecord
100
AcDbBlockTableRecord
  2
*Paper_Space
340
56
 70
     0
280
     1
281
     0
  0
BLOCK_RECORD
  5
50
102
{ACAD_XDICTIONARY
360
300
102
}
330
1
100
AcDbSymbolTableRecord
100
AcDbBlockTableRecord
  2
*Paper_Space0
340
51
 70
     0
280
     1
281
     0
  0
ENDTAB
  0
ENDSEC
  0
SECTION
  2
BLOCKS
  0
BLOCK
  5
20
330
1F
100
AcDbEntity
  8
0
100
AcDbBlockBegin
  2
*Model_Space
 70
     0
 10
0.0
 20
0.0
 30
0.0
  3
*Model_Space
  1

  0
ENDBLK
  5
21
330
1F
100
AcDbEntity
  8
0
100
AcDbBlockEnd
  0
BLOCK
  5
57
330
55
100
AcDbEntity
 67
     1
  8
0
100
AcDbBlockBegin
  2
*Paper_Space
 70
     0
 10
0.0
 20
0.0
 30
0.0
  3
*Paper_Space
  1

  0
ENDBLK
  5
58
330
55
100
AcDbEntity
 67
     1
  8
0
100
AcDbBlockEnd
  0
BLOCK
  5
52
330
50
100
AcDbEntity
 67
     1
  8
0
100
AcDbBlockBegin
  2
*Paper_Space0
 70
     0
 10
0.0
 20
0.0
 30
0.0
  3
*Paper_Space0
  1

  0
VIEWPORT
  5
6B
330
50
100
AcDbEntity
 67
     1
  8
0
100
AcDbViewport
 10
133.3499908447266
 20
101.5999970436096
 30
0.0
 40
381.3957395593835
 41
218.2856291881582
 68
     0
 69
     0
 12
133.3499908447266
 22
101.5999970436096
 13
0.0
 23
0.0
 14
10.0
 24
10.0
 15
10.0
 25
10.0
 16
0.0
 26
0.0
 36
1.0
 17
0.0
 27
0.0
 37
0.0
 42
50.0
 43
0.0
 44
0.0
 45
218.2856291881582
 50
0.0
 51
0.0
 72
   100
 90
    32800
  1

281
     0
 71
     1
 74
     0
110
0.0
120
0.0
130
0.0
111
1.0
121
0.0
131
0.0
112
0.0
122
1.0
132
0.0
 79
     0
146
0.0
170
     0
 61
     5
348
6A4
292
     1
282
     1
141
0.0
142
0.0
 63
   250
421
  3355443
  0
VIEWPORT
  5
6D
330
50
100
AcDbEntity
 67
     1
  8
0
100
AcDbViewport
 10
133.3499939441681
 20
101.5999939441681
 30
0.0
 40
213.3599903106689
 41
162.5599903106689
 68
     0
 69
     0
 12
210.0
 22
148.5
 13
0.0
 23
0.0
 14
10.0
 24
10.0
 15
10.0
 25
10.0
 16
0.0
 26
0.0
 36
1.0
 17
0.0
 27
0.0
 37
0.0
 42
50.0
 43
0.0
 44
0.0
 45
324.0677920111345
 50
0.0
 51
0.0
 72
   100
 90
    32864
  1

281
     0
 71
     1
 74
     0
110
0.0
120
0.0
130
0.0
111
1.0
121
0.0
131
0.0
112
0.0
122
1.0
132
0.0
 79
     0
146
0.0
170
     0
 61
     5
348
6A4
292
     1
282
     1
141
0.0
142
0.0
 63
   250
421
  3355443
  0
ENDBLK
  5
53
330
50
100
AcDbEntity
 67
     1
  8
0
100
AcDbBlockEnd
  0
ENDSEC
  0
SECTION
  2
ENTITIES
  0
LINE
  5
1BF
330
1F
100
AcDbEntity
  8
0
  6
Continuous
100
AcDbLine
 10
320.1812688148225
 20
427.4383025547551
 30
0.0
 11
314.1658788220214
 21
427.4383025547551
 31
0.0
  0
LINE
  5
1C0
330
1F
100
AcDbEntity
  8
0
  6
Continuous
100
AcDbLine
 10
320.1812688148225
 20
445.5260391990973
 30
0.0
 11
314.1658788220216
 21
445.5260391990973
 31
0.0
  0
ARC
  5
1C1
330
1F
100
AcDbEntity
  8
0
  6
Continuous
100
AcDbCircle
 10
283.1812707722511
 20
436.4821708769263
 30
0.0
 40
32.27750749712027
100
AcDbArc
 50
343.7283932338201
 51
16.27160676617952
  0
LINE
  5
1C2
330
1F
100
AcDbEntity
  8
0
  6
Continuous
100
AcDbLine
 10
322.1812830262788
 20
441.1869656515864
 30
0.0
 11
322.1812760952723
 21
431.7534088375964
 31
0.0
  0
LINE
  5
1C3
330
1F
100
AcDbEntity
  8
0
  6
Continuous
100
AcDbLine
 10
323.246619040674
 20
431.7201222438411
 30
0.0
 11
320.1812678664237
 21
431.8159175076621
 31
0.0
  0
LINE
  5
1C4
330
1F
100
AcDbEntity
  8
0
  6
Continuous
100
AcDbLine
 10
323.2451785452633
 20
441.2201368889559
 30
0.0
 11
320.181258267663
 21
441.1243861545547
 31
0.0
  0
LINE
  5
1C5
330
1F
100
AcDbEntity
  8
0
  6
Continuous
100
AcDbLine
 10
325.2452305162017
 20
431.7201327355517
 30
0.0
 11
323.2452118979936
 21
431.7201277644174
 31
0.0
  0
LINE
  5
1C6
330
1F
100
AcDbEntity
  8
0
  6
Continuous
100
AcDbLine
 10
325.2452271790807
 20
441.2201471575603
 30
0.0
 11
323.2452137112534
 21
441.2201507580989
 31
0.0
  0
LINE
  5
1C7
330
1F
100
AcDbEntity
  8
0
  6
Continuous
100
AcDbLine
 10
325.2452292478072
 20
441.4701321188995
 30
0.0
 11
325.2452284474755
 21
431.4701477742127
 31
0.0
  0
LINE
  5
1C8
330
1F
100
AcDbEntity
  8
0
  6
Continuous
100
AcDbLine
 10
337.7451933814218
 20
441.4701234113558
 30
0.0
 11
325.2452292478072
 21
441.4701321188995
 31
0.0
  0
LINE
  5
1C9
330
1F
100
AcDbEntity
  8
0
  6
Continuous
100
AcDbLine
 10
337.7451977314706
 20
431.470147638342
 30
0.0
 11
325.2452284474755
 21
431.4701477742127
 31
0.0
  0
LINE
  5
1CA
330
1F
100
AcDbEntity
  8
0
100
AcDbLine
 10
337.7451933814218
 20
441.4701234113558
 30
0.0
 11
337.7451977314706
 21
431.470147638342
 31
0.0
  0
LINE
  5
1CB
330
1F
100
AcDbEntity
  8
0
  6
Continuous
100
AcDbLine
 10
320.1812688148225
 20
445.5260391990973
 30
0.0
 11
320.1812688148225
 21
427.4383025547551
 31
0.0
  0
ARC
  5
1CC
330
1F
100
AcDbEntity
  8
0
  6
Continuous
100
AcDbCircle
 10
320.5978607722511
 20
425.4821708769262
 30
0.0
 40
2.0
100
AcDbArc
 50
90.0
 51
163.6173500000025
  0
ARC
  5
1CD
330
1F
100
AcDbEntity
  8
0
  6
Continuous
100
AcDbCircle
 10
327.1812807722511
 20
444.4821708769262
 30
0.0
 40
1.0
100
AcDbArc
 50
0.0
 51
90.0
  0
ARC
  5
1CE
330
1F
100
AcDbEntity
  8
0
  6
Continuous
100
AcDbCircle
 10
327.1812807722511
 20
428.4821708769262
 30
0.0
 40
1.0
100
AcDbArc
 50
270.0
 51
0.0
  0
ARC
  5
1CF
330
1F
100
AcDbEntity
  8
0
  6
Continuous
100
AcDbCircle
 10
320.5978607722511
 20
447.4821708769262
 30
0.0
 40
2.0
100
AcDbArc
 50
196.3826450000029
 51
270.0
  0
LINE
  5
1D1
330
1F
100
AcDbEntity
  8
0
  6
Continuous
100
AcDbLine
 10
328.1812807722511
 20
431.4821508769263
 30
0.0
 11
328.1812807722511
 21
428.4821708769262
 31
0.0
  0
LINE
  5
1D2
330
1F
100
AcDbEntity
  8
0
  6
Continuous
100
AcDbLine
 10
328.1812807722511
 20
444.4821708769262
 30
0.0
 11
328.1812807722511
 21
441.4821408769262
 31
0.0
  0
LINE
  5
1D3
330
1F
100
AcDbEntity
  8
0
  6
Continuous
100
AcDbLine
 10
327.1812807722511
 20
427.4821708769263
 30
0.0
 11
320.5978607722511
 21
427.4821708769263
 31
0.0
  0
LINE
  5
1D4
330
1F
100
AcDbEntity
  8
0
  6
Continuous
100
AcDbLine
 10
327.1812807722511
 20
445.4821708769262
 30
0.0
 11
320.5978607722511
 21
445.4821708769262
 31
0.0
  0
ARC
  5
1D7
330
1F
100
AcDbEntity
  8
0
  6
Continuous
100
AcDbCircle
 10
293.7814907722511
 20
477.1224908769263
 30
0.0
 40
5.0
100
AcDbArc
 50
255.3812299999981
 51
268.000020000001
  0
ARC
  5
1D8
330
1F
100
AcDbEntity
  8
0
  6
Continuous
100
AcDbCircle
 10
272.581050772251
 20
477.1224908769263
 30
0.0
 40
5.0
100
AcDbArc
 50
272.0000299999979
 51
284.6187700000019
  0
ARC
  5
1D9
330
1F
100
AcDbEntity
  8
0
  6
Continuous
100
AcDbCircle
 10
272.581050772251
 20
395.8418508769263
 30
0.0
 40
5.0
100
AcDbArc
 50
75.38122999999815
 51
88.00002000000096
  0
ARC
  5
1DA
330
1F
100
AcDbEntity
  8
0
  6
Continuous
100
AcDbCircle
 10
293.7814907722511
 20
395.8418508769263
 30
0.0
 40
5.0
100
AcDbArc
 50
92.00002999999796
 51
104.6187700000018
  0
ARC
  5
1DB
330
1F
100
AcDbEntity
  8
0
  6
Continuous
100
AcDbCircle
 10
322.0668527722509
 20
420.6104408769262
 30
0.0
 40
5.0
100
AcDbArc
 50
157.7963899999976
 51
184.9999699999984
  0
ARC
  5
1DC
330
1F
100
AcDbEntity
  8
0
  6
Continuous
100
AcDbCircle
 10
322.0668527722509
 20
452.3539008769263
 30
0.0
 40
5.0
100
AcDbArc
 50
175.0000300000015
 51
202.2036100000024
  0
ARC
  5
1DD
330
1F
100
AcDbEntity
  8
0
  6
Continuous
100
AcDbCircle
 10
312.1726497722511
 20
407.4907808769263
 30
0.0
 40
6.0
100
AcDbArc
 50
271.9999999999971
 51
4.999994600000053
  0
ARC
  5
1DE
330
1F
100
AcDbEntity
  8
0
  6
Continuous
100
AcDbCircle
 10
312.172656772251
 20
465.4735308769264
 30
0.0
 40
6.0
100
AcDbArc
 50
355.0000100000003
 51
88.000003999996
  0
LINE
  5
1DF
330
1F
100
AcDbEntity
  8
0
  6
Continuous
100
AcDbLine
 10
312.3820537722511
 20
471.4698908769263
 30
0.0
 11
293.6069837722511
 21
472.1255308769264
 31
0.0
  0
LINE
  5
1E0
330
1F
100
AcDbEntity
  8
0
  6
Continuous
100
AcDbLine
 10
318.1498147722511
 20
464.9506108769263
 30
0.0
 11
317.0858687722512
 21
452.7896708769263
 31
0.0
  0
LINE
  5
1E1
330
1F
100
AcDbEntity
  8
0
  6
Continuous
100
AcDbLine
 10
318.1498147722511
 20
408.0137308769264
 30
0.0
 11
317.0858727722511
 21
420.1746408769263
 31
0.0
  0
LINE
  5
1E2
330
1F
100
AcDbEntity
  8
0
  6
Continuous
100
AcDbLine
 10
312.3820537722511
 20
401.4944408769263
 30
0.0
 11
293.606990772251
 21
400.8388008769263
 31
0.0
  0
ARC
  5
1E3
330
1F
100
AcDbEntity
  8
0
  6
Continuous
100
AcDbCircle
 10
244.2956887722512
 20
452.3539008769263
 30
0.0
 40
5.0
100
AcDbArc
 50
337.7963899999993
 51
4.999969999998843
  0
ARC
  5
1E4
330
1F
100
AcDbEntity
  8
0
  6
Continuous
100
AcDbCircle
 10
244.2956887722512
 20
420.6104408769262
 30
0.0
 40
5.0
100
AcDbArc
 50
355.0000300000011
 51
22.20361000000029
  0
ARC
  5
1E5
330
1F
100
AcDbEntity
  8
0
  6
Continuous
100
AcDbCircle
 10
254.189891772251
 20
465.4735608769263
 30
0.0
 40
6.0
100
AcDbArc
 50
91.99999999999715
 51
184.9999945999968
  0
ARC
  5
1E6
330
1F
100
AcDbEntity
  8
0
  6
Continuous
100
AcDbCircle
 10
283.1812707722511
 20
436.4821708769262
 30
0.0
 40
37.0
100
AcDbArc
 50
14.14808445404666
 51
345.8519155459533
  0
ARC
  5
1E7
330
1F
100
AcDbEntity
  8
0
  6
Continuous
100
AcDbCircle
 10
254.1898847722509
 20
407.4908108769262
 30
0.0
 40
6.0
100
AcDbArc
 50
175.0000100000003
 51
268.000003999996
  0
LINE
  5
1E8
330
1F
100
AcDbEntity
  8
0
  6
Continuous
100
AcDbLine
 10
253.9804877722509
 20
401.4944508769263
 30
0.0
 11
272.755557772251
 21
400.8388108769262
 31
0.0
  0
LINE
  5
1E9
330
1F
100
AcDbEntity
  8
0
  6
Continuous
100
AcDbLine
 10
248.2127267722508
 20
408.0137308769263
 30
0.0
 11
249.276672772251
 21
420.1746708769262
 31
0.0
  0
LINE
  5
1EA
330
1F
100
AcDbEntity
  8
0
  6
Continuous
100
AcDbLine
 10
248.212726772251
 20
464.9506108769262
 30
0.0
 11
249.276668772251
 21
452.7897008769262
 31
0.0
  0
LINE
  5
1EB
330
1F
100
AcDbEntity
  8
0
  6
Continuous
100
AcDbLine
 10
253.9804877722511
 20
471.4699008769263
 30
0.0
 11
272.7555507722511
 21
472.1255408769263
 31
0.0
  0
LINE
  5
1EC
330
1F
100
AcDbEntity
  8
0
100
AcDbLine
 10
290.681358544743
 20
206.8205426291459
 30
0.0
 11
290.6812450160951
 21
186.1865678976887
 31
0.0
  0
LINE
  5
1ED
330
1F
100
AcDbEntity
  8
0
100
AcDbLine
 10
291.1811981498304
 20
183.3205860964454
 30
0.0
 11
291.181203560094
 21
184.3205808300168
 31
0.0
  0
LINE
  5
1EE
330
1F
100
AcDbEntity
  8
0
100
AcDbLine
 10
291.181203560094
 20
184.3205808300168
 30
0.0
 11
290.6812005701754
 21
186.1866102752754
 31
0.0
  0
CIRCLE
  5
1EF
330
1F
100
AcDbEntity
  8
0
100
AcDbCircle
 10
446.7797539294697
 20
87.07048313183648
 30
0.0
 40
3.5
  0
ARC
  5
1F0
330
1F
100
AcDbEntity
  8
0
100
AcDbCircle
 10
312.1726334605705
 20
103.5545249134202
 30
0.0
 40
5.4168334
100
AcDbArc
 50
301.1868699999924
 51
345.7430899999996
  0
ARC
  5
1F1
330
1F
100
AcDbEntity
  8
0
100
AcDbCircle
 10
312.1726334605705
 20
103.5545249134202
 30
0.0
 40
5.4168334
100
AcDbArc
 50
194.2569299999999
 51
238.8131800000045
  0
ARC
  5
1F2
330
1F
100
AcDbEntity
  8
0
100
AcDbCircle
 10
254.1898694491053
 20
103.5545145938815
 30
0.0
 40
5.4168334
100
AcDbArc
 50
301.1868699999924
 51
345.7430899999996
  0
ARC
  5
1F3
330
1F
100
AcDbEntity
  8
0
100
AcDbCircle
 10
254.1898694491053
 20
103.5545145938815
 30
0.0
 40
5.4168334
100
AcDbArc
 50
194.2568999999955
 51
238.8131800000045
  0
ARC
  5
1F4
330
1F
100
AcDbEntity
  8
0
100
AcDbCircle
 10
263.119500317433
 20
128.8258473782467
 30
0.0
 40
5.0
100
AcDbArc
 50
0.0000599999995248
 51
90.00002599999742
  0
ARC
  5
1F5
330
1F
100
AcDbEntity
  8
0
100
AcDbCircle
 10
253.1898820283989
 20
128.8258491144025
 30
0.0
 40
5.0
100
AcDbArc
 50
90.00002599999742
 51
180.0000599999995
  0
ARC
  5
1F6
330
1F
100
AcDbEntity
  8
0
100
AcDbCircle
 10
254.1898663214956
 20
132.8204952143392
 30
0.0
 40
5.0
100
AcDbArc
 50
220.7177200000035
 51
295.1062999999992
  0
ARC
  5
1F7
330
1F
100
AcDbEntity
  8
0
100
AcDbCircle
 10
303.2430060526672
 20
128.8258437004143
 30
0.0
 40
5.0
100
AcDbArc
 50
90.00006300000373
 51
180.0000599999995
  0
ARC
  5
1F8
330
1F
100
AcDbEntity
  8
0
100
AcDbCircle
 10
313.1726354922532
 20
128.8258469306652
 30
0.0
 40
5.0
100
AcDbArc
 50
0.0000599999995248
 51
90.00006300000373
  0
ARC
  5
1F9
330
1F
100
AcDbEntity
  8
0
100
AcDbCircle
 10
312.1726389120111
 20
132.8205120453984
 30
0.0
 40
5.0
100
AcDbArc
 50
244.8936600000003
 51
319.2823699999938
  0
ARC
  5
1FA
330
1F
100
AcDbEntity
  8
0
100
AcDbCircle
 10
301.681277548629
 20
94.32051395495941
 30
0.0
 40
2.0
100
AcDbArc
 50
180.0003199999996
 51
251.8017599999934
  0
ARC
  5
1FB
330
1F
100
AcDbEntity
  8
0
100
AcDbCircle
 10
278.6812701235203
 20
94.3205017603096
 30
0.0
 40
2.0
100
AcDbArc
 50
270.0001199999991
 51
0.0003199999996385
  0
ARC
  5
1FC
330
1F
100
AcDbEntity
  8
0
100
AcDbCircle
 10
278.6812595769059
 20
101.8204908833689
 30
0.0
 40
2.0
100
AcDbArc
 50
0.0003199999996385
 51
90.00011599999345
  0
ARC
  5
1FD
330
1F
100
AcDbEntity
  8
0
100
AcDbCircle
 10
319.1812688148445
 20
168.820682282657
 30
0.0
 40
1.0
100
AcDbArc
 50
0.0003799999991644
 51
90.00011599999345
  0
ARC
  5
1FE
330
1F
100
AcDbEntity
  8
0
100
AcDbCircle
 10
287.681265316045
 20
101.8204959814803
 30
0.0
 40
2.0
100
AcDbArc
 50
90.00011599999345
 51
180.0003199999996
  0
ARC
  5
1FF
330
1F
100
AcDbEntity
  8
0
100
AcDbCircle
 10
316.9934309842151
 20
171.8206798121899
 30
0.0
 40
2.0
100
AcDbArc
 50
194.9998300000036
 51
269.999890000002
  0
ARC
  5
200
330
1F
100
AcDbEntity
  8
0
100
AcDbCircle
 10
219.6382267296358
 20
141.0574985794865
 30
0.0
 40
100.0
100
AcDbArc
 50
0.9999899999954543
 51
14.99999999999445
  0
ARC
  5
201
330
1F
100
AcDbEntity
  8
0
100
AcDbCircle
 10
259.1812787010121
 20
182.3205666032232
 30
0.0
 40
1.0
100
AcDbArc
 50
89.99966600000027
 51
180.0002700000011
  0
ARC
  5
202
330
1F
100
AcDbEntity
  8
0
100
AcDbCircle
 10
307.181269274188
 20
182.3205634060537
 30
0.0
 40
1.0
100
AcDbArc
 50
0.0002700000011195
 51
90.00011599999345
  0
ARC
  5
203
330
1F
100
AcDbEntity
  8
0
100
AcDbCircle
 10
256.2505751903668
 20
174.3205692863306
 30
0.0
 40
4.0
100
AcDbArc
 50
89.99989099999686
 51
164.9998599999982
  0
ARC
  5
204
330
1F
100
AcDbEntity
  8
0
100
AcDbCircle
 10
287.6812724339902
 20
94.32050891857327
 30
0.0
 40
2.0
100
AcDbArc
 50
180.0003199999996
 51
270.0001199999991
  0
ARC
  5
205
330
1F
100
AcDbEntity
  8
0
100
AcDbCircle
 10
319.1812597323353
 20
104.8204861981511
 30
0.0
 40
1.0
100
AcDbArc
 50
269.9996699999928
 51
0.0003199999996385
  0
ARC
  5
206
330
1F
100
AcDbEntity
  8
0
100
AcDbCircle
 10
264.6812624373797
 20
94.32049826903776
 30
0.0
 40
2.0
100
AcDbArc
 50
288.1982400000066
 51
0.0003799999991644
  0
ARC
  5
207
330
1F
100
AcDbEntity
  8
0
100
AcDbCircle
 10
304.6812631181758
 20
98.82049103568007
 30
0.0
 40
5.0
100
AcDbArc
 50
90.00006300000373
 51
180.0000599999995
  0
ARC
  5
208
330
1F
100
AcDbEntity
  8
0
100
AcDbCircle
 10
261.6812624842824
 20
98.82048817464179
 30
0.0
 40
5.0
100
AcDbArc
 50
0.0000599999995248
 51
90.00002599999742
  0
ARC
  5
209
330
1F
100
AcDbEntity
  8
0
100
AcDbCircle
 10
247.1812644437311
 20
104.8204966593242
 30
0.0
 40
1.0
100
AcDbArc
 50
180.0002700000011
 51
269.9996699999928
  0
ARC
  5
20A
330
1F
100
AcDbEntity
  8
0
100
AcDbCircle
 10
327.1812704994268
 20
112.3205038143056
 30
0.0
 40
1.0
100
AcDbArc
 50
269.9996699999928
 51
0.0003199999996385
  0
ARC
  5
20B
330
1F
100
AcDbEntity
  8
0
100
AcDbCircle
 10
322.1812695779354
 20
131.3205063060169
 30
0.0
 40
2.0
100
AcDbArc
 50
180.0003199999996
 51
270.0001199999991
  0
ARC
  5
20C
330
1F
100
AcDbEntity
  8
0
100
AcDbCircle
 10
310.111932392392
 20
174.3205696067187
 30
0.0
 40
4.0
100
AcDbArc
 50
15.00006000000139
 51
90.00000299999769
  0
ARC
  5
20D
330
1F
100
AcDbEntity
  8
0
100
AcDbCircle
 10
327.1812757480088
 20
128.3205160470944
 30
0.0
 40
1.0
100
AcDbArc
 50
0.0003799999991644
 51
89.99966600000027
  0
ARC
  5
20E
330
1F
100
AcDbEntity
  8
0
100
AcDbCircle
 10
346.7242654465244
 20
141.0575000626382
 30
0.0
 40
100.0
100
AcDbArc
 50
165.0000000000055
 51
179.0000100000045
  0
LINE
  5
20F
330
1F
100
AcDbEntity
  8
0
100
AcDbLine
 10
309.3676281835192
 20
98.92047566919288
 30
0.0
 11
314.9776215734064
 21
98.92048710711661
 31
0.0
  0
LINE
  5
210
330
1F
100
AcDbEntity
  8
0
100
AcDbLine
 10
306.1726358660678
 20
102.2205463674282
 30
0.0
 11
318.1726317913387
 21
102.2205407672612
 31
0.0
  0
LINE
  5
211
330
1F
100
AcDbEntity
  8
0
100
AcDbLine
 10
318.1726226014364
 20
103.8205023290546
 30
0.0
 11
318.1726317913387
 21
102.2205407672612
 31
0.0
  0
LINE
  5
212
330
1F
100
AcDbEntity
  8
0
100
AcDbLine
 10
306.1726249618309
 20
103.8205089592977
 30
0.0
 11
306.1726358660678
 21
102.2205463674282
 31
0.0
  0
LINE
  5
213
330
1F
100
AcDbEntity
  8
0
100
AcDbLine
 10
251.3848796231962
 20
98.92049106467343
 30
0.0
 11
256.9948541332719
 21
98.92047884773056
 31
0.0
  0
LINE
  5
214
330
1F
100
AcDbEntity
  8
0
100
AcDbLine
 10
248.18986413272
 20
102.220529021331
 30
0.0
 11
260.1898626294929
 21
102.2205218760498
 31
0.0
  0
LINE
  5
215
330
1F
100
AcDbEntity
  8
0
100
AcDbLine
 10
260.1898671763979
 20
103.8205101829383
 30
0.0
 11
260.1898626294929
 21
102.2205218760498
 31
0.0
  0
LINE
  5
216
330
1F
100
AcDbEntity
  8
0
100
AcDbLine
 10
248.1898746797965
 20
103.8205137229531
 30
0.0
 11
248.18986413272
 21
102.220529021331
 31
0.0
  0
LINE
  5
217
330
1F
100
AcDbEntity
  8
0
100
AcDbLine
 10
322.1812830262788
 20
165.5374941094092
 30
0.0
 11
322.1812760952723
 21
156.1039372954193
 31
0.0
  0
LINE
  5
218
330
1F
100
AcDbEntity
  8
0
100
AcDbLine
 10
323.246619040674
 20
156.070650701664
 30
0.0
 11
320.1812678664237
 21
156.1664459654849
 31
0.0
  0
LINE
  5
219
330
1F
100
AcDbEntity
  8
0
100
AcDbLine
 10
323.2451785452633
 20
165.5706653467787
 30
0.0
 11
320.181258267663
 21
165.4749146123775
 31
0.0
  0
LINE
  5
21A
330
1F
100
AcDbEntity
  8
0
100
AcDbLine
 10
325.2452305162017
 20
156.0706611933745
 30
0.0
 11
323.2452118979936
 21
156.0706562222402
 31
0.0
  0
LINE
  5
21B
330
1F
100
AcDbEntity
  8
0
100
AcDbLine
 10
325.2452271790807
 20
165.5706756153832
 30
0.0
 11
323.2452137112534
 21
165.5706792159218
 31
0.0
  0
LINE
  5
21C
330
1F
100
AcDbEntity
  8
0
100
AcDbLine
 10
325.2452292478072
 20
165.8206605767223
 30
0.0
 11
325.2452284474755
 21
155.8206762320356
 31
0.0
  0
LINE
  5
21D
330
1F
100
AcDbEntity
  8
0
100
AcDbLine
 10
337.7451933814218
 20
165.8206518691787
 30
0.0
 11
325.2452292478072
 21
165.8206605767223
 31
0.0
  0
LINE
  5
21E
330
1F
100
AcDbEntity
  8
0
100
AcDbLine
 10
337.7451977314706
 20
155.8206760961649
 30
0.0
 11
325.2452284474755
 21
155.8206762320356
 31
0.0
  0
LINE
  5
21F
330
1F
100
AcDbEntity
  8
0
100
AcDbLine
 10
337.7451933814218
 20
165.8206518691787
 30
0.0
 11
337.7451977314706
 21
155.8206760961649
 31
0.0
  0
LINE
  5
220
330
1F
100
AcDbEntity
  8
0
100
AcDbLine
 10
253.1898627063399
 20
133.8258414707203
 30
0.0
 11
263.1194930030931
 21
133.825844185933
 31
0.0
  0
LINE
  5
221
330
1F
100
AcDbEntity
  8
0
100
AcDbLine
 10
320.1812563279013
 20
110.820497717828
 30
0.0
 11
315.181255238067
 21
110.8204988096293
 31
0.0
  0
LINE
  5
222
330
1F
100
AcDbEntity
  8
0
100
AcDbLine
 10
247.1812664327026
 20
103.8205156478065
 30
0.0
 11
283.181261930398
 21
103.8205058738644
 31
0.0
  0
LINE
  5
223
330
1F
100
AcDbEntity
  8
0
100
AcDbLine
 10
246.1812552785984
 20
110.8204954822957
 30
0.0
 11
283.1812669611786
 21
110.8205132283699
 31
0.0
  0
LINE
  5
224
330
1F
100
AcDbEntity
  8
0
100
AcDbLine
 10
266.6812673409111
 20
94.32051148078128
 30
0.0
 11
266.6812601528243
 21
98.82050080489429
 31
0.0
  0
LINE
  5
225
330
1F
100
AcDbEntity
  8
0
100
AcDbLine
 10
299.6812623590902
 20
94.32050692367269
 30
0.0
 11
299.6812697649782
 21
98.82052247784301
 31
0.0
  0
LINE
  5
226
330
1F
100
AcDbEntity
  8
0
100
AcDbLine
 10
246.6321778430449
 20
136.6542944295209
 30
0.0
 11
246.1812552785984
 21
110.8204954822957
 31
0.0
  0
LINE
  5
227
330
1F
100
AcDbEntity
  8
0
100
AcDbLine
 10
252.3868756738945
 20
175.3558191847667
 30
0.0
 11
250.1316938864168
 21
166.9393577685462
 31
0.0
  0
LINE
  5
228
330
1F
100
AcDbEntity
  8
0
100
AcDbLine
 10
280.6812619089353
 20
101.8205056402268
 30
0.0
 11
280.6812690268805
 21
94.32051857731968
 31
0.0
  0
LINE
  5
229
330
1F
100
AcDbEntity
  8
0
100
AcDbLine
 10
308.1812434043424
 20
92.32051840324247
 30
0.0
 11
287.6812678181295
 21
92.32051706021408
 31
0.0
  0
LINE
  5
22A
330
1F
100
AcDbEntity
  8
0
100
AcDbLine
 10
302.9136952716545
 20
131.6373223799279
 30
0.0
 11
310.0511418438898
 21
128.2929265542944
 31
0.0
  0
LINE
  5
22B
330
1F
100
AcDbEntity
  8
0
100
AcDbLine
 10
246.1812552785984
 20
110.8204954822957
 30
0.0
 11
246.1812542811483
 21
104.8205005197458
 31
0.0
  0
LINE
  5
22C
330
1F
100
AcDbEntity
  8
0
100
AcDbLine
 10
258.1812657494552
 20
92.32051764563127
 30
0.0
 11
278.681269800873
 21
92.32051898866163
 31
0.0
  0
LINE
  5
22D
330
1F
100
AcDbEntity
  8
0
100
AcDbLine
 10
258.1812668240946
 20
182.3205714937213
 30
0.0
 11
258.1812592919535
 21
178.3205634231241
 31
0.0
  0
LINE
  5
22E
330
1F
100
AcDbEntity
  8
0
100
AcDbLine
 10
268.1195039861461
 20
128.8258564032326
 30
0.0
 11
268.1194933145641
 21
110.8205096161034
 31
0.0
  0
LINE
  5
22F
330
1F
100
AcDbEntity
  8
0
100
AcDbLine
 10
248.1898680736781
 20
128.8258462698733
 30
0.0
 11
248.1898659811463
 21
110.8205059942648
 31
0.0
  0
LINE
  5
230
330
1F
100
AcDbEntity
  8
0
100
AcDbLine
 10
246.1812355637505
 20
110.8205073281715
 30
0.0
 11
320.1812563279013
 21
110.820497717828
 31
0.0
  0
LINE
  5
231
330
1F
100
AcDbEntity
  8
0
100
AcDbLine
 10
307.1812587209204
 20
183.3205612298537
 30
0.0
 11
259.1812595686947
 21
183.3205579155024
 31
0.0
  0
LINE
  5
232
330
1F
100
AcDbEntity
  8
0
100
AcDbLine
 10
318.1726280104144
 20
128.8258509892449
 30
0.0
 11
318.1726293465517
 21
110.820508653484
 31
0.0
  0
LINE
  5
233
330
1F
100
AcDbEntity
  8
0
100
AcDbLine
 10
319.6230164247499
 20
142.8027429371708
 30
0.0
 11
320.1725363403653
 21
111.3204831060279
 31
0.0
  0
LINE
  5
234
330
1F
100
AcDbEntity
  8
0
100
AcDbLine
 10
315.061590039692
 20
171.3030231557391
 30
0.0
 11
316.230829009228
 21
166.9393795765735
 31
0.0
  0
LINE
  5
235
330
1F
100
AcDbEntity
  8
0
100
AcDbLine
 10
304.6812669691417
 20
103.8205161335756
 30
0.0
 11
283.181261930398
 21
103.8205058738644
 31
0.0
  0
LINE
  5
236
330
1F
100
AcDbEntity
  8
0
100
AcDbLine
 10
320.1812563279013
 20
110.820497717828
 30
0.0
 11
320.1812587591203
 21
104.8205006951259
 31
0.0
  0
LINE
  5
237
330
1F
100
AcDbEntity
  8
0
100
AcDbLine
 10
320.172536362496
 20
111.3205180917323
 30
0.0
 11
320.1812606137378
 21
110.8204951426376
 31
0.0
  0
LINE
  5
238
330
1F
100
AcDbEntity
  8
0
100
AcDbLine
 10
319.1812668716875
 20
103.8205137583063
 30
0.0
 11
304.6812669691417
 21
103.8205161335756
 31
0.0
  0
LINE
  5
239
330
1F
100
AcDbEntity
  8
0
100
AcDbLine
 10
285.6812655776482
 20
101.8205146652128
 30
0.0
 11
285.6812572444514
 21
94.32050188728656
 31
0.0
  0
LINE
  5
23A
330
1F
100
AcDbEntity
  8
0
100
AcDbLine
 10
263.4488316803947
 20
131.6372959797491
 30
0.0
 11
256.31138229516
 21
128.2929059096746
 31
0.0
  0
LINE
  5
23B
330
1F
100
AcDbEntity
  8
0
100
AcDbLine
 10
327.1812557511471
 20
129.3204962125101
 30
0.0
 11
322.1812572328149
 21
129.3204957591975
 31
0.0
  0
LINE
  5
23C
330
1F
100
AcDbEntity
  8
0
100
AcDbLine
 10
313.9756502603341
 20
175.3558263023165
 30
0.0
 11
315.061590039692
 21
171.3030231557391
 31
0.0
  0
LINE
  5
23D
330
1F
100
AcDbEntity
  8
0
100
AcDbLine
 10
298.2430006769964
 20
128.825847367406
 30
0.0
 11
298.2429934340839
 21
110.8204985201245
 31
0.0
  0
LINE
  5
23E
330
1F
100
AcDbEntity
  8
0
100
AcDbLine
 10
328.1812541732709
 20
128.3204962573773
 30
0.0
 11
328.1812635186639
 21
112.3205102546454
 31
0.0
  0
LINE
  5
23F
330
1F
100
AcDbEntity
  8
0
100
AcDbLine
 10
319.1812667902875
 20
169.8206902232256
 30
0.0
 11
316.9934306615678
 21
169.8206970405418
 31
0.0
  0
LINE
  5
240
330
1F
100
AcDbEntity
  8
0
100
AcDbLine
 10
246.7395048343249
 20
142.8027470229741
 30
0.0
 11
246.6321778430449
 21
136.6542944295209
 31
0.0
  0
LINE
  5
241
330
1F
100
AcDbEntity
  8
0
100
AcDbLine
 10
320.1812618340814
 20
168.8206887229967
 30
0.0
 11
320.1812578170657
 21
131.3204972145778
 31
0.0
  0
LINE
  5
242
330
1F
100
AcDbEntity
  8
0
100
AcDbLine
 10
308.1812708724747
 20
182.3205763579145
 30
0.0
 11
308.1812633403335
 21
178.3205682873173
 31
0.0
  0
LINE
  5
243
330
1F
100
AcDbEntity
  8
0
100
AcDbLine
 10
313.1726247492441
 20
133.8258457985037
 30
0.0
 11
303.2429953096582
 21
133.825842568253
 31
0.0
  0
LINE
  5
244
330
1F
100
AcDbEntity
  8
0
100
AcDbLine
 10
327.1812561800889
 20
111.320497602807
 30
0.0
 11
320.1725397911653
 21
111.3205160315799
 31
0.0
  0
LINE
  5
245
330
1F
100
AcDbEntity
  8
0
100
AcDbLine
 10
256.2505672713657
 20
178.3205516419089
 30
0.0
 11
310.1119227664331
 21
178.3205646542745
 31
0.0
  0
LINE
  5
246
330
1F
100
AcDbEntity
  8
0
100
AcDbLine
 10
275.1812918879684
 20
183.3205860964454
 30
0.0
 11
275.1812864777048
 21
184.3205808300168
 31
0.0
  0
LINE
  5
247
330
1F
100
AcDbEntity
  8
0
100
AcDbLine
 10
275.1812864777048
 20
184.3205808300168
 30
0.0
 11
291.1812022502486
 21
184.3205872773582
 31
0.0
  0
LINE
  5
248
330
1F
100
AcDbEntity
  8
0
100
AcDbLine
 10
275.1812864777048
 20
184.3205808300168
 30
0.0
 11
275.6812894676234
 21
186.1866102752754
 31
0.0
  0
LINE
  5
249
330
1F
100
AcDbEntity
  8
0
100
AcDbLine
 10
277.1812988070833
 20
208.320583493709
 30
0.0
 11
289.1812304226757
 21
208.3205815356933
 31
0.0
  0
LINE
  5
24A
330
1F
100
AcDbEntity
  8
0
100
AcDbLine
 10
277.1813056865524
 20
208.3206143591088
 30
0.0
 11
275.6812942574832
 21
206.8206073007714
 31
0.0
  0
LINE
  5
24B
330
1F
100
AcDbEntity
  8
0
100
AcDbLine
 10
289.1812304226757
 20
208.3205815356933
 30
0.0
 11
290.6812374810129
 21
206.8205701066241
 31
0.0
  0
LINE
  5
24C
330
1F
100
AcDbEntity
  8
0
100
AcDbLine
 10
275.6812925283948
 20
206.8205850070448
 30
0.0
 11
275.6812894676234
 21
186.1866102752754
 31
0.0
  0
LINE
  5
24D
330
1F
100
AcDbEntity
  8
0
100
AcDbLine
 10
275.6812925283948
 20
206.8205850070448
 30
0.0
 11
290.6812340597207
 21
206.8205838286777
 31
0.0
  0
LINE
  5
24E
330
1F
100
AcDbEntity
  8
0
100
AcDbLine
 10
275.6812894676234
 20
186.1866102752754
 30
0.0
 11
290.4555361246391
 21
186.1866163195917
 31
0.0
  0
ARC
  5
24F
330
1F
100
AcDbEntity
  8
0
100
AcDbCircle
 10
417.7883639294695
 20
103.5544831318366
 30
0.0
 40
5.4168334
100
AcDbArc
 50
301.186714999998
 51
345.7429799999945
  0
ARC
  5
250
330
1F
100
AcDbEntity
  8
0
100
AcDbCircle
 10
417.7883639294695
 20
103.5544831318366
 30
0.0
 40
5.4168334
100
AcDbArc
 50
194.257019999992
 51
238.8132800000028
  0
ARC
  5
251
330
1F
100
AcDbEntity
  8
0
100
AcDbCircle
 10
475.7711139294697
 20
103.5544831318366
 30
0.0
 40
5.4168334
100
AcDbArc
 50
301.186714999998
 51
345.7429799999945
  0
ARC
  5
252
330
1F
100
AcDbEntity
  8
0
100
AcDbCircle
 10
475.7711139294697
 20
103.5544831318366
 30
0.0
 40
5.4168334
100
AcDbArc
 50
194.257019999992
 51
238.8132800000028
  0
ARC
  5
253
330
1F
100
AcDbEntity
  8
0
100
AcDbCircle
 10
410.7797539294697
 20
104.8204831318365
 30
0.0
 40
1.0
100
AcDbArc
 50
180.0
 51
270.0
  0
ARC
  5
254
330
1F
100
AcDbEntity
  8
0
100
AcDbCircle
 10
425.2797539294697
 20
98.82048313183648
 30
0.0
 40
5.0
100
AcDbArc
 50
0.0
 51
90.0
  0
ARC
  5
255
330
1F
100
AcDbEntity
  8
0
100
AcDbCircle
 10
468.2797539294697
 20
98.82048313183648
 30
0.0
 40
5.0
100
AcDbArc
 50
90.0
 51
180.0
  0
ARC
  5
256
330
1F
100
AcDbEntity
  8
0
100
AcDbCircle
 10
428.2797539294697
 20
94.32048313183647
 30
0.0
 40
2.0
100
AcDbArc
 50
270.0
 51
0.0
  0
ARC
  5
257
330
1F
100
AcDbEntity
  8
0
100
AcDbCircle
 10
482.7797539294697
 20
104.8204831318365
 30
0.0
 40
1.0
100
AcDbArc
 50
270.0
 51
0.0
  0
ARC
  5
258
330
1F
100
AcDbEntity
  8
0
100
AcDbCircle
 10
465.2797539294697
 20
94.32048313183647
 30
0.0
 40
2.0
100
AcDbArc
 50
180.0
 51
270.0
  0
ARC
  5
259
330
1F
100
AcDbEntity
  8
0
100
AcDbCircle
 10
419.8490639294695
 20
174.3205431318365
 30
0.0
 40
4.0
100
AcDbArc
 50
90.0
 51
164.9999899999978
  0
ARC
  5
25A
330
1F
100
AcDbEntity
  8
0
100
AcDbCircle
 10
473.7104139294697
 20
174.3205431318365
 30
0.0
 40
4.0
100
AcDbArc
 50
15.00001000000212
 51
90.0
  0
CIRCLE
  5
25B
330
1F
100
AcDbEntity
  8
0
100
AcDbCircle
 10
446.7797539294697
 20
120.3204831318364
 30
0.0
 40
0.60000002
  0
ARC
  5
25C
330
1F
100
AcDbEntity
  8
0
100
AcDbCircle
 10
476.7711139294696
 20
128.8258231318364
 30
0.0
 40
5.0
100
AcDbArc
 50
0.0
 51
90.0
  0
ARC
  5
25D
330
1F
100
AcDbEntity
  8
0
100
AcDbCircle
 10
466.8414939294693
 20
128.8258231318364
 30
0.0
 40
5.0
100
AcDbArc
 50
90.0
 51
180.0
  0
ARC
  5
25E
330
1F
100
AcDbEntity
  8
0
100
AcDbCircle
 10
475.7711139294697
 20
132.8204831318364
 30
0.0
 40
5.0
100
AcDbArc
 50
244.8935499999998
 51
319.2822949999987
  0
ARC
  5
25F
330
1F
100
AcDbEntity
  8
0
100
AcDbCircle
 10
417.7883639294695
 20
132.8204831318364
 30
0.0
 40
5.0
100
AcDbArc
 50
220.7177000000023
 51
295.1064489999954
  0
ARC
  5
260
330
1F
100
AcDbEntity
  8
0
100
AcDbCircle
 10
426.7179839294694
 20
128.8258231318364
 30
0.0
 40
5.0
100
AcDbArc
 50
0.0
 51
90.0
  0
ARC
  5
261
330
1F
100
AcDbEntity
  8
0
100
AcDbCircle
 10
416.7883639294696
 20
128.8258231318364
 30
0.0
 40
5.0
100
AcDbArc
 50
90.0
 51
180.0
  0
ARC
  5
262
330
1F
100
AcDbEntity
  8
0
100
AcDbCircle
 10
470.7797539294697
 20
182.3205431318365
 30
0.0
 40
1.0
100
AcDbArc
 50
0.0
 51
90.0
  0
ARC
  5
263
330
1F
100
AcDbEntity
  8
0
100
AcDbCircle
 10
422.7797539294697
 20
182.3205431318365
 30
0.0
 40
1.0
100
AcDbArc
 50
90.0
 51
180.0
  0
ARC
  5
264
330
1F
100
AcDbEntity
  8
0
100
AcDbCircle
 10
383.2367239294695
 20
141.0574831318365
 30
0.0
 40
100.0
100
AcDbArc
 50
0.9999989999978774
 51
14.99999000000062
  0
ARC
  5
265
330
1F
100
AcDbEntity
  8
0
100
AcDbCircle
 10
437.7797539294697
 20
112.3204831318365
 30
0.0
 40
1.0
100
AcDbArc
 50
180.0
 51
270.0
  0
ARC
  5
266
330
1F
100
AcDbEntity
  8
0
100
AcDbCircle
 10
455.7797539294697
 20
112.3204831318365
 30
0.0
 40
1.0
100
AcDbArc
 50
270.0
 51
0.0
  0
ARC
  5
267
330
1F
100
AcDbEntity
  8
0
100
AcDbCircle
 10
446.7797539294697
 20
160.8206631318365
 30
0.0
 40
9.0
100
AcDbArc
 50
0.0
 51
180.0
  0
CIRCLE
  5
268
330
1F
100
AcDbEntity
  8
0
100
AcDbCircle
 10
446.7797539294697
 20
120.3204831318364
 30
0.0
 40
4.1940036
  0
ARC
  5
269
330
1F
100
AcDbEntity
  8
0
100
AcDbCircle
 10
437.7797539294697
 20
128.3204831318365
 30
0.0
 40
1.0
100
AcDbArc
 50
90.0
 51
180.0
  0
ARC
  5
26A
330
1F
100
AcDbEntity
  8
0
100
AcDbCircle
 10
455.7797539294697
 20
128.3204831318365
 30
0.0
 40
1.0
100
AcDbArc
 50
0.0
 51
90.0
  0
CIRCLE
  5
26B
330
1F
100
AcDbEntity
  8
0
100
AcDbCircle
 10
446.7797539294697
 20
120.3204831318364
 30
0.0
 40
4.7936687
  0
ARC
  5
26C
330
1F
100
AcDbEntity
  8
0
100
AcDbCircle
 10
510.3227539294693
 20
141.0574831318365
 30
0.0
 40
100.0
100
AcDbArc
 50
165.0000099999993
 51
178.9999999999982
  0
CIRCLE
  5
26D
330
1F
100
AcDbEntity
  8
0
100
AcDbCircle
 10
446.7797539294697
 20
160.8206631318365
 30
0.0
 40
5.0
  0
LINE
  5
26E
330
1F
100
AcDbEntity
  8
0
100
AcDbLine
 10
414.9833639294697
 20
98.92045313183647
 30
0.0
 11
420.5933539294696
 21
98.92045313183647
 31
0.0
  0
LINE
  5
26F
330
1F
100
AcDbEntity
  8
0
100
AcDbLine
 10
411.7883639294696
 20
102.2205031318365
 30
0.0
 11
423.7883639294696
 21
102.2205031318365
 31
0.0
  0
LINE
  5
270
330
1F
100
AcDbEntity
  8
0
100
AcDbLine
 10
423.7883639294696
 20
103.8204831318365
 30
0.0
 11
423.7883639294696
 21
102.2205031318365
 31
0.0
  0
LINE
  5
271
330
1F
100
AcDbEntity
  8
0
100
AcDbLine
 10
411.7883639294696
 20
103.8204831318365
 30
0.0
 11
411.7883639294696
 21
102.2205031318365
 31
0.0
  0
LINE
  5
272
330
1F
100
AcDbEntity
  8
0
100
AcDbLine
 10
472.9661239294696
 20
98.92045313183647
 30
0.0
 11
478.5761139294695
 21
98.92045313183647
 31
0.0
  0
LINE
  5
273
330
1F
100
AcDbEntity
  8
0
100
AcDbLine
 10
469.7711139294697
 20
102.2205031318365
 30
0.0
 11
481.7711139294697
 21
102.2205031318365
 31
0.0
  0
LINE
  5
274
330
1F
100
AcDbEntity
  8
0
100
AcDbLine
 10
481.7711139294697
 20
103.8204831318365
 30
0.0
 11
481.7711139294697
 21
102.2205031318365
 31
0.0
  0
LINE
  5
275
330
1F
100
AcDbEntity
  8
0
100
AcDbLine
 10
469.7711139294697
 20
103.8204831318365
 30
0.0
 11
469.7711139294697
 21
102.2205031318365
 31
0.0
  0
LINE
  5
276
330
1F
100
AcDbEntity
  8
0
100
AcDbLine
 10
483.7797539294697
 20
110.8204831318365
 30
0.0
 11
483.7797539294697
 21
104.8204831318365
 31
0.0
  0
LINE
  5
277
330
1F
100
AcDbEntity
  8
0
100
AcDbLine
 10
482.7797539294697
 20
103.8204831318365
 30
0.0
 11
446.7797539294697
 21
103.8204831318365
 31
0.0
  0
LINE
  5
278
330
1F
100
AcDbEntity
  8
0
100
AcDbLine
 10
409.7797539294697
 20
110.8204831318365
 30
0.0
 11
409.7797539294697
 21
104.8204831318365
 31
0.0
  0
LINE
  5
279
330
1F
100
AcDbEntity
  8
0
100
AcDbLine
 10
421.7797539294697
 20
99.89241313183654
 30
0.0
 11
421.7797539294697
 21
92.3204831318365
 31
0.0
  0
LINE
  5
27A
330
1F
100
AcDbEntity
  8
0
100
AcDbLine
 10
409.7797539294697
 20
110.8204831318365
 30
0.0
 11
446.7797539294697
 21
110.8204831318365
 31
0.0
  0
LINE
  5
27B
330
1F
100
AcDbEntity
  8
0
100
AcDbLine
 10
410.7797539294697
 20
103.8204831318365
 30
0.0
 11
446.7797539294697
 21
103.8204831318365
 31
0.0
  0
LINE
  5
27C
330
1F
100
AcDbEntity
  8
0
100
AcDbLine
 10
483.7797539294697
 20
110.8204831318365
 30
0.0
 11
478.7797539294697
 21
110.8204831318365
 31
0.0
  0
LINE
  5
27D
330
1F
100
AcDbEntity
  8
0
100
AcDbLine
 10
430.2797539294697
 20
94.32048313183647
 30
0.0
 11
430.2797539294697
 21
98.82048313183648
 31
0.0
  0
LINE
  5
27E
330
1F
100
AcDbEntity
  8
0
100
AcDbLine
 10
482.7797539294697
 20
103.8204831318365
 30
0.0
 11
468.2797539294697
 21
103.8204831318365
 31
0.0
  0
LINE
  5
27F
330
1F
100
AcDbEntity
  8
0
100
AcDbLine
 10
421.7797539294692
 20
92.3204831318365
 30
0.0
 11
471.7797539294692
 21
92.3204831318365
 31
0.0
  0
LINE
  5
280
330
1F
100
AcDbEntity
  8
0
100
AcDbLine
 10
463.2797539294697
 20
94.32048313183647
 30
0.0
 11
463.2797539294697
 21
98.82048313183648
 31
0.0
  0
LINE
  5
281
330
1F
100
AcDbEntity
  8
0
100
AcDbLine
 10
471.7797539294697
 20
99.89238313183662
 30
0.0
 11
471.7797539294697
 21
92.3204831318365
 31
0.0
  0
LINE
  5
282
330
1F
100
AcDbEntity
  8
0
100
AcDbLine
 10
409.7797239294695
 20
110.8204831318365
 30
0.0
 11
483.7797539294697
 21
110.8204831318365
 31
0.0
  0
LINE
  5
283
330
1F
100
AcDbEntity
  8
0
100
AcDbLine
 10
416.7883639294696
 20
133.8258231318364
 30
0.0
 11
426.7179839294694
 21
133.8258231318364
 31
0.0
  0
LINE
  5
284
330
1F
100
AcDbEntity
  8
0
100
AcDbLine
 10
411.7883639294696
 20
128.8258231318364
 30
0.0
 11
411.7883639294696
 21
110.8204831318365
 31
0.0
  0
LINE
  5
285
330
1F
100
AcDbEntity
  8
0
100
AcDbLine
 10
431.7179839294694
 20
128.8258231318364
 30
0.0
 11
431.7179839294694
 21
110.8204831318365
 31
0.0
  0
LINE
  5
286
330
1F
100
AcDbEntity
  8
0
100
AcDbLine
 10
483.7710139294695
 20
111.3204931318364
 30
0.0
 11
483.7797339294698
 21
110.8204831318365
 31
0.0
  0
LINE
  5
287
330
1F
100
AcDbEntity
  8
0
100
AcDbLine
 10
478.6600939294694
 20
171.3029931318365
 30
0.0
 11
479.8293339294696
 21
166.9393431318365
 31
0.0
  0
LINE
  5
288
330
1F
100
AcDbEntity
  8
0
100
AcDbLine
 10
483.2214939294694
 20
142.8027131318365
 30
0.0
 11
483.7710139294695
 21
111.3204631318365
 31
0.0
  0
LINE
  5
289
330
1F
100
AcDbEntity
  8
0
100
AcDbLine
 10
481.7711139294697
 20
128.8258231318364
 30
0.0
 11
481.7711139294697
 21
110.8204831318365
 31
0.0
  0
LINE
  5
28A
330
1F
100
AcDbEntity
  8
0
100
AcDbLine
 10
455.7797539294697
 20
129.3204831318365
 30
0.0
 11
437.7797539294697
 21
129.3204831318365
 31
0.0
  0
LINE
  5
28B
330
1F
100
AcDbEntity
  8
0
100
AcDbLine
 10
415.9853639294697
 20
175.3558131318364
 30
0.0
 11
413.7301739294693
 21
166.9393431318365
 31
0.0
  0
LINE
  5
28C
330
1F
100
AcDbEntity
  8
0
100
AcDbLine
 10
410.2306839294697
 20
136.6542831318366
 30
0.0
 11
409.7797339294693
 21
110.8204831318365
 31
0.0
  0
LINE
  5
28D
330
1F
100
AcDbEntity
  8
0
100
AcDbLine
 10
436.7797539294697
 20
128.3204831318365
 30
0.0
 11
436.7797539294697
 21
112.3204831318365
 31
0.0
  0
LINE
  5
28E
330
1F
100
AcDbEntity
  8
0
100
AcDbLine
 10
427.0473139294694
 20
131.6372631318366
 30
0.0
 11
419.9098639294693
 21
128.2928731318366
 31
0.0
  0
LINE
  5
28F
330
1F
100
AcDbEntity
  8
0
100
AcDbLine
 10
466.5121739294695
 20
131.6372831318365
 30
0.0
 11
473.6496239294697
 21
128.2928931318365
 31
0.0
  0
LINE
  5
290
330
1F
100
AcDbEntity
  8
0
100
AcDbLine
 10
455.7797539294697
 20
160.8206631318365
 30
0.0
 11
456.7788539294697
 21
127.3801831318365
 31
0.0
  0
LINE
  5
291
330
1F
100
AcDbEntity
  8
0
100
AcDbLine
 10
421.7797539294697
 20
182.3205431318365
 30
0.0
 11
421.7797539294697
 21
178.3205431318365
 31
0.0
  0
LINE
  5
292
330
1F
100
AcDbEntity
  8
0
100
AcDbLine
 10
419.8490639294695
 20
178.3205431318365
 30
0.0
 11
473.7104139294697
 21
178.3205431318365
 31
0.0
  0
LINE
  5
293
330
1F
100
AcDbEntity
  8
0
100
AcDbLine
 10
470.7797539294697
 20
183.3205431318365
 30
0.0
 11
422.7797539294697
 21
183.3205431318365
 31
0.0
  0
LINE
  5
294
330
1F
100
AcDbEntity
  8
0
100
AcDbLine
 10
476.7711139294696
 20
133.8258231318364
 30
0.0
 11
466.8414939294693
 21
133.8258231318364
 31
0.0
  0
LINE
  5
295
330
1F
100
AcDbEntity
  8
0
100
AcDbLine
 10
461.8414939294694
 20
128.8258231318364
 30
0.0
 11
461.8414939294694
 21
110.8204831318365
 31
0.0
  0
LINE
  5
296
330
1F
100
AcDbEntity
  8
0
100
AcDbLine
 10
437.7797539294697
 20
160.8206331318365
 30
0.0
 11
436.7806539294697
 21
127.3802031318364
 31
0.0
  0
LINE
  5
297
330
1F
100
AcDbEntity
  8
0
100
AcDbLine
 10
477.5741539294695
 20
175.3558131318364
 30
0.0
 11
478.6600939294694
 21
171.3029931318365
 31
0.0
  0
LINE
  5
298
330
1F
100
AcDbEntity
  8
0
100
AcDbLine
 10
410.3379939294695
 20
142.8027131318365
 30
0.0
 11
410.2306839294697
 21
136.6542831318366
 31
0.0
  0
LINE
  5
299
330
1F
100
AcDbEntity
  8
0
100
AcDbLine
 10
471.7797539294697
 20
182.3205431318365
 30
0.0
 11
471.7797539294697
 21
178.3205431318365
 31
0.0
  0
LINE
  5
29A
330
1F
100
AcDbEntity
  8
0
100
AcDbLine
 10
456.7797539294697
 20
128.3204831318365
 30
0.0
 11
456.7797539294697
 21
112.3204831318365
 31
0.0
  0
LINE
  5
29B
330
1F
100
AcDbEntity
  8
0
100
AcDbLine
 10
455.7797539294697
 20
111.3204831318365
 30
0.0
 11
437.7797539294697
 21
111.3204831318365
 31
0.0
  0
LINE
  5
29C
330
1F
100
AcDbEntity
  8
0
100
AcDbLine
 10
454.7797239294696
 20
183.3205431318365
 30
0.0
 11
454.7797239294696
 21
184.3205431318365
 31
0.0
  0
LINE
  5
29D
330
1F
100
AcDbEntity
  8
0
100
AcDbLine
 10
454.7797039294696
 20
184.3205431318365
 30
0.0
 11
454.2797039294696
 21
186.1865631318365
 31
0.0
  0
LINE
  5
29E
330
1F
100
AcDbEntity
  8
0
100
AcDbLine
 10
454.2797239294696
 20
206.8205431318366
 30
0.0
 11
454.2797239294696
 21
186.1865631318365
 31
0.0
  0
LINE
  5
29F
330
1F
100
AcDbEntity
  8
0
100
AcDbLine
 10
438.7797839294694
 20
183.3205431318365
 30
0.0
 11
438.7797839294694
 21
184.3205431318365
 31
0.0
  0
LINE
  5
2A0
330
1F
100
AcDbEntity
  8
0
100
AcDbLine
 10
438.7797839294694
 20
184.3205431318365
 30
0.0
 11
454.7797239294696
 21
184.3205431318365
 31
0.0
  0
LINE
  5
2A1
330
1F
100
AcDbEntity
  8
0
100
AcDbLine
 10
438.7797839294694
 20
184.3205431318365
 30
0.0
 11
439.2797839294694
 21
186.1865631318365
 31
0.0
  0
LINE
  5
2A2
330
1F
100
AcDbEntity
  8
0
100
AcDbLine
 10
440.7797839294694
 20
208.3205431318365
 30
0.0
 11
452.7797239294695
 21
208.3205431318365
 31
0.0
  0
LINE
  5
2A3
330
1F
100
AcDbEntity
  8
0
100
AcDbLine
 10
440.7797839294694
 20
208.3205731318365
 30
0.0
 11
439.2797839294694
 21
206.8205431318366
 31
0.0
  0
LINE
  5
2A4
330
1F
100
AcDbEntity
  8
0
100
AcDbLine
 10
452.7797039294696
 20
208.3205431318365
 30
0.0
 11
454.2797239294696
 21
206.8205431318366
 31
0.0
  0
LINE
  5
2A5
330
1F
100
AcDbEntity
  8
0
100
AcDbLine
 10
439.2797839294694
 20
206.8205431318366
 30
0.0
 11
439.2797839294694
 21
186.1865631318365
 31
0.0
  0
LINE
  5
2A6
330
1F
100
AcDbEntity
  8
0
100
AcDbLine
 10
439.2797839294694
 20
206.8205431318366
 30
0.0
 11
454.2797239294696
 21
206.8205431318366
 31
0.0
  0
LINE
  5
2A7
330
1F
100
AcDbEntity
  8
0
100
AcDbLine
 10
439.2797839294694
 20
186.1865631318365
 30
0.0
 11
454.2797239294696
 21
186.1865631318365
 31
0.0
  0
ARC
  5
2A8
330
1F
100
AcDbEntity
  8
0
  6
HIDDEN
 48
10.0
100
AcDbCircle
 10
283.1812602402206
 20
436.4821519745775
 30
0.0
 40
29.5
100
AcDbArc
 50
32.06379000000323
 51
57.93620999999713
  0
ARC
  5
2A9
330
1F
100
AcDbEntity
  8
0
  6
HIDDEN
 48
10.0
100
AcDbCircle
 10
283.1812602402206
 20
436.4821519745775
 30
0.0
 40
29.5
100
AcDbArc
 50
212.0637900000033
 51
237.9362099999971
  0
ARC
  5
2AA
330
1F
100
AcDbEntity
  8
0
  6
HIDDEN
 48
10.0
100
AcDbCircle
 10
283.1812602402206
 20
436.4821519745775
 30
0.0
 40
29.5
100
AcDbArc
 50
302.0637880000064
 51
327.9362119999961
  0
ARC
  5
2AB
330
1F
100
AcDbEntity
  8
0
  6
HIDDEN
 48
10.0
100
AcDbCircle
 10
283.1812602402206
 20
436.4821519745775
 30
0.0
 40
29.5
100
AcDbArc
 50
122.0637900000029
 51
147.9362099999967
  0
LINE
  5
2AC
330
1F
100
AcDbEntity
  8
0
  6
HIDDEN
 48
10.0
100
AcDbLine
 10
267.5208002402205
 20
411.4821519745775
 30
0.0
 11
298.8417202402207
 21
411.4821519745775
 31
0.0
  0
LINE
  5
2AD
330
1F
100
AcDbEntity
  8
0
  6
HIDDEN
 48
10.0
100
AcDbLine
 10
267.5208002402205
 20
461.4821519745775
 30
0.0
 11
298.8417202402207
 21
461.4821519745775
 31
0.0
  0
LINE
  5
2AE
330
1F
100
AcDbEntity
  8
0
  6
HIDDEN
 48
10.0
100
AcDbLine
 10
308.1812602402206
 20
452.1426129745774
 30
0.0
 11
308.1812602402206
 21
420.8216909745775
 31
0.0
  0
LINE
  5
2AF
330
1F
100
AcDbEntity
  8
0
  6
HIDDEN
 48
10.0
100
AcDbLine
 10
258.1812402402206
 20
452.1426129745774
 30
0.0
 11
258.1812402402206
 21
420.8216909745775
 31
0.0
  0
CIRCLE
  5
2B0
330
1F
100
AcDbEntity
  8
0
  6
Continuous
100
AcDbCircle
 10
283.1812602402206
 20
436.4821708769263
 30
0.0
 40
24.9999971821963
  0
CIRCLE
  5
2B1
330
1F
100
AcDbEntity
  8
0
  6
Continuous
100
AcDbCircle
 10
283.1812707722511
 20
436.4821708769263
 30
0.0
 40
7.999978168122083
  0
CIRCLE
  5
2B2
330
1F
100
AcDbEntity
  8
0
  6
Continuous
100
AcDbCircle
 10
283.1812707722511
 20
436.4821708769263
 30
0.0
 40
7.499976352949602
  0
LINE
  5
2B3
330
1F
100
AcDbEntity
  8
0
100
AcDbLine
 10
298.8417253275011
 20
92.32052030944695
 30
0.0
 11
298.8417163102465
 21
76.08486983578822
 31
0.0
  0
LINE
  5
2B4
330
1F
100
AcDbEntity
  8
0
100
AcDbLine
 10
267.5208012589435
 20
92.32051825749847
 30
0.0
 11
267.5207922416892
 21
76.08486801195969
 31
0.0
  0
LINE
  5
2B5
330
1F
100
AcDbEntity
  8
0
100
AcDbLine
 10
258.1812657494552
 20
92.32051764563127
 30
0.0
 11
258.1812524892685
 21
61.72048787304723
 31
0.0
  0
LINE
  5
2B6
330
1F
100
AcDbEntity
  8
0
100
AcDbLine
 10
308.1812434043424
 20
92.32051840324247
 30
0.0
 11
308.1812848593947
 21
61.72048787304723
 31
0.0
  0
ARC
  5
2B7
330
1F
100
AcDbEntity
  8
0
100
AcDbCircle
 10
315.6812660500252
 20
84.07051432458297
 30
0.0
 40
0.5
100
AcDbArc
 50
269.9996699999928
 51
359.9988799999979
  0
ARC
  5
2B8
330
1F
100
AcDbEntity
  8
0
100
AcDbCircle
 10
315.6812619044715
 20
90.0705123773614
 30
0.0
 40
0.5
100
AcDbArc
 50
359.9988799999979
 51
89.99966599998723
  0
ARC
  5
2B9
330
1F
100
AcDbEntity
  8
0
100
AcDbCircle
 10
308.6812652144174
 20
84.07052243821523
 30
0.0
 40
0.5
100
AcDbArc
 50
179.9988799999979
 51
269.9996699999928
  0
ARC
  5
2BA
330
1F
100
AcDbEntity
  8
0
100
AcDbCircle
 10
308.6812576254408
 20
90.0704992273428
 30
0.0
 40
0.5
100
AcDbArc
 50
89.99966599998723
 51
179.9988799999979
  0
LINE
  5
2BB
330
1F
100
AcDbEntity
  8
0
100
AcDbLine
 10
315.681262747609
 20
83.57050890116227
 30
0.0
 11
308.6812653406703
 21
83.57051495464213
 31
0.0
  0
LINE
  5
2BC
330
1F
100
AcDbEntity
  8
0
100
AcDbLine
 10
315.6812669212225
 20
90.57051677070592
 30
0.0
 11
308.6812592135223
 21
90.57050568083946
 31
0.0
  0
LINE
  5
2BD
330
1F
100
AcDbEntity
  8
0
100
AcDbLine
 10
316.1812584067131
 20
90.07050393562975
 30
0.0
 11
316.1812556875513
 21
84.07049834125462
 31
0.0
  0
LINE
  5
2BE
330
1F
100
AcDbEntity
  8
0
  6
Continuous
100
AcDbLine
 10
300.1812602402206
 20
481.4821708769263
 30
0.0
 11
300.1812602402206
 21
478.632222269733
 31
0.0
  0
LINE
  5
2BF
330
1F
100
AcDbEntity
  8
0
  6
HIDDEN
 48
10.0
100
AcDbLine
 10
272.9232670590377
 20
476.178178363356
 30
0.0
 11
276.2812663437362
 21
474.9559665332732
 31
0.0
  0
LINE
  5
2C0
330
1F
100
AcDbEntity
  8
0
  6
Continuous
100
AcDbLine
 10
266.1812602402206
 20
478.6320682524949
 30
0.0
 11
272.9232670590377
 21
476.178178363356
 31
0.0
  0
LINE
  5
2C1
330
1F
100
AcDbEntity
  8
0
  6
Continuous
100
AcDbLine
 10
266.1812602402206
 20
481.4821708769263
 30
0.0
 11
266.1812602402206
 21
478.6320682524949
 31
0.0
  0
LINE
  5
2C2
330
1F
100
AcDbEntity
  8
0
  6
Continuous
100
AcDbLine
 10
266.1812602402206
 20
481.4821708769263
 30
0.0
 11
300.1812602402206
 21
481.4821708769263
 31
0.0
  0
LINE
  5
2C3
330
1F
100
AcDbEntity
  8
0
  6
HIDDEN
 48
10.0
100
AcDbLine
 10
293.4390059567058
 20
476.1782423108075
 30
0.0
 11
290.081254136705
 21
474.9561205505122
 31
0.0
  0
LINE
  5
2C4
330
1F
100
AcDbEntity
  8
0
  6
Continuous
100
AcDbLine
 10
300.1812602402206
 20
478.632222269733
 30
0.0
 11
293.4390059567058
 21
476.1782423108075
 31
0.0
  0
LINE
  5
2C5
330
1F
100
AcDbEntity
  8
0
  6
HIDDEN
 48
10.0
100
AcDbLine
 10
290.081254136705
 20
461.4821519745775
 30
0.0
 11
290.081254136705
 21
474.9561205505122
 31
0.0
  0
LINE
  5
2C6
330
1F
100
AcDbEntity
  8
0
  6
HIDDEN
 48
10.0
100
AcDbLine
 10
276.2812663437362
 20
461.4821519745775
 30
0.0
 11
276.2812663437362
 21
474.9559665332732
 31
0.0
  0
LINE
  5
2C7
330
1F
100
AcDbEntity
  8
0
  6
Continuous
100
AcDbLine
 10
300.1812602402206
 20
391.4821708769264
 30
0.0
 11
300.1812602402206
 21
394.3321332216904
 31
0.0
  0
LINE
  5
2C8
330
1F
100
AcDbEntity
  8
0
  6
HIDDEN
 48
10.0
100
AcDbLine
 10
272.9232449865476
 20
396.7861690943376
 30
0.0
 11
276.2812663437362
 21
398.00838895815
 31
0.0
  0
LINE
  5
2C9
330
1F
100
AcDbEntity
  8
0
  6
Continuous
100
AcDbLine
 10
266.1812602402206
 20
394.3322872389286
 30
0.0
 11
272.9232449865476
 21
396.7861690943376
 31
0.0
  0
LINE
  5
2CA
330
1F
100
AcDbEntity
  8
0
  6
Continuous
100
AcDbLine
 10
266.1812602402206
 20
391.4821708769264
 30
0.0
 11
266.1812602402206
 21
394.3322872389286
 31
0.0
  0
LINE
  5
2CB
330
1F
100
AcDbEntity
  8
0
  6
Continuous
100
AcDbLine
 10
266.1812602402206
 20
391.4821708769264
 30
0.0
 11
300.1812602402206
 21
391.4821708769264
 31
0.0
  0
LINE
  5
2CC
330
1F
100
AcDbEntity
  8
0
  6
HIDDEN
 48
10.0
100
AcDbLine
 10
293.4390280294319
 20
396.7861051468002
 30
0.0
 11
290.081254136705
 21
398.008234940911
 31
0.0
  0
LINE
  5
2CD
330
1F
100
AcDbEntity
  8
0
  6
Continuous
100
AcDbLine
 10
300.1812602402206
 20
394.3321332216904
 30
0.0
 11
293.4390280294319
 21
396.7861051468002
 31
0.0
  0
LINE
  5
2CE
330
1F
100
AcDbEntity
  8
0
  6
HIDDEN
 48
10.0
100
AcDbLine
 10
276.2812663437362
 20
411.4821519745775
 30
0.0
 11
276.2812663437362
 21
398.00838895815
 31
0.0
  0
LINE
  5
2CF
330
1F
100
AcDbEntity
  8
0
  6
HIDDEN
 48
10.0
100
AcDbLine
 10
290.081254136705
 20
411.4821519745775
 30
0.0
 11
290.081254136705
 21
398.008234940911
 31
0.0
  0
LINE
  5
2D0
330
1F
100
AcDbEntity
  8
0
100
AcDbLine
 10
488.9296761731412
 20
86.47051839062582
 30
0.0
 11
485.253563346429
 21
76.37048176953253
 31
0.0
  0
LINE
  5
2D1
330
1F
100
AcDbEntity
  8
0
100
AcDbLine
 10
471.7797539294692
 20
76.37048176953253
 30
0.0
 11
485.253563346429
 21
76.37048176953253
 31
0.0
  0
LINE
  5
2D2
330
1F
100
AcDbEntity
  8
0
100
AcDbLine
 10
491.7797539294697
 20
86.47051839062582
 30
0.0
 11
488.9296761731412
 21
86.47051839062582
 31
0.0
  0
LINE
  5
2D3
330
1F
100
AcDbEntity
  8
0
100
AcDbLine
 10
488.9297996806963
 20
52.47048787304724
 30
0.0
 11
485.2536979614742
 21
62.57049397656331
 31
0.0
  0
LINE
  5
2D4
330
1F
100
AcDbEntity
  8
0
100
AcDbLine
 10
471.7797539294697
 20
62.57049397656331
 30
0.0
 11
485.2536979614742
 21
62.57049397656331
 31
0.0
  0
LINE
  5
2D5
330
1F
100
AcDbEntity
  8
0
100
AcDbLine
 10
491.7797539294697
 20
52.47048787304724
 30
0.0
 11
488.9297996806963
 21
52.47048787304724
 31
0.0
  0
LINE
  5
2D6
330
1F
100
AcDbEntity
  8
0
100
AcDbLine
 10
491.7797539294697
 20
86.47051839062582
 30
0.0
 11
491.7797539294697
 21
52.47048787304724
 31
0.0
  0
ARC
  5
2D7
330
1F
100
AcDbEntity
  8
0
100
AcDbCircle
 10
446.7872307361101
 20
64.22048787304723
 30
0.0
 40
3.0
100
AcDbArc
 50
90.00000865141489
 51
149.9999966606939
  0
LINE
  5
2D8
330
1F
100
AcDbEntity
  8
0
100
AcDbLine
 10
444.1891398685611
 20
65.72048672092321
 30
0.0
 11
443.3231120248719
 21
64.22048252180755
 31
0.0
  0
ARC
  5
2D9
330
1F
100
AcDbEntity
  8
0
100
AcDbCircle
 10
438.993010765407
 20
66.72048787304723
 30
0.0
 40
5.0
100
AcDbArc
 50
269.9999974955313
 51
330.0000016696572
  0
LINE
  5
2DA
330
1F
100
AcDbEntity
  8
0
100
AcDbLine
 10
421.7797539294702
 20
61.72048787304723
 30
0.0
 11
438.9930105468509
 21
61.72048787304723
 31
0.0
  0
LINE
  5
2DB
330
1F
100
AcDbEntity
  8
0
100
AcDbLine
 10
446.7872307361101
 20
67.22048787304723
 30
0.0
 11
446.7722771228291
 21
67.22048787304723
 31
0.0
  0
ARC
  5
2DC
330
1F
100
AcDbEntity
  8
0
100
AcDbCircle
 10
454.5664970935322
 20
66.72048787304723
 30
0.0
 40
5.0
100
AcDbArc
 50
210.0000051605315
 51
269.9999974955313
  0
LINE
  5
2DD
330
1F
100
AcDbEntity
  8
0
100
AcDbLine
 10
450.2363614067458
 20
64.22049313422852
 30
0.0
 11
449.3703335630571
 21
65.72049733334556
 31
0.0
  0
ARC
  5
2DE
330
1F
100
AcDbEntity
  8
0
100
AcDbCircle
 10
446.7722771228288
 20
64.22048787304723
 30
0.0
 40
3.0
100
AcDbArc
 50
30.00000333930606
 51
90.00000500896346
  0
LINE
  5
2DF
330
1F
100
AcDbEntity
  8
0
100
AcDbLine
 10
401.7797539294697
 20
86.47051839062582
 30
0.0
 11
404.6298535424003
 21
86.47051839062582
 31
0.0
  0
LINE
  5
2E0
330
1F
100
AcDbEntity
  8
0
100
AcDbLine
 10
404.6298535424003
 20
86.47051839062582
 30
0.0
 11
408.3059663691129
 21
76.37048176953253
 31
0.0
  0
LINE
  5
2E1
330
1F
100
AcDbEntity
  8
0
100
AcDbLine
 10
401.7797539294697
 20
52.47048787304724
 30
0.0
 11
404.6296975587187
 21
52.47048787304724
 31
0.0
  0
LINE
  5
2E2
330
1F
100
AcDbEntity
  8
0
100
AcDbLine
 10
404.6296975587187
 20
52.47048787304724
 30
0.0
 11
408.3057992779394
 21
62.57049397656331
 31
0.0
  0
LINE
  5
2E3
330
1F
100
AcDbEntity
  8
0
100
AcDbLine
 10
401.7797539294697
 20
86.47051839062582
 30
0.0
 11
401.7797539294697
 21
52.47048787304724
 31
0.0
  0
LINE
  5
2E4
330
1F
100
AcDbEntity
  8
0
100
AcDbLine
 10
421.7797539294697
 20
76.37048176953253
 30
0.0
 11
408.3059663691129
 21
76.37048176953253
 31
0.0
  0
LINE
  5
2E5
330
1F
100
AcDbEntity
  8
0
100
AcDbLine
 10
421.7797539294702
 20
62.57049397656331
 30
0.0
 11
408.3057992779394
 21
62.57049397656331
 31
0.0
  0
LINE
  5
2E6
330
1F
100
AcDbEntity
  8
0
100
AcDbLine
 10
421.7797539294692
 20
83.3204634589852
 30
0.0
 11
471.7797539294692
 21
83.3204634589852
 31
0.0
  0
LINE
  5
2E7
330
1F
100
AcDbEntity
  8
0
100
AcDbLine
 10
454.5664968749759
 20
61.72048787304723
 30
0.0
 11
471.7797539294697
 21
61.72048787304723
 31
0.0
  0
LINE
  5
2E8
330
1F
100
AcDbEntity
  8
0
100
AcDbLine
 10
293.0392071733034
 20
83.3204634589852
 30
0.0
 11
308.1812564802863
 21
83.3204634589852
 31
0.0
  0
LINE
  5
2E9
330
1F
100
AcDbEntity
  8
0
100
AcDbLine
 10
298.3119503199096
 20
61.72048787304723
 30
0.0
 11
308.1812848593947
 21
61.72048787304723
 31
0.0
  0
LINE
  5
2EA
330
1F
100
AcDbEntity
  8
0
100
AcDbLine
 10
258.1812607950296
 20
83.3204634589852
 30
0.0
 11
273.3233133071376
 21
83.3204634589852
 31
0.0
  0
LINE
  5
2EB
330
1F
100
AcDbEntity
  8
0
100
AcDbLine
 10
258.1812524892685
 20
61.72048787304723
 30
0.0
 11
268.0505701605316
 21
61.72048787304723
 31
0.0
  0
CIRCLE
  5
2EC
330
1F
100
AcDbEntity
  8
0
100
AcDbCircle
 10
283.1812602402206
 20
69.47050313183652
 30
0.0
 40
5.25
  0
CIRCLE
  5
2ED
330
1F
100
AcDbEntity
  8
0
100
AcDbCircle
 10
283.1812602402206
 20
69.47050313183652
 30
0.0
 40
17.00001525878906
  0
LINE
  5
2EE
330
1F
100
AcDbEntity
  8
0
100
AcDbLine
 10
431.6742394031025
 20
61.72048787304723
 30
0.0
 11
431.6742394031023
 21
92.3204831318365
 31
0.0
  0
LINE
  5
2EF
330
1F
100
AcDbEntity
  8
0
100
AcDbLine
 10
421.7797539294692
 20
92.3204831318365
 30
0.0
 11
421.7797539294702
 21
61.72048787304723
 31
0.0
  0
LINE
  5
2F0
330
1F
100
AcDbEntity
  8
0
100
AcDbLine
 10
471.7797539294692
 20
92.3204831318365
 30
0.0
 11
471.7797539294697
 21
61.72048787304723
 31
0.0
  0
LINE
  5
2F1
330
1F
100
AcDbEntity
  8
0
100
AcDbLine
 10
461.8852684558369
 20
61.72048787304723
 30
0.0
 11
461.8852684558369
 21
92.32048313183652
 31
0.0
  0
TEXT
  5
2F2
330
1F
100
AcDbEntity
  8
0
100
AcDbText
 10
206.3633138373152
 20
638.7191183902086
 30
0.0
 40
48.000002
  1
DHC2S06AD000 8A
 41
1.32095
100
AcDbText
  0
LINE
  5
4DC
330
1F
100
AcDbEntity
  8
0
  6
CENTER
100
AcDbLine
 10
1058.696092535657
 20
69.4705031318372
 30
0.0
 11
1171.617466931467
 21
69.4705031318372
 31
0.0
  0
LINE
  5
4DD
330
1F
100
AcDbEntity
  8
0
  6
CENTER
100
AcDbLine
 10
1115.156779733548
 20
42.92152624339817
 30
0.0
 11
1115.15677973361
 21
155.9093823889407
 31
0.0
  0
LINE
  5
4DE
330
1F
100
AcDbEntity
  8
0
  6
CENTER
100
AcDbLine
 10
857.2363756954221
 20
285.5115897534333
 30
0.0
 11
1003.68853454061
 21
285.5115897534333
 31
0.0
  0
LINE
  5
4DF
330
1F
100
AcDbEntity
  8
0
  6
CENTER
100
AcDbLine
 10
873.721143597517
 20
230.4136531643008
 30
0.0
 11
873.721143597517
 21
340.6095263425659
 31
0.0
  0
LINE
  5
4E0
330
1F
100
AcDbEntity
  8
0
  6
CENTER
100
AcDbLine
 10
849.6805286636782
 20
69.47050313183675
 30
0.0
 11
897.7617585295821
 21
69.47050313183675
 31
0.0
  0
LINE
  5
4E1
330
1F
100
AcDbEntity
  8
0
  6
CENTER
100
AcDbLine
 10
873.7211435966301
 20
45.4298881988848
 30
0.0
 11
873.7211435966301
 21
93.51111806478868
 31
0.0
  0
LINE
  5
4E2
330
1F
100
AcDbEntity
  8
0
  6
CENTER
100
AcDbLine
 10
851.9585904298956
 20
56.39424196444955
 30
0.0
 11
1002.215362044542
 21
146.6776187699047
 31
0.0
  0
LINE
  5
4E3
330
1F
100
AcDbEntity
  8
0
  6
CENTER
100
AcDbLine
 10
733.4160909735062
 20
45.12966340443838
 30
0.0
 11
733.4160909735062
 21
159.7822203887108
 31
0.0
  0
LINE
  5
4E4
330
1F
100
AcDbEntity
  8
0
  6
CENTER
100
AcDbLine
 10
790.5438378698152
 20
69.4705031318363
 30
0.0
 11
676.2883440771973
 21
69.4705031318363
 31
0.0
  0
SPLINE
  5
4E5
330
1F
100
AcDbEntity
  8
0
  6
Continuous
100
AcDbSpline
210
0.0
220
0.0
230
1.0
 70
     8
 71
     3
 72
    20
 73
    16
 74
     0
 42
0.0000000001
 43
0.0000000001
 40
0.455176661778185
 40
0.455176661778185
 40
0.455176661778185
 40
0.455176661778185
 40
0.7665037643259628
 40
0.7665037643259628
 40
1.089000980048521
 40
1.089000980048521
 40
1.419327624176176
 40
1.419327624176176
 40
1.752965301271233
 40
1.752965301271233
 40
2.086455722674573
 40
2.086455722674573
 40
2.416194783226308
 40
2.416194783226308
 40
2.686415991811592
 40
2.686415991811592
 40
2.686415991811592
 40
2.686415991811592
 10
761.4215697954186
 20
135.0067089318595
 30
0.0
 10
759.9270154659036
 20
137.6240715209128
 30
0.0
 10
757.9762038197164
 20
140.0008985603968
 30
0.0
 10
753.3158882043644
 20
144.1494482748108
 30
0.0
 10
750.5826999230189
 20
145.8974626988161
 30
0.0
 10
744.6057351329509
 20
148.5763887440021
 30
0.0
 10
741.3513187176159
 20
149.4869424436774
 30
0.0
 10
734.66319323285
 20
150.3619909240588
 30
0.0
 10
731.2282296902772
 20
150.3169569116831
 30
0.0
 10
724.5383043351766
 20
149.2606188482518
 30
0.0
 10
721.2834719626023
 20
148.2496128173484
 30
0.0
 10
715.3091286383605
 20
145.3469592929205
 30
0.0
 10
712.5842053319379
 20
143.464629891304
 30
0.0
 10
708.3485077224393
 20
139.3698395878209
 30
0.0
 10
706.7078338644812
 20
137.278489564937
 30
0.0
 10
705.4106121516501
 20
135.00670893186
 30
0.0
  0
LINE
  5
4E6
330
1F
100
AcDbEntity
  8
0
  6
Continuous
100
AcDbLine
 10
708.4160909735124
 20
93.47816959435661
 30
0.0
 11
708.416090973511
 21
90.54245256736933
 31
0.0
  0
LINE
  5
4E7
330
1F
100
AcDbEntity
  8
0
  6
Continuous
100
AcDbLine
 10
717.7556312101451
 20
101.4837180887912
 30
0.0
 11
717.7556312101437
 21
98.54800106180348
 31
0.0
  0
LINE
  5
4E8
330
1F
100
AcDbEntity
  8
0
  6
Continuous
100
AcDbLine
 10
758.4160909735124
 20
93.47816959435661
 30
0.0
 11
758.416090973511
 21
90.54245256736933
 31
0.0
  0
LINE
  5
4E9
330
1F
100
AcDbEntity
  8
0
  6
Continuous
100
AcDbLine
 10
749.0765507368767
 20
101.4837180887912
 30
0.0
 11
749.0765507368753
 21
98.54800106180348
 31
0.0
  0
LINE
  5
4EA
330
1F
100
AcDbEntity
  8
0
  6
Continuous
100
AcDbLine
 10
758.416090973511
 20
90.02741449245926
 30
0.0
 11
758.416090973511
 21
90.54245256736933
 31
0.0
  0
SPLINE
  5
4EB
330
1F
100
AcDbEntity
  8
0
  6
Continuous
100
AcDbSpline
210
0.0
220
0.0
230
1.0
 70
     8
 71
     3
 72
     8
 73
     4
 74
     0
 42
0.0000000001
 43
0.0000000001
 40
-0.035274996921492
 40
-0.035274996921492
 40
-0.035274996921492
 40
-0.035274996921492
 40
0.0
 40
0.0
 40
0.0
 40
0.0
 10
758.171660682538
 20
90.35622159015659
 30
0.0
 10
758.2531341301756
 20
90.41834146376416
 30
0.0
 10
758.3346119059783
 20
90.48041902632579
 30
0.0
 10
758.416090973511
 20
90.54245256736933
 30
0.0
  0
SPLINE
  5
4EC
330
1F
100
AcDbEntity
  8
0
  6
Continuous
100
AcDbSpline
210
0.0
220
0.0
230
1.0
 70
     8
 71
     3
 72
     8
 73
     4
 74
     0
 42
0.0000000001
 43
0.0000000001
 40
-0.0541680490474216
 40
-0.0541680490474216
 40
-0.0541680490474216
 40
-0.0541680490474216
 40
0.0
 40
0.0
 40
0.0
 40
0.0
 10
748.9683247684192
 20
98.03296298689341
 30
0.0
 10
749.0045226107386
 20
98.20462810730809
 30
0.0
 10
749.0405981399785
 20
98.37631249471499
 30
0.0
 10
749.0765507368753
 20
98.54800106180348
 30
0.0
  0
SPLINE
  5
4ED
330
1F
100
AcDbEntity
  8
0
  6
Continuous
100
AcDbSpline
210
0.0
220
0.0
230
1.0
 70
     8
 71
     3
 72
     8
 73
     4
 74
     0
 42
0.0000000001
 43
0.0000000001
 40
-0.0541680490474438
 40
-0.0541680490474438
 40
-0.0541680490474438
 40
-0.0541680490474438
 40
0.0
 40
0.0
 40
0.0
 40
0.0
 10
717.8638571785995
 20
98.03296298689341
 30
0.0
 10
717.8276593362804
 20
98.20462810730809
 30
0.0
 10
717.7915838070402
 20
98.37631249471499
 30
0.0
 10
717.7556312101437
 20
98.54800106180348
 30
0.0
  0
SPLINE
  5
4EE
330
1F
100
AcDbEntity
  8
0
  6
Continuous
100
AcDbSpline
210
0.0
220
0.0
230
1.0
 70
     8
 71
     3
 72
     8
 73
     4
 74
     0
 42
0.0000000001
 43
0.0000000001
 40
-0.035274996921472
 40
-0.035274996921472
 40
-0.035274996921472
 40
-0.035274996921472
 40
0.0
 40
0.0
 40
0.0
 40
0.0
 10
708.6605212644835
 20
90.35622159015659
 30
0.0
 10
708.5790478168462
 20
90.41834146376416
 30
0.0
 10
708.4975700410437
 20
90.48041902632579
 30
0.0
 10
708.416090973511
 20
90.54245256736933
 30
0.0
  0
LINE
  5
4EF
330
1F
100
AcDbEntity
  8
0
  6
Continuous
100
AcDbLine
 10
708.416090973511
 20
90.54245256736933
 30
0.0
 11
708.416090973511
 21
90.02741449245926
 31
0.0
  0
ELLIPSE
  5
4F0
330
1F
100
AcDbEntity
  8
0
  6
Continuous
100
AcDbEllipse
 10
733.4160909735133
 20
77.11881854425112
 30
0.0
 11
-29.4999999999999
 21
0.0000000000147729
 31
0.0
210
0.0
220
0.0
230
1.0
 40
0.8571673007021139
 41
5.272007611810245
 42
5.72356667575519
  0
LINE
  5
4F1
330
1F
100
AcDbEntity
  8
0
  6
Continuous
100
AcDbLine
 10
749.0765507368753
 20
98.54800106180348
 30
0.0
 11
717.7556312101437
 21
98.54800106180348
 31
0.0
  0
ELLIPSE
  5
4F2
330
1F
100
AcDbEntity
  8
0
  6
Continuous
100
AcDbEllipse
 10
733.4160909735133
 20
77.11881854425067
 30
0.0
 11
-29.5
 21
0.0000000000121736
 31
0.0
210
0.0
220
0.0
230
1.0
 40
0.8571673007021137
 41
3.701211285015215
 42
4.15277034896018
  0
ELLIPSE
  5
4F3
330
1F
100
AcDbEntity
  8
0
  6
Continuous
100
AcDbEllipse
 10
733.4160909735149
 20
80.05453557123795
 30
0.0
 11
29.4999999999999
 21
-0.0000000000147771
 31
0.0
210
0.0
220
0.0
230
1.0
 40
0.8571673007021136
 41
0.5596186314255647
 42
1.011177695370507
  0
LINE
  5
4F4
330
1F
100
AcDbEntity
  8
0
  6
Continuous
100
AcDbLine
 10
717.7556312101451
 20
101.4837180887912
 30
0.0
 11
749.0765507368767
 21
101.4837180887912
 31
0.0
  0
ELLIPSE
  5
4F5
330
1F
100
AcDbEntity
  8
0
  6
Continuous
100
AcDbEllipse
 10
733.4160909735146
 20
80.05453557123795
 30
0.0
 11
29.4999999999999
 21
-0.0000000000173861
 31
0.0
210
0.0
220
0.0
230
1.0
 40
0.8571673007021139
 41
2.130414958220569
 42
2.58197402216555
  0
LINE
  5
4F6
330
1F
100
AcDbEntity
  8
0
  6
Continuous
100
AcDbLine
 10
771.8899916074208
 20
76.37050313183639
 30
0.0
 11
758.4160909735094
 21
76.37050313183639
 31
0.0
  0
LINE
  5
4F7
330
1F
100
AcDbEntity
  8
0
  6
Continuous
100
AcDbLine
 10
771.8899916074208
 20
62.57050313183666
 30
0.0
 11
758.4160909735094
 21
62.57050313183666
 31
0.0
  0
LINE
  5
4F8
330
1F
100
AcDbEntity
  8
0
  6
Continuous
100
AcDbLine
 10
771.8899916074208
 20
62.57050313183666
 30
0.0
 11
775.5660909735093
 21
52.47050313183629
 31
0.0
  0
LINE
  5
4F9
330
1F
100
AcDbEntity
  8
0
  6
Continuous
100
AcDbLine
 10
771.8899916074208
 20
76.37050313183639
 30
0.0
 11
775.5660909735093
 21
86.4705031318363
 31
0.0
  0
LINE
  5
4FA
330
1F
100
AcDbEntity
  8
0
  6
Continuous
100
AcDbLine
 10
778.4160909735094
 20
86.4705031318363
 30
0.0
 11
775.5660909735093
 21
86.4705031318363
 31
0.0
  0
LINE
  5
4FB
330
1F
100
AcDbEntity
  8
0
  6
Continuous
100
AcDbLine
 10
778.4160909735094
 20
52.47050313183629
 30
0.0
 11
775.5660909735093
 21
52.47050313183629
 31
0.0
  0
LINE
  5
4FC
330
1F
100
AcDbEntity
  8
0
  6
Continuous
100
AcDbLine
 10
771.8899916074208
 20
76.37050313183639
 30
0.0
 11
771.8899916074208
 21
62.57050313183666
 31
0.0
  0
LINE
  5
4FD
330
1F
100
AcDbEntity
  8
0
  6
Continuous
100
AcDbLine
 10
775.5660909735093
 20
86.4705031318363
 30
0.0
 11
775.5660909735093
 21
52.47050313183675
 31
0.0
  0
LINE
  5
4FE
330
1F
100
AcDbEntity
  8
0
  6
Continuous
100
AcDbLine
 10
778.4160909735094
 20
86.4705031318363
 30
0.0
 11
778.4160909735094
 21
52.47050313183675
 31
0.0
  0
LINE
  5
4FF
330
1F
100
AcDbEntity
  8
0
  6
Continuous
100
AcDbLine
 10
708.4160909735096
 20
76.37050313183639
 30
0.0
 11
694.9421903395982
 21
76.37050313183639
 31
0.0
  0
LINE
  5
500
330
1F
100
AcDbEntity
  8
0
  6
Continuous
100
AcDbLine
 10
708.4160909735096
 20
62.57050313183666
 30
0.0
 11
694.9421903395982
 21
62.57050313183666
 31
0.0
  0
LINE
  5
501
330
1F
100
AcDbEntity
  8
0
  6
Continuous
100
AcDbLine
 10
694.9421903395982
 20
76.37050313183639
 30
0.0
 11
691.2660909735095
 21
86.4705031318363
 31
0.0
  0
LINE
  5
502
330
1F
100
AcDbEntity
  8
0
  6
Continuous
100
AcDbLine
 10
694.9421903395982
 20
62.57050313183666
 30
0.0
 11
691.2660909735095
 21
52.47050313183629
 31
0.0
  0
LINE
  5
503
330
1F
100
AcDbEntity
  8
0
  6
Continuous
100
AcDbLine
 10
691.2660909735095
 20
86.4705031318363
 30
0.0
 11
688.4160909735096
 21
86.4705031318363
 31
0.0
  0
LINE
  5
504
330
1F
100
AcDbEntity
  8
0
  6
Continuous
100
AcDbLine
 10
691.2660909735095
 20
52.47050313183629
 30
0.0
 11
688.4160909735096
 21
52.47050313183629
 31
0.0
  0
LINE
  5
505
330
1F
100
AcDbEntity
  8
0
  6
Continuous
100
AcDbLine
 10
694.9421903395982
 20
76.37050313183639
 30
0.0
 11
694.9421903395982
 21
62.57050313183666
 31
0.0
  0
LINE
  5
506
330
1F
100
AcDbEntity
  8
0
  6
Continuous
100
AcDbLine
 10
691.2660909735095
 20
86.4705031318363
 30
0.0
 11
691.2660909735095
 21
52.47050313183675
 31
0.0
  0
LINE
  5
507
330
1F
100
AcDbEntity
  8
0
  6
Continuous
100
AcDbLine
 10
688.4160909735096
 20
86.4705031318363
 30
0.0
 11
688.4160909735096
 21
52.47050313183675
 31
0.0
  0
LINE
  5
508
330
1F
100
AcDbEntity
  8
0
  6
Continuous
100
AcDbLine
 10
708.4160909735087
 20
61.15911551660341
 30
0.0
 11
725.3814430890773
 21
61.15911551660341
 31
0.0
  0
LINE
  5
509
330
1F
100
AcDbEntity
  8
0
  6
Continuous
100
AcDbLine
 10
727.5727106939225
 20
61.15911551660341
 30
0.0
 11
725.3814430890773
 21
61.15911551660341
 31
0.0
  0
LINE
  5
50A
330
1F
100
AcDbEntity
  8
0
  6
Continuous
100
AcDbLine
 10
727.5727106939225
 20
61.15911551660341
 30
0.0
 11
739.2594712530958
 21
61.15911551660341
 31
0.0
  0
LINE
  5
50B
330
1F
100
AcDbEntity
  8
0
  6
Continuous
100
AcDbLine
 10
741.4507388579404
 20
61.15911551660341
 30
0.0
 11
739.2594712530958
 21
61.15911551660341
 31
0.0
  0
LINE
  5
50C
330
1F
100
AcDbEntity
  8
0
  6
Continuous
100
AcDbLine
 10
741.4507388579404
 20
61.15911551660341
 30
0.0
 11
758.4160909735087
 21
61.15911551660341
 31
0.0
  0
LINE
  5
50D
330
1F
100
AcDbEntity
  8
0
  6
Continuous
100
AcDbLine
 10
708.4160909735069
 20
68.34391481069409
 30
0.0
 11
708.4160909735069
 21
71.29744372378175
 31
0.0
  0
LINE
  5
50E
330
1F
100
AcDbEntity
  8
0
  6
Continuous
100
AcDbLine
 10
708.4160909735087
 20
61.15911551660341
 30
0.0
 11
708.416090973508
 21
62.61400129187316
 31
0.0
  0
LINE
  5
50F
330
1F
100
AcDbEntity
  8
0
  6
Continuous
100
AcDbLine
 10
758.416090973508
 20
62.61400129187316
 30
0.0
 11
758.4160909735087
 21
61.15911551660341
 31
0.0
  0
LINE
  5
510
330
1F
100
AcDbEntity
  8
0
  6
Continuous
100
AcDbLine
 10
758.4160909735069
 20
71.29744372378175
 30
0.0
 11
758.4160909735069
 21
68.34391481069409
 31
0.0
  0
LINE
  5
511
330
1F
100
AcDbEntity
  8
0
  6
Continuous
100
AcDbLine
 10
708.4160909735069
 20
68.34391481069409
 30
0.0
 11
708.416090973508
 21
62.61400129187316
 31
0.0
  0
LINE
  5
512
330
1F
100
AcDbEntity
  8
0
  6
Continuous
100
AcDbLine
 10
758.416090973508
 20
62.61400129187316
 30
0.0
 11
758.4160909735069
 21
68.34391481069409
 31
0.0
  0
LINE
  5
513
330
1F
100
AcDbEntity
  8
0
  6
Continuous
100
AcDbLine
 10
758.4160909735069
 20
71.29744372378175
 30
0.0
 11
758.4160909735076
 21
75.30237597818817
 31
0.0
  0
LINE
  5
514
330
1F
100
AcDbEntity
  8
0
  6
Continuous
100
AcDbLine
 10
708.4160909735078
 20
75.30237597818817
 30
0.0
 11
708.4160909735069
 21
71.29744372378175
 31
0.0
  0
LINE
  5
515
330
1F
100
AcDbEntity
  8
0
  6
Continuous
100
AcDbLine
 10
724.7594461269184
 20
82.15971438380487
 30
0.0
 11
742.072735820099
 21
82.15971438380487
 31
0.0
  0
ELLIPSE
  5
516
330
1F
100
AcDbEntity
  8
0
  6
Continuous
100
AcDbEllipse
 10
733.4160909735053
 20
61.15911551660341
 30
0.0
 11
-0.0000000000041142
 21
-25.71501902106339
 31
0.0
210
0.0
220
0.0
230
1.0
 40
0.5833166986076633
 41
2.389118277426078
 42
2.526407603458326
  0
LINE
  5
517
330
1F
100
AcDbEntity
  8
0
  6
Continuous
100
AcDbLine
 10
716.3299123486658
 20
75.30237597818817
 30
0.0
 11
708.4160909735078
 21
75.30237597818817
 31
0.0
  0
LINE
  5
518
330
1F
100
AcDbEntity
  8
0
  6
Continuous
100
AcDbLine
 10
708.4160909735078
 20
75.30237597818817
 30
0.0
 11
708.4160909735094
 21
78.73104518099674
 31
0.0
  0
ELLIPSE
  5
519
330
1F
100
AcDbEntity
  8
0
  6
Continuous
100
AcDbEllipse
 10
733.4160909735053
 20
61.15911551660341
 30
0.0
 11
-0.000000000004112
 21
-25.71501902106339
 31
0.0
210
0.0
220
0.0
230
1.0
 40
0.5833166986076633
 41
3.756777703720405
 42
3.894067029752755
  0
LINE
  5
51A
330
1F
100
AcDbEntity
  8
0
  6
Continuous
100
AcDbLine
 10
758.4160909735092
 20
78.73104518099674
 30
0.0
 11
758.4160909735076
 21
75.30237597818817
 31
0.0
  0
LINE
  5
51B
330
1F
100
AcDbEntity
  8
0
  6
Continuous
100
AcDbLine
 10
758.4160909735076
 20
75.30237597818817
 30
0.0
 11
750.5022695983493
 21
75.30237597818817
 31
0.0
  0
ELLIPSE
  5
51C
330
1F
100
AcDbEntity
  8
0
  6
Continuous
100
AcDbEllipse
 10
733.416090973511
 20
71.65941495020437
 30
0.0
 11
-14.99999999999958
 21
0.0000000000061756
 31
0.0
210
0.0
220
0.0
230
1.0
 40
0.8571673007021136
 41
3.959914604221825
 42
4.097203930254127
  0
ELLIPSE
  5
51D
330
1F
100
AcDbEntity
  8
0
  6
Continuous
100
AcDbEllipse
 10
733.4160909735103
 20
71.65941495020437
 30
0.0
 11
14.99999999999958
 21
-0.0000000000088471
 31
0.0
210
0.0
220
0.0
230
1.0
 40
0.8571673007021136
 41
2.185981376926628
 42
2.323270702958929
  0
LINE
  5
51E
330
1F
100
AcDbEntity
  8
0
  6
Continuous
100
AcDbLine
 10
708.4160909735094
 20
78.73104518099674
 30
0.0
 11
716.3299123486677
 21
78.73104518099674
 31
0.0
  0
LINE
  5
51F
330
1F
100
AcDbEntity
  8
0
  6
Continuous
100
AcDbLine
 10
758.4160909735092
 20
78.73104518099674
 30
0.0
 11
750.5022695983512
 21
78.73104518099674
 31
0.0
  0
LINE
  5
520
330
1F
100
AcDbEntity
  8
0
  6
Continuous
100
AcDbLine
 10
752.7715998011399
 20
83.84543889513546
 30
0.0
 11
752.7715998011415
 21
87.09017876706869
 31
0.0
  0
LINE
  5
521
330
1F
100
AcDbEntity
  8
0
  6
Continuous
100
AcDbLine
 10
744.2715998011399
 20
83.84543889513546
 30
0.0
 11
744.2715998011415
 21
87.09017876706869
 31
0.0
  0
LINE
  5
522
330
1F
100
AcDbEntity
  8
0
  6
Continuous
100
AcDbLine
 10
714.0605821458741
 20
87.09017876706869
 30
0.0
 11
714.0605821458725
 21
83.84543889513546
 31
0.0
  0
LINE
  5
523
330
1F
100
AcDbEntity
  8
0
  6
Continuous
100
AcDbLine
 10
722.5605821458741
 20
87.09017876706869
 30
0.0
 11
722.5605821458725
 21
83.84543889513546
 31
0.0
  0
ELLIPSE
  5
524
330
1F
100
AcDbEntity
  8
0
  6
Continuous
100
AcDbEllipse
 10
748.5215998011399
 20
83.84543889513546
 30
0.0
 11
-4.24999999999999
 21
0.0
 31
0.0
210
0.0
220
0.0
230
1.0
 40
0.8571673007021139
 41
0.0
 42
6.283185307179586
  0
ELLIPSE
  5
525
330
1F
100
AcDbEntity
  8
0
  6
Continuous
100
AcDbEllipse
 10
718.3105821458725
 20
83.84543889513546
 30
0.0
 11
4.24999999999999
 21
0.0
 31
0.0
210
0.0
220
0.0
230
1.0
 40
0.8571673007021139
 41
0.0
 42
6.283185307179586
  0
ELLIPSE
  5
526
330
1F
100
AcDbEntity
  8
0
  6
Continuous
100
AcDbEllipse
 10
718.3105821458741
 20
87.09017876706869
 30
0.0
 11
-4.24999999999999
 21
0.0000000000000419
 31
0.0
210
0.0
220
0.0
230
1.0
 40
0.8571673007021139
 41
3.141592653589402
 42
6.283185307179196
  0
ELLIPSE
  5
527
330
1F
100
AcDbEntity
  8
0
  6
Continuous
100
AcDbEllipse
 10
748.5215998011415
 20
87.09017876706869
 30
0.0
 11
-4.24999999999999
 21
0.0000000000000019
 31
0.0
210
0.0
220
0.0
230
1.0
 40
0.8571673007021139
 41
3.141592653589388
 42
6.283185307179181
  0
ELLIPSE
  5
528
330
1F
100
AcDbEntity
  8
0
  6
Continuous
100
AcDbEllipse
 10
716.3299123486686
 20
92.4457219922306
 30
0.0
 11
-0.000000000002742
 21
-17.14334601404226
 31
0.0
210
0.0
220
0.0
230
1.0
 40
0.5833166986076634
 41
0.0
 42
0.7524743761629669
  0
ELLIPSE
  5
529
330
1F
100
AcDbEntity
  8
0
  6
Continuous
100
AcDbEllipse
 10
716.3299123486661
 20
87.30271818801751
 30
0.0
 11
9.999999999999973
 21
-0.0000000000000019
 31
0.0
210
0.0
220
0.0
230
1.0
 40
0.8571673007021139
 41
4.712388980384998
 42
5.464863356548154
  0
ELLIPSE
  5
52A
330
1F
100
AcDbEntity
  8
0
  6
Continuous
100
AcDbEllipse
 10
750.502269598352
 20
92.4457219922306
 30
0.0
 11
-0.000000000002742
 21
-17.14334601404226
 31
0.0
210
0.0
220
0.0
230
1.0
 40
0.5833166986076634
 41
5.530710931015867
 42
6.283185307179038
  0
ELLIPSE
  5
52B
330
1F
100
AcDbEntity
  8
0
  6
Continuous
100
AcDbEllipse
 10
750.5022695983496
 20
87.30271818801751
 30
0.0
 11
9.999999999999971
 21
-0.000000000004121
 31
0.0
210
0.0
220
0.0
230
1.0
 40
0.8571673007021139
 41
3.959914604221822
 42
4.712388980385189
  0
LINE
  5
52C
330
1F
100
AcDbEntity
  8
0
  6
Continuous
100
AcDbLine
 10
717.7556312101432
 20
98.03296298689341
 30
0.0
 11
717.755631210141
 21
93.08859746775718
 31
0.0
  0
LINE
  5
52D
330
1F
100
AcDbEntity
  8
0
  6
Continuous
100
AcDbLine
 10
749.0765507368751
 20
98.03296298689341
 30
0.0
 11
749.0765507368726
 21
93.08859746775718
 31
0.0
  0
ELLIPSE
  5
52E
330
1F
100
AcDbEntity
  8
0
  6
Continuous
100
AcDbEllipse
 10
733.4160909735133
 20
76.60378046934059
 30
0.0
 11
-29.49999999999998
 21
0.000000000014784
 31
0.0
210
0.0
220
0.0
230
1.0
 40
0.8571673007021139
 41
5.272007611810249
 42
5.723566675755193
  0
ELLIPSE
  5
52F
330
1F
100
AcDbEntity
  8
0
  6
Continuous
100
AcDbEllipse
 10
733.4160909735133
 20
76.60378046934105
 30
0.0
 11
-29.4999999999999
 21
0.0000000000121597
 31
0.0
210
0.0
220
0.0
230
1.0
 40
0.8571673007021139
 41
3.701211285015215
 42
4.152770348960183
  0
LINE
  5
530
330
1F
100
AcDbEntity
  8
0
  6
Continuous
100
AcDbLine
 10
749.0765507368751
 20
98.03296298689341
 30
0.0
 11
717.7556312101432
 21
98.03296298689341
 31
0.0
  0
LINE
  5
531
330
1F
100
AcDbEntity
  8
0
  6
Continuous
100
AcDbLine
 10
708.4160909735108
 20
90.02741449245926
 30
0.0
 11
708.4160909735082
 21
85.08304897332257
 31
0.0
  0
LINE
  5
532
330
1F
100
AcDbEntity
  8
0
  6
Continuous
100
AcDbLine
 10
758.4160909735105
 20
90.02741449245926
 30
0.0
 11
758.4160909735082
 21
85.08304897332257
 31
0.0
  0
LINE
  5
533
330
1F
100
AcDbEntity
  8
0
  6
Continuous
100
AcDbLine
 10
708.4160909735094
 20
78.73104518099674
 30
0.0
 11
708.4160909735082
 21
85.08304897332257
 31
0.0
  0
ELLIPSE
  5
534
330
1F
100
AcDbEntity
  8
0
  6
Continuous
100
AcDbEllipse
 10
733.4160909735105
 20
71.65941495020391
 30
0.0
 11
29.49999999999997
 21
-0.0000000000173903
 31
0.0
210
0.0
220
0.0
230
1.0
 40
0.8571673007021139
 41
2.130414958220573
 42
2.581974022165551
  0
LINE
  5
535
330
1F
100
AcDbEntity
  8
0
  6
Continuous
100
AcDbLine
 10
717.755631210141
 20
93.08859746775718
 30
0.0
 11
749.0765507368726
 21
93.08859746775718
 31
0.0
  0
ELLIPSE
  5
536
330
1F
100
AcDbEntity
  8
0
  6
Continuous
100
AcDbEllipse
 10
733.4160909735105
 20
71.65941495020391
 30
0.0
 11
29.5
 21
-0.0000000000147576
 31
0.0
210
0.0
220
0.0
230
1.0
 40
0.8571673007021137
 41
0.5596186314255612
 42
1.011177695370503
  0
LINE
  5
537
330
1F
100
AcDbEntity
  8
0
  6
Continuous
100
AcDbLine
 10
758.4160909735082
 20
85.08304897332257
 30
0.0
 11
758.4160909735092
 21
78.73104518099674
 31
0.0
  0
LINE
  5
538
330
1F
100
AcDbEntity
  8
0
  6
Continuous
100
AcDbLine
 10
758.4160909735124
 20
61.15911551660341
 30
0.0
 11
758.416090973513
 21
58.2357809270857
 31
0.0
  0
ELLIPSE
  5
539
330
1F
100
AcDbEntity
  8
0
  6
Continuous
100
AcDbEllipse
 10
733.4160909735108
 20
71.65941495020391
 30
0.0
 11
-29.49999999999974
 21
0.0000000000173986
 31
0.0
210
0.0
220
0.0
230
1.0
 40
0.8571673007021136
 41
2.28513243321078
 42
2.581974022165535
  0
LINE
  5
53A
330
1F
100
AcDbEntity
  8
0
  6
Continuous
100
AcDbLine
 10
745.739131955695
 20
50.23023243265154
 30
0.0
 11
721.0930499913338
 21
50.23023243265154
 31
0.0
  0
ELLIPSE
  5
53B
330
1F
100
AcDbEntity
  8
0
  6
Continuous
100
AcDbEllipse
 10
733.4160909735105
 20
71.65941495020391
 30
0.0
 11
-29.50000000000005
 21
0.0000000000147521
 31
0.0
210
0.0
220
0.0
230
1.0
 40
0.8571673007021137
 41
0.5596186314255594
 42
0.8564602203802937
  0
LINE
  5
53C
330
1F
100
AcDbEntity
  8
0
  6
Continuous
100
AcDbLine
 10
708.416090973513
 20
58.2357809270857
 30
0.0
 11
708.4160909735126
 21
61.15911551660341
 31
0.0
  0
LINE
  5
53D
330
1F
100
AcDbEntity
  8
0
  6
Continuous
100
AcDbLine
 10
722.5605821458779
 20
52.98391126140635
 30
0.0
 11
722.5605821458798
 21
56.22865113334004
 31
0.0
  0
LINE
  5
53E
330
1F
100
AcDbEntity
  8
0
  6
Continuous
100
AcDbLine
 10
714.0605821458779
 20
52.98391126140635
 30
0.0
 11
714.0605821458798
 21
56.22865113334004
 31
0.0
  0
ELLIPSE
  5
53F
330
1F
100
AcDbEntity
  8
0
  6
Continuous
100
AcDbEllipse
 10
718.310582145878
 20
52.98391126140635
 30
0.0
 11
-4.24999999999999
 21
0.0
 31
0.0
210
0.0
220
0.0
230
1.0
 40
0.8571673007021139
 41
0.0
 42
6.283185307179586
  0
ELLIPSE
  5
540
330
1F
100
AcDbEntity
  8
0
  6
Continuous
100
AcDbEllipse
 10
718.3105821458798
 20
56.22865113334004
 30
0.0
 11
-4.24999999999999
 21
0.0000000000000247
 31
0.0
210
0.0
220
0.0
230
1.0
 40
0.8571673007021139
 41
3.141592653589396
 42
6.283185307179189
  0
LINE
  5
541
330
1F
100
AcDbEntity
  8
0
  6
Continuous
100
AcDbLine
 10
744.2715998011472
 20
56.22865113334004
 30
0.0
 11
744.2715998011453
 21
52.98391126140635
 31
0.0
  0
LINE
  5
542
330
1F
100
AcDbEntity
  8
0
  6
Continuous
100
AcDbLine
 10
752.7715998011472
 20
56.22865113334004
 30
0.0
 11
752.7715998011453
 21
52.98391126140635
 31
0.0
  0
ELLIPSE
  5
543
330
1F
100
AcDbEntity
  8
0
  6
Continuous
100
AcDbEllipse
 10
748.5215998011454
 20
52.98391126140635
 30
0.0
 11
4.24999999999999
 21
0.0
 31
0.0
210
0.0
220
0.0
230
1.0
 40
0.8571673007021139
 41
0.0
 42
6.283185307179586
  0
ELLIPSE
  5
544
330
1F
100
AcDbEntity
  8
0
  6
Continuous
100
AcDbEllipse
 10
748.5215998011471
 20
56.22865113334004
 30
0.0
 11
-4.24999999999999
 21
0.0000000000000019
 31
0.0
210
0.0
220
0.0
230
1.0
 40
0.8571673007021139
 41
3.141592653589388
 42
6.283185307179181
  0
LINE
  5
545
330
1F
100
AcDbEntity
  8
0
  6
Continuous
100
AcDbLine
 10
705.4106121516501
 20
135.00670893186
 30
0.0
 11
702.2269212317174
 21
129.4312184030978
 31
0.0
  0
LINE
  5
546
330
1F
100
AcDbEntity
  8
0
  6
Continuous
100
AcDbLine
 10
761.4215697954186
 20
135.0067089318595
 30
0.0
 11
764.6052607153442
 21
129.4312184030978
 31
0.0
  0
LINE
  5
547
330
1F
100
AcDbEntity
  8
0
  6
Continuous
100
AcDbLine
 10
696.416090973531
 20
111.9096405044252
 30
0.0
 11
696.4160909735185
 21
87.1878129087427
 31
0.0
  0
LINE
  5
548
330
1F
100
AcDbEntity
  8
0
  6
Continuous
100
AcDbLine
 10
770.4160909735305
 20
111.9096405044247
 30
0.0
 11
770.4160909735183
 21
87.18781290874224
 31
0.0
  0
ELLIPSE
  5
549
330
1F
100
AcDbEntity
  8
0
  6
Continuous
100
AcDbEllipse
 10
733.4160909735182
 20
87.1878129087427
 30
0.0
 11
36.99999999999994
 21
-0.0000000000185268
 31
0.0
210
0.0
220
0.0
230
1.0
 40
0.8571673007021137
 41
5.935123352575433
 42
6.646941213926234
  0
ELLIPSE
  5
54A
330
1F
100
AcDbEntity
  8
0
  6
Continuous
100
AcDbEllipse
 10
733.4160909735182
 20
87.1878129087427
 30
0.0
 11
-36.9999999999999
 21
0.0000000000185213
 31
0.0
210
0.0
220
0.0
230
1.0
 40
0.8571673007021139
 41
4.348633073639206
 42
5.07614488713134
  0
ELLIPSE
  5
54B
330
1F
100
AcDbEntity
  8
0
  6
Continuous
100
AcDbEllipse
 10
733.4160909735182
 20
87.1878129087427
 30
0.0
 11
-36.99999999999994
 21
0.0000000000185338
 31
0.0
210
0.0
220
0.0
230
1.0
 40
0.8571673007021139
 41
5.919429400434107
 42
6.631247261784907
  0
ELLIPSE
  5
54C
330
1F
100
AcDbEntity
  8
0
  6
Continuous
100
AcDbEllipse
 10
733.4160909735309
 20
111.9096405044252
 30
0.0
 11
-37.00000000000012
 21
0.000000000018531
 31
0.0
210
0.0
220
0.0
230
1.0
 40
0.8571673007021139
 41
5.95217020595149
 42
6.28318530718017
  0
ELLIPSE
  5
54D
330
1F
100
AcDbEntity
  8
0
  6
Continuous
100
AcDbEllipse
 10
733.4160909735308
 20
111.9096405044252
 30
0.0
 11
-36.99999999999992
 21
0.0000000000152406
 31
0.0
210
0.0
220
0.0
230
1.0
 40
0.8571673007021139
 41
3.73503105424103
 42
5.689746906529225
  0
ELLIPSE
  5
54E
330
1F
100
AcDbEntity
  8
0
  6
Continuous
100
AcDbEllipse
 10
733.4160909735305
 20
111.9096405044252
 30
0.0
 11
36.99999999999999
 21
-0.0000000000002479
 31
0.0
210
0.0
220
0.0
230
1.0
 40
0.8571673007021139
 41
0.0
 42
0.3310151012283304
  0
LINE
  5
54F
330
1F
100
AcDbEntity
  8
0
  6
Continuous
100
AcDbLine
 10
698.4247129448744
 20
62.33735166029103
 30
0.0
 11
698.4247129448744
 21
62.57050313183666
 31
0.0
  0
ELLIPSE
  5
550
330
1F
100
AcDbEntity
  8
0
  6
Continuous
100
AcDbEllipse
 10
704.4247129448745
 20
62.33735166029103
 30
0.0
 11
-5.999999999999987
 21
0.0000000000030041
 31
0.0
210
0.0
220
0.0
230
1.0
 40
0.8571673007021139
 41
6.257005368400252
 42
7.880161572754981
  0
LINE
  5
551
330
1F
100
AcDbEntity
  8
0
  6
Continuous
100
AcDbLine
 10
698.4297788206486
 20
62.57050313183666
 30
0.0
 11
698.4267689950211
 21
62.47197980502145
 31
0.0
  0
LINE
  5
552
330
1F
100
AcDbEntity
  8
0
  6
Continuous
100
AcDbLine
 10
704.5817746347227
 20
57.19611023503287
 30
0.0
 11
709.1354594961253
 21
57.29832095085524
 31
0.0
  0
LINE
  5
553
330
1F
100
AcDbEntity
  8
0
  6
Continuous
100
AcDbLine
 10
768.4074690021711
 20
62.33735166029103
 30
0.0
 11
768.4074690021714
 21
62.57050313183666
 31
0.0
  0
LINE
  5
554
330
1F
100
AcDbEntity
  8
0
  6
Continuous
100
AcDbLine
 10
768.4074690021623
 20
112.0382741571934
 30
0.0
 11
768.4074690021689
 21
124.9793833903659
 31
0.0
  0
LINE
  5
555
330
1F
100
AcDbEntity
  8
0
  6
Continuous
100
AcDbLine
 10
698.4247129448654
 20
112.0382741571934
 30
0.0
 11
698.424712944872
 21
124.9793833903659
 31
0.0
  0
ELLIPSE
  5
556
330
1F
100
AcDbEntity
  8
0
  6
Continuous
100
AcDbEllipse
 10
762.4074690021712
 20
62.33735166029103
 30
0.0
 11
5.999999999999987
 21
-0.000000000003005
 31
0.0
210
0.0
220
0.0
230
1.0
 40
0.8571673007021139
 41
4.686209041605359
 42
6.309365245960088
  0
LINE
  5
557
330
1F
100
AcDbEntity
  8
0
  6
Continuous
100
AcDbLine
 10
757.6967224509217
 20
57.29832095085524
 30
0.0
 11
762.250407312325
 21
57.19611023503287
 31
0.0
  0
ELLIPSE
  5
558
330
1F
100
AcDbEntity
  8
0
  6
Continuous
100
AcDbEllipse
 10
762.4074690021623
 20
112.0382741571934
 30
0.0
 11
5.999999999999987
 21
-0.0000000000030041
 31
0.0
210
0.0
220
0.0
230
1.0
 40
0.8571673007021139
 41
6.257005368400252
 42
7.880161572754981
  0
LINE
  5
559
330
1F
100
AcDbEntity
  8
0
  6
Continuous
100
AcDbLine
 10
767.9950742786891
 20
98.4716614988852
 30
0.0
 11
768.4054129520156
 21
111.9036460124635
 31
0.0
  0
LINE
  5
55A
330
1F
100
AcDbEntity
  8
0
  6
Continuous
100
AcDbLine
 10
720.2519763591312
 20
116.8277866894605
 30
0.0
 11
704.5817746347117
 21
117.1795155824516
 31
0.0
  0
LINE
  5
55B
330
1F
100
AcDbEntity
  8
0
  6
Continuous
100
AcDbLine
 10
720.2519763591389
 20
132.2789289367624
 30
0.0
 11
720.2519763591312
 21
116.8277866894605
 31
0.0
  0
LINE
  5
55C
330
1F
100
AcDbEntity
  8
0
  6
Continuous
100
AcDbLine
 10
698.4267689950122
 20
111.9036460124635
 30
0.0
 11
698.8371076683436
 21
98.4716614988852
 31
0.0
  0
LINE
  5
55D
330
1F
100
AcDbEntity
  8
0
  6
Continuous
100
AcDbLine
 10
768.4054129520245
 20
62.47197980502145
 30
0.0
 11
768.402403126397
 21
62.57050313183666
 31
0.0
  0
ELLIPSE
  5
55E
330
1F
100
AcDbEntity
  8
0
  6
Continuous
100
AcDbEllipse
 10
704.4247129448653
 20
112.0382741571934
 30
0.0
 11
-5.999999999999989
 21
0.0000000000030033
 31
0.0
210
0.0
220
0.0
230
1.0
 40
0.8571673007021139
 41
4.686209041605358
 42
6.309365245960088
  0
LINE
  5
55F
330
1F
100
AcDbEntity
  8
0
  6
Continuous
100
AcDbLine
 10
762.2504073123141
 20
117.1795155824516
 30
0.0
 11
746.5802055878948
 21
116.8277866894605
 31
0.0
  0
LINE
  5
560
330
1F
100
AcDbEntity
  8
0
  6
Continuous
100
AcDbLine
 10
746.5802055878948
 20
116.8277866894605
 30
0.0
 11
746.5802055879025
 21
132.2789289367624
 31
0.0
  0
SPLINE
  5
561
330
1F
100
AcDbEntity
  8
0
  6
Continuous
100
AcDbSpline
210
0.0
220
0.0
230
1.0
 70
     8
 71
     3
 72
    14
 73
    10
 74
     0
 42
0.0000000001
 43
0.0000000001
 40
0.586651125640125
 40
0.586651125640125
 40
0.586651125640125
 40
0.586651125640125
 40
0.812572466010711
 40
0.812572466010711
 40
1.068687482602926
 40
1.068687482602926
 40
1.324802499195141
 40
1.324802499195141
 40
1.534240002584356
 40
1.534240002584356
 40
1.534240002584356
 40
1.534240002584356
 10
762.2504073123204
 20
130.150845406391
 30
0.0
 10
762.964235329337
 20
130.0275872404504
 30
0.0
 10
763.7320591031266
 20
129.8077925733519
 30
0.0
 10
765.2792113472323
 20
129.1431997958248
 30
0.0
 10
766.0464408059669
 20
128.6699407854335
 30
0.0
 10
767.2537785726074
 20
127.6350503309664
 30
0.0
 10
767.747704073005
 20
127.0272885492723
 30
0.0
 10
768.2908419192267
 20
125.9227764164489
 30
0.0
 10
768.406668889666
 20
125.4257958939247
 30
0.0
 10
768.4073782300381
 20
124.979409739155
 30
0.0
  0
SPLINE
  5
562
330
1F
100
AcDbEntity
  8
0
  6
Continuous
100
AcDbSpline
210
0.0
220
0.0
230
1.0
 70
    12
 71
     2
 72
     6
 73
     3
 74
     0
 42
0.0000000001
 43
0.0000000001
 40
1.544558052653077
 40
1.544558052653077
 40
1.544558052653077
 40
3.409769298934837
 40
3.409769298934837
 40
3.409769298934837
 10
762.2504073123204
 20
130.150845406391
 30
0.0
 41
1.031133096401546
 10
753.6217524636101
 20
131.6407731562585
 30
0.0
 41
1.034364741457411
 10
746.5802055879025
 20
132.2789289367624
 30
0.0
 41
1.0
  0
SPLINE
  5
563
330
1F
100
AcDbEntity
  8
0
  6
Continuous
100
AcDbSpline
210
0.0
220
0.0
230
1.0
 70
    12
 71
     2
 72
     6
 73
     3
 74
     0
 42
0.0000000001
 43
0.0000000001
 40
1.64026676602955
 40
1.64026676602955
 40
1.64026676602955
 40
1.684256159986405
 40
1.684256159986405
 40
1.684256159986405
 10
768.3823032098771
 20
76.37050313183639
 30
0.0
 41
1.031365753803355
 10
768.3770267281269
 20
76.58186151191697
 30
0.0
 41
1.031396471649606
 10
768.371780664967
 20
76.79168594814886
 30
0.0
 41
1.031406277956073
  0
SPLINE
  5
564
330
1F
100
AcDbEntity
  8
0
  6
Continuous
100
AcDbSpline
210
0.0
220
0.0
230
1.0
 70
    12
 71
     2
 72
     6
 73
     3
 74
     0
 42
0.0000000001
 43
0.0000000001
 40
1.725513138948493
 40
1.725513138948493
 40
1.725513138948493
 40
1.76950253290529
 40
1.76950253290529
 40
1.76950253290529
 10
698.4604012820914
 20
76.79168594814839
 30
0.0
 41
1.031406277956078
 10
698.4551552189318
 20
76.58186151191651
 30
0.0
 41
1.03139647164961
 10
698.4498787371812
 20
76.37050313183639
 30
0.0
 41
1.031365753803359
  0
SPLINE
  5
565
330
1F
100
AcDbEntity
  8
0
  6
Continuous
100
AcDbSpline
210
0.0
220
0.0
230
1.0
 70
     8
 71
     3
 72
    14
 73
    10
 74
     0
 42
0.0000000001
 43
0.0000000001
 40
0.6031349626215068
 40
0.6031349626215068
 40
0.6031349626215068
 40
0.6031349626215068
 40
0.8125724660107115
 40
0.8125724660107115
 40
1.068687482602926
 40
1.068687482602926
 40
1.324802499195142
 40
1.324802499195142
 40
1.550723839565728
 40
1.550723839565728
 40
1.550723839565728
 40
1.550723839565728
 10
698.4248037170027
 20
124.979409739155
 30
0.0
 10
698.4255130573743
 20
125.4257958939252
 30
0.0
 10
698.5413400278134
 20
125.9227764164489
 30
0.0
 10
699.0844778740343
 20
127.0272885492723
 30
0.0
 10
699.5784033744317
 20
127.6350503309664
 30
0.0
 10
700.7857411410718
 20
128.6699407854335
 30
0.0
 10
701.552970599806
 20
129.1431997958248
 30
0.0
 10
703.1001228439122
 20
129.8077925733519
 30
0.0
 10
703.8679466177018
 20
130.0275872404504
 30
0.0
 10
704.5817746347183
 20
130.150845406391
 30
0.0
  0
SPLINE
  5
566
330
1F
100
AcDbEntity
  8
0
  6
Continuous
100
AcDbSpline
210
0.0
220
0.0
230
1.0
 70
    12
 71
     2
 72
     6
 73
     3
 74
     0
 42
0.0000000001
 43
0.0000000001
 40
0.0
 40
0.0
 40
0.0
 40
1.865211246281764
 40
1.865211246281764
 40
1.865211246281764
 10
720.2519763591389
 20
132.2789289367624
 30
0.0
 41
1.0
 10
713.2104294834305
 20
131.6407731562585
 30
0.0
 41
1.034364741457415
 10
704.5817746347183
 20
130.150845406391
 30
0.0
 41
1.03113309640155
  0
SPLINE
  5
567
330
1F
100
AcDbEntity
  8
0
  6
Continuous
100
AcDbSpline
210
0.0
220
0.0
230
1.0
 70
     8
 71
     3
 72
    20
 73
    16
 74
     0
 42
0.0000000001
 43
0.0000000001
 40
0.455176661778185
 40
0.455176661778185
 40
0.455176661778185
 40
0.455176661778185
 40
0.7665037643259628
 40
0.7665037643259628
 40
1.089000980048521
 40
1.089000980048521
 40
1.419327624176176
 40
1.419327624176176
 40
1.752965301271233
 40
1.752965301271233
 40
2.086455722674573
 40
2.086455722674573
 40
2.416194783226308
 40
2.416194783226308
 40
2.686415991811592
 40
2.686415991811592
 40
2.686415991811592
 40
2.686415991811592
 10
1087.151300911703
 20
135.00670893186
 30
0.0
 10
1088.645855241218
 20
137.6240715209133
 30
0.0
 10
1090.596666887405
 20
140.0008985603972
 30
0.0
 10
1095.256982502756
 20
144.1494482748112
 30
0.0
 10
1097.9901707841
 20
145.8974626988165
 30
0.0
 10
1103.967135574168
 20
148.5763887440025
 30
0.0
 10
1107.221551989503
 20
149.4869424436779
 30
0.0
 10
1113.909677474267
 20
150.3619909240592
 30
0.0
 10
1117.344641016841
 20
150.3169569116835
 30
0.0
 10
1124.034566371942
 20
149.2606188482523
 30
0.0
 10
1127.289398744517
 20
148.2496128173489
 30
0.0
 10
1133.263742068759
 20
145.3469592929209
 30
0.0
 10
1135.988665375182
 20
143.4646298913044
 30
0.0
 10
1140.224362984681
 20
139.3698395878214
 30
0.0
 10
1141.865036842641
 20
137.2784895649374
 30
0.0
 10
1143.162258555473
 20
135.0067089318604
 30
0.0
  0
LINE
  5
568
330
1F
100
AcDbEntity
  8
0
  6
Continuous
100
AcDbLine
 10
1130.817239496939
 20
57.49180687450146
 30
0.0
 11
1130.817239496937
 21
55.68963602669831
 31
0.0
  0
LINE
  5
569
330
1F
100
AcDbEntity
  8
0
  6
Continuous
100
AcDbLine
 10
1099.496319970206
 20
57.49180687450146
 30
0.0
 11
1099.496319970206
 21
55.68963602669831
 31
0.0
  0
ELLIPSE
  5
56A
330
1F
100
AcDbEntity
  8
0
  6
Continuous
100
AcDbEllipse
 10
1115.156779733568
 20
77.11881854425112
 30
0.0
 11
-29.49999999999968
 21
0.0000000000143399
 31
0.0
210
0.0
220
0.0
230
1.0
 40
0.8571673007021141
 41
0.8926145271522836
 42
1.011177695370497
  0
ELLIPSE
  5
56B
330
1F
100
AcDbEntity
  8
0
  6
Continuous
100
AcDbEllipse
 10
1115.156779733568
 20
77.11881854425022
 30
0.0
 11
-29.49999999999883
 21
0.000000000016985
 31
0.0
210
0.0
220
0.0
230
1.0
 40
0.8571673007021139
 41
2.130414958220535
 42
2.248978126438768
  0
LINE
  5
56C
330
1F
100
AcDbEntity
  8
0
  6
Continuous
100
AcDbLine
 10
1110.835802422378
 20
55.68963602669831
 30
0.0
 11
1099.496319970206
 21
55.68963602669831
 31
0.0
  0
LINE
  5
56D
330
1F
100
AcDbEntity
  8
0
  6
Continuous
100
AcDbLine
 10
1130.817239496937
 20
55.68963602669831
 30
0.0
 11
1119.477757044765
 21
55.68963602669831
 31
0.0
  0
LINE
  5
56E
330
1F
100
AcDbEntity
  8
0
  6
Continuous
100
AcDbLine
 10
1076.682879099653
 20
62.57050313183711
 30
0.0
 11
1080.165401704915
 21
62.57050313183711
 31
0.0
  0
LINE
  5
56F
330
1F
100
AcDbEntity
  8
0
  6
Continuous
100
AcDbLine
 10
1076.682879099653
 20
76.37050313183684
 30
0.0
 11
1080.190567497216
 21
76.37050313183684
 31
0.0
  0
LINE
  5
570
330
1F
100
AcDbEntity
  8
0
  6
Continuous
100
AcDbLine
 10
1076.682879099653
 20
76.37050313183684
 30
0.0
 11
1073.006779733564
 21
86.47050313183674
 31
0.0
  0
LINE
  5
571
330
1F
100
AcDbEntity
  8
0
  6
Continuous
100
AcDbLine
 10
1076.682879099653
 20
62.57050313183711
 30
0.0
 11
1073.006779733564
 21
52.47050313183675
 31
0.0
  0
LINE
  5
572
330
1F
100
AcDbEntity
  8
0
  6
Continuous
100
AcDbLine
 10
1070.156779733564
 20
52.47050313183675
 30
0.0
 11
1073.006779733564
 21
52.47050313183675
 31
0.0
  0
LINE
  5
573
330
1F
100
AcDbEntity
  8
0
  6
Continuous
100
AcDbLine
 10
1070.156779733564
 20
86.47050313183674
 30
0.0
 11
1073.006779733564
 21
86.47050313183674
 31
0.0
  0
LINE
  5
574
330
1F
100
AcDbEntity
  8
0
  6
Continuous
100
AcDbLine
 10
1076.682879099653
 20
62.57050313183711
 30
0.0
 11
1076.682879099653
 21
76.37050313183684
 31
0.0
  0
LINE
  5
575
330
1F
100
AcDbEntity
  8
0
  6
Continuous
100
AcDbLine
 10
1073.006779733564
 20
52.4705031318372
 30
0.0
 11
1073.006779733564
 21
86.47050313183674
 31
0.0
  0
LINE
  5
576
330
1F
100
AcDbEntity
  8
0
  6
Continuous
100
AcDbLine
 10
1070.156779733564
 20
52.4705031318372
 30
0.0
 11
1070.156779733564
 21
86.47050313183674
 31
0.0
  0
LINE
  5
577
330
1F
100
AcDbEntity
  8
0
  6
Continuous
100
AcDbLine
 10
1150.148157762212
 20
62.57050313183711
 30
0.0
 11
1153.630680367475
 21
62.57050313183711
 31
0.0
  0
LINE
  5
578
330
1F
100
AcDbEntity
  8
0
  6
Continuous
100
AcDbLine
 10
1150.122991969912
 20
76.37050313183684
 30
0.0
 11
1153.630680367475
 21
76.37050313183684
 31
0.0
  0
LINE
  5
579
330
1F
100
AcDbEntity
  8
0
  6
Continuous
100
AcDbLine
 10
1153.630680367475
 20
62.57050313183711
 30
0.0
 11
1157.306779733565
 21
52.47050313183675
 31
0.0
  0
LINE
  5
57A
330
1F
100
AcDbEntity
  8
0
  6
Continuous
100
AcDbLine
 10
1153.630680367475
 20
76.37050313183684
 30
0.0
 11
1157.306779733565
 21
86.47050313183674
 31
0.0
  0
LINE
  5
57B
330
1F
100
AcDbEntity
  8
0
  6
Continuous
100
AcDbLine
 10
1157.306779733565
 20
52.47050313183675
 30
0.0
 11
1160.156779733564
 21
52.47050313183675
 31
0.0
  0
LINE
  5
57C
330
1F
100
AcDbEntity
  8
0
  6
Continuous
100
AcDbLine
 10
1157.306779733565
 20
86.47050313183674
 30
0.0
 11
1160.156779733564
 21
86.47050313183674
 31
0.0
  0
LINE
  5
57D
330
1F
100
AcDbEntity
  8
0
  6
Continuous
100
AcDbLine
 10
1153.630680367475
 20
62.57050313183711
 30
0.0
 11
1153.630680367475
 21
76.37050313183684
 31
0.0
  0
LINE
  5
57E
330
1F
100
AcDbEntity
  8
0
  6
Continuous
100
AcDbLine
 10
1157.306779733565
 20
52.4705031318372
 30
0.0
 11
1157.306779733565
 21
86.47050313183674
 31
0.0
  0
LINE
  5
57F
330
1F
100
AcDbEntity
  8
0
  6
Continuous
100
AcDbLine
 10
1160.156779733564
 20
52.4705031318372
 30
0.0
 11
1160.156779733564
 21
86.47050313183674
 31
0.0
  0
ELLIPSE
  5
580
330
1F
100
AcDbEntity
  8
0
  6
Continuous
100
AcDbEllipse
 10
1100.051270905933
 20
52.9839112614068
 30
0.0
 11
-4.249999999999987
 21
0.0000000000020687
 31
0.0
210
0.0
220
0.0
230
1.0
 40
0.8571673007021139
 41
0.1180669535804884
 42
2.284579768184244
  0
ELLIPSE
  5
581
330
1F
100
AcDbEntity
  8
0
  6
Continuous
100
AcDbEllipse
 10
1130.262288561201
 20
52.9839112614068
 30
0.0
 11
4.249999999999994
 21
-0.0000000000020687
 31
0.0
210
0.0
220
0.0
230
1.0
 40
0.8571673007021136
 41
3.998605538996494
 42
6.165118353600229
  0
LINE
  5
582
330
1F
100
AcDbEntity
  8
0
  6
Continuous
100
AcDbLine
 10
1130.817239496937
 20
55.17459795178869
 30
0.0
 11
1130.817239496934
 21
50.230232432652
 31
0.0
  0
LINE
  5
583
330
1F
100
AcDbEntity
  8
0
  6
Continuous
100
AcDbLine
 10
1099.496319970205
 20
55.17459795178869
 30
0.0
 11
1099.496319970203
 21
50.230232432652
 31
0.0
  0
ELLIPSE
  5
584
330
1F
100
AcDbEntity
  8
0
  6
Continuous
100
AcDbEllipse
 10
1115.156779733568
 20
76.60378046934059
 30
0.0
 11
-29.49999999999903
 21
0.000000000016967
 31
0.0
210
0.0
220
0.0
230
1.0
 40
0.8571673007021137
 41
2.130414958220526
 42
2.279865267896928
  0
LINE
  5
585
330
1F
100
AcDbEntity
  8
0
  6
Continuous
100
AcDbLine
 10
1130.817239496937
 20
55.17459795178869
 30
0.0
 11
1099.496319970205
 21
55.17459795178869
 31
0.0
  0
ELLIPSE
  5
586
330
1F
100
AcDbEntity
  8
0
  6
Continuous
100
AcDbEllipse
 10
1115.156779733568
 20
76.60378046934241
 30
0.0
 11
-29.50000000000156
 21
0.000000000014358
 31
0.0
210
0.0
220
0.0
230
1.0
 40
0.8571673007021136
 41
0.8617273856940848
 42
1.011177695370479
  0
ELLIPSE
  5
587
330
1F
100
AcDbEntity
  8
0
  6
Continuous
100
AcDbEllipse
 10
1115.156779733565
 20
71.65941495020437
 30
0.0
 11
29.49999999999983
 21
-0.0000000000117337
 31
0.0
210
0.0
220
0.0
230
1.0
 40
0.8571673007021137
 41
3.745589475235625
 42
4.152770348960141
  0
LINE
  5
588
330
1F
100
AcDbEntity
  8
0
  6
Continuous
100
AcDbLine
 10
1099.496319970203
 20
50.230232432652
 30
0.0
 11
1130.817239496934
 21
50.230232432652
 31
0.0
  0
ELLIPSE
  5
589
330
1F
100
AcDbEntity
  8
0
  6
Continuous
100
AcDbEllipse
 10
1115.156779733565
 20
71.65941495020437
 30
0.0
 11
29.50000000000001
 21
-0.0000000000143677
 31
0.0
210
0.0
220
0.0
230
1.0
 40
0.8571673007021137
 41
5.27200761181026
 42
5.679188485534782
  0
ELLIPSE
  5
58A
330
1F
100
AcDbEntity
  8
0
  6
Continuous
100
AcDbEllipse
 10
1115.156779733598
 20
140.2367346244782
 30
0.0
 11
-7.499999999999983
 21
0.0
 31
0.0
210
0.0
220
0.0
230
1.0
 40
0.8571673007021137
 41
0.0
 42
6.283185307179586
  0
ELLIPSE
  5
58B
330
1F
100
AcDbEntity
  8
0
  6
Continuous
100
AcDbEllipse
 10
1115.156779733599
 20
141.0092917368434
 30
0.0
 11
5.999999999999983
 21
0.0
 31
0.0
210
0.0
220
0.0
230
1.0
 40
0.8571673007021137
 41
0.0
 42
6.283185307179586
  0
LINE
  5
58C
330
1F
100
AcDbEntity
  8
0
  6
Continuous
100
AcDbLine
 10
1080.165401704928
 20
62.33735166029148
 30
0.0
 11
1080.165401704935
 21
75.27846089346397
 31
0.0
  0
LINE
  5
58D
330
1F
100
AcDbEntity
  8
0
  6
Continuous
100
AcDbLine
 10
1080.165401704925
 20
122.2171784675661
 30
0.0
 11
1080.165401704927
 21
124.9793833903664
 31
0.0
  0
LINE
  5
58E
330
1F
100
AcDbEntity
  8
0
  6
Continuous
100
AcDbLine
 10
1150.148157762222
 20
122.2171784675652
 30
0.0
 11
1150.148157762223
 21
124.9793833903664
 31
0.0
  0
ELLIPSE
  5
58F
330
1F
100
AcDbEntity
  8
0
  6
Continuous
100
AcDbEllipse
 10
1086.165401704928
 20
62.33735166029148
 30
0.0
 11
-5.999999999999996
 21
0.0000000000029198
 31
0.0
210
0.0
220
0.0
230
1.0
 40
0.8571673007021136
 41
0.0
 42
1.596976265575296
  0
LINE
  5
590
330
1F
100
AcDbEntity
  8
0
  6
Continuous
100
AcDbLine
 10
1101.992665119196
 20
57.54783912802444
 30
0.0
 11
1086.322463394777
 21
57.19611023503333
 31
0.0
  0
LINE
  5
591
330
1F
100
AcDbEntity
  8
0
  6
Continuous
100
AcDbLine
 10
1101.992665119202
 20
72.9989813753264
 30
0.0
 11
1101.992665119196
 21
57.54783912802444
 31
0.0
  0
LINE
  5
592
330
1F
100
AcDbEntity
  8
0
  6
Continuous
100
AcDbLine
 10
1090.156779733592
 20
128.1333398640918
 30
0.0
 11
1090.156779733591
 21
125.5581494895418
 31
0.0
  0
LINE
  5
593
330
1F
100
AcDbEntity
  8
0
  6
Continuous
100
AcDbLine
 10
1140.156779733592
 20
128.1333398640922
 30
0.0
 11
1140.156779733591
 21
125.5581494895423
 31
0.0
  0
LINE
  5
594
330
1F
100
AcDbEntity
  8
0
  6
Continuous
100
AcDbLine
 10
1087.151300911703
 20
135.00670893186
 30
0.0
 11
1081.923994748764
 21
125.8523039549377
 31
0.0
  0
LINE
  5
595
330
1F
100
AcDbEntity
  8
0
  6
Continuous
100
AcDbLine
 10
1143.162258555473
 20
135.0067089318604
 30
0.0
 11
1148.389564718401
 21
125.8523039549377
 31
0.0
  0
LINE
  5
596
330
1F
100
AcDbEntity
  8
0
  6
Continuous
100
AcDbLine
 10
1107.656779733599
 20
140.2367346244782
 30
0.0
 11
1107.656779733594
 21
128.1333398640918
 31
0.0
  0
LINE
  5
597
330
1F
100
AcDbEntity
  8
0
  6
Continuous
100
AcDbLine
 10
1122.656779733598
 20
140.2367346244782
 30
0.0
 11
1122.656779733593
 21
128.1333398640918
 31
0.0
  0
LINE
  5
598
330
1F
100
AcDbEntity
  8
0
  6
Continuous
100
AcDbLine
 10
1078.156779733585
 20
111.9096405044252
 30
0.0
 11
1078.156779733574
 21
87.1878129087427
 31
0.0
  0
LINE
  5
599
330
1F
100
AcDbEntity
  8
0
  6
Continuous
100
AcDbLine
 10
1152.156779733584
 20
111.9096405044256
 30
0.0
 11
1152.156779733573
 21
87.18781290874316
 31
0.0
  0
ELLIPSE
  5
59A
330
1F
100
AcDbEntity
  8
0
  6
Continuous
100
AcDbEllipse
 10
1115.156779733592
 20
128.1333398640918
 30
0.0
 11
24.99999999999995
 21
0.0
 31
0.0
210
0.0
220
0.0
230
1.0
 40
0.8571673007021137
 41
0.0
 42
6.283185307179586
  0
ELLIPSE
  5
59B
330
1F
100
AcDbEntity
  8
0
  6
Continuous
100
AcDbEllipse
 10
1115.156779733591
 20
125.5581494895418
 30
0.0
 11
24.99999999999995
 21
0.0
 31
0.0
210
0.0
220
0.0
230
1.0
 40
0.8571673007021137
 41
3.141592653589389
 42
6.283185307179182
  0
ELLIPSE
  5
59C
330
1F
100
AcDbEntity
  8
0
  6
Continuous
100
AcDbEllipse
 10
1115.156779733592
 20
128.1333398640918
 30
0.0
 11
7.499999999999983
 21
-0.0000000000000005
 31
0.0
210
0.0
220
0.0
230
1.0
 40
0.8571673007021139
 41
3.141592653589366
 42
6.283185307179159
  0
ELLIPSE
  5
59D
330
1F
100
AcDbEntity
  8
0
  6
Continuous
100
AcDbEllipse
 10
1115.156779733573
 20
87.1878129087427
 30
0.0
 11
-36.99999999999987
 21
0.0000000000179967
 31
0.0
210
0.0
220
0.0
230
1.0
 40
0.8571673007021137
 41
0.0
 42
0.3339702160385594
  0
ELLIPSE
  5
59E
330
1F
100
AcDbEntity
  8
0
  6
Continuous
100
AcDbEllipse
 10
1115.156779733573
 20
87.1878129087427
 30
0.0
 11
36.99999999999968
 21
0.0000000000002889
 31
0.0
210
0.0
220
0.0
230
1.0
 40
0.8571673007021139
 41
5.949215091141182
 42
6.283185307179178
  0
ELLIPSE
  5
59F
330
1F
100
AcDbEntity
  8
0
  6
Continuous
100
AcDbEllipse
 10
1115.156779733573
 20
87.1878129087427
 30
0.0
 11
-36.99999999999988
 21
0.0000000000180272
 31
0.0
210
0.0
220
0.0
230
1.0
 40
0.8571673007021139
 41
1.207040420049398
 42
1.934552233541515
  0
ELLIPSE
  5
5A0
330
1F
100
AcDbEntity
  8
0
  6
Continuous
100
AcDbEllipse
 10
1115.156779733585
 20
111.9096405044256
 30
0.0
 11
36.99999999999991
 21
-0.0000000000180161
 31
0.0
210
0.0
220
0.0
230
1.0
 40
0.8571673007021141
 41
2.686415991812179
 42
6.738361968958365
  0
LINE
  5
5A1
330
1F
100
AcDbEntity
  8
0
  6
Continuous
100
AcDbLine
 10
1150.148157762225
 20
62.33735166029148
 30
0.0
 11
1150.148157762233
 21
75.27846089346443
 31
0.0
  0
ELLIPSE
  5
5A2
330
1F
100
AcDbEntity
  8
0
  6
Continuous
100
AcDbEllipse
 10
1144.148157762225
 20
62.33735166029148
 30
0.0
 11
5.999999999999987
 21
0.0000000000000266
 31
0.0
210
0.0
220
0.0
230
1.0
 40
0.8571673007021139
 41
4.686209041604703
 42
6.283185307179167
  0
LINE
  5
5A3
330
1F
100
AcDbEntity
  8
0
  6
Continuous
100
AcDbLine
 10
1143.991096072379
 20
57.19611023503333
 30
0.0
 11
1128.32089434796
 21
57.54783912802444
 31
0.0
  0
LINE
  5
5A4
330
1F
100
AcDbEntity
  8
0
  6
Continuous
100
AcDbLine
 10
1128.32089434796
 20
57.54783912802444
 30
0.0
 11
1128.320894347967
 21
72.9989813753264
 31
0.0
  0
SPLINE
  5
5A5
330
1F
100
AcDbEntity
  8
0
  6
Continuous
100
AcDbSpline
210
0.0
220
0.0
230
1.0
 70
     8
 71
     3
 72
    12
 73
     8
 74
     0
 42
0.0000000001
 43
0.0000000001
 40
0.8280126646854199
 40
0.8280126646854199
 40
0.8280126646854199
 40
0.8280126646854199
 40
1.068687482602926
 40
1.068687482602926
 40
1.324802499195141
 40
1.324802499195141
 40
1.550723839565727
 40
1.550723839565727
 40
1.550723839565727
 40
1.550723839565727
 10
1083.967640515502
 20
129.43115402387
 30
0.0
 10
1083.201747125886
 20
129.0859772386525
 30
0.0
 10
1082.49003700384
 20
128.6387459839025
 30
0.0
 10
1081.319092134487
 20
127.6350503309668
 30
0.0
 10
1080.825166634088
 20
127.0272885492727
 30
0.0
 10
1080.26279788409
 20
125.8836689105078
 30
0.0
 10
1080.148765510605
 20
125.3475653242404
 30
0.0
 10
1080.167457755074
 20
124.8749758364033
 30
0.0
  0
SPLINE
  5
5A6
330
1F
100
AcDbEntity
  8
0
  6
Continuous
100
AcDbSpline
210
0.0
220
0.0
230
1.0
 70
    12
 71
     2
 72
     6
 73
     3
 74
     0
 42
0.0000000001
 43
0.0000000001
 40
1.465286127188939
 40
1.465286127188939
 40
1.465286127188939
 40
1.865211246281762
 40
1.865211246281762
 40
1.865211246281762
 10
1080.262140394938
 20
122.4553815246091
 30
0.0
 41
1.030790495781296
 10
1080.216023366162
 20
123.647108454797
 30
0.0
 41
1.031826002385472
 10
1080.167457755073
 20
124.8749758364033
 30
0.0
 41
1.031133096401547
  0
ELLIPSE
  5
5A7
330
1F
100
AcDbEntity
  8
0
  6
Continuous
100
AcDbEllipse
 10
1115.156779733581
 20
102.6389551560442
 30
0.0
 11
-36.99999999999989
 21
0.0000000000179926
 31
0.0
210
0.0
220
0.0
230
1.0
 40
0.8571673007021136
 41
0.3637559067466283
 42
1.207040420049398
  0
SPLINE
  5
5A8
330
1F
100
AcDbEntity
  8
0
  6
Continuous
100
AcDbSpline
210
0.0
220
0.0
230
1.0
 70
    12
 71
     2
 72
     6
 73
     3
 74
     0
 42
0.0000000001
 43
0.0000000001
 40
0.0
 40
0.0
 40
0.0
 40
1.865211246281761
 40
1.865211246281761
 40
1.865211246281761
 10
1101.992665119202
 20
72.9989813753264
 30
0.0
 41
1.0
 10
1094.951118243495
 20
72.04472047619086
 30
0.0
 41
1.034364741457412
 10
1086.322463394781
 20
70.16744005897274
 30
0.0
 41
1.031133096401547
  0
SPLINE
  5
5A9
330
1F
100
AcDbEntity
  8
0
  6
Continuous
100
AcDbSpline
210
0.0
220
0.0
230
1.0
 70
     8
 71
     3
 72
    14
 73
    10
 74
     0
 42
0.0000000001
 43
0.0000000001
 40
0.586651125640125
 40
0.586651125640125
 40
0.586651125640125
 40
0.586651125640125
 40
0.812572466010711
 40
0.812572466010711
 40
1.068687482602926
 40
1.068687482602926
 40
1.324802499195141
 40
1.324802499195141
 40
1.550723839565727
 40
1.550723839565727
 40
1.550723839565727
 40
1.550723839565727
 10
1080.167457755082
 20
75.44330962896132
 30
0.0
 10
1080.148765510614
 20
74.69215904777505
 30
0.0
 10
1080.262797884098
 20
73.91195577085412
 30
0.0
 10
1080.825166634098
 20
72.40323878390793
 30
0.0
 10
1081.319092134497
 20
71.69571255727763
 30
0.0
 10
1082.526429901136
 20
70.66082210281095
 30
0.0
 10
1083.293659359871
 20
70.28732753735496
 30
0.0
 10
1084.840811603977
 20
69.9878321080096
 30
0.0
 10
1085.608635377766
 20
70.0121371315636
 30
0.0
 10
1086.322463394783
 20
70.16744005897274
 30
0.0
  0
SPLINE
  5
5AA
330
1F
100
AcDbEntity
  8
0
  6
Continuous
100
AcDbSpline
210
0.0
220
0.0
230
1.0
 70
    12
 71
     2
 72
     6
 73
     3
 74
     0
 42
0.0000000001
 43
0.0000000001
 40
1.544558052653077
 40
1.544558052653077
 40
1.544558052653077
 40
3.409769298934837
 40
3.409769298934837
 40
3.409769298934837
 10
1080.167457755081
 20
75.44330962896132
 30
0.0
 41
1.031133096401546
 10
1080.393407034197
 20
84.52311449786433
 30
0.0
 41
1.034364741457411
 10
1080.57779642841
 20
91.3551065659017
 30
0.0
 41
1.0
  0
ELLIPSE
  5
5AB
330
1F
100
AcDbEntity
  8
0
  6
Continuous
100
AcDbEllipse
 10
1115.156779733581
 20
102.6389551560442
 30
0.0
 11
36.99999999999994
 21
-0.000000000018005
 31
0.0
210
0.0
220
0.0
230
1.0
 40
0.8571673007021139
 41
5.076144887131307
 42
5.919429400434071
  0
SPLINE
  5
5AC
330
1F
100
AcDbEntity
  8
0
  6
Continuous
100
AcDbSpline
210
0.0
220
0.0
230
1.0
 70
    12
 71
     2
 72
     6
 73
     3
 74
     0
 42
0.0000000001
 43
0.0000000001
 40
0.0
 40
0.0
 40
0.0
 40
1.865211246281763
 40
1.865211246281763
 40
1.865211246281763
 10
1149.735763038755
 20
91.3551065659017
 30
0.0
 41
1.0
 10
1149.920152432967
 20
84.52311449786387
 30
0.0
 41
1.034364741457416
 10
1150.146101712084
 20
75.44330962896132
 30
0.0
 41
1.03113309640155
  0
SPLINE
  5
5AD
330
1F
100
AcDbEntity
  8
0
  6
Continuous
100
AcDbSpline
210
0.0
220
0.0
230
1.0
 70
     8
 71
     3
 72
    14
 73
    10
 74
     0
 42
0.0000000001
 43
0.0000000001
 40
0.5866511256401252
 40
0.5866511256401252
 40
0.5866511256401252
 40
0.5866511256401252
 40
0.812572466010711
 40
0.812572466010711
 40
1.068687482602926
 40
1.068687482602926
 40
1.324802499195141
 40
1.324802499195141
 40
1.550723839565727
 40
1.550723839565727
 40
1.550723839565727
 40
1.550723839565727
 10
1143.991096072385
 20
70.16744005897274
 30
0.0
 10
1144.704924089403
 20
70.0121371315636
 30
0.0
 10
1145.472747863192
 20
69.9878321080096
 30
0.0
 10
1147.019900107298
 20
70.28732753735496
 30
0.0
 10
1147.787129566031
 20
70.66082210281095
 30
0.0
 10
1148.994467332671
 20
71.69571255727763
 30
0.0
 10
1149.488392833069
 20
72.40323878390793
 30
0.0
 10
1150.050761583067
 20
73.91195577085412
 30
0.0
 10
1150.164793956553
 20
74.69215904777505
 30
0.0
 10
1150.146101712085
 20
75.44330962896132
 30
0.0
  0
SPLINE
  5
5AE
330
1F
100
AcDbEntity
  8
0
  6
Continuous
100
AcDbSpline
210
0.0
220
0.0
230
1.0
 70
    12
 71
     2
 72
     6
 73
     3
 74
     0
 42
0.0000000001
 43
0.0000000001
 40
1.544558052653077
 40
1.544558052653077
 40
1.544558052653077
 40
3.409769298934837
 40
3.409769298934837
 40
3.409769298934837
 10
1143.991096072385
 20
70.16744005897274
 30
0.0
 41
1.031133096401549
 10
1135.362441223676
 20
72.04472047619086
 30
0.0
 41
1.034364741457414
 10
1128.320894347967
 20
72.9989813753264
 30
0.0
 41
1.0
  0
SPLINE
  5
5AF
330
1F
100
AcDbEntity
  8
0
  6
Continuous
100
AcDbSpline
210
0.0
220
0.0
230
1.0
 70
     8
 71
     3
 72
    12
 73
     8
 74
     0
 42
0.0000000001
 43
0.0000000001
 40
0.5866511256401257
 40
0.5866511256401257
 40
0.5866511256401257
 40
0.5866511256401257
 40
0.8125724660107115
 40
0.8125724660107115
 40
1.068687482602926
 40
1.068687482602926
 40
1.309362300520476
 40
1.309362300520476
 40
1.309362300520476
 40
1.309362300520476
 10
1150.146101712077
 20
124.8749758364033
 30
0.0
 10
1150.164793956544
 20
125.3475653242404
 30
0.0
 10
1150.050761583059
 20
125.8836689105078
 30
0.0
 10
1149.488392833059
 20
127.0272885492727
 30
0.0
 10
1148.994467332661
 20
127.6350503309668
 30
0.0
 10
1147.823522463307
 20
128.6387459839025
 30
0.0
 10
1147.111812341261
 20
129.085977238653
 30
0.0
 10
1146.345918951643
 20
129.4311540238705
 30
0.0
  0
SPLINE
  5
5B0
330
1F
100
AcDbEntity
  8
0
  6
Continuous
100
AcDbSpline
210
0.0
220
0.0
230
1.0
 70
    12
 71
     2
 72
     6
 73
     3
 74
     0
 42
0.0000000001
 43
0.0000000001
 40
1.54455805265308
 40
1.54455805265308
 40
1.54455805265308
 40
1.944483171745978
 40
1.944483171745978
 40
1.944483171745978
 10
1150.146101712076
 20
124.8749758364033
 30
0.0
 41
1.031133096401543
 10
1150.097536100989
 20
123.6471084547966
 30
0.0
 41
1.031826002385468
 10
1150.051419072212
 20
122.4553815246086
 30
0.0
 41
1.030790495781291
  0
SPLINE
  5
5B1
330
1F
100
AcDbEntity
  8
0
  6
Continuous
100
AcDbSpline
210
0.0
220
0.0
230
1.0
 70
     8
 71
     3
 72
    10
 73
     6
 74
     0
 42
0.0000000001
 43
0.0000000001
 40
5.673267572041655
 40
5.673267572041655
 40
5.673267572041655
 40
5.673267572041655
 40
5.957244463676038
 40
5.957244463676038
 40
6.123793351390061
 40
6.123793351390061
 40
6.123793351390061
 40
6.123793351390061
 10
974.2407344250082
 20
261.1486573461462
 30
0.0
 10
972.8837582332866
 20
259.3075311270141
 30
0.0
 10
971.29120960521
 20
257.6928640654151
 30
0.0
 10
968.2924390955367
 20
255.7249091976783
 30
0.0
 10
967.0795491786803
 20
255.13044881103
 30
0.0
 10
965.7859802160606
 20
254.7266951481461
 30
0.0
  0
SPLINE
  5
5B2
330
1F
100
AcDbEntity
  8
0
  6
Continuous
100
AcDbSpline
210
0.0
220
0.0
230
1.0
 70
     8
 71
     3
 72
    10
 73
     6
 74
     0
 42
0.0000000001
 43
0.0000000001
 40
3.300984609379317
 40
3.300984609379317
 40
3.300984609379317
 40
3.300984609379317
 40
3.53582668786414
 40
3.53582668786414
 40
3.751510388727723
 40
3.751510388727723
 40
3.751510388727723
 40
3.751510388727723
 10
965.785980216061
 20
316.2964843587352
 30
0.0
 10
967.6099757288184
 20
315.7271719442906
 30
0.0
 10
969.2661060563832
 20
314.78133064125
 30
0.0
 10
972.0446574468391
 20
312.5370042462701
 30
0.0
 10
973.2100954693887
 20
311.2728786059115
 30
0.0
 10
974.2407344250086
 20
309.8745221607305
 30
0.0
  0
LINE
  5
5B3
330
1F
100
AcDbEntity
  8
0
  6
Continuous
100
AcDbLine
 10
883.2701985782151
 20
310.5115897534333
 30
0.0
 11
878.3843449642127
 21
310.5115897534324
 31
0.0
  0
LINE
  5
5B4
330
1F
100
AcDbEntity
  8
0
  6
Continuous
100
AcDbLine
 10
878.4599797541941
 20
301.172049516802
 30
0.0
 11
873.5741261401923
 21
301.1720495168002
 31
0.0
  0
LINE
  5
5B5
330
1F
100
AcDbEntity
  8
0
  6
Continuous
100
AcDbLine
 10
883.2701985782151
 20
260.5115897534342
 30
0.0
 11
878.3843449642127
 21
260.5115897534324
 31
0.0
  0
LINE
  5
5B6
330
1F
100
AcDbEntity
  8
0
  6
Continuous
100
AcDbLine
 10
878.4599797541936
 20
269.8511299900701
 30
0.0
 11
873.5741261401917
 21
269.8511299900693
 31
0.0
  0
LINE
  5
5B7
330
1F
100
AcDbEntity
  8
0
  6
Continuous
100
AcDbLine
 10
876.7731269616142
 20
262.7300061160158
 30
0.0
 11
877.3208281658035
 21
261.9306523041778
 31
0.0
  0
LINE
  5
5B8
330
1F
100
AcDbEntity
  8
0
  6
Continuous
100
AcDbLine
 10
876.7731269616142
 20
308.293173390849
 30
0.0
 11
877.3208281658035
 21
309.0925272026889
 31
0.0
  0
SPLINE
  5
5B9
330
1F
100
AcDbEntity
  8
0
  6
Continuous
100
AcDbSpline
210
0.0
220
0.0
230
1.0
 70
     8
 71
     3
 72
     8
 73
     4
 74
     0
 42
0.0000000001
 43
0.0000000001
 40
-0.1443504730160225
 40
-0.1443504730160225
 40
-0.1443504730160225
 40
-0.1443504730160225
 40
0.0
 40
0.0
 40
0.0
 40
0.0
 10
873.2319969144
 20
270.141163604495
 30
0.0
 10
873.3459851303164
 20
270.0436205419546
 30
0.0
 10
873.4600519349765
 20
269.9469387640502
 30
0.0
 10
873.5741261401917
 20
269.8511299900693
 30
0.0
  0
SPLINE
  5
5BA
330
1F
100
AcDbEntity
  8
0
  6
Continuous
100
AcDbSpline
210
0.0
220
0.0
230
1.0
 70
     8
 71
     3
 72
     8
 73
     4
 74
     0
 42
0.0000000001
 43
0.0000000001
 40
-0.1443504730161413
 40
-0.1443504730161413
 40
-0.1443504730161413
 40
-0.1443504730161413
 40
0.0
 40
0.0
 40
0.0
 40
0.0
 10
873.2319969144
 20
300.8820159023744
 30
0.0
 10
873.3459851303164
 20
300.9795589649148
 30
0.0
 10
873.4600519349765
 20
301.0762407428192
 30
0.0
 10
873.5741261401923
 20
301.1720495168002
 30
0.0
  0
ELLIPSE
  5
5BB
330
1F
100
AcDbEntity
  8
0
  6
Continuous
100
AcDbEllipse
 10
886.4500780129429
 20
285.5115897534288
 30
0.0
 11
-0.0000000000051376
 21
29.4999999999999
 31
0.0
210
0.0
220
0.0
230
1.0
 40
0.515038074910054
 41
0.5596186314246268
 42
1.011177695369569
  0
LINE
  5
5BC
330
1F
100
AcDbEntity
  8
0
  6
Continuous
100
AcDbLine
 10
873.5741261401917
 20
269.8511299900693
 30
0.0
 11
873.5741261401923
 21
301.1720495168002
 31
0.0
  0
ELLIPSE
  5
5BD
330
1F
100
AcDbEntity
  8
0
  6
Continuous
100
AcDbEllipse
 10
886.4500780129432
 20
285.5115897534288
 30
0.0
 11
-0.0000000000035666
 21
29.5
 31
0.0
210
0.0
220
0.0
230
1.0
 40
0.515038074910054
 41
2.130414958219827
 42
2.581974022164933
  0
LINE
  5
5BE
330
1F
100
AcDbEntity
  8
0
  6
Continuous
100
AcDbLine
 10
885.2520649070674
 20
261.5115897534333
 30
0.0
 11
884.2767442333506
 21
261.5115897534333
 31
0.0
  0
LINE
  5
5BF
330
1F
100
AcDbEntity
  8
0
  6
Continuous
100
AcDbLine
 10
883.2701985782151
 20
260.5115897534342
 30
0.0
 11
885.2385781604326
 21
260.5115897534324
 31
0.0
  0
ELLIPSE
  5
5C0
330
1F
100
AcDbEntity
  8
0
  6
Continuous
100
AcDbEllipse
 10
892.1930989276475
 20
285.5115897534297
 30
0.0
 11
-0.0000000000034403
 21
28.4999999999999
 31
0.0
210
0.0
220
0.0
230
1.0
 40
0.515038074910054
 41
2.140417645867811
 42
2.571971334516982
  0
SPLINE
  5
5C1
330
1F
100
AcDbEntity
  8
0
  6
Continuous
100
AcDbSpline
210
0.0
220
0.0
230
1.0
 70
     8
 71
     3
 72
     8
 73
     4
 74
     0
 42
0.0000000001
 43
0.0000000001
 40
-0.1443505504637195
 40
-0.1443505504637195
 40
-0.1443505504637195
 40
-0.1443505504637195
 40
0.0
 40
0.0
 40
0.0
 40
0.0
 10
883.2701985782151
 20
260.5115897534342
 30
0.0
 10
883.6053441709763
 20
260.8450140756358
 30
0.0
 10
883.9409208527172
 20
261.1784167669612
 30
0.0
 10
884.2767442333506
 20
261.5115897534333
 30
0.0
  0
ELLIPSE
  5
5C2
330
1F
100
AcDbEntity
  8
0
  6
Continuous
100
AcDbEllipse
 10
891.3359316269453
 20
285.5115897534297
 30
0.0
 11
0.0000000000051362
 21
-29.4999999999999
 31
0.0
210
0.0
220
0.0
230
1.0
 40
0.515038074910054
 41
5.272007611809329
 42
5.723566675754268
  0
LINE
  5
5C3
330
1F
100
AcDbEntity
  8
0
  6
Continuous
100
AcDbLine
 10
879.832185129806
 20
270.1411636044968
 30
0.0
 11
879.832185129806
 21
300.8820159023753
 31
0.0
  0
SPLINE
  5
5C4
330
1F
100
AcDbEntity
  8
0
  6
Continuous
100
AcDbSpline
210
0.0
220
0.0
230
1.0
 70
     8
 71
     3
 72
     8
 73
     4
 74
     0
 42
0.0000000001
 43
0.0000000001
 40
-0.1443505504637693
 40
-0.1443505504637693
 40
-0.1443505504637693
 40
-0.1443505504637693
 40
0.0
 40
0.0
 40
0.0
 40
0.0
 10
878.4599797541936
 20
269.8511299900701
 30
0.0
 10
878.9175064014798
 20
269.9469387640511
 30
0.0
 10
879.3750033667597
 20
270.0436205419555
 30
0.0
 10
879.832185129806
 20
270.1411636044968
 30
0.0
  0
LINE
  5
5C5
330
1F
100
AcDbEntity
  8
0
  6
Continuous
100
AcDbLine
 10
878.4599797541941
 20
301.172049516802
 30
0.0
 11
878.4599797541936
 21
269.8511299900701
 31
0.0
  0
ELLIPSE
  5
5C6
330
1F
100
AcDbEntity
  8
0
  6
Continuous
100
AcDbEllipse
 10
892.1930989276475
 20
285.5115897534297
 30
0.0
 11
-0.0000000000049558
 21
28.50000000000006
 31
0.0
210
0.0
220
0.0
230
1.0
 40
0.515038074910054
 41
0.5696213190725912
 42
1.001175007721612
  0
SPLINE
  5
5C7
330
1F
100
AcDbEntity
  8
0
  6
Continuous
100
AcDbSpline
210
0.0
220
0.0
230
1.0
 70
     8
 71
     3
 72
     8
 73
     4
 74
     0
 42
0.0000000001
 43
0.0000000001
 40
-0.144350550463723
 40
-0.144350550463723
 40
-0.144350550463723
 40
-0.144350550463723
 40
0.0
 40
0.0
 40
0.0
 40
0.0
 10
878.4599797541936
 20
301.172049516802
 30
0.0
 10
878.9175064014798
 20
301.0762407428201
 30
0.0
 10
879.3750033667597
 20
300.9795589649157
 30
0.0
 10
879.832185129806
 20
300.8820159023744
 30
0.0
  0
ELLIPSE
  5
5C8
330
1F
100
AcDbEntity
  8
0
  6
Continuous
100
AcDbEllipse
 10
891.3359316269453
 20
285.5115897534297
 30
0.0
 11
0.0000000000067002
 21
-29.4999999999999
 31
0.0
210
0.0
220
0.0
230
1.0
 40
0.515038074910054
 41
3.701211285013943
 42
4.152770348959061
  0
LINE
  5
5C9
330
1F
100
AcDbEntity
  8
0
  6
Continuous
100
AcDbLine
 10
884.2767442333506
 20
309.5115897534333
 30
0.0
 11
885.2520649070674
 21
309.5115897534333
 31
0.0
  0
SPLINE
  5
5CA
330
1F
100
AcDbEntity
  8
0
  6
Continuous
100
AcDbSpline
210
0.0
220
0.0
230
1.0
 70
     8
 71
     3
 72
     8
 73
     4
 74
     0
 42
0.0000000001
 43
0.0000000001
 40
-0.1443505504638201
 40
-0.1443505504638201
 40
-0.1443505504638201
 40
-0.1443505504638201
 40
0.0
 40
0.0
 40
0.0
 40
0.0
 10
883.2701985782151
 20
310.5115897534333
 30
0.0
 10
883.6053441709763
 20
310.1781654312308
 30
0.0
 10
883.9409208527172
 20
309.8447627399064
 30
0.0
 10
884.2767442333506
 20
309.5115897534333
 30
0.0
  0
LINE
  5
5CB
330
1F
100
AcDbEntity
  8
0
  6
Continuous
100
AcDbLine
 10
885.2385781604326
 20
310.5115897534324
 30
0.0
 11
883.2701985782151
 21
310.5115897534333
 31
0.0
  0
LINE
  5
5CC
330
1F
100
AcDbEntity
  8
0
  6
Continuous
100
AcDbLine
 10
880.6211435975164
 20
247.0376891195147
 30
0.0
 11
880.6211435975164
 21
260.511589753427
 31
0.0
  0
LINE
  5
5CD
330
1F
100
AcDbEntity
  8
0
  6
Continuous
100
AcDbLine
 10
866.8211435975168
 20
247.0376891195147
 30
0.0
 11
866.8211435975168
 21
260.511589753427
 31
0.0
  0
LINE
  5
5CE
330
1F
100
AcDbEntity
  8
0
  6
Continuous
100
AcDbLine
 10
866.8211435975168
 20
247.0376891195147
 30
0.0
 11
856.7211435975169
 21
243.3615897534264
 31
0.0
  0
LINE
  5
5CF
330
1F
100
AcDbEntity
  8
0
  6
Continuous
100
AcDbLine
 10
880.6211435975164
 20
247.0376891195147
 30
0.0
 11
890.7211435975163
 21
243.3615897534264
 31
0.0
  0
LINE
  5
5D0
330
1F
100
AcDbEntity
  8
0
  6
Continuous
100
AcDbLine
 10
890.7211435975163
 20
240.511589753427
 30
0.0
 11
890.7211435975163
 21
243.3615897534264
 31
0.0
  0
LINE
  5
5D1
330
1F
100
AcDbEntity
  8
0
  6
Continuous
100
AcDbLine
 10
856.7211435975169
 20
240.511589753427
 30
0.0
 11
856.7211435975169
 21
243.3615897534264
 31
0.0
  0
LINE
  5
5D2
330
1F
100
AcDbEntity
  8
0
  6
Continuous
100
AcDbLine
 10
880.6211435975164
 20
247.0376891195147
 30
0.0
 11
866.8211435975168
 21
247.0376891195147
 31
0.0
  0
LINE
  5
5D3
330
1F
100
AcDbEntity
  8
0
  6
Continuous
100
AcDbLine
 10
890.7211435975163
 20
243.3615897534264
 30
0.0
 11
856.7211435975169
 21
243.3615897534264
 31
0.0
  0
LINE
  5
5D4
330
1F
100
AcDbEntity
  8
0
  6
Continuous
100
AcDbLine
 10
890.7211435975163
 20
240.511589753427
 30
0.0
 11
856.7211435975169
 21
240.511589753427
 31
0.0
  0
LINE
  5
5D5
330
1F
100
AcDbEntity
  8
0
  6
Continuous
100
AcDbLine
 10
880.6211435975169
 20
310.5115897534261
 30
0.0
 11
880.6211435975169
 21
323.9854903873375
 31
0.0
  0
LINE
  5
5D6
330
1F
100
AcDbEntity
  8
0
  6
Continuous
100
AcDbLine
 10
866.8211435975171
 20
310.5115897534261
 30
0.0
 11
866.8211435975171
 21
323.9854903873375
 31
0.0
  0
LINE
  5
5D7
330
1F
100
AcDbEntity
  8
0
  6
Continuous
100
AcDbLine
 10
880.6211435975169
 20
323.9854903873375
 30
0.0
 11
890.7211435975169
 21
327.6615897534266
 31
0.0
  0
LINE
  5
5D8
330
1F
100
AcDbEntity
  8
0
  6
Continuous
100
AcDbLine
 10
866.8211435975171
 20
323.9854903873375
 30
0.0
 11
856.7211435975172
 21
327.6615897534266
 31
0.0
  0
LINE
  5
5D9
330
1F
100
AcDbEntity
  8
0
  6
Continuous
100
AcDbLine
 10
890.7211435975169
 20
327.6615897534266
 30
0.0
 11
890.7211435975169
 21
330.511589753426
 31
0.0
  0
LINE
  5
5DA
330
1F
100
AcDbEntity
  8
0
  6
Continuous
100
AcDbLine
 10
856.7211435975172
 20
327.6615897534266
 30
0.0
 11
856.7211435975172
 21
330.511589753426
 31
0.0
  0
LINE
  5
5DB
330
1F
100
AcDbEntity
  8
0
  6
Continuous
100
AcDbLine
 10
880.6211435975169
 20
323.9854903873375
 30
0.0
 11
866.8211435975171
 21
323.9854903873375
 31
0.0
  0
LINE
  5
5DC
330
1F
100
AcDbEntity
  8
0
  6
Continuous
100
AcDbLine
 10
890.7211435975169
 20
327.6615897534266
 30
0.0
 11
856.7211435975172
 21
327.6615897534266
 31
0.0
  0
LINE
  5
5DD
330
1F
100
AcDbEntity
  8
0
  6
Continuous
100
AcDbLine
 10
890.7211435975169
 20
330.511589753426
 30
0.0
 11
856.7211435975172
 21
330.511589753426
 31
0.0
  0
LINE
  5
5DE
330
1F
100
AcDbEntity
  8
0
  6
Continuous
100
AcDbLine
 10
864.9281592272355
 20
260.511589753427
 30
0.0
 11
864.9281592272355
 21
266.1560809257926
 31
0.0
  0
LINE
  5
5DF
330
1F
100
AcDbEntity
  8
0
  6
Continuous
100
AcDbLine
 10
864.9281592272355
 20
304.8670985810604
 30
0.0
 11
864.9281592272355
 21
310.511589753427
 31
0.0
  0
LINE
  5
5E0
330
1F
100
AcDbEntity
  8
0
  6
Continuous
100
AcDbLine
 10
864.9281592272355
 20
310.511589753427
 30
0.0
 11
865.2793164486588
 21
310.5115897534279
 31
0.0
  0
LINE
  5
5E1
330
1F
100
AcDbEntity
  8
0
  6
Continuous
100
AcDbLine
 10
865.2793164486583
 20
260.5115897534279
 30
0.0
 11
864.928159227235
 21
260.511589753427
 31
0.0
  0
LINE
  5
5E2
330
1F
100
AcDbEntity
  8
0
  6
Continuous
100
AcDbLine
 10
865.2793164486583
 20
260.511589753427
 30
0.0
 11
867.4087767014917
 21
260.5115897534279
 31
0.0
  0
LINE
  5
5E3
330
1F
100
AcDbEntity
  8
0
  6
Continuous
100
AcDbLine
 10
867.4087767014917
 20
310.5115897534279
 30
0.0
 11
865.2793164486588
 21
310.511589753427
 31
0.0
  0
LINE
  5
5E4
330
1F
100
AcDbEntity
  8
0
  6
Continuous
100
AcDbLine
 10
862.6922123320083
 20
266.1560809257971
 30
0.0
 11
865.8981230194463
 21
266.1560809257981
 31
0.0
  0
LINE
  5
5E5
330
1F
100
AcDbEntity
  8
0
  6
Continuous
100
AcDbLine
 10
862.6922123320083
 20
274.6560809257971
 30
0.0
 11
864.4881527527491
 21
274.6560809257971
 31
0.0
  0
LINE
  5
5E6
330
1F
100
AcDbEntity
  8
0
  6
Continuous
100
AcDbLine
 10
865.8981230194468
 20
304.8670985810649
 30
0.0
 11
862.6922123320083
 21
304.8670985810641
 31
0.0
  0
LINE
  5
5E7
330
1F
100
AcDbEntity
  8
0
  6
Continuous
100
AcDbLine
 10
864.4881527527495
 20
296.3670985810649
 30
0.0
 11
862.6922123320083
 21
296.3670985810641
 31
0.0
  0
ELLIPSE
  5
5E8
330
1F
100
AcDbEntity
  8
0
  6
Continuous
100
AcDbEllipse
 10
862.6922123320083
 20
270.4060809257971
 30
0.0
 11
-0.0000000000000155
 21
-4.24999999999999
 31
0.0
210
0.0
220
0.0
230
1.0
 40
0.515038074910054
 41
3.141592653591729
 42
6.283185307181522
  0
ELLIPSE
  5
5E9
330
1F
100
AcDbEntity
  8
0
  6
Continuous
100
AcDbEllipse
 10
862.6922123320083
 20
300.6170985810641
 30
0.0
 11
0.0000000000000292
 21
4.24999999999999
 31
0.0
210
0.0
220
0.0
230
1.0
 40
0.515038074910054
 41
0.0000000000019602
 42
3.141592653591753
  0
LINE
  5
5EA
330
1F
100
AcDbEntity
  8
0
  6
Continuous
100
AcDbLine
 10
867.4087767014917
 20
307.7967412374146
 30
0.0
 11
867.4087767014917
 21
310.5115897534279
 31
0.0
  0
LINE
  5
5EB
330
1F
100
AcDbEntity
  8
0
  6
Continuous
100
AcDbLine
 10
867.4087767014917
 20
310.5115897534279
 30
0.0
 11
869.2983715767709
 21
310.5115897534279
 31
0.0
  0
LINE
  5
5EC
330
1F
100
AcDbEntity
  8
0
  6
Continuous
100
AcDbLine
 10
869.2983715767704
 20
260.5115897534288
 30
0.0
 11
867.4087767014917
 21
260.5115897534279
 31
0.0
  0
LINE
  5
5ED
330
1F
100
AcDbEntity
  8
0
  6
Continuous
100
AcDbLine
 10
867.4087767014917
 20
260.5115897534279
 30
0.0
 11
867.4087767014917
 21
263.226438269442
 31
0.0
  0
LINE
  5
5EE
330
1F
100
AcDbEntity
  8
0
  6
Continuous
100
AcDbLine
 10
872.7169588394898
 20
301.1720495168002
 30
0.0
 11
864.4881527527495
 21
301.1720495167992
 31
0.0
  0
LINE
  5
5EF
330
1F
100
AcDbEntity
  8
0
  6
Continuous
100
AcDbLine
 10
872.7169588394898
 20
269.8511299900693
 30
0.0
 11
864.4881527527491
 21
269.8511299900683
 31
0.0
  0
ELLIPSE
  5
5F0
330
1F
100
AcDbEntity
  8
0
  6
Continuous
100
AcDbEllipse
 10
885.592910712241
 20
285.5115897534279
 30
0.0
 11
0.0000000000064782
 21
-28.49999999999992
 31
0.0
210
0.0
220
0.0
230
1.0
 40
0.515038074910054
 41
3.786169970708623
 42
4.142767661311136
  0
LINE
  5
5F1
330
1F
100
AcDbEntity
  8
0
  6
Continuous
100
AcDbLine
 10
873.2319969144
 20
300.8820159023744
 30
0.0
 11
873.2319969144
 21
270.141163604495
 31
0.0
  0
ELLIPSE
  5
5F2
330
1F
100
AcDbEntity
  8
0
  6
Continuous
100
AcDbEllipse
 10
885.592910712241
 20
285.5115897534279
 30
0.0
 11
0.0000000000049571
 21
-28.49999999999994
 31
0.0
210
0.0
220
0.0
230
1.0
 40
0.5150380749100542
 41
5.282010299457272
 42
5.638607990059662
  0
ELLIPSE
  5
5F3
330
1F
100
AcDbEntity
  8
0
  6
Continuous
100
AcDbEllipse
 10
885.592910712241
 20
285.5115897534279
 30
0.0
 11
-0.0000000000051376
 21
29.49999999999998
 31
0.0
210
0.0
220
0.0
230
1.0
 40
0.515038074910054
 41
0.5596186314246268
 42
1.011177695369569
  0
ELLIPSE
  5
5F4
330
1F
100
AcDbEntity
  8
0
  6
Continuous
100
AcDbEllipse
 10
885.592910712241
 20
285.5115897534279
 30
0.0
 11
-0.0000000000035638
 21
29.4999999999999
 31
0.0
210
0.0
220
0.0
230
1.0
 40
0.515038074910054
 41
2.130414958219859
 42
2.581974022164965
  0
LINE
  5
5F5
330
1F
100
AcDbEntity
  8
0
  6
Continuous
100
AcDbLine
 10
872.7169588394898
 20
269.8511299900693
 30
0.0
 11
872.7169588394898
 21
301.1720495168002
 31
0.0
  0
LINE
  5
5F6
330
1F
100
AcDbEntity
  8
0
  6
Continuous
100
AcDbLine
 10
877.5271776635108
 20
310.5115897534324
 30
0.0
 11
878.3843449642132
 21
310.5115897534315
 31
0.0
  0
LINE
  5
5F7
330
1F
100
AcDbEntity
  8
0
  6
Continuous
100
AcDbLine
 10
877.5271776635108
 20
310.5115897534324
 30
0.0
 11
869.2983715767709
 21
310.5115897534315
 31
0.0
  0
LINE
  5
5F8
330
1F
100
AcDbEntity
  8
0
  6
Continuous
100
AcDbLine
 10
877.5271776635104
 20
260.5115897534324
 30
0.0
 11
869.2983715767704
 21
260.5115897534315
 31
0.0
  0
LINE
  5
5F9
330
1F
100
AcDbEntity
  8
0
  6
Continuous
100
AcDbLine
 10
878.3843449642127
 20
260.5115897534324
 30
0.0
 11
877.5271776635104
 21
260.5115897534324
 31
0.0
  0
ELLIPSE
  5
5FA
330
1F
100
AcDbEntity
  8
0
  6
Continuous
100
AcDbEllipse
 10
877.3641046255011
 20
285.511589753427
 30
0.0
 11
0.0000000000067044
 21
-29.49999999999997
 31
0.0
210
0.0
220
0.0
230
1.0
 40
0.515038074910054
 41
3.701211285013943
 42
4.152770348959061
  0
LINE
  5
5FB
330
1F
100
AcDbEntity
  8
0
  6
Continuous
100
AcDbLine
 10
864.4881527527495
 20
301.1720495167992
 30
0.0
 11
864.4881527527491
 21
269.8511299900683
 31
0.0
  0
ELLIPSE
  5
5FC
330
1F
100
AcDbEntity
  8
0
  6
Continuous
100
AcDbEllipse
 10
877.3641046255011
 20
285.511589753427
 30
0.0
 11
0.0000000000051362
 21
-29.5
 31
0.0
210
0.0
220
0.0
230
1.0
 40
0.515038074910054
 41
5.272007611809329
 42
5.723566675754262
  0
LINE
  5
5FD
330
1F
100
AcDbEntity
  8
0
  6
Continuous
100
AcDbLine
 10
994.6384782441191
 20
290.3077126244816
 30
0.0
 11
993.8169264378357
 21
291.5067433422391
 31
0.0
  0
LINE
  5
5FE
330
1F
100
AcDbEntity
  8
0
  6
Continuous
100
AcDbLine
 10
994.6384782441191
 20
280.7154668824114
 30
0.0
 11
993.8169264378357
 21
279.5164361646521
 31
0.0
  0
ELLIPSE
  5
5FF
330
1F
100
AcDbEntity
  8
0
  6
Continuous
100
AcDbEllipse
 10
991.4959307139865
 20
285.511589753447
 30
0.0
 11
-0.0000000000013056
 21
7.499999999999981
 31
0.0
210
0.0
220
0.0
230
1.0
 40
0.515038074910054
 41
5.638607990059639
 42
10.06935527788858
  0
ELLIPSE
  5
600
330
1F
100
AcDbEntity
  8
0
  6
Continuous
100
AcDbEllipse
 10
992.7816816650397
 20
285.5115897534479
 30
0.0
 11
0.0000000000000251
 21
5.999999999999983
 31
0.0
210
0.0
220
0.0
230
1.0
 40
0.515038074910054
 41
0.0
 42
6.283185307179585
  0
LINE
  5
601
330
1F
100
AcDbEntity
  8
0
  6
Continuous
100
AcDbLine
 10
971.3524991474869
 20
310.5115897534433
 30
0.0
 11
967.0666626439766
 21
310.5115897534424
 31
0.0
  0
LINE
  5
602
330
1F
100
AcDbEntity
  8
0
  6
Continuous
100
AcDbLine
 10
971.3524991474869
 20
260.5115897534433
 30
0.0
 11
967.0666626439766
 21
260.5115897534424
 31
0.0
  0
LINE
  5
603
330
1F
100
AcDbEntity
  8
0
  6
Continuous
100
AcDbLine
 10
965.785980216061
 20
316.2964843587352
 30
0.0
 11
947.376322345066
 21
322.0425767686856
 31
0.0
  0
LINE
  5
604
330
1F
100
AcDbEntity
  8
0
  6
Continuous
100
AcDbLine
 10
965.7859802160606
 20
254.7266951481461
 30
0.0
 11
947.376322345066
 21
248.9806027381892
 31
0.0
  0
LINE
  5
605
330
1F
100
AcDbEntity
  8
0
  6
Continuous
100
AcDbLine
 10
991.4959307139865
 20
293.011589753447
 30
0.0
 11
971.3524991474869
 21
293.0115897534433
 31
0.0
  0
LINE
  5
606
330
1F
100
AcDbEntity
  8
0
  6
Continuous
100
AcDbLine
 10
991.4959307139865
 20
278.011589753447
 30
0.0
 11
971.3524991474869
 21
278.0115897534433
 31
0.0
  0
LINE
  5
607
330
1F
100
AcDbEntity
  8
0
  6
Continuous
100
AcDbLine
 10
944.351729175371
 20
322.5115897534388
 30
0.0
 11
903.2076987416694
 21
322.5115897534315
 31
0.0
  0
LINE
  5
608
330
1F
100
AcDbEntity
  8
0
  6
Continuous
100
AcDbLine
 10
944.3517291753705
 20
248.5115897534388
 30
0.0
 11
903.207698741669
 21
248.5115897534315
 31
0.0
  0
ELLIPSE
  5
609
330
1F
100
AcDbEntity
  8
0
  6
Continuous
100
AcDbEllipse
 10
892.1930989276475
 20
285.5115897534297
 30
0.0
 11
-0.0000000000019922
 21
16.49999999999996
 31
0.0
210
0.0
220
0.0
230
1.0
 40
0.5150380749100542
 41
1.133706183943694
 42
2.007886469645608
  0
ELLIPSE
  5
60A
330
1F
100
AcDbEntity
  8
0
  6
Continuous
100
AcDbEllipse
 10
971.3524991474869
 20
285.5115897534433
 30
0.0
 11
0.0000000000043514
 21
-24.99999999999995
 31
0.0
210
0.0
220
0.0
230
1.0
 40
0.515038074910054
 41
1.875488980809949
 42
7.549288979958745
  0
ELLIPSE
  5
60B
330
1F
100
AcDbEntity
  8
0
  6
Continuous
100
AcDbEllipse
 10
967.0666626439766
 20
285.5115897534424
 30
0.0
 11
-0.0000000000001032
 21
-24.99999999999995
 31
0.0
210
0.0
220
0.0
230
1.0
 40
0.515038074910054
 41
3.141592653591724
 42
6.283185307181518
  0
ELLIPSE
  5
60C
330
1F
100
AcDbEntity
  8
0
  6
Continuous
100
AcDbEllipse
 10
971.3524991474869
 20
285.5115897534433
 30
0.0
 11
-0.0000000000000307
 21
-7.499999999999983
 31
0.0
210
0.0
220
0.0
230
1.0
 40
0.515038074910054
 41
3.14159265359177
 42
6.283185307181564
  0
ELLIPSE
  5
60D
330
1F
100
AcDbEntity
  8
0
  6
Continuous
100
AcDbEllipse
 10
903.2076987416694
 20
285.5115897534315
 30
0.0
 11
-0.0000000000001636
 21
-37.00000000000005
 31
0.0
210
0.0
220
0.0
230
1.0
 40
0.515038074910054
 41
5.952170205952692
 42
6.283185307181524
  0
ELLIPSE
  5
60E
330
1F
100
AcDbEntity
  8
0
  6
Continuous
100
AcDbEllipse
 10
903.2076987416694
 20
285.5115897534315
 30
0.0
 11
-0.0000000000064379
 21
36.99999999999991
 31
0.0
210
0.0
220
0.0
230
1.0
 40
0.515038074910054
 41
1.20704042004848
 42
1.934552233540614
  0
ELLIPSE
  5
60F
330
1F
100
AcDbEntity
  8
0
  6
Continuous
100
AcDbEllipse
 10
903.2076987416694
 20
285.5115897534315
 30
0.0
 11
-0.0000000000064407
 21
36.99999999999991
 31
0.0
210
0.0
220
0.0
230
1.0
 40
0.515038074910054
 41
0.0
 42
0.3310151012283438
  0
ELLIPSE
  5
610
330
1F
100
AcDbEntity
  8
0
  6
Continuous
100
AcDbEllipse
 10
944.351729175371
 20
285.5115897534388
 30
0.0
 11
0.0000000000064393
 21
-36.99999999999991
 31
0.0
210
0.0
220
0.0
230
1.0
 40
0.515038074910054
 41
2.982200697799924
 42
6.44257726296876
  0
LINE
  5
611
330
1F
100
AcDbEntity
  8
0
  6
Continuous
100
AcDbLine
 10
888.2760352128048
 20
250.52021172479
 30
0.0
 11
909.8136577884305
 21
250.5202117247946
 31
0.0
  0
LINE
  5
612
330
1F
100
AcDbEntity
  8
0
  6
Continuous
100
AcDbLine
 10
888.2760352128048
 20
320.5029677820876
 30
0.0
 11
909.8136577884311
 21
320.5029677820912
 31
0.0
  0
ELLIPSE
  5
613
330
1F
100
AcDbEntity
  8
0
  6
Continuous
100
AcDbEllipse
 10
888.2760352128048
 20
256.5202117247909
 30
0.0
 11
-0.0000000000000297
 21
-5.999999999999987
 31
0.0
210
0.0
220
0.0
230
1.0
 40
0.515038074910054
 41
4.68620904160554
 42
6.283185307181478
  0
LINE
  5
614
330
1F
100
AcDbEntity
  8
0
  6
Continuous
100
AcDbLine
 10
885.3982057478265
 20
298.6757043678226
 30
0.0
 11
885.1868657074541
 21
314.3459060922414
 31
0.0
  0
LINE
  5
615
330
1F
100
AcDbEntity
  8
0
  6
Continuous
100
AcDbLine
 10
911.1132247688898
 20
298.6757043678263
 30
0.0
 11
885.3982057478265
 21
298.6757043678226
 31
0.0
  0
ELLIPSE
  5
616
330
1F
100
AcDbEntity
  8
0
  6
Continuous
100
AcDbEllipse
 10
888.2760352128048
 20
314.5029677820876
 30
0.0
 11
-0.0000000000010439
 21
5.999999999999989
 31
0.0
210
0.0
220
0.0
230
1.0
 40
0.515038074910054
 41
0.0
 42
1.596976265574433
  0
LINE
  5
617
330
1F
100
AcDbEntity
  8
0
  6
Continuous
100
AcDbLine
 10
885.1868657074538
 20
256.6772734146398
 30
0.0
 11
885.3982057478265
 21
272.3474751390586
 31
0.0
  0
LINE
  5
618
330
1F
100
AcDbEntity
  8
0
  6
Continuous
100
AcDbLine
 10
885.3982057478265
 20
272.3474751390586
 30
0.0
 11
911.1132247688898
 21
272.3474751390631
 31
0.0
  0
SPLINE
  5
619
330
1F
100
AcDbEntity
  8
0
  6
Continuous
100
AcDbSpline
210
0.0
220
0.0
230
1.0
 70
     8
 71
     3
 72
    14
 73
    10
 74
     0
 42
0.0000000001
 43
0.0000000001
 40
0.586651125640125
 40
0.586651125640125
 40
0.586651125640125
 40
0.586651125640125
 40
0.812572466010711
 40
0.812572466010711
 40
1.068687482602926
 40
1.068687482602926
 40
1.324802499195141
 40
1.324802499195141
 40
1.550723839565727
 40
1.550723839565727
 40
1.550723839565727
 40
1.550723839565727
 10
906.7747837922375
 20
256.6772734146434
 30
0.0
 10
906.5333548185099
 20
255.9634453976269
 30
0.0
 10
906.3889607792257
 20
255.1956216238377
 30
0.0
 10
906.3747900847957
 20
253.6484693797302
 30
0.0
 10
906.5461625642814
 20
252.8812399209965
 30
0.0
 10
907.167987483378
 20
251.6739021543554
 30
0.0
 10
907.6461578262069
 20
251.179976653958
 30
0.0
 10
908.7468121524235
 20
250.6176079039588
 30
0.0
 10
909.3453956841472
 20
250.5035755304735
 30
0.0
 10
909.9448460479694
 20
250.5222677749407
 30
0.0
  0
SPLINE
  5
61A
330
1F
100
AcDbEntity
  8
0
  6
Continuous
100
AcDbSpline
210
0.0
220
0.0
230
1.0
 70
    12
 71
     2
 72
     6
 73
     3
 74
     0
 42
0.0000000001
 43
0.0000000001
 40
1.544558052653077
 40
1.544558052653077
 40
1.544558052653077
 40
3.409769298934837
 40
3.409769298934837
 40
3.409769298934837
 10
906.7747837922375
 20
256.6772734146434
 30
0.0
 41
1.031133096401546
 10
909.6931440066223
 20
265.3059282633549
 30
0.0
 41
1.034364741457411
 10
911.1132247688898
 20
272.3474751390631
 30
0.0
 41
1.0
  0
ELLIPSE
  5
61B
330
1F
100
AcDbEntity
  8
0
  6
Continuous
100
AcDbEllipse
 10
928.9227177627326
 20
285.5115897534361
 30
0.0
 11
0.0000000000064351
 21
-36.99999999999982
 31
0.0
210
0.0
220
0.0
230
1.0
 40
0.5150380749100542
 41
5.076144887130408
 42
5.919429400433184
  0
SPLINE
  5
61C
330
1F
100
AcDbEntity
  8
0
  6
Continuous
100
AcDbSpline
210
0.0
220
0.0
230
1.0
 70
    12
 71
     2
 72
     6
 73
     3
 74
     0
 42
0.0000000001
 43
0.0000000001
 40
0.0
 40
0.0
 40
0.0
 40
1.865211246281762
 40
1.865211246281762
 40
1.865211246281762
 10
922.1426975138461
 20
250.9326064482666
 30
0.0
 41
1.0
 10
917.1909195629549
 20
250.7482170540553
 30
0.0
 41
1.034364741457412
 10
909.9448460479695
 20
250.5222677749407
 30
0.0
 41
1.031133096401547
  0
SPLINE
  5
61D
330
1F
100
AcDbEntity
  8
0
  6
Continuous
100
AcDbSpline
210
0.0
220
0.0
230
1.0
 70
     8
 71
     3
 72
    14
 73
    10
 74
     0
 42
0.0000000001
 43
0.0000000001
 40
0.5866511256401257
 40
0.5866511256401257
 40
0.5866511256401257
 40
0.5866511256401257
 40
0.8125724660107115
 40
0.8125724660107115
 40
1.068687482602926
 40
1.068687482602926
 40
1.324802499195142
 40
1.324802499195142
 40
1.550723839565728
 40
1.550723839565728
 40
1.550723839565728
 40
1.550723839565728
 10
909.9448460479697
 20
320.5009117319442
 30
0.0
 10
909.3453956841472
 20
320.5196039764114
 30
0.0
 10
908.7468121524238
 20
320.4055716029279
 30
0.0
 10
907.6461578262069
 20
319.8432028529287
 30
0.0
 10
907.1679874833785
 20
319.3492773525313
 30
0.0
 10
906.5461625642814
 20
318.141939585892
 30
0.0
 10
906.3747900847957
 20
317.3747101271574
 30
0.0
 10
906.3889607792262
 20
315.8275578830508
 30
0.0
 10
906.5333548185099
 20
315.0597341092616
 30
0.0
 10
906.7747837922379
 20
314.3459060922451
 30
0.0
  0
SPLINE
  5
61E
330
1F
100
AcDbEntity
  8
0
  6
Continuous
100
AcDbSpline
210
0.0
220
0.0
230
1.0
 70
    12
 71
     2
 72
     6
 73
     3
 74
     0
 42
0.0000000001
 43
0.0000000001
 40
1.54455805265308
 40
1.54455805265308
 40
1.54455805265308
 40
3.409769298934839
 40
3.409769298934839
 40
3.409769298934839
 10
909.9448460479697
 20
320.5009117319442
 30
0.0
 41
1.031133096401543
 10
917.1909195629551
 20
320.2749624528269
 30
0.0
 41
1.034364741457407
 10
922.1426975138465
 20
320.0905730586119
 30
0.0
 41
1.0
  0
ELLIPSE
  5
61F
330
1F
100
AcDbEntity
  8
0
  6
Continuous
100
AcDbEllipse
 10
928.9227177627326
 20
285.5115897534361
 30
0.0
 11
-0.0000000000064379
 21
36.99999999999993
 31
0.0
210
0.0
220
0.0
230
1.0
 40
0.515038074910054
 41
0.3637559067457288
 42
1.20704042004848
  0
SPLINE
  5
620
330
1F
100
AcDbEntity
  8
0
  6
Continuous
100
AcDbSpline
210
0.0
220
0.0
230
1.0
 70
    12
 71
     2
 72
     6
 73
     3
 74
     0
 42
0.0000000001
 43
0.0000000001
 40
0.0
 40
0.0
 40
0.0
 40
1.865211246281764
 40
1.865211246281764
 40
1.865211246281764
 10
911.1132247688898
 20
298.6757043678263
 30
0.0
 41
1.0
 10
909.6931440066228
 20
305.7172512435345
 30
0.0
 41
1.034364741457415
 10
906.7747837922379
 20
314.3459060922451
 30
0.0
 41
1.03113309640155
  0
LINE
  5
621
330
1F
100
AcDbEntity
  8
0
  6
Continuous
100
AcDbLine
 10
904.21188349881
 20
58.62535305368559
 30
0.0
 11
899.3260298848081
 21
55.68963602669831
 31
0.0
  0
LINE
  5
622
330
1F
100
AcDbEntity
  8
0
  6
Continuous
100
AcDbLine
 10
899.4016646747887
 20
66.63090154812019
 30
0.0
 11
894.5158110607867
 21
63.69518452113291
 31
0.0
  0
LINE
  5
623
330
1F
100
AcDbEntity
  8
0
  6
Continuous
100
AcDbLine
 10
883.2701985773283
 20
93.47816959435661
 30
0.0
 11
878.3843449633264
 21
90.54245256736979
 31
0.0
  0
LINE
  5
624
330
1F
100
AcDbEntity
  8
0
  6
Continuous
100
AcDbLine
 10
878.4599797533074
 20
101.4837180887912
 30
0.0
 11
873.5741261393055
 21
98.54800106180395
 31
0.0
  0
LINE
  5
625
330
1F
100
AcDbEntity
  8
0
  6
Continuous
100
AcDbLine
 10
894.5158110607867
 20
63.69518452113291
 30
0.0
 11
899.3260298848081
 21
55.68963602669831
 31
0.0
  0
LINE
  5
626
330
1F
100
AcDbEntity
  8
0
  6
Continuous
100
AcDbLine
 10
882.1880795923403
 20
84.21197506799538
 30
0.0
 11
878.3843449633264
 21
90.54245256736979
 31
0.0
  0
LINE
  5
627
330
1F
100
AcDbEntity
  8
0
  6
Continuous
100
AcDbLine
 10
894.5158110607867
 20
63.69518452113291
 30
0.0
 11
890.7120764317728
 21
70.02566202050733
 31
0.0
  0
SPLINE
  5
628
330
1F
100
AcDbEntity
  8
0
  6
Continuous
100
AcDbSpline
210
0.0
220
0.0
230
1.0
 70
     8
 71
     3
 72
     8
 73
     4
 74
     0
 42
0.0000000001
 43
0.0000000001
 40
-0.1443504730160225
 40
-0.1443504730160225
 40
-0.1443504730160225
 40
-0.1443504730160225
 40
0.0
 40
0.0
 40
0.0
 40
0.0
 10
893.5092654056516
 20
63.42875377661361
 30
0.0
 10
893.8450887862851
 20
63.51673982655805
 30
0.0
 10
894.1806654680258
 20
63.60558244827465
 30
0.0
 10
894.5158110607867
 20
63.69518452113291
 30
0.0
  0
SPLINE
  5
629
330
1F
100
AcDbEntity
  8
0
  6
Continuous
100
AcDbSpline
210
0.0
220
0.0
230
1.0
 70
     8
 71
     3
 72
     8
 73
     4
 74
     0
 42
0.0000000001
 43
0.0000000001
 40
-0.1443504730161398
 40
-0.1443504730161398
 40
-0.1443504730161398
 40
-0.1443504730161398
 40
0.0
 40
0.0
 40
0.0
 40
0.0
 10
877.6765560170574
 20
89.77880716206849
 30
0.0
 10
877.9119026153871
 20
90.03401465925392
 30
0.0
 10
878.1478897035867
 20
90.28860219815717
 30
0.0
 10
878.3843449633264
 20
90.54245256736979
 30
0.0
  0
SPLINE
  5
62A
330
1F
100
AcDbEntity
  8
0
  6
Continuous
100
AcDbSpline
210
0.0
220
0.0
230
1.0
 70
    24
 71
     3
 72
     8
 73
     4
 74
     0
 42
0.0000000001
 43
0.0000000001
 40
-0.1443504730160225
 40
-0.1443504730160225
 40
-0.1443504730160225
 40
-0.1443504730160225
 40
0.0
 40
0.0
 40
0.0
 40
0.0
 10
873.2319969135133
 20
97.17579568619207
 30
0.0
 10
873.34598512943
 20
97.63297744923832
 30
0.0
 10
873.4600519340901
 20
98.09047441451824
 30
0.0
 10
873.5741261393055
 20
98.54800106180395
 30
0.0
  0
SPLINE
  5
62B
330
1F
100
AcDbEntity
  8
0
  6
Continuous
100
AcDbSpline
210
0.0
220
0.0
230
1.0
 70
    24
 71
     3
 72
     8
 73
     4
 74
     0
 42
0.0000000001
 43
0.0000000001
 40
-0.1443504730161398
 40
-0.1443504730161398
 40
-0.1443504730161398
 40
-0.1443504730161398
 40
0.0
 40
0.0
 40
0.0
 40
0.0
 10
897.9538245091962
 20
56.03176525249003
 30
0.0
 10
898.411006272242
 20
55.91777703657365
 30
0.0
 10
898.8685032375215
 20
55.80371023191403
 30
0.0
 10
899.3260298848081
 20
55.68963602669831
 30
0.0
  0
LINE
  5
62C
330
1F
100
AcDbEntity
  8
0
  6
Continuous
100
AcDbLine
 10
873.5741261393059
 20
98.54800106180395
 30
0.0
 11
878.3843449633264
 21
90.54245256736933
 31
0.0
  0
LINE
  5
62D
330
1F
100
AcDbEntity
  8
0
  6
Continuous
100
AcDbLine
 10
900.1094536210576
 20
67.39454695342104
 30
0.0
 11
884.2767442324639
 21
93.74460033887638
 31
0.0
  0
LINE
  5
62E
330
1F
100
AcDbEntity
  8
0
  6
Continuous
100
AcDbLine
 10
883.2701985773283
 20
93.47816959435661
 30
0.0
 11
899.4016646747887
 21
66.63090154812019
 31
0.0
  0
LINE
  5
62F
330
1F
100
AcDbEntity
  8
0
  6
Continuous
100
AcDbLine
 10
879.8321851289193
 20
101.141588862999
 30
0.0
 11
884.2767442324639
 21
93.74460033887638
 31
0.0
  0
SPLINE
  5
630
330
1F
100
AcDbEntity
  8
0
  6
Continuous
100
AcDbSpline
210
0.0
220
0.0
230
1.0
 70
     8
 71
     3
 72
     8
 73
     4
 74
     0
 42
0.0000000001
 43
0.0000000001
 40
-0.1443505504637195
 40
-0.1443505504637195
 40
-0.1443505504637195
 40
-0.1443505504637195
 40
0.0
 40
0.0
 40
0.0
 40
0.0
 10
883.2701985773283
 20
93.47816959435661
 30
0.0
 10
883.6053441700901
 20
93.56777166721489
 30
0.0
 10
883.9409208518304
 20
93.65661428893147
 30
0.0
 10
884.2767442324639
 20
93.74460033887638
 30
0.0
  0
LINE
  5
631
330
1F
100
AcDbEntity
  8
0
  6
Continuous
100
AcDbLine
 10
883.2701985773283
 20
93.47816959435661
 30
0.0
 11
878.4599797533074
 21
101.4837180887912
 31
0.0
  0
SPLINE
  5
632
330
1F
100
AcDbEntity
  8
0
  6
Continuous
100
AcDbSpline
210
0.0
220
0.0
230
1.0
 70
    24
 71
     3
 72
     8
 73
     4
 74
     0
 42
0.0000000001
 43
0.0000000001
 40
-0.1443505504637693
 40
-0.1443505504637693
 40
-0.1443505504637693
 40
-0.1443505504637693
 40
0.0
 40
0.0
 40
0.0
 40
0.0
 10
878.4599797533074
 20
101.4837180887912
 30
0.0
 10
878.9175064005931
 20
101.3696438835759
 30
0.0
 10
879.3750033658735
 20
101.2555770789159
 30
0.0
 10
879.8321851289196
 20
101.141588862999
 30
0.0
  0
SPLINE
  5
633
330
1F
100
AcDbEntity
  8
0
  6
Continuous
100
AcDbSpline
210
0.0
220
0.0
230
1.0
 70
     8
 71
     3
 72
     8
 73
     4
 74
     0
 42
0.0000000001
 43
0.0000000001
 40
-0.1443505504637693
 40
-0.1443505504637693
 40
-0.1443505504637693
 40
-0.1443505504637693
 40
0.0
 40
0.0
 40
0.0
 40
0.0
 10
899.4016646747887
 20
66.63090154812019
 30
0.0
 10
899.6381199345288
 20
66.88475191733235
 30
0.0
 10
899.8741070227278
 20
67.1393394562356
 30
0.0
 10
900.1094536210576
 20
67.39454695342104
 30
0.0
  0
LINE
  5
634
330
1F
100
AcDbEntity
  8
0
  6
Continuous
100
AcDbLine
 10
900.1094536210576
 20
67.39454695342104
 30
0.0
 11
904.5540127246022
 21
59.99755842929793
 31
0.0
  0
SPLINE
  5
635
330
1F
100
AcDbEntity
  8
0
  6
Continuous
100
AcDbSpline
210
0.0
220
0.0
230
1.0
 70
    24
 71
     3
 72
     8
 73
     4
 74
     0
 42
0.0000000001
 43
0.0000000001
 40
-0.1443505504637195
 40
-0.1443505504637195
 40
-0.1443505504637195
 40
-0.1443505504637195
 40
0.0
 40
0.0
 40
0.0
 40
0.0
 10
904.21188349881
 20
58.62535305368559
 30
0.0
 10
904.3259577040252
 20
59.08287970097174
 30
0.0
 10
904.4400245086858
 20
59.54037666625166
 30
0.0
 10
904.5540127246022
 20
59.99755842929793
 30
0.0
  0
LINE
  5
636
330
1F
100
AcDbEntity
  8
0
  6
Continuous
100
AcDbLine
 10
904.21188349881
 20
58.62535305368604
 30
0.0
 11
899.4016646747887
 21
66.63090154812019
 31
0.0
  0
CIRCLE
  5
637
330
1F
100
AcDbEntity
  8
0
  6
Continuous
100
AcDbCircle
 10
873.7211435966301
 20
69.47050313183675
 30
0.0
 40
5.249999999999984
  0
CIRCLE
  5
638
330
1F
100
AcDbEntity
  8
0
  6
Continuous
100
AcDbCircle
 10
873.7211435966301
 20
69.47050313183675
 30
0.0
 40
16.99999999999996
  0
LINE
  5
639
330
1F
100
AcDbEntity
  8
0
  6
Continuous
100
AcDbLine
 10
888.8247547420515
 20
52.58569010535623
 30
0.0
 11
883.4246007476281
 21
49.340950233423
 31
0.0
  0
LINE
  5
63A
330
1F
100
AcDbEntity
  8
0
  6
Continuous
100
AcDbLine
 10
883.4246007476281
 20
49.340950233423
 30
0.0
 11
880.6557045555354
 21
53.9491673546809
 31
0.0
  0
LINE
  5
63B
330
1F
100
AcDbEntity
  8
0
  6
Continuous
100
AcDbLine
 10
860.5033005127538
 20
87.48839992311971
 30
0.0
 11
865.9034545071772
 21
90.73313979505295
 31
0.0
  0
LINE
  5
63C
330
1F
100
AcDbEntity
  8
0
  6
Continuous
100
AcDbLine
 10
860.5033005127543
 20
87.48839992311971
 30
0.0
 11
863.2721967048464
 21
82.88018280186182
 31
0.0
  0
LINE
  5
63D
330
1F
100
AcDbEntity
  8
0
  6
Continuous
100
AcDbLine
 10
898.4688625841059
 20
55.17459795178822
 30
0.0
 11
890.2400564973659
 21
50.230232432652
 31
0.0
  0
LINE
  5
63E
330
1F
100
AcDbEntity
  8
0
  6
Continuous
100
AcDbLine
 10
872.7169588386036
 20
98.03296298689387
 30
0.0
 11
864.4881527518627
 21
93.08859746775718
 31
0.0
  0
LINE
  5
63F
330
1F
100
AcDbEntity
  8
0
  6
Continuous
100
AcDbLine
 10
893.6586437600844
 20
63.18014644622238
 30
0.0
 11
898.4688625841059
 21
55.17459795178822
 31
0.0
  0
LINE
  5
640
330
1F
100
AcDbEntity
  8
0
  6
Continuous
100
AcDbLine
 10
872.7169588386036
 20
98.03296298689387
 30
0.0
 11
877.5271776626246
 21
90.02741449245972
 31
0.0
  0
LINE
  5
641
330
1F
100
AcDbEntity
  8
0
  6
Continuous
100
AcDbLine
 10
877.527177662624
 20
90.02741449245972
 30
0.0
 11
871.3250393219855
 21
86.30079380980854
 31
0.0
  0
LINE
  5
642
330
1F
100
AcDbEntity
  8
0
  6
Continuous
100
AcDbLine
 10
880.5157349606361
 20
85.05361989955011
 30
0.0
 11
877.527177662624
 21
90.02741449245972
 31
0.0
  0
LINE
  5
643
330
1F
100
AcDbEntity
  8
0
  6
Continuous
100
AcDbLine
 10
893.6586437600849
 20
63.18014644622284
 30
0.0
 11
890.6700864620734
 21
68.15394103913243
 31
0.0
  0
LINE
  5
644
330
1F
100
AcDbEntity
  8
0
  6
Continuous
100
AcDbLine
 10
893.6586437600849
 20
63.18014644622284
 30
0.0
 11
887.4565054194459
 21
59.45352576357212
 31
0.0
  0
LINE
  5
645
330
1F
100
AcDbEntity
  8
0
  6
Continuous
100
AcDbLine
 10
868.8864856057598
 20
85.76854234246914
 30
0.0
 11
864.4881527518633
 21
93.08859746775718
 31
0.0
  0
LINE
  5
646
330
1F
100
AcDbEntity
  8
0
  6
Continuous
100
AcDbLine
 10
890.2400564973655
 20
50.230232432652
 30
0.0
 11
885.8417236434693
 21
57.55028755794004
 31
0.0
  0
ARC
  5
647
330
1F
100
AcDbEntity
  8
0
  6
Continuous
100
AcDbCircle
 10
974.9948657100803
 20
100.7137796347792
 30
0.0
 40
5.999999999999994
100
AcDbArc
 50
315.796762245067
 51
31.00000000000509
  0
ARC
  5
648
330
1F
100
AcDbEntity
  8
0
  6
Continuous
100
AcDbCircle
 10
948.8524519676744
 20
144.2220624453835
 30
0.0
 40
5.999999999999998
100
AcDbArc
 50
31.00000000000509
 51
106.2032377549477
  0
LINE
  5
649
330
1F
100
AcDbEntity
  8
0
  6
Continuous
100
AcDbLine
 10
953.9954557718875
 20
147.312290894844
 30
0.0
 11
980.1378695142929
 21
103.8040080842397
 31
0.0
  0
LINE
  5
64A
330
1F
100
AcDbEntity
  8
0
  6
Continuous
100
AcDbLine
 10
989.6914532146929
 20
146.152295541056
 30
0.0
 11
987.6331451512751
 21
146.665489379744
 31
0.0
  0
LINE
  5
64B
330
1F
100
AcDbEntity
  8
0
  6
Continuous
100
AcDbLine
 10
995.8719101136139
 20
135.8662879326307
 30
0.0
 11
995.3587162749254
 21
133.8079798692124
 31
0.0
  0
LINE
  5
64C
330
1F
100
AcDbEntity
  8
0
  6
Continuous
100
AcDbLine
 10
995.3587162749254
 20
133.807979869212
 30
0.0
 11
987.6331451512747
 21
146.665489379744
 31
0.0
  0
LINE
  5
64D
330
1F
100
AcDbEntity
  8
0
  6
Continuous
100
AcDbLine
 10
989.6914532146929
 20
146.152295541056
 30
0.0
 11
995.8719101136134
 21
135.8662879326303
 31
0.0
  0
LINE
  5
64E
330
1F
100
AcDbEntity
  8
0
  6
Continuous
100
AcDbLine
 10
894.7095705047672
 20
101.3310733703274
 30
0.0
 11
883.6949706907454
 21
94.71283410773324
 31
0.0
  0
LINE
  5
64F
330
1F
100
AcDbEntity
  8
0
  6
Continuous
100
AcDbLine
 10
911.7058269767991
 20
73.04455244715794
 30
0.0
 11
900.6912271627767
 21
66.42631318456373
 31
0.0
  0
LINE
  5
650
330
1F
100
AcDbEntity
  8
0
  6
Continuous
100
AcDbLine
 10
958.4765472738494
 20
149.5625223816446
 30
0.0
 11
954.1907107703391
 21
146.9873320070947
 31
0.0
  0
LINE
  5
651
330
1F
100
AcDbEntity
  8
0
  6
Continuous
100
AcDbLine
 10
984.2284510193522
 20
106.7041573465394
 30
0.0
 11
979.9426145158413
 21
104.128966971989
 31
0.0
  0
LINE
  5
652
330
1F
100
AcDbEntity
  8
0
  6
Continuous
100
AcDbLine
 10
947.1781797399076
 20
149.9837299563847
 30
0.0
 11
925.2953204028127
 21
143.6248306304033
 31
0.0
  0
LINE
  5
653
330
1F
100
AcDbEntity
  8
0
  6
Continuous
100
AcDbLine
 10
979.2960929704737
 20
96.53054595083952
 30
0.0
 11
963.4081379461562
 21
80.19445037844755
 31
0.0
  0
LINE
  5
654
330
1F
100
AcDbEntity
  8
0
  6
Continuous
100
AcDbLine
 10
987.6331451512751
 20
146.665489379744
 30
0.0
 11
967.489713584775
 21
134.5620946193576
 31
0.0
  0
LINE
  5
655
330
1F
100
AcDbEntity
  8
0
  6
Continuous
100
AcDbLine
 10
995.3587162749254
 20
133.8079798692124
 30
0.0
 11
975.2152847084257
 21
121.7045851088265
 31
0.0
  0
LINE
  5
656
330
1F
100
AcDbEntity
  8
0
  6
Continuous
100
AcDbLine
 10
925.2953204028127
 20
143.6248306304033
 30
0.0
 11
884.151289969111
 21
118.9030030347208
 31
0.0
  0
LINE
  5
657
330
1F
100
AcDbEntity
  8
0
  6
Continuous
100
AcDbLine
 10
963.4081379461562
 20
80.19445037844755
 30
0.0
 11
922.2641075124553
 21
55.4726227827646
 31
0.0
  0
LINE
  5
658
330
1F
100
AcDbEntity
  8
0
  6
Continuous
100
AcDbLine
 10
958.4765472738494
 20
149.5625223816446
 30
0.0
 11
984.2284510193522
 21
106.704157346539
 31
0.0
  0
LINE
  5
659
330
1F
100
AcDbEntity
  8
0
  6
Continuous
100
AcDbLine
 10
896.4276784918965
 20
98.47166149888565
 30
0.0
 11
909.9877189896696
 21
75.9039643186002
 31
0.0
  0
LINE
  5
65A
330
1F
100
AcDbEntity
  8
0
  6
Continuous
100
AcDbLine
 10
884.151289969111
 20
118.9030030347208
 30
0.0
 11
885.1858067624579
 21
117.1812779614065
 31
0.0
  0
LINE
  5
65B
330
1F
100
AcDbEntity
  8
0
  6
Continuous
100
AcDbLine
 10
921.2295907191082
 20
57.1943478560793
 30
0.0
 11
922.2641075124553
 21
55.47262278276505
 31
0.0
  0
LINE
  5
65C
330
1F
100
AcDbEntity
  8
0
  6
Continuous
100
AcDbLine
 10
925.2953204028127
 20
143.6248306304033
 30
0.0
 11
963.4081379461562
 21
80.19445037844755
 31
0.0
  0
LINE
  5
65D
330
1F
100
AcDbEntity
  8
0
  6
Continuous
100
AcDbLine
 10
921.2295907191078
 20
57.19434785607885
 30
0.0
 11
942.7672132947341
 21
70.13545708925178
 31
0.0
  0
LINE
  5
65E
330
1F
100
AcDbEntity
  8
0
  6
Continuous
100
AcDbLine
 10
885.1858067624576
 20
117.1812779614065
 30
0.0
 11
906.7234293380838
 21
130.122387194579
 31
0.0
  0
LINE
  5
65F
330
1F
100
AcDbEntity
  8
0
  6
Continuous
100
AcDbLine
 10
918.0584695192665
 20
62.47197980502145
 30
0.0
 11
921.2295907191082
 21
57.19434785607885
 31
0.0
  0
LINE
  5
660
330
1F
100
AcDbEntity
  8
0
  6
Continuous
100
AcDbLine
 10
885.1858067624579
 20
117.1812779614065
 30
0.0
 11
888.3569279622992
 21
111.9036460124639
 31
0.0
  0
LINE
  5
661
330
1F
100
AcDbEntity
  8
0
  6
Continuous
100
AcDbLine
 10
896.4276784918961
 20
98.47166149888565
 30
0.0
 11
888.3569279622992
 21
111.9036460124639
 31
0.0
  0
LINE
  5
662
330
1F
100
AcDbEntity
  8
0
  6
Continuous
100
AcDbLine
 10
922.1426975129597
 20
113.9228037461871
 30
0.0
 11
896.4276784918961
 21
98.47166149888565
 31
0.0
  0
LINE
  5
663
330
1F
100
AcDbEntity
  8
0
  6
Continuous
100
AcDbLine
 10
918.0584695192665
 20
62.47197980502145
 30
0.0
 11
909.9877189896693
 21
75.90396431859975
 31
0.0
  0
LINE
  5
664
330
1F
100
AcDbEntity
  8
0
  6
Continuous
100
AcDbLine
 10
909.9877189896693
 20
75.90396431859975
 30
0.0
 11
935.7027380107329
 21
91.3551065659017
 31
0.0
  0
SPLINE
  5
665
330
1F
100
AcDbEntity
  8
0
  6
Continuous
100
AcDbSpline
210
0.0
220
0.0
230
1.0
 70
     8
 71
     3
 72
    14
 73
    10
 74
     0
 42
0.0000000001
 43
0.0000000001
 40
0.586651125640125
 40
0.586651125640125
 40
0.586651125640125
 40
0.586651125640125
 40
0.812572466010711
 40
0.812572466010711
 40
1.068687482602926
 40
1.068687482602926
 40
1.324802499195141
 40
1.324802499195141
 40
1.550723839565727
 40
1.550723839565727
 40
1.550723839565727
 40
1.550723839565727
 10
906.7747837913511
 20
130.1508454063915
 30
0.0
 10
906.5333548176235
 20
130.0275872404509
 30
0.0
 10
906.3889607783394
 20
129.8077925733523
 30
0.0
 10
906.3747900839089
 20
129.1431997958252
 30
0.0
 10
906.5461625633952
 20
128.6699407854335
 30
0.0
 10
907.1679874824917
 20
127.6350503309668
 30
0.0
 10
907.6461578253201
 20
127.0272885492723
 30
0.0
 10
908.7468121515371
 20
125.8836689105074
 30
0.0
 10
909.3453956832604
 20
125.3475653242404
 30
0.0
 10
909.944846047083
 20
124.8749758364033
 30
0.0
  0
SPLINE
  5
666
330
1F
100
AcDbEntity
  8
0
  6
Continuous
100
AcDbSpline
210
0.0
220
0.0
230
1.0
 70
    12
 71
     2
 72
     6
 73
     3
 74
     0
 42
0.0000000001
 43
0.0000000001
 40
1.544558052653077
 40
1.544558052653077
 40
1.544558052653077
 40
3.409769298934837
 40
3.409769298934837
 40
3.409769298934837
 10
906.7747837913509
 20
130.1508454063915
 30
0.0
 41
1.031133096401546
 10
909.693144005736
 20
131.640773156259
 30
0.0
 41
1.034364741457411
 10
911.1132247680034
 20
132.2789289367629
 30
0.0
 41
1.0
  0
LINE
  5
667
330
1F
100
AcDbEntity
  8
0
  6
Continuous
100
AcDbLine
 10
922.1426975129594
 20
113.9228037461871
 30
0.0
 11
911.113224768003
 21
132.2789289367624
 31
0.0
  0
SPLINE
  5
668
330
1F
100
AcDbEntity
  8
0
  6
Continuous
100
AcDbSpline
210
0.0
220
0.0
230
1.0
 70
    12
 71
     2
 72
     6
 73
     3
 74
     0
 42
0.0000000001
 43
0.0000000001
 40
0.0
 40
0.0
 40
0.0
 40
1.865211246281762
 40
1.865211246281762
 40
1.865211246281762
 10
922.1426975129597
 20
113.9228037461871
 30
0.0
 41
1.0
 10
917.1909195620685
 20
119.162379134586
 30
0.0
 41
1.034364741457412
 10
909.944846047083
 20
124.8749758364033
 30
0.0
 41
1.031133096401547
  0
LINE
  5
669
330
1F
100
AcDbEntity
  8
0
  6
Continuous
100
AcDbLine
 10
946.7322107556892
 20
72.99898137532593
 30
0.0
 11
935.7027380107329
 21
91.3551065659017
 31
0.0
  0
SPLINE
  5
66A
330
1F
100
AcDbEntity
  8
0
  6
Continuous
100
AcDbSpline
210
0.0
220
0.0
230
1.0
 70
    12
 71
     2
 72
     6
 73
     3
 74
     0
 42
0.0000000001
 43
0.0000000001
 40
0.0
 40
0.0
 40
0.0
 40
1.865211246281761
 40
1.865211246281761
 40
1.865211246281761
 10
946.7322107556892
 20
72.99898137532593
 30
0.0
 41
1.0
 10
945.5020651106806
 20
72.04472047619086
 30
0.0
 41
1.034364741457412
 10
942.8164498597821
 20
70.16744005897274
 30
0.0
 41
1.031133096401547
  0
SPLINE
  5
66B
330
1F
100
AcDbEntity
  8
0
  6
Continuous
100
AcDbSpline
210
0.0
220
0.0
230
1.0
 70
     8
 71
     3
 72
    14
 73
    10
 74
     0
 42
0.0000000001
 43
0.0000000001
 40
0.586651125640125
 40
0.586651125640125
 40
0.586651125640125
 40
0.586651125640125
 40
0.812572466010711
 40
0.812572466010711
 40
1.068687482602926
 40
1.068687482602926
 40
1.324802499195141
 40
1.324802499195141
 40
1.550723839565727
 40
1.550723839565727
 40
1.550723839565727
 40
1.550723839565727
 10
939.6463876040503
 20
75.44330962896132
 30
0.0
 10
939.7822344556303
 20
74.69215904777505
 30
0.0
 10
939.9745678805516
 20
73.91195577085412
 30
0.0
 10
940.4675981811296
 20
72.40323878390793
 30
0.0
 10
940.7797326051827
 20
71.69571255727717
 30
0.0
 10
941.4015575242792
 20
70.6608221028105
 30
0.0
 10
941.738965922541
 20
70.28732753735496
 30
0.0
 10
942.3324192537492
 20
69.98783210800914
 30
0.0
 10
942.5942753212671
 20
70.0121371315636
 30
0.0
 10
942.8164498597821
 20
70.16744005897274
 30
0.0
  0
SPLINE
  5
66C
330
1F
100
AcDbEntity
  8
0
  6
Continuous
100
AcDbSpline
210
0.0
220
0.0
230
1.0
 70
    12
 71
     2
 72
     6
 73
     3
 74
     0
 42
0.0000000001
 43
0.0000000001
 40
1.544558052653077
 40
1.544558052653077
 40
1.544558052653077
 40
3.409769298934837
 40
3.409769298934837
 40
3.409769298934837
 10
939.6463876040499
 20
75.44330962896132
 30
0.0
 41
1.031133096401546
 10
938.0042895543487
 20
84.52311449786433
 30
0.0
 41
1.034364741457411
 10
935.7027380107329
 20
91.3551065659017
 30
0.0
 41
1.0
  0
LINE
  5
673
330
1F
100
AcDbEntity
  8
0
  6
CENTER
100
AcDbLine
 10
345.541778420471
 20
436.4821708769264
 30
0.0
 11
236.6532280225492
 21
436.4821708769262
 31
0.0
  0
LINE
  5
674
330
1F
100
AcDbEntity
  8
0
  6
CENTER
100
AcDbLine
 10
283.1812602402206
 20
370.1770662629933
 30
0.0
 11
283.1812602402206
 21
502.7872754908594
 31
0.0
  0
LINE
  5
675
330
1F
100
AcDbEntity
  8
0
  6
CENTER
100
AcDbLine
 10
314.0123917018063
 20
69.47050313183663
 30
0.0
 11
252.3501287786348
 21
69.47050313183641
 31
0.0
  0
LINE
  5
676
330
1F
100
AcDbEntity
  8
0
  6
CENTER
100
AcDbLine
 10
283.1812602402206
 20
40.60372291458318
 30
0.0
 11
283.1812602402206
 21
215.7085237475167
 31
0.0
  0
LINE
  5
677
330
1F
100
AcDbEntity
  8
0
  6
CENTER
100
AcDbLine
 10
503.907500825775
 20
69.47050313183652
 30
0.0
 11
389.6520070331571
 21
69.47050313183652
 31
0.0
  0
LINE
  5
678
330
1F
100
AcDbEntity
  8
0
  6
CENTER
100
AcDbLine
 10
446.7797539294661
 20
45.12966340443862
 30
0.0
 11
446.7797539294661
 21
215.227257413776
 31
0.0
  0
VIEWPORT
  5
71
330
55
100
AcDbEntity
 67
     1
  8
0
100
AcDbViewport
 10
133.3499908447266
 20
101.5999970436096
 30
0.0
 40
381.3957395593835
 41
218.2856291881582
 68
     1
 69
     1
 12
133.3499908447266
 22
101.5999970436096
 13
0.0
 23
0.0
 14
10.0
 24
10.0
 15
10.0
 25
10.0
 16
0.0
 26
0.0
 36
1.0
 17
0.0
 27
0.0
 37
0.0
 42
50.0
 43
0.0
 44
0.0
 45
218.2856291881582
 50
0.0
 51
0.0
 72
   100
 90
    32800
  1

281
     0
 71
     1
 74
     0
110
0.0
120
0.0
130
0.0
111
1.0
121
0.0
131
0.0
112
0.0
122
1.0
132
0.0
 79
     0
146
0.0
170
     0
 61
     5
348
6A4
292
     1
282
     1
141
0.0
142
0.0
 63
   250
421
  3355443
  0
VIEWPORT
  5
73
330
55
100
AcDbEntity
 67
     1
  8
0
100
AcDbViewport
 10
133.3499939441681
 20
101.5999939441681
 30
0.0
 40
213.3599903106689
 41
162.5599903106689
 68
     2
 69
     2
 12
210.0
 22
148.5
 13
0.0
 23
0.0
 14
10.0
 24
10.0
 15
10.0
 25
10.0
 16
0.0
 26
0.0
 36
1.0
 17
0.0
 27
0.0
 37
0.0
 42
50.0
 43
0.0
 44
0.0
 45
324.0677920111345
 50
0.0
 51
0.0
 72
   100
 90
    32864
  1

281
     0
 71
     1
 74
     0
110
0.0
120
0.0
130
0.0
111
1.0
121
0.0
131
0.0
112
0.0
122
1.0
132
0.0
 79
     0
146
0.0
170
     0
 61
     5
348
6A4
292
     1
282
     1
141
0.0
142
0.0
 63
   250
421
  3355443
  0
ENDSEC
  0
SECTION
  2
OBJECTS
  0
DICTIONARY
  5
C
330
0
100
AcDbDictionary
281
     1
  3
ACAD_COLOR
350
6B2
  3
ACAD_GROUP
350
D
  3
ACAD_LAYOUT
350
1A
  3
ACAD_MATERIAL
350
685
  3
ACAD_MLEADERSTYLE
350
6C7
  3
ACAD_MLINESTYLE
350
17
  3
ACAD_PLOTSETTINGS
350
19
  3
ACAD_PLOTSTYLENAME
350
E
  3
ACAD_SCALELIST
350
6B5
  3
ACAD_TABLESTYLE
350
6B3
  3
ACAD_VISUALSTYLE
350
69E
  3
ACDB_RECOMPOSE_DATA
350
6D6
  3
AcDbVariableDictionary
350
5E
  0
DICTIONARY
  5
345
330
2
100
AcDbDictionary
280
     1
281
     1
  3
ACAD_LAYERSTATES
360
346
  0
DICTIONARY
  5
6CB
330
10
100
AcDbDictionary
280
     1
281
     1
  3
ADSK_XREC_LAYER_RECONCILED
360
6CC
  0
DICTIONARY
  5
2FC
330
1F
100
AcDbDictionary
280
     1
281
     1
  3
ACAD_LAYOUTSELFREF
360
333
  0
DICTIONARY
  5
2FE
330
55
100
AcDbDictionary
280
     1
281
     1
  3
ACAD_LAYOUTSELFREF
360
337
  0
DICTIONARY
  5
300
330
50
100
AcDbDictionary
280
     1
281
     1
  3
ACAD_LAYOUTSELFREF
360
336
  0
DICTIONARY
  5
6B2
102
{ACAD_REACTORS
330
C
102
}
330
C
100
AcDbDictionary
281
     1
  0
DICTIONARY
  5
D
102
{ACAD_REACTORS
330
C
102
}
330
C
100
AcDbDictionary
281
     1
  0
DICTIONARY
  5
1A
102
{ACAD_REACTORS
330
C
102
}
330
C
100
AcDbDictionary
281
     1
  3
Model
350
22
  3
ﾚｲｱｳﾄ1
350
51
  3
ﾚｲｱｳﾄ2
350
56
  0
DICTIONARY
  5
685
102
{ACAD_REACTORS
330
C
102
}
330
C
100
AcDbDictionary
281
     1
  3
ByBlock
350
68E
  3
ByLayer
350
686
  3
Global
350
696
  0
DICTIONARY
  5
6C7
102
{ACAD_REACTORS
330
C
102
}
330
C
100
AcDbDictionary
281
     1
  3
Standard
350
6C8
  0
DICTIONARY
  5
17
102
{ACAD_REACTORS
330
C
102
}
330
C
100
AcDbDictionary
281
     1
  3
Standard
350
18
  0
DICTIONARY
  5
19
102
{ACAD_REACTORS
330
C
102
}
330
C
100
AcDbDictionary
281
     1
  0
ACDBDICTIONARYWDFLT
  5
E
102
{ACAD_REACTORS
330
C
102
}
330
C
100
AcDbDictionary
281
     1
  3
Normal
350
F
100
AcDbDictionaryWithDefault
340
F
  0
DICTIONARY
  5
6B5
102
{ACAD_REACTORS
330
C
102
}
330
C
100
AcDbDictionary
281
     1
  3
A0
350
6B6
  3
A1
350
6B7
  3
A2
350
6B8
  3
A3
350
6B9
  3
A4
350
6BA
  3
A5
350
6BB
  3
A6
350
6BC
  3
A7
350
6BD
  3
A8
350
6BE
  3
A9
350
6BF
  3
B0
350
6C0
  3
B1
350
6C1
  3
B2
350
6C2
  3
B3
350
6C3
  3
B4
350
6C4
  3
B5
350
6C5
  3
B6
350
6C6
  0
DICTIONARY
  5
6B3
102
{ACAD_REACTORS
330
C
102
}
330
C
100
AcDbDictionary
281
     1
  3
Standard
350
6B4
  0
DICTIONARY
  5
69E
102
{ACAD_REACTORS
330
C
102
}
330
C
100
AcDbDictionary
281
     1
  3
2dWireframe
350
6A4
  3
3D Hidden
350
6A6
  3
3dWireframe
350
6A5
  3
Basic
350
6A3
  3
Brighten
350
6AA
  3
ColorChange
350
6AE
  3
Conceptual
350
6A7
  3
Dim
350
6A9
  3
EdgeColorOff
350
6B1
  3
Facepattern
350
6AD
  3
Flat
350
69F
  3
FlatWithEdges
350
6A0
  3
Gouraud
350
6A1
  3
GouraudWithEdges
350
6A2
  3
JitterOff
350
6AF
  3
Linepattern
350
6AC
  3
OverhangOff
350
6B0
  3
Realistic
350
6A8
  3
Thicken
350
6AB
  0
XRECORD
  5
6D6
102
{ACAD_REACTORS
330
C
102
}
330
C
100
AcDbXrecord
280
     1
 90
        1
330
6B4
  0
DICTIONARY
  5
5E
102
{ACAD_REACTORS
330
C
102
}
330
C
100
AcDbDictionary
281
     1
  3
CANNOSCALE
350
6D0
  3
CMLEADERSTYLE
350
6CE
  3
CTABLESTYLE
350
6CD
  3
DIMASSOC
350
5F
  3
HIDETEXT
350
63
  3
LAYEREVAL
350
6D2
  3
LAYERNOTIFY
350
6D3
  3
LIGHTINGUNITS
350
6D1
  3
MSLTSCALE
350
6CF
  0
DICTIONARY
  5
346
102
{ACAD_REACTORS
330
345
102
}
330
345
100
AcDbDictionary
281
     1
  0
XRECORD
  5
6CC
102
{ACAD_REACTORS
330
6CB
102
}
330
6CB
100
AcDbXrecord
280
     1
290
     1
  0
XRECORD
  5
333
102
{ACAD_REACTORS
330
2FC
102
}
330
2FC
100
AcDbXrecord
280
     1
340
1F
  0
XRECORD
  5
337
102
{ACAD_REACTORS
330
2FE
102
}
330
2FE
100
AcDbXrecord
280
     1
340
55
  0
XRECORD
  5
336
102
{ACAD_REACTORS
330
300
102
}
330
300
100
AcDbXrecord
280
     1
340
50
  0
LAYOUT
  5
22
102
{ACAD_REACTORS
330
1A
102
}
330
1A
100
AcDbPlotSettings
  1

  2
none_device
  4
ANSI_A_(8.50_x_11.00_Inches)
  6

 40
6.349999904632568
 41
19.04999923706055
 42
6.350006103515625
 43
19.04998779296875
 44
215.8999938964844
 45
279.3999938964844
 46
0.0
 47
0.0
 48
0.0
 49
0.0
140
0.0
141
0.0
142
1.0
143
78.436453180766
 70
 11952
 72
     0
 73
     1
 74
     0
  7

 75
     0
147
0.0127491741332998
 76
     0
 77
     2
 78
   300
148
0.0
149
0.0
100
AcDbLayout
  1
Model
 70
     1
 71
     0
 10
0.0
 20
0.0
 11
12.0
 21
9.0
 12
0.0
 22
0.0
 32
0.0
 14
0.0
 24
0.0
 34
0.0
 15
0.0
 25
0.0
 35
0.0
146
0.0
 13
0.0
 23
0.0
 33
0.0
 16
1.0
 26
0.0
 36
0.0
 17
0.0
 27
1.0
 37
0.0
 76
     0
330
1F
331
683
  0
LAYOUT
  5
51
102
{ACAD_REACTORS
330
1A
102
}
330
1A
100
AcDbPlotSettings
  1

  2
none_device
  4
Letter_(8.50_x_11.00_Inches)
  6

 40
6.349999904632568
 41
6.349999904632568
 42
6.350006103515625
 43
6.350006103515625
 44
215.8999938964844
 45
279.3999938964844
 46
0.0
 47
0.0
 48
0.0
 49
0.0
140
0.0
141
0.0
142
1.0
143
1.0
 70
   688
 72
     1
 73
     1
 74
     5
  7

 75
    16
147
1.0
 76
     0
 77
     2
 78
   300
148
0.0
149
0.0
100
AcDbLayout
  1
ﾚｲｱｳﾄ1
 70
     1
 71
     1
 10
-6.350006103515625
 20
-6.349999904632568
 11
273.0499877929688
 21
209.5499939918518
 12
0.0
 22
0.0
 32
0.0
 14
26.66076962115563
 24
20.31135699206658
 34
-0.0015258207003583
 15
240.039213369355
 25
182.8886381005154
 35
0.0000000349246037
146
0.0
 13
0.0
 23
0.0
 33
0.0
 16
1.0
 26
0.0
 36
0.0
 17
0.0
 27
1.0
 37
0.0
 76
     0
330
50
331
6B
  0
LAYOUT
  5
56
102
{ACAD_REACTORS
330
1A
102
}
330
1A
100
AcDbPlotSettings
  1

  2
none_device
  4
Letter_(8.50_x_11.00_Inches)
  6

 40
6.349999904632568
 41
6.349999904632568
 42
6.350006103515625
 43
6.350006103515625
 44
215.8999938964844
 45
279.3999938964844
 46
0.0
 47
0.0
 48
0.0
 49
0.0
140
0.0
141
0.0
142
1.0
143
1.0
 70
   688
 72
     1
 73
     1
 74
     5
  7

 75
    16
147
1.0
 76
     0
 77
     2
 78
   300
148
0.0
149
0.0
100
AcDbLayout
  1
ﾚｲｱｳﾄ2
 70
     1
 71
     2
 10
-6.350006103515625
 20
-6.349999904632568
 11
273.0499877929688
 21
209.5499939918518
 12
0.0
 22
0.0
 32
0.0
 14
26.66076962115563
 24
20.31135699206658
 34
-0.0015258207003583
 15
240.039213369355
 25
182.8886381005154
 35
0.0000000349246037
146
0.0
 13
0.0
 23
0.0
 33
0.0
 16
1.0
 26
0.0
 36
0.0
 17
0.0
 27
1.0
 37
0.0
 76
     0
330
55
331
71
  0
MATERIAL
  5
68E
102
{ACAD_XDICTIONARY
360
68F
102
}
102
{ACAD_REACTORS
330
685
102
}
330
685
100
AcDbMaterial
  1
ByBlock
 72
     0
 43
0.0008202099737533
 43
0.0
 43
0.0
 43
0.0
 43
0.0
 43
0.0008202099737533
 43
0.0
 43
0.0
 43
0.0
 43
0.0
 43
1.0
 43
0.0
 43
0.0
 43
0.0
 43
0.0
 43
1.0
 77
     0
 47
0.0008202099737533
 47
0.0
 47
0.0
 47
0.0
 47
0.0
 47
0.0008202099737533
 47
0.0
 47
0.0
 47
0.0
 47
0.0
 47
1.0
 47
0.0
 47
0.0
 47
0.0
 47
0.0
 47
1.0
171
     0
 49
0.0008202099737533
 49
0.0
 49
0.0
 49
0.0
 49
0.0
 49
0.0008202099737533
 49
0.0
 49
0.0
 49
0.0
 49
0.0
 49
1.0
 49
0.0
 49
0.0
 49
0.0
 49
0.0
 49
1.0
175
     0
142
0.0008202099737533
142
0.0
142
0.0
142
0.0
142
0.0
142
0.0008202099737533
142
0.0
142
0.0
142
0.0
142
0.0
142
1.0
142
0.0
142
0.0
142
0.0
142
0.0
142
1.0
179
     0
144
0.0008202099737533
144
0.0
144
0.0
144
0.0
144
0.0
144
0.0008202099737533
144
0.0
144
0.0
144
0.0
144
0.0
144
1.0
144
0.0
144
0.0
144
0.0
144
0.0
144
1.0
147
0.0008202099737533
147
0.0
147
0.0
147
0.0
147
0.0
147
0.0008202099737533
147
0.0
147
0.0
147
0.0
147
0.0
147
1.0
147
0.0
147
0.0
147
0.0
147
0.0
147
1.0
  0
MATERIAL
  5
686
102
{ACAD_XDICTIONARY
360
687
102
}
102
{ACAD_REACTORS
330
685
102
}
330
685
100
AcDbMaterial
  1
ByLayer
 72
     0
 43
0.0008202099737533
 43
0.0
 43
0.0
 43
0.0
 43
0.0
 43
0.0008202099737533
 43
0.0
 43
0.0
 43
0.0
 43
0.0
 43
1.0
 43
0.0
 43
0.0
 43
0.0
 43
0.0
 43
1.0
 77
     0
 47
0.0008202099737533
 47
0.0
 47
0.0
 47
0.0
 47
0.0
 47
0.0008202099737533
 47
0.0
 47
0.0
 47
0.0
 47
0.0
 47
1.0
 47
0.0
 47
0.0
 47
0.0
 47
0.0
 47
1.0
171
     0
 49
0.0008202099737533
 49
0.0
 49
0.0
 49
0.0
 49
0.0
 49
0.0008202099737533
 49
0.0
 49
0.0
 49
0.0
 49
0.0
 49
1.0
 49
0.0
 49
0.0
 49
0.0
 49
0.0
 49
1.0
175
     0
142
0.0008202099737533
142
0.0
142
0.0
142
0.0
142
0.0
142
0.0008202099737533
142
0.0
142
0.0
142
0.0
142
0.0
142
1.0
142
0.0
142
0.0
142
0.0
142
0.0
142
1.0
179
     0
144
0.0008202099737533
144
0.0
144
0.0
144
0.0
144
0.0
144
0.0008202099737533
144
0.0
144
0.0
144
0.0
144
0.0
144
1.0
144
0.0
144
0.0
144
0.0
144
0.0
144
1.0
147
0.0008202099737533
147
0.0
147
0.0
147
0.0
147
0.0
147
0.0008202099737533
147
0.0
147
0.0
147
0.0
147
0.0
147
1.0
147
0.0
147
0.0
147
0.0
147
0.0
147
1.0
  0
MATERIAL
  5
696
102
{ACAD_XDICTIONARY
360
697
102
}
102
{ACAD_REACTORS
330
685
102
}
330
685
100
AcDbMaterial
  1
Global
 72
     0
 43
0.0008202099737533
 43
0.0
 43
0.0
 43
0.0
 43
0.0
 43
0.0008202099737533
 43
0.0
 43
0.0
 43
0.0
 43
0.0
 43
1.0
 43
0.0
 43
0.0
 43
0.0
 43
0.0
 43
1.0
 77
     0
 47
0.0008202099737533
 47
0.0
 47
0.0
 47
0.0
 47
0.0
 47
0.0008202099737533
 47
0.0
 47
0.0
 47
0.0
 47
0.0
 47
1.0
 47
0.0
 47
0.0
 47
0.0
 47
0.0
 47
1.0
171
     0
 49
0.0008202099737533
 49
0.0
 49
0.0
 49
0.0
 49
0.0
 49
0.0008202099737533
 49
0.0
 49
0.0
 49
0.0
 49
0.0
 49
1.0
 49
0.0
 49
0.0
 49
0.0
 49
0.0
 49
1.0
175
     0
142
0.0008202099737533
142
0.0
142
0.0
142
0.0
142
0.0
142
0.0008202099737533
142
0.0
142
0.0
142
0.0
142
0.0
142
1.0
142
0.0
142
0.0
142
0.0
142
0.0
142
1.0
179
     0
144
0.0008202099737533
144
0.0
144
0.0
144
0.0
144
0.0
144
0.0008202099737533
144
0.0
144
0.0
144
0.0
144
0.0
144
1.0
144
0.0
144
0.0
144
0.0
144
0.0
144
1.0
147
0.0008202099737533
147
0.0
147
0.0
147
0.0
147
0.0
147
0.0008202099737533
147
0.0
147
0.0
147
0.0
147
0.0
147
1.0
147
0.0
147
0.0
147
0.0
147
0.0
147
1.0
  0
MLEADERSTYLE
  5
6C8
102
{ACAD_REACTORS
330
6C7
102
}
330
6C7
100
AcDbMLeaderStyle
179
     2
170
     2
171
     1
172
     0
 90
        2
 40
0.0
 41
0.0
173
     1
 91
-1056964608
340
14
 92
       -2
290
     1
 42
2.0
291
     1
 43
0.36
  3
Standard
 44
4.0
300

342
11
174
     1
178
     6
175
     1
176
     0
 93
-1056964608
 45
4.0
292
     0
297
     0
 46
4.0
 94
-1056964608
 47
1.0
 49
1.0
140
1.0
293
     1
141
0.0
294
     1
177
     0
142
1.0
295
     1
296
     0
143
0.125
271
     0
272
     9
273
     9
  0
MLINESTYLE
  5
18
102
{ACAD_REACTORS
330
17
102
}
330
17
100
AcDbMlineStyle
  2
STANDARD
 70
     0
  3

 62
   256
 51
90.0
 52
90.0
 71
     2
 49
0.5
 62
   256
  6
BYLAYER
 49
-0.5
 62
   256
  6
BYLAYER
  0
ACDBPLACEHOLDER
  5
F
102
{ACAD_REACTORS
330
E
102
}
330
E
  0
SCALE
  5
6B6
102
{ACAD_REACTORS
330
6B5
102
}
330
6B5
100
AcDbScale
 70
     0
300
1:1
140
1.0
141
1.0
290
     1
  0
SCALE
  5
6B7
102
{ACAD_REACTORS
330
6B5
102
}
330
6B5
100
AcDbScale
 70
     0
300
1:2
140
1.0
141
2.0
290
     0
  0
SCALE
  5
6B8
102
{ACAD_REACTORS
330
6B5
102
}
330
6B5
100
AcDbScale
 70
     0
300
1:4
140
1.0
141
4.0
290
     0
  0
SCALE
  5
6B9
102
{ACAD_REACTORS
330
6B5
102
}
330
6B5
100
AcDbScale
 70
     0
300
1:5
140
1.0
141
5.0
290
     0
  0
SCALE
  5
6BA
102
{ACAD_REACTORS
330
6B5
102
}
330
6B5
100
AcDbScale
 70
     0
300
1:8
140
1.0
141
8.0
290
     0
  0
SCALE
  5
6BB
102
{ACAD_REACTORS
330
6B5
102
}
330
6B5
100
AcDbScale
 70
     0
300
1:10
140
1.0
141
10.0
290
     0
  0
SCALE
  5
6BC
102
{ACAD_REACTORS
330
6B5
102
}
330
6B5
100
AcDbScale
 70
     0
300
1:16
140
1.0
141
16.0
290
     0
  0
SCALE
  5
6BD
102
{ACAD_REACTORS
330
6B5
102
}
330
6B5
100
AcDbScale
 70
     0
300
1:20
140
1.0
141
20.0
290
     0
  0
SCALE
  5
6BE
102
{ACAD_REACTORS
330
6B5
102
}
330
6B5
100
AcDbScale
 70
     0
300
1:30
140
1.0
141
30.0
290
     0
  0
SCALE
  5
6BF
102
{ACAD_REACTORS
330
6B5
102
}
330
6B5
100
AcDbScale
 70
     0
300
1:40
140
1.0
141
40.0
290
     0
  0
SCALE
  5
6C0
102
{ACAD_REACTORS
330
6B5
102
}
330
6B5
100
AcDbScale
 70
     0
300
1:50
140
1.0
141
50.0
290
     0
  0
SCALE
  5
6C1
102
{ACAD_REACTORS
330
6B5
102
}
330
6B5
100
AcDbScale
 70
     0
300
1:100
140
1.0
141
100.0
290
     0
  0
SCALE
  5
6C2
102
{ACAD_REACTORS
330
6B5
102
}
330
6B5
100
AcDbScale
 70
     0
300
2:1
140
2.0
141
1.0
290
     0
  0
SCALE
  5
6C3
102
{ACAD_REACTORS
330
6B5
102
}
330
6B5
100
AcDbScale
 70
     0
300
4:1
140
4.0
141
1.0
290
     0
  0
SCALE
  5
6C4
102
{ACAD_REACTORS
330
6B5
102
}
330
6B5
100
AcDbScale
 70
     0
300
8:1
140
8.0
141
1.0
290
     0
  0
SCALE
  5
6C5
102
{ACAD_REACTORS
330
6B5
102
}
330
6B5
100
AcDbScale
 70
     0
300
10:1
140
10.0
141
1.0
290
     0
  0
SCALE
  5
6C6
102
{ACAD_REACTORS
330
6B5
102
}
330
6B5
100
AcDbScale
 70
     0
300
100:1
140
100.0
141
1.0
290
     0
  0
TABLESTYLE
  5
6B4
102
{ACAD_XDICTIONARY
360
6D4
102
}
102
{ACAD_REACTORS
330
6B3
102
}
330
6B3
100
AcDbTableStyle
280
     0
  3
Standard
 70
     0
 71
     0
 40
1.5
 41
1.5
280
     0
281
     0
  7
Standard
140
4.5
170
     2
 62
     0
 63
     7
283
     0
 90
      512
 91
        0
  1

274
    -2
284
     1
 64
     0
275
    -2
285
     1
 65
     0
276
    -2
286
     1
 66
     0
277
    -2
287
     1
 67
     0
278
    -2
288
     1
 68
     0
279
    -2
289
     1
 69
     0
  7
Standard
140
6.0
170
     5
 62
     0
 63
     7
283
     0
 90
      512
 91
        0
  1

274
    -2
284
     1
 64
     0
275
    -2
285
     1
 65
     0
276
    -2
286
     1
 66
     0
277
    -2
287
     1
 67
     0
278
    -2
288
     1
 68
     0
279
    -2
289
     1
 69
     0
  7
Standard
140
4.5
170
     5
 62
     0
 63
     7
283
     0
 90
      512
 91
        0
  1

274
    -2
284
     1
 64
     0
275
    -2
285
     1
 65
     0
276
    -2
286
     1
 66
     0
277
    -2
287
     1
 67
     0
278
    -2
288
     1
 68
     0
279
    -2
289
     1
 69
     0
  0
VISUALSTYLE
  5
6A4
102
{ACAD_REACTORS
330
69E
102
}
330
69E
100
AcDbVisualStyle
  2
2dWireframe
 70
     4
177
     2
291
     0
 71
     0
176
     1
 72
     2
176
     1
 73
     0
176
     1
 90
        0
176
     1
 40
0.6
176
     1
 41
30.0
176
     1
 63
     7
421
 16777215
176
     1
 74
     1
176
     1
 91
        4
176
     1
 64
     7
176
     1
 65
   257
176
     1
 75
     1
176
     1
175
     1
176
     1
 42
1.0
176
     1
 92
        0
176
     1
 66
   257
176
     1
 43
1.0
176
     1
 76
     1
176
     1
 77
     6
176
     1
 78
     2
176
     1
 67
     7
176
     1
 79
     5
176
     1
170
     0
176
     1
171
     0
176
     1
290
     0
176
     1
 93
        1
176
     1
 44
0.0
176
     1
173
     0
176
     1
  0
VISUALSTYLE
  5
6A6
102
{ACAD_REACTORS
330
69E
102
}
330
69E
100
AcDbVisualStyle
  2
3D Hidden
 70
     6
177
     2
291
     0
 71
     1
176
     1
 72
     2
176
     1
 73
     2
176
     1
 90
        0
176
     1
 40
0.6
176
     1
 41
30.0
176
     1
 63
     7
421
 16777215
176
     1
 74
     2
176
     1
 91
        2
176
     1
 64
     7
176
     1
 65
   257
176
     1
 75
     2
176
     1
175
     1
176
     1
 42
179.0
176
     1
 92
        0
176
     1
 66
   257
176
     1
 43
1.0
176
     1
 76
     1
176
     1
 77
     6
176
     1
 78
     2
176
     1
 67
     7
176
     1
 79
     3
176
     1
170
     0
176
     1
171
     0
176
     1
290
     0
176
     1
 93
        1
176
     1
 44
0.0
176
     1
173
     0
176
     1
  0
VISUALSTYLE
  5
6A5
102
{ACAD_REACTORS
330
69E
102
}
330
69E
100
AcDbVisualStyle
  2
3dWireframe
 70
     5
177
     2
291
     0
 71
     0
176
     1
 72
     2
176
     1
 73
     0
176
     1
 90
        0
176
     1
 40
0.6
176
     1
 41
30.0
176
     1
 63
     7
421
 16777215
176
     1
 74
     1
176
     1
 91
        4
176
     1
 64
     7
176
     1
 65
   257
176
     1
 75
     1
176
     1
175
     1
176
     1
 42
1.0
176
     1
 92
        0
176
     1
 66
   257
176
     1
 43
1.0
176
     1
 76
     1
176
     1
 77
     6
176
     1
 78
     2
176
     1
 67
     7
176
     1
 79
     5
176
     1
170
     0
176
     1
171
     0
176
     1
290
     0
176
     1
 93
        1
176
     1
 44
0.0
176
     1
173
     0
176
     1
  0
VISUALSTYLE
  5
6A3
102
{ACAD_REACTORS
330
69E
102
}
330
69E
100
AcDbVisualStyle
  2
Basic
 70
     7
177
     2
291
     1
 71
     1
176
     1
 72
     0
176
     1
 73
     1
176
     1
 90
        0
176
     1
 40
0.6
176
     1
 41
30.0
176
     1
 63
     7
421
 16777215
176
     1
 74
     0
176
     1
 91
        4
176
     1
 64
     7
176
     1
 65
   257
176
     1
 75
     1
176
     1
175
     1
176
     1
 42
1.0
176
     1
 92
        8
176
     1
 66
     7
176
     1
 43
1.0
176
     1
 76
     1
176
     1
 77
     6
176
     1
 78
     2
176
     1
 67
     7
176
     1
 79
     5
176
     1
170
     0
176
     1
171
     0
176
     1
290
     0
176
     1
 93
        1
176
     1
 44
0.0
176
     1
173
     0
176
     1
  0
VISUALSTYLE
  5
6AA
102
{ACAD_REACTORS
330
69E
102
}
330
69E
100
AcDbVisualStyle
  2
Brighten
 70
    12
177
     2
291
     1
 71
     2
176
     1
 72
     2
176
     1
 73
     0
176
     1
 90
        0
176
     1
 40
0.6
176
     1
 41
30.0
176
     1
 63
     7
421
 16777215
176
     1
 74
     1
176
     1
 91
        4
176
     1
 64
     7
176
     1
 65
   257
176
     1
 75
     1
176
     1
175
     1
176
     1
 42
1.0
176
     1
 92
        8
176
     1
 66
     7
176
     1
 43
1.0
176
     1
 76
     1
176
     1
 77
     6
176
     1
 78
     2
176
     1
 67
     7
176
     1
 79
     5
176
     1
170
     0
176
     1
171
     0
176
     1
290
     0
176
     1
 93
        1
176
     1
 44
50.0
176
     1
173
     0
176
     1
  0
VISUALSTYLE
  5
6AE
102
{ACAD_REACTORS
330
69E
102
}
330
69E
100
AcDbVisualStyle
  2
ColorChange
 70
    16
177
     2
291
     1
 71
     2
176
     1
 72
     2
176
     1
 73
     3
176
     1
 90
        0
176
     1
 40
0.6
176
     1
 41
30.0
176
     1
 63
     8
421
  8421504
176
     1
 74
     1
176
     1
 91
        4
176
     1
 64
     7
176
     1
 65
   257
176
     1
 75
     1
176
     1
175
     1
176
     1
 42
1.0
176
     1
 92
        8
176
     1
 66
     8
424
  8421504
176
     1
 43
1.0
176
     1
 76
     1
176
     1
 77
     6
176
     1
 78
     2
176
     1
 67
     7
176
     1
 79
     5
176
     1
170
     0
176
     1
171
     0
176
     1
290
     0
176
     1
 93
        1
176
     1
 44
0.0
176
     1
173
     0
176
     1
  0
VISUALSTYLE
  5
6A7
102
{ACAD_REACTORS
330
69E
102
}
330
69E
100
AcDbVisualStyle
  2
Conceptual
 70
     9
177
     2
291
     0
 71
     3
176
     1
 72
     2
176
     1
 73
     0
176
     1
 90
        0
176
     1
 40
0.6
176
     1
 41
30.0
176
     1
 63
     7
421
 16777215
176
     1
 74
     2
176
     1
 91
        2
176
     1
 64
     7
176
     1
 65
   257
176
     1
 75
     1
176
     1
175
     1
176
     1
 42
179.0
176
     1
 92
        8
176
     1
 66
     7
176
     1
 43
1.0
176
     1
 76
     1
176
     1
 77
     6
176
     1
 78
     2
176
     1
 67
     7
176
     1
 79
     3
176
     1
170
     0
176
     1
171
     0
176
     1
290
     0
176
     1
 93
        1
176
     1
 44
0.0
176
     1
173
     0
176
     1
  0
VISUALSTYLE
  5
6A9
102
{ACAD_REACTORS
330
69E
102
}
330
69E
100
AcDbVisualStyle
  2
Dim
 70
    11
177
     2
291
     1
 71
     2
176
     1
 72
     2
176
     1
 73
     0
176
     1
 90
        0
176
     1
 40
0.6
176
     1
 41
30.0
176
     1
 63
     7
421
 16777215
176
     1
 74
     1
176
     1
 91
        4
176
     1
 64
     7
176
     1
 65
   257
176
     1
 75
     1
176
     1
175
     1
176
     1
 42
1.0
176
     1
 92
        8
176
     1
 66
     7
176
     1
 43
1.0
176
     1
 76
     1
176
     1
 77
     6
176
     1
 78
     2
176
     1
 67
     7
176
     1
 79
     5
176
     1
170
     0
176
     1
171
     0
176
     1
290
     0
176
     1
 93
        1
176
     1
 44
-50.0
176
     1
173
     0
176
     1
  0
VISUALSTYLE
  5
6B1
102
{ACAD_REACTORS
330
69E
102
}
330
69E
100
AcDbVisualStyle
  2
EdgeColorOff
 70
    22
177
     2
291
     1
 71
     2
176
     0
 72
     2
176
     0
 73
     0
176
     0
 90
        0
176
     0
 40
0.6
176
     0
 41
30.0
176
     0
 63
     7
421
 16777215
176
     0
 74
     1
176
     0
 91
        4
176
     0
 64
     7
176
     0
 65
   257
176
     0
 75
     1
176
     0
175
     1
176
     0
 42
1.0
176
     0
 92
        8
176
     2
 66
     7
176
     0
 43
1.0
176
     0
 76
     1
176
     0
 77
     6
176
     0
 78
     2
176
     0
 67
     7
176
     0
 79
     5
176
     0
170
     0
176
     0
171
     0
176
     0
290
     0
176
     0
 93
        1
176
     0
 44
0.0
176
     0
173
     0
176
     0
  0
VISUALSTYLE
  5
6AD
102
{ACAD_REACTORS
330
69E
102
}
330
69E
100
AcDbVisualStyle
  2
Facepattern
 70
    15
177
     2
291
     1
 71
     2
176
     1
 72
     2
176
     1
 73
     0
176
     1
 90
        0
176
     1
 40
0.6
176
     1
 41
30.0
176
     1
 63
     7
421
 16777215
176
     1
 74
     1
176
     1
 91
        4
176
     1
 64
     7
176
     1
 65
   257
176
     1
 75
     1
176
     1
175
     1
176
     1
 42
1.0
176
     1
 92
        8
176
     1
 66
     7
176
     1
 43
1.0
176
     1
 76
     1
176
     1
 77
     6
176
     1
 78
     2
176
     1
 67
     7
176
     1
 79
     5
176
     1
170
     0
176
     1
171
     0
176
     1
290
     0
176
     1
 93
        1
176
     1
 44
0.0
176
     1
173
     0
176
     1
  0
VISUALSTYLE
  5
69F
102
{ACAD_REACTORS
330
69E
102
}
330
69E
100
AcDbVisualStyle
  2
Flat
 70
     0
177
     2
291
     1
 71
     2
176
     1
 72
     1
176
     1
 73
     1
176
     1
 90
        2
176
     1
 40
0.6
176
     1
 41
30.0
176
     1
 63
     7
421
 16777215
176
     1
 74
     0
176
     1
 91
        4
176
     1
 64
     7
176
     1
 65
   257
176
     1
 75
     1
176
     1
175
     1
176
     1
 42
1.0
176
     1
 92
        8
176
     1
 66
     7
176
     1
 43
1.0
176
     1
 76
     1
176
     1
 77
     6
176
     1
 78
     2
176
     1
 67
     7
176
     1
 79
     5
176
     1
170
     0
176
     1
171
     0
176
     1
290
     0
176
     1
 93
       13
176
     1
 44
0.0
176
     1
173
     0
176
     1
  0
VISUALSTYLE
  5
6A0
102
{ACAD_REACTORS
330
69E
102
}
330
69E
100
AcDbVisualStyle
  2
FlatWithEdges
 70
     1
177
     2
291
     1
 71
     2
176
     1
 72
     1
176
     1
 73
     1
176
     1
 90
        2
176
     1
 40
0.6
176
     1
 41
30.0
176
     1
 63
     7
421
 16777215
176
     1
 74
     1
176
     1
 91
        4
176
     1
 64
     7
176
     1
 65
   257
176
     1
 75
     1
176
     1
175
     1
176
     1
 42
1.0
176
     1
 92
        0
176
     1
 66
   257
176
     1
 43
1.0
176
     1
 76
     1
176
     1
 77
     6
176
     1
 78
     2
176
     1
 67
     7
176
     1
 79
     5
176
     1
170
     0
176
     1
171
     0
176
     1
290
     0
176
     1
 93
       13
176
     1
 44
0.0
176
     1
173
     0
176
     1
  0
VISUALSTYLE
  5
6A1
102
{ACAD_REACTORS
330
69E
102
}
330
69E
100
AcDbVisualStyle
  2
Gouraud
 70
     2
177
     2
291
     1
 71
     2
176
     1
 72
     2
176
     1
 73
     1
176
     1
 90
        2
176
     1
 40
0.6
176
     1
 41
30.0
176
     1
 63
     7
421
 16777215
176
     1
 74
     0
176
     1
 91
        4
176
     1
 64
     7
176
     1
 65
   257
176
     1
 75
     1
176
     1
175
     1
176
     1
 42
1.0
176
     1
 92
        0
176
     1
 66
     7
176
     1
 43
1.0
176
     1
 76
     1
176
     1
 77
     6
176
     1
 78
     2
176
     1
 67
     7
176
     1
 79
     5
176
     1
170
     0
176
     1
171
     0
176
     1
290
     0
176
     1
 93
       13
176
     1
 44
0.0
176
     1
173
     0
176
     1
  0
VISUALSTYLE
  5
6A2
102
{ACAD_REACTORS
330
69E
102
}
330
69E
100
AcDbVisualStyle
  2
GouraudWithEdges
 70
     3
177
     2
291
     1
 71
     2
176
     1
 72
     2
176
     1
 73
     1
176
     1
 90
        2
176
     1
 40
0.6
176
     1
 41
30.0
176
     1
 63
     7
421
 16777215
176
     1
 74
     1
176
     1
 91
        4
176
     1
 64
     7
176
     1
 65
   257
176
     1
 75
     1
176
     1
175
     1
176
     1
 42
1.0
176
     1
 92
        0
176
     1
 66
   257
176
     1
 43
1.0
176
     1
 76
     1
176
     1
 77
     6
176
     1
 78
     2
176
     1
 67
     7
176
     1
 79
     5
176
     1
170
     0
176
     1
171
     0
176
     1
290
     0
176
     1
 93
       13
176
     1
 44
0.0
176
     1
173
     0
176
     1
  0
VISUALSTYLE
  5
6AF
102
{ACAD_REACTORS
330
69E
102
}
330
69E
100
AcDbVisualStyle
  2
JitterOff
 70
    20
177
     2
291
     1
 71
     2
176
     0
 72
     2
176
     0
 73
     0
176
     0
 90
        0
176
     0
 40
0.6
176
     0
 41
30.0
176
     0
 63
     7
421
 16777215
176
     0
 74
     1
176
     0
 91
        4
176
     0
 64
     7
176
     0
 65
   257
176
     0
 75
     1
176
     0
175
     1
176
     0
 42
1.0
176
     0
 92
       10
176
     2
 66
     7
176
     0
 43
1.0
176
     0
 76
     1
176
     0
 77
     6
176
     0
 78
     2
176
     0
 67
     7
176
     0
 79
     5
176
     0
170
     0
176
     0
171
     0
176
     0
290
     0
176
     0
 93
        1
176
     0
 44
0.0
176
     0
173
     0
176
     0
  0
VISUALSTYLE
  5
6AC
102
{ACAD_REACTORS
330
69E
102
}
330
69E
100
AcDbVisualStyle
  2
Linepattern
 70
    14
177
     2
291
     1
 71
     2
176
     1
 72
     2
176
     1
 73
     0
176
     1
 90
        0
176
     1
 40
0.6
176
     1
 41
30.0
176
     1
 63
     7
421
 16777215
176
     1
 74
     1
176
     1
 91
        4
176
     1
 64
     7
176
     1
 65
   257
176
     1
 75
     7
176
     1
175
     7
176
     1
 42
1.0
176
     1
 92
        8
176
     1
 66
     7
176
     1
 43
1.0
176
     1
 76
     1
176
     1
 77
     6
176
     1
 78
     2
176
     1
 67
     7
176
     1
 79
     5
176
     1
170
     0
176
     1
171
     0
176
     1
290
     0
176
     1
 93
        1
176
     1
 44
0.0
176
     1
173
     0
176
     1
  0
VISUALSTYLE
  5
6B0
102
{ACAD_REACTORS
330
69E
102
}
330
69E
100
AcDbVisualStyle
  2
OverhangOff
 70
    21
177
     2
291
     1
 71
     2
176
     0
 72
     2
176
     0
 73
     0
176
     0
 90
        0
176
     0
 40
0.6
176
     0
 41
30.0
176
     0
 63
     7
421
 16777215
176
     0
 74
     1
176
     0
 91
        4
176
     0
 64
     7
176
     0
 65
   257
176
     0
 75
     1
176
     0
175
     1
176
     0
 42
1.0
176
     0
 92
        9
176
     2
 66
     7
176
     0
 43
1.0
176
     0
 76
     1
176
     0
 77
     6
176
     0
 78
     2
176
     0
 67
     7
176
     0
 79
     5
176
     0
170
     0
176
     0
171
     0
176
     0
290
     0
176
     0
 93
        1
176
     0
 44
0.0
176
     0
173
     0
176
     0
  0
VISUALSTYLE
  5
6A8
102
{ACAD_REACTORS
330
69E
102
}
330
69E
100
AcDbVisualStyle
  2
Realistic
 70
     8
177
     2
291
     0
 71
     2
176
     1
 72
     2
176
     1
 73
     0
176
     1
 90
        0
176
     1
 40
0.6
176
     1
 41
30.0
176
     1
 63
     7
421
 16777215
176
     1
 74
     1
176
     1
 91
        0
176
     1
 64
     7
176
     1
 65
   257
176
     1
 75
     1
176
     1
175
     1
176
     1
 42
1.0
176
     1
 92
        8
176
     1
 66
     8
424
  7895160
176
     1
 43
1.0
176
     1
 76
     1
176
     1
 77
     6
176
     1
 78
     2
176
     1
 67
     7
176
     1
 79
     5
176
     1
170
     0
176
     1
171
     0
176
     1
290
     0
176
     1
 93
       13
176
     1
 44
0.0
176
     1
173
     0
176
     1
  0
VISUALSTYLE
  5
6AB
102
{ACAD_REACTORS
330
69E
102
}
330
69E
100
AcDbVisualStyle
  2
Thicken
 70
    13
177
     2
291
     1
 71
     2
176
     1
 72
     2
176
     1
 73
     0
176
     1
 90
        0
176
     1
 40
0.6
176
     1
 41
30.0
176
     1
 63
     7
421
 16777215
176
     1
 74
     1
176
     1
 91
        4
176
     1
 64
     7
176
     1
 65
   257
176
     1
 75
     1
176
     1
175
     1
176
     1
 42
1.0
176
     1
 92
       12
176
     1
 66
     7
176
     1
 43
1.0
176
     1
 76
     1
176
     1
 77
     6
176
     1
 78
     2
176
     1
 67
     7
176
     1
 79
     5
176
     1
170
     0
176
     1
171
     0
176
     1
290
     0
176
     1
 93
        1
176
     1
 44
0.0
176
     1
173
     0
176
     1
  0
DICTIONARYVAR
  5
6D0
102
{ACAD_REACTORS
330
5E
102
}
330
5E
100
DictionaryVariables
280
     0
  1
1:1
  0
DICTIONARYVAR
  5
6CE
102
{ACAD_REACTORS
330
5E
102
}
330
5E
100
DictionaryVariables
280
     0
  1
STANDARD
  0
DICTIONARYVAR
  5
6CD
102
{ACAD_REACTORS
330
5E
102
}
330
5E
100
DictionaryVariables
280
     0
  1
STANDARD
  0
DICTIONARYVAR
  5
5F
102
{ACAD_REACTORS
330
5E
102
}
330
5E
100
DictionaryVariables
280
     0
  1
2
  0
DICTIONARYVAR
  5
63
102
{ACAD_REACTORS
330
5E
102
}
330
5E
100
DictionaryVariables
280
     0
  1
1
  0
DICTIONARYVAR
  5
6D2
102
{ACAD_REACTORS
330
5E
102
}
330
5E
100
DictionaryVariables
280
     0
  1
1
  0
DICTIONARYVAR
  5
6D3
102
{ACAD_REACTORS
330
5E
102
}
330
5E
100
DictionaryVariables
280
     0
  1
15
  0
DICTIONARYVAR
  5
6D1
102
{ACAD_REACTORS
330
5E
102
}
330
5E
100
DictionaryVariables
280
     0
  1
0
  0
DICTIONARYVAR
  5
6CF
102
{ACAD_REACTORS
330
5E
102
}
330
5E
100
DictionaryVariables
280
     0
  1
0
  0
DICTIONARY
  5
68F
330
68E
100
AcDbDictionary
280
     1
281
     1
  3
BUMPTILE
360
691
  3
DIFFUSETILE
360
690
  3
OPACITYTILE
360
694
  3
REFLECTIONTILE
360
693
  3
REFRACTIONTILE
360
695
  3
SPECULARTILE
360
692
  0
DICTIONARY
  5
687
330
686
100
AcDbDictionary
280
     1
281
     1
  3
BUMPTILE
360
689
  3
DIFFUSETILE
360
688
  3
OPACITYTILE
360
68C
  3
REFLECTIONTILE
360
68B
  3
REFRACTIONTILE
360
68D
  3
SPECULARTILE
360
68A
  0
DICTIONARY
  5
697
330
696
100
AcDbDictionary
280
     1
281
     1
  3
BUMPTILE
360
699
  3
DIFFUSETILE
360
698
  3
OPACITYTILE
360
69C
  3
REFLECTIONTILE
360
69B
  3
REFRACTIONTILE
360
69D
  3
SPECULARTILE
360
69A
  0
DICTIONARY
  5
6D4
330
6B4
100
AcDbDictionary
280
     1
281
     1
  3
ACAD_ROUNDTRIP_2008_TABLESTYLE_CELLSTYLEMAP
360
6D5
  0
XRECORD
  5
691
102
{ACAD_REACTORS
330
68F
102
}
330
68F
100
AcDbXrecord
280
     1
270
     1
271
     1
  0
XRECORD
  5
690
102
{ACAD_REACTORS
330
68F
102
}
330
68F
100
AcDbXrecord
280
     1
270
     1
271
     1
  0
XRECORD
  5
694
102
{ACAD_REACTORS
330
68F
102
}
330
68F
100
AcDbXrecord
280
     1
270
     1
271
     1
  0
XRECORD
  5
693
102
{ACAD_REACTORS
330
68F
102
}
330
68F
100
AcDbXrecord
280
     1
270
     1
271
     1
  0
XRECORD
  5
695
102
{ACAD_REACTORS
330
68F
102
}
330
68F
100
AcDbXrecord
280
     1
270
     1
271
     1
  0
XRECORD
  5
692
102
{ACAD_REACTORS
330
68F
102
}
330
68F
100
AcDbXrecord
280
     1
270
     1
271
     1
  0
XRECORD
  5
689
102
{ACAD_REACTORS
330
687
102
}
330
687
100
AcDbXrecord
280
     1
270
     1
271
     1
  0
XRECORD
  5
688
102
{ACAD_REACTORS
330
687
102
}
330
687
100
AcDbXrecord
280
     1
270
     1
271
     1
  0
XRECORD
  5
68C
102
{ACAD_REACTORS
330
687
102
}
330
687
100
AcDbXrecord
280
     1
270
     1
271
     1
  0
XRECORD
  5
68B
102
{ACAD_REACTORS
330
687
102
}
330
687
100
AcDbXrecord
280
     1
270
     1
271
     1
  0
XRECORD
  5
68D
102
{ACAD_REACTORS
330
687
102
}
330
687
100
AcDbXrecord
280
     1
270
     1
271
     1
  0
XRECORD
  5
68A
102
{ACAD_REACTORS
330
687
102
}
330
687
100
AcDbXrecord
280
     1
270
     1
271
     1
  0
XRECORD
  5
699
102
{ACAD_REACTORS
330
697
102
}
330
697
100
AcDbXrecord
280
     1
270
     1
271
     1
  0
XRECORD
  5
698
102
{ACAD_REACTORS
330
697
102
}
330
697
100
AcDbXrecord
280
     1
270
     1
271
     1
  0
XRECORD
  5
69C
102
{ACAD_REACTORS
330
697
102
}
330
697
100
AcDbXrecord
280
     1
270
     1
271
     1
  0
XRECORD
  5
69B
102
{ACAD_REACTORS
330
697
102
}
330
697
100
AcDbXrecord
280
     1
270
     1
271
     1
  0
XRECORD
  5
69D
102
{ACAD_REACTORS
330
697
102
}
330
697
100
AcDbXrecord
280
     1
270
     1
271
     1
  0
XRECORD
  5
69A
102
{ACAD_REACTORS
330
697
102
}
330
697
100
AcDbXrecord
280
     1
270
     1
271
     1
  0
CELLSTYLEMAP
  5
6D5
102
{ACAD_REACTORS
330
6D4
102
}
330
6D4
100
AcDbCellStyleMap
 90
        3
300
CELLSTYLE
  1
TABLEFORMAT_BEGIN
 90
        5
170
     1
 91
        0
 92
    32768
 62
   257
 93
        1
300
CONTENTFORMAT
  1
CONTENTFORMAT_BEGIN
 90
        0
 91
        0
 92
      512
 93
        0
300

 40
0.0
140
1.0
 94
        5
 62
     0
340
11
144
6.0
309
CONTENTFORMAT_END
171
     1
301
MARGIN
  1
CELLMARGIN_BEGIN
 40
1.5
 40
1.5
 40
1.5
 40
1.5
 40
4.5
 40
4.5
309
CELLMARGIN_END
 94
        6
 95
        1
302
GRIDFORMAT
  1
GRIDFORMAT_BEGIN
 90
        0
 91
        1
 62
     0
 92
       -2
340
0
 93
        0
 40
1.125
309
GRIDFORMAT_END
 95
        2
302
GRIDFORMAT
  1
GRIDFORMAT_BEGIN
 90
        0
 91
        1
 62
     0
 92
       -2
340
0
 93
        0
 40
1.125
309
GRIDFORMAT_END
 95
        4
302
GRIDFORMAT
  1
GRIDFORMAT_BEGIN
 90
        0
 91
        1
 62
     0
 92
       -2
340
0
 93
        0
 40
1.125
309
GRIDFORMAT_END
 95
        8
302
GRIDFORMAT
  1
GRIDFORMAT_BEGIN
 90
        0
 91
        1
 62
     0
 92
       -2
340
0
 93
        0
 40
1.125
309
GRIDFORMAT_END
 95
       16
302
GRIDFORMAT
  1
GRIDFORMAT_BEGIN
 90
        0
 91
        1
 62
     0
 92
       -2
340
0
 93
        0
 40
1.125
309
GRIDFORMAT_END
 95
       32
302
GRIDFORMAT
  1
GRIDFORMAT_BEGIN
 90
        0
 91
        1
 62
     0
 92
       -2
340
0
 93
        0
 40
1.125
309
GRIDFORMAT_END
309
TABLEFORMAT_END
  1
CELLSTYLE_BEGIN
 90
        1
 91
        1
300
_TITLE
309
CELLSTYLE_END
300
CELLSTYLE
  1
TABLEFORMAT_BEGIN
 90
        5
170
     1
 91
        0
 92
        0
 62
   257
 93
        1
300
CONTENTFORMAT
  1
CONTENTFORMAT_BEGIN
 90
        0
 91
        0
 92
      512
 93
        0
300

 40
0.0
140
1.0
 94
        5
 62
     0
340
11
144
4.5
309
CONTENTFORMAT_END
171
     1
301
MARGIN
  1
CELLMARGIN_BEGIN
 40
1.5
 40
1.5
 40
1.5
 40
1.5
 40
4.5
 40
4.5
309
CELLMARGIN_END
 94
        6
 95
        1
302
GRIDFORMAT
  1
GRIDFORMAT_BEGIN
 90
        0
 91
        1
 62
     0
 92
       -2
340
0
 93
        0
 40
1.125
309
GRIDFORMAT_END
 95
        2
302
GRIDFORMAT
  1
GRIDFORMAT_BEGIN
 90
        0
 91
        1
 62
     0
 92
       -2
340
0
 93
        0
 40
1.125
309
GRIDFORMAT_END
 95
        4
302
GRIDFORMAT
  1
GRIDFORMAT_BEGIN
 90
        0
 91
        1
 62
     0
 92
       -2
340
0
 93
        0
 40
1.125
309
GRIDFORMAT_END
 95
        8
302
GRIDFORMAT
  1
GRIDFORMAT_BEGIN
 90
        0
 91
        1
 62
     0
 92
       -2
340
0
 93
        0
 40
1.125
309
GRIDFORMAT_END
 95
       16
302
GRIDFORMAT
  1
GRIDFORMAT_BEGIN
 90
        0
 91
        1
 62
     0
 92
       -2
340
0
 93
        0
 40
1.125
309
GRIDFORMAT_END
 95
       32
302
GRIDFORMAT
  1
GRIDFORMAT_BEGIN
 90
        0
 91
        1
 62
     0
 92
       -2
340
0
 93
        0
 40
1.125
309
GRIDFORMAT_END
309
TABLEFORMAT_END
  1
CELLSTYLE_BEGIN
 90
        2
 91
        1
300
_HEADER
309
CELLSTYLE_END
300
CELLSTYLE
  1
TABLEFORMAT_BEGIN
 90
        5
170
     1
 91
        0
 92
        0
 62
   257
 93
        1
300
CONTENTFORMAT
  1
CONTENTFORMAT_BEGIN
 90
        0
 91
        0
 92
      512
 93
        0
300

 40
0.0
140
1.0
 94
        2
 62
     0
340
11
144
4.5
309
CONTENTFORMAT_END
171
     1
301
MARGIN
  1
CELLMARGIN_BEGIN
 40
1.5
 40
1.5
 40
1.5
 40
1.5
 40
4.5
 40
4.5
309
CELLMARGIN_END
 94
        6
 95
        1
302
GRIDFORMAT
  1
GRIDFORMAT_BEGIN
 90
        0
 91
        1
 62
     0
 92
       -2
340
0
 93
        0
 40
1.125
309
GRIDFORMAT_END
 95
        2
302
GRIDFORMAT
  1
GRIDFORMAT_BEGIN
 90
        0
 91
        1
 62
     0
 92
       -2
340
0
 93
        0
 40
1.125
309
GRIDFORMAT_END
 95
        4
302
GRIDFORMAT
  1
GRIDFORMAT_BEGIN
 90
        0
 91
        1
 62
     0
 92
       -2
340
0
 93
        0
 40
1.125
309
GRIDFORMAT_END
 95
        8
302
GRIDFORMAT
  1
GRIDFORMAT_BEGIN
 90
        0
 91
        1
 62
     0
 92
       -2
340
0
 93
        0
 40
1.125
309
GRIDFORMAT_END
 95
       16
302
GRIDFORMAT
  1
GRIDFORMAT_BEGIN
 90
        0
 91
        1
 62
     0
 92
       -2
340
0
 93
        0
 40
1.125
309
GRIDFORMAT_END
 95
       32
302
GRIDFORMAT
  1
GRIDFORMAT_BEGIN
 90
        0
 91
        1
 62
     0
 92
       -2
340
0
 93
        0
 40
1.125
309
GRIDFORMAT_END
309
TABLEFORMAT_END
  1
CELLSTYLE_BEGIN
 90
        3
 91
        2
300
_DATA
309
CELLSTYLE_END
  0
ENDSEC
  0
EOF
