  0
SECTION
  2
HEADER
  9
$ACADVER
  1
AC1015
  9
$ACADMAINTVER
 70
    14
  9
$DWGCODEPAGE
  3
ANSI_932
  9
$INSBASE
 10
0.0
 20
0.0
 30
0.0
  9
$EXTMIN
 10
311.6134104775815
 20
-69.41481234228104
 30
-0.0000000000112498
  9
$EXTMAX
 10
797.7561344977589
 20
1102.370472343236
 30
0.0000000000002956
  9
$LIMMIN
 10
0.0
 20
0.0
  9
$LIMMAX
 10
420.0
 20
297.0
  9
$ORTHOMODE
 70
     0
  9
$REGENMODE
 70
     1
  9
$FILLMODE
 70
     1
  9
$QTEXTMODE
 70
     0
  9
$MIRRTEXT
 70
     1
  9
$LTSCALE
 40
1.0
  9
$ATTMODE
 70
     1
  9
$TEXTSIZE
 40
2.5
  9
$TRACEWID
 40
1.0
  9
$TEXTSTYLE
  7
Standard
  9
$CLAYER
  8
0
  9
$CELTYPE
  6
ByLayer
  9
$CECOLOR
 62
   256
  9
$CELTSCALE
 40
1.0
  9
$DISPSILH
 70
     0
  9
$DIMSCALE
 40
1.0
  9
$DIMASZ
 40
2.5
  9
$DIMEXO
 40
0.625
  9
$DIMDLI
 40
3.75
  9
$DIMRND
 40
0.0
  9
$DIMDLE
 40
0.0
  9
$DIMEXE
 40
1.25
  9
$DIMTP
 40
0.0
  9
$DIMTM
 40
0.0
  9
$DIMTXT
 40
2.5
  9
$DIMCEN
 40
2.5
  9
$DIMTSZ
 40
0.0
  9
$DIMTOL
 70
     0
  9
$DIMLIM
 70
     0
  9
$DIMTIH
 70
     0
  9
$DIMTOH
 70
     0
  9
$DIMSE1
 70
     0
  9
$DIMSE2
 70
     0
  9
$DIMTAD
 70
     1
  9
$DIMZIN
 70
     8
  9
$DIMBLK
  1

  9
$DIMASO
 70
     1
  9
$DIMSHO
 70
     1
  9
$DIMPOST
  1

  9
$DIMAPOST
  1

  9
$DIMALT
 70
     0
  9
$DIMALTD
 70
     3
  9
$DIMALTF
 40
0.03937007874016
  9
$DIMLFAC
 40
1.0
  9
$DIMTOFL
 70
     1
  9
$DIMTVP
 40
0.0
  9
$DIMTIX
 70
     0
  9
$DIMSOXD
 70
     0
  9
$DIMSAH
 70
     0
  9
$DIMBLK1
  1

  9
$DIMBLK2
  1

  9
$DIMSTYLE
  2
ISO-25
  9
$DIMCLRD
 70
     0
  9
$DIMCLRE
 70
     0
  9
$DIMCLRT
 70
     0
  9
$DIMTFAC
 40
1.0
  9
$DIMGAP
 40
0.625
  9
$DIMJUST
 70
     0
  9
$DIMSD1
 70
     0
  9
$DIMSD2
 70
     0
  9
$DIMTOLJ
 70
     0
  9
$DIMTZIN
 70
     8
  9
$DIMALTZ
 70
     0
  9
$DIMALTTZ
 70
     0
  9
$DIMUPT
 70
     0
  9
$DIMDEC
 70
     2
  9
$DIMTDEC
 70
     2
  9
$DIMALTU
 70
     2
  9
$DIMALTTD
 70
     3
  9
$DIMTXSTY
  7
Standard
  9
$DIMAUNIT
 70
     0
  9
$DIMADEC
 70
     0
  9
$DIMALTRND
 40
0.0
  9
$DIMAZIN
 70
     0
  9
$DIMDSEP
 70
    44
  9
$DIMATFIT
 70
     3
  9
$DIMFRAC
 70
     0
  9
$DIMLDRBLK
  1

  9
$DIMLUNIT
 70
     2
  9
$DIMLWD
 70
    -2
  9
$DIMLWE
 70
    -2
  9
$DIMTMOVE
 70
     0
  9
$LUNITS
 70
     2
  9
$LUPREC
 70
     4
  9
$SKETCHINC
 40
1.0
  9
$FILLETRAD
 40
10.0
  9
$AUNITS
 70
     0
  9
$AUPREC
 70
     0
  9
$MENU
  1
.
  9
$ELEVATION
 40
0.0
  9
$PELEVATION
 40
0.0
  9
$THICKNESS
 40
0.0
  9
$LIMCHECK
 70
     0
  9
$CHAMFERA
 40
10.0
  9
$CHAMFERB
 40
10.0
  9
$CHAMFERC
 40
20.0
  9
$CHAMFERD
 40
0.0
  9
$SKPOLY
 70
     0
  9
$TDCREATE
 40
2454278.661892176
  9
$TDUCREATE
 40
2454278.286892176
  9
$TDUPDATE
 40
2456899.670807835
  9
$TDUUPDATE
 40
2456899.295807835
  9
$TDINDWG
 40
0.0005494560
  9
$TDUSRTIMER
 40
0.0005494560
  9
$USRTIMER
 70
     1
  9
$ANGBASE
 50
0.0
  9
$ANGDIR
 70
     0
  9
$PDMODE
 70
     0
  9
$PDSIZE
 40
0.0
  9
$PLINEWID
 40
0.0
  9
$SPLFRAME
 70
     0
  9
$SPLINETYPE
 70
     6
  9
$SPLINESEGS
 70
     8
  9
$HANDSEED
  5
20C
  9
$SURFTAB1
 70
     6
  9
$SURFTAB2
 70
     6
  9
$SURFTYPE
 70
     6
  9
$SURFU
 70
     6
  9
$SURFV
 70
     6
  9
$UCSBASE
  2

  9
$UCSNAME
  2

  9
$UCSORG
 10
0.0
 20
0.0
 30
0.0
  9
$UCSXDIR
 10
1.0
 20
0.0
 30
0.0
  9
$UCSYDIR
 10
0.0
 20
1.0
 30
0.0
  9
$UCSORTHOREF
  2

  9
$UCSORTHOVIEW
 70
     0
  9
$UCSORGTOP
 10
0.0
 20
0.0
 30
0.0
  9
$UCSORGBOTTOM
 10
0.0
 20
0.0
 30
0.0
  9
$UCSORGLEFT
 10
0.0
 20
0.0
 30
0.0
  9
$UCSORGRIGHT
 10
0.0
 20
0.0
 30
0.0
  9
$UCSORGFRONT
 10
0.0
 20
0.0
 30
0.0
  9
$UCSORGBACK
 10
0.0
 20
0.0
 30
0.0
  9
$PUCSBASE
  2

  9
$PUCSNAME
  2

  9
$PUCSORG
 10
0.0
 20
0.0
 30
0.0
  9
$PUCSXDIR
 10
1.0
 20
0.0
 30
0.0
  9
$PUCSYDIR
 10
0.0
 20
1.0
 30
0.0
  9
$PUCSORTHOREF
  2

  9
$PUCSORTHOVIEW
 70
     0
  9
$PUCSORGTOP
 10
0.0
 20
0.0
 30
0.0
  9
$PUCSORGBOTTOM
 10
0.0
 20
0.0
 30
0.0
  9
$PUCSORGLEFT
 10
0.0
 20
0.0
 30
0.0
  9
$PUCSORGRIGHT
 10
0.0
 20
0.0
 30
0.0
  9
$PUCSORGFRONT
 10
0.0
 20
0.0
 30
0.0
  9
$PUCSORGBACK
 10
0.0
 20
0.0
 30
0.0
  9
$USERI1
 70
     0
  9
$USERI2
 70
     0
  9
$USERI3
 70
     0
  9
$USERI4
 70
     0
  9
$USERI5
 70
     0
  9
$USERR1
 40
0.0
  9
$USERR2
 40
0.0
  9
$USERR3
 40
0.0
  9
$USERR4
 40
0.0
  9
$USERR5
 40
0.0
  9
$WORLDVIEW
 70
     1
  9
$SHADEDGE
 70
     3
  9
$SHADEDIF
 70
    70
  9
$TILEMODE
 70
     1
  9
$MAXACTVP
 70
    48
  9
$PINSBASE
 10
0.0
 20
0.0
 30
0.0
  9
$PLIMCHECK
 70
     0
  9
$PEXTMIN
 10
26.66076962115562
 20
20.31135699206657
 30
-0.0015258207003583
  9
$PEXTMAX
 10
240.039213369355
 20
182.8886381005154
 30
0.0000000349246037
  9
$PLIMMIN
 10
-6.350006103515625
 20
-6.349999904632568
  9
$PLIMMAX
 10
273.0499877929687
 20
209.5499939918517
  9
$UNITMODE
 70
     0
  9
$VISRETAIN
 70
     1
  9
$PLINEGEN
 70
     0
  9
$PSLTSCALE
 70
     1
  9
$TREEDEPTH
 70
  3020
  9
$CMLSTYLE
  2
Standard
  9
$CMLJUST
 70
     0
  9
$CMLSCALE
 40
20.0
  9
$PROXYGRAPHICS
 70
     1
  9
$MEASUREMENT
 70
     1
  9
$CELWEIGHT
370
    -1
  9
$ENDCAPS
280
     0
  9
$JOINSTYLE
280
     0
  9
$LWDISPLAY
290
     0
  9
$INSUNITS
 70
     4
  9
$HYPERLINKBASE
  1

  9
$STYLESHEET
  1

  9
$XEDIT
290
     1
  9
$CEPSNTYPE
380
     0
  9
$PSTYLEMODE
290
     1
  9
$FINGERPRINTGUID
  2
{FDEAD578-A652-11D2-9A35-0060089B3A3F}
  9
$VERSIONGUID
  2
{485B1C7C-B3C2-42D8-BCC0-2386BBD274F9}
  9
$EXTNAMES
290
     1
  9
$PSVPSCALE
 40
0.0
  9
$OLESTARTUP
290
     0
  0
ENDSEC
  0
SECTION
  2
CLASSES
  0
CLASS
  1
ACDBDICTIONARYWDFLT
  2
AcDbDictionaryWithDefault
  3
AutoCAD 2000
 90
        0
280
     0
281
     0
  0
CLASS
  1
ACDBPLACEHOLDER
  2
AcDbPlaceHolder
  3
AutoCAD 2000
 90
        0
280
     0
281
     0
  0
CLASS
  1
LAYOUT
  2
AcDbLayout
  3
AutoCAD 2000
 90
        0
280
     0
281
     0
  0
CLASS
  1
DICTIONARYVAR
  2
AcDbDictionaryVar
  3
AutoCAD 2000
 90
        0
280
     0
281
     0
  0
CLASS
  1
LONG_TRANSACTION
  2
AcDbLongTransaction
  3
AutoCAD 2000
 90
    32768
280
     0
281
     0
  0
CLASS
  1
LWPOLYLINE
  2
AcDbPolyline
  3
AutoCAD 2000
 90
    32768
280
     0
281
     1
  0
CLASS
  1
HATCH
  2
AcDbHatch
  3
AutoCAD 2000
 90
    32768
280
     0
281
     1
  0
CLASS
  1
XRECORD
  2
AcDbXrecord
  3
AutoCAD 2000
 90
    32768
280
     0
281
     0
  0
ENDSEC
  0
SECTION
  2
TABLES
  0
TABLE
  2
VPORT
  5
8
330
0
100
AcDbSymbolTable
 70
     2
  0
VPORT
  5
20B
330
8
100
AcDbSymbolTableRecord
100
AcDbViewportTableRecord
  2
*Active
 70
     0
 10
0.0
 20
0.0
 11
1.0
 21
1.0
 12
554.6847724876702
 22
516.4778300004775
 13
0.0
 23
0.0
 14
10.0
 24
10.0
 15
10.0
 25
10.0
 16
0.0
 26
0.0
 36
1.0
 17
0.0
 27
0.0
 37
0.0
 40
1179.225191254949
 41
1.592161016949152
 42
50.0
 43
0.0
 44
0.0
 50
0.0
 51
0.0
 71
     0
 72
   100
 73
     1
 74
     3
 75
     0
 76
     0
 77
     0
 78
     0
281
     0
 65
     1
110
0.0
120
0.0
130
0.0
111
1.0
121
0.0
131
0.0
112
0.0
122
1.0
132
0.0
 79
     0
146
0.0
  0
ENDTAB
  0
TABLE
  2
LTYPE
  5
5
330
0
100
AcDbSymbolTable
 70
     2
  0
LTYPE
  5
14
330
5
100
AcDbSymbolTableRecord
100
AcDbLinetypeTableRecord
  2
ByBlock
 70
     0
  3

 72
    65
 73
     0
 40
0.0
  0
LTYPE
  5
15
330
5
100
AcDbSymbolTableRecord
100
AcDbLinetypeTableRecord
  2
ByLayer
 70
     0
  3

 72
    65
 73
     0
 40
0.0
  0
LTYPE
  5
16
330
5
100
AcDbSymbolTableRecord
100
AcDbLinetypeTableRecord
  2
Continuous
 70
     0
  3
Solid line
 72
    65
 73
     0
 40
0.0
  0
LTYPE
  5
1F2
330
5
100
AcDbSymbolTableRecord
100
AcDbLinetypeTableRecord
  2
CENTER
 70
     0
  3
__ . __
 72
    65
 73
     4
 40
7.0
 49
4.0
 74
     0
 49
-1.0
 74
     0
 49
1.0
 74
     0
 49
-1.0
 74
     0
  0
ENDTAB
  0
TABLE
  2
LAYER
  5
2
102
{ACAD_XDICTIONARY
360
1F3
102
}
330
0
100
AcDbSymbolTable
 70
     1
  0
LAYER
  5
10
330
2
100
AcDbSymbolTableRecord
100
AcDbLayerTableRecord
  2
0
 70
     0
 62
     7
  6
Continuous
370
    -3
390
F
  0
ENDTAB
  0
TABLE
  2
STYLE
  5
3
330
0
100
AcDbSymbolTable
 70
     1
  0
STYLE
  5
11
330
3
100
AcDbSymbolTableRecord
100
AcDbTextStyleTableRecord
  2
Standard
 70
     0
 40
0.0
 41
1.0
 50
0.0
 71
     0
 42
2.5
  3
txt
  4

  0
ENDTAB
  0
TABLE
  2
VIEW
  5
6
330
0
100
AcDbSymbolTable
 70
     0
  0
ENDTAB
  0
TABLE
  2
UCS
  5
7
330
0
100
AcDbSymbolTable
 70
     0
  0
ENDTAB
  0
TABLE
  2
APPID
  5
9
330
0
100
AcDbSymbolTable
 70
     2
  0
APPID
  5
12
330
9
100
AcDbSymbolTableRecord
100
AcDbRegAppTableRecord
  2
ACAD
 70
     0
  0
APPID
  5
87
330
9
100
AcDbSymbolTableRecord
100
AcDbRegAppTableRecord
  2
ACAD_PSEXT
 70
     0
  0
ENDTAB
  0
TABLE
  2
DIMSTYLE
  5
A
330
0
100
AcDbSymbolTable
 70
     1
100
AcDbDimStyleTable
 71
     0
  0
DIMSTYLE
105
27
330
A
100
AcDbSymbolTableRecord
100
AcDbDimStyleTableRecord
  2
ISO-25
 70
     0
 41
2.5
 42
0.625
 43
3.75
 44
1.25
 73
     0
 74
     0
 77
     1
 78
     8
140
2.5
141
2.5
143
0.03937007874016
147
0.625
171
     3
172
     1
271
     2
272
     2
274
     3
278
    44
283
     0
284
     8
340
11
  0
ENDTAB
  0
TABLE
  2
BLOCK_RECORD
  5
1
330
0
100
AcDbSymbolTable
 70
     1
  0
BLOCK_RECORD
  5
1F
102
{ACAD_XDICTIONARY
360
1AB
102
}
330
1
100
AcDbSymbolTableRecord
100
AcDbBlockTableRecord
  2
*Model_Space
340
22
  0
BLOCK_RECORD
  5
55
102
{ACAD_XDICTIONARY
360
1AD
102
}
330
1
100
AcDbSymbolTableRecord
100
AcDbBlockTableRecord
  2
*Paper_Space
340
56
  0
BLOCK_RECORD
  5
50
102
{ACAD_XDICTIONARY
360
1AF
102
}
330
1
100
AcDbSymbolTableRecord
100
AcDbBlockTableRecord
  2
*Paper_Space0
340
51
  0
ENDTAB
  0
ENDSEC
  0
SECTION
  2
BLOCKS
  0
BLOCK
  5
20
330
1F
100
AcDbEntity
  8
0
100
AcDbBlockBegin
  2
*Model_Space
 70
     0
 10
0.0
 20
0.0
 30
0.0
  3
*Model_Space
  1

  0
ENDBLK
  5
21
330
1F
100
AcDbEntity
  8
0
100
AcDbBlockEnd
  0
BLOCK
  5
57
330
55
100
AcDbEntity
 67
     1
  8
0
100
AcDbBlockBegin
  2
*Paper_Space
 70
     0
 10
0.0
 20
0.0
 30
0.0
  3
*Paper_Space
  1

  0
ENDBLK
  5
58
330
55
100
AcDbEntity
 67
     1
  8
0
100
AcDbBlockEnd
  0
BLOCK
  5
52
330
50
100
AcDbEntity
  8
0
100
AcDbBlockBegin
  2
*Paper_Space0
 70
     0
 10
0.0
 20
0.0
 30
0.0
  3
*Paper_Space0
  1

  0
VIEWPORT
  5
6B
330
50
100
AcDbEntity
  8
0
100
AcDbViewport
 10
133.3499908447265
 20
101.5999970436096
 30
0.0
 40
381.3957395593834
 41
218.2856291881582
 69
     0
 12
133.3499908447265
 22
101.5999970436096
 13
0.0
 23
0.0
 14
10.0
 24
10.0
 15
10.0
 25
10.0
 16
0.0
 26
0.0
 36
1.0
 17
0.0
 27
0.0
 37
0.0
 42
50.0
 43
0.0
 44
0.0
 45
218.2856291881582
 50
0.0
 51
0.0
 72
   100
 90
    32800
  1

281
     0
 71
     1
 74
     0
110
0.0
120
0.0
130
0.0
111
1.0
121
0.0
131
0.0
112
0.0
122
1.0
132
0.0
 79
     0
146
0.0
  0
VIEWPORT
  5
6D
330
50
100
AcDbEntity
  8
0
100
AcDbViewport
 10
133.349993944168
 20
101.599993944168
 30
0.0
 40
213.3599903106689
 41
162.5599903106689
 69
     0
 12
210.0
 22
148.5
 13
0.0
 23
0.0
 14
10.0
 24
10.0
 15
10.0
 25
10.0
 16
0.0
 26
0.0
 36
1.0
 17
0.0
 27
0.0
 37
0.0
 42
50.0
 43
0.0
 44
0.0
 45
324.0677920111345
 50
0.0
 51
0.0
 72
   100
 90
    32864
  1

281
     0
 71
     1
 74
     0
110
0.0
120
0.0
130
0.0
111
1.0
121
0.0
131
0.0
112
0.0
122
1.0
132
0.0
 79
     0
146
0.0
  0
ENDBLK
  5
53
330
50
100
AcDbEntity
  8
0
100
AcDbBlockEnd
  0
ENDSEC
  0
SECTION
  2
ENTITIES
  0
LINE
  5
119
330
1F
100
AcDbEntity
  8
0
100
AcDbLine
 10
680.9709600773429
 20
216.824588794968
 30
0.0
 11
680.9709600773429
 21
125.8246737949679
 31
0.0
  0
LINE
  5
11A
330
1F
100
AcDbEntity
  8
0
100
AcDbLine
 10
506.971035077343
 20
211.2246237949678
 30
0.0
 11
506.971035077343
 21
131.424638794968
 31
0.0
  0
LINE
  5
11B
330
1F
100
AcDbEntity
  8
0
100
AcDbLine
 10
675.4457475705205
 20
133.1746437949678
 30
0.0
 11
634.9707750773427
 21
133.1746437949678
 31
0.0
  0
LINE
  5
11C
330
1F
100
AcDbEntity
  8
0
100
AcDbLine
 10
678.120889712475
 20
125.8246737949679
 30
0.0
 11
675.4457475705205
 21
133.1746437949678
 31
0.0
  0
LINE
  5
11D
330
1F
100
AcDbEntity
  8
0
100
AcDbLine
 10
680.9709600773429
 20
125.8246737949679
 30
0.0
 11
678.120889712475
 21
125.8246737949679
 31
0.0
  0
LINE
  5
11E
330
1F
100
AcDbEntity
  8
0
100
AcDbLine
 10
680.9709600773429
 20
216.824588794968
 30
0.0
 11
678.1209341906949
 21
216.824588794968
 31
0.0
  0
LINE
  5
11F
330
1F
100
AcDbEntity
  8
0
100
AcDbLine
 10
678.1209341906949
 20
216.824588794968
 30
0.0
 11
675.4458102534442
 21
209.4746487949679
 31
0.0
  0
LINE
  5
120
330
1F
100
AcDbEntity
  8
0
100
AcDbLine
 10
675.4458102534442
 20
209.4746487949679
 30
0.0
 11
634.9707750773427
 21
209.4746487949679
 31
0.0
  0
LINE
  5
121
330
1F
100
AcDbEntity
  8
0
100
AcDbLine
 10
506.9708550773429
 20
112.9246437949678
 30
0.0
 11
506.9708550773429
 21
73.02467379496795
 31
0.0
  0
LINE
  5
122
330
1F
100
AcDbEntity
  8
0
100
AcDbLine
 10
460.970910077343
 20
118.524668794968
 30
0.0
 11
460.970910077343
 21
27.52467879496782
 31
0.0
  0
LINE
  5
123
330
1F
100
AcDbEntity
  8
0
100
AcDbLine
 10
460.970910077343
 20
118.524668794968
 30
0.0
 11
463.8210142098912
 21
118.524668794968
 31
0.0
  0
LINE
  5
124
330
1F
100
AcDbEntity
  8
0
100
AcDbLine
 10
532.8208800773429
 20
-31.45011873552153
 30
0.0
 11
532.8208800773429
 21
22.87464879496803
 31
0.0
  0
LINE
  5
125
330
1F
100
AcDbEntity
  8
0
100
AcDbLine
 10
609.120930077343
 20
-31.45022639916235
 30
0.0
 11
609.120930077343
 21
22.87464879496803
 31
0.0
  0
LINE
  5
126
330
1F
100
AcDbEntity
  8
0
100
AcDbLine
 10
466.4961025286946
 20
34.87464879496803
 30
0.0
 11
510.8972565573305
 21
34.87464879496803
 31
0.0
  0
LINE
  5
127
330
1F
100
AcDbEntity
  8
0
100
AcDbLine
 10
466.4962018139211
 20
111.174638794968
 30
0.0
 11
506.9708550773429
 21
111.174638794968
 31
0.0
  0
LINE
  5
128
330
1F
100
AcDbEntity
  8
0
100
AcDbLine
 10
630.9709050773428
 20
34.52291570526483
 30
0.0
 11
630.9709050773428
 21
22.87464879496803
 31
0.0
  0
LINE
  5
129
330
1F
100
AcDbEntity
  8
0
100
AcDbLine
 10
634.9709400773429
 20
112.9246437949678
 30
0.0
 11
634.9709400773429
 21
73.02467379496795
 31
0.0
  0
LINE
  5
12A
330
1F
100
AcDbEntity
  8
0
100
AcDbLine
 10
616.4709000773427
 20
-34.12537398723985
 30
0.0
 11
609.120930077343
 21
-31.45022639916235
 31
0.0
  0
LINE
  5
12B
330
1F
100
AcDbEntity
  8
0
100
AcDbLine
 10
616.4709000773427
 20
-36.97532120503194
 30
0.0
 11
616.4709000773427
 21
-34.12537398723985
 31
0.0
  0
LINE
  5
12C
330
1F
100
AcDbEntity
  8
0
100
AcDbLine
 10
460.970910077343
 20
27.52467879496782
 30
0.0
 11
463.8209276372394
 21
27.52467879496782
 31
0.0
  0
LINE
  5
12D
330
1F
100
AcDbEntity
  8
0
100
AcDbLine
 10
463.8209276372394
 20
27.52467879496782
 30
0.0
 11
466.4961025286946
 21
34.87464879496803
 31
0.0
  0
LINE
  5
12E
330
1F
100
AcDbEntity
  8
0
100
AcDbLine
 10
463.8210142098912
 20
118.524668794968
 30
0.0
 11
466.4962018139211
 21
111.174638794968
 31
0.0
  0
LINE
  5
12F
330
1F
100
AcDbEntity
  8
0
100
AcDbLine
 10
510.970830077343
 20
34.5227014688639
 30
0.0
 11
510.9708300773429
 21
22.87464879496803
 31
0.0
  0
LINE
  5
130
330
1F
100
AcDbEntity
  8
0
100
AcDbLine
 10
630.9709050773428
 20
22.87464879496803
 30
0.0
 11
510.9708300773429
 21
22.87464879496803
 31
0.0
  0
LINE
  5
131
330
1F
100
AcDbEntity
  8
0
100
AcDbLine
 10
525.4708500773428
 20
-36.97532120503194
 30
0.0
 11
616.4709000773427
 21
-36.97532120503194
 31
0.0
  0
LINE
  5
132
330
1F
100
AcDbEntity
  8
0
100
AcDbLine
 10
525.4708500773428
 20
-34.12530273329924
 30
0.0
 11
532.8208800773429
 21
-31.45011873552153
 31
0.0
  0
LINE
  5
133
330
1F
100
AcDbEntity
  8
0
100
AcDbLine
 10
525.4708500773428
 20
-36.97532120503194
 30
0.0
 11
525.4708500773428
 21
-34.12530273329924
 31
0.0
  0
LINE
  5
134
330
1F
100
AcDbEntity
  8
0
100
AcDbLine
 10
649.7209050773428
 20
229.7246487949679
 30
0.0
 11
649.7209050773428
 21
211.2246237949678
 31
0.0
  0
LINE
  5
135
330
1F
100
AcDbEntity
  8
0
100
AcDbLine
 10
492.2209050773428
 20
229.7246487949679
 30
0.0
 11
649.7209050773428
 21
229.7246487949679
 31
0.0
  0
LINE
  5
136
330
1F
100
AcDbEntity
  8
0
100
AcDbLine
 10
492.2209050773428
 20
211.2246237949678
 30
0.0
 11
649.7209050773428
 21
211.2246237949678
 31
0.0
  0
LINE
  5
137
330
1F
100
AcDbEntity
  8
0
100
AcDbLine
 10
492.2209050773428
 20
229.7246487949679
 30
0.0
 11
492.2209050773428
 21
211.2246237949678
 31
0.0
  0
LINE
  5
138
330
1F
100
AcDbEntity
  8
0
100
AcDbLine
 10
649.7209050773428
 20
131.424638794968
 30
0.0
 11
649.7209050773428
 21
112.9246437949678
 31
0.0
  0
LINE
  5
139
330
1F
100
AcDbEntity
  8
0
100
AcDbLine
 10
492.2209050773428
 20
131.4246387949679
 30
0.0
 11
649.7209050773428
 21
131.424638794968
 31
0.0
  0
LINE
  5
13A
330
1F
100
AcDbEntity
  8
0
100
AcDbLine
 10
492.2209050773428
 20
112.9246437949678
 30
0.0
 11
649.7209050773428
 21
112.9246437949678
 31
0.0
  0
LINE
  5
13B
330
1F
100
AcDbEntity
  8
0
100
AcDbLine
 10
492.2209050773428
 20
131.4246387949679
 30
0.0
 11
492.2209050773428
 21
112.9246437949678
 31
0.0
  0
ARC
  5
13C
330
1F
100
AcDbEntity
  8
0
100
AcDbCircle
 10
694.2708300773428
 20
73.02467379496795
 30
0.0
 40
187.3000049999999
100
AcDbArc
 50
179.9999899999989
 51
191.8624652003444
  0
ARC
  5
13D
330
1F
100
AcDbEntity
  8
0
100
AcDbCircle
 10
447.6708600773429
 20
73.02467379496795
 30
0.0
 40
187.3000049999999
100
AcDbArc
 50
348.1376017655043
 51
0.0000069999902825
  0
LINE
  5
13E
330
1F
100
AcDbEntity
  8
0
100
AcDbLine
 10
466.4962018139211
 20
111.174638794968
 30
0.0
 11
466.4962018139211
 21
34.87464879496803
 31
0.0
  0
LINE
  5
13F
330
1F
100
AcDbEntity
  8
0
100
AcDbLine
 10
463.8209276372394
 20
27.52467879496782
 30
0.0
 11
463.8210142098912
 21
118.524668794968
 31
0.0
  0
LINE
  5
140
330
1F
100
AcDbEntity
  8
0
100
AcDbLine
 10
634.9707750773427
 20
211.2246237949678
 30
0.0
 11
634.9707750773427
 21
131.424638794968
 31
0.0
  0
LINE
  5
141
330
1F
100
AcDbEntity
  8
0
100
AcDbLine
 10
675.4458102534442
 20
209.4746487949679
 30
0.0
 11
675.4457475705205
 21
133.1746437949678
 31
0.0
  0
LINE
  5
142
330
1F
100
AcDbEntity
  8
0
100
AcDbLine
 10
678.1209341906949
 20
216.824588794968
 30
0.0
 11
678.120889712475
 21
125.8246737949679
 31
0.0
  0
LINE
  5
143
330
1F
100
AcDbEntity
  8
0
100
AcDbLine
 10
532.8208800773429
 20
-31.45011873552153
 30
0.0
 11
609.120930077343
 21
-31.45022639916235
 31
0.0
  0
LINE
  5
144
330
1F
100
AcDbEntity
  8
0
100
AcDbLine
 10
525.4708500773428
 20
-34.12530273329924
 30
0.0
 11
616.4709000773427
 21
-34.12537398723985
 31
0.0
  0
LINE
  5
145
330
1F
100
AcDbEntity
  8
0
100
AcDbLine
 10
630.9709050773429
 20
34.52270146886402
 30
0.0
 11
510.970830077343
 21
34.52270146886402
 31
0.0
  0
LINE
  5
146
330
1F
100
AcDbEntity
  8
0
100
AcDbLine
 10
505.9708950773428
 20
229.9746387949678
 30
0.0
 11
521.2382696702453
 21
245.2420133878704
 31
0.0
  0
LINE
  5
147
330
1F
100
AcDbEntity
  8
0
100
AcDbLine
 10
559.9708950773429
 20
258.374198794968
 30
0.0
 11
559.9708950773429
 21
254.8744587949678
 31
0.0
  0
LINE
  5
148
330
1F
100
AcDbEntity
  8
0
100
AcDbLine
 10
553.4708541717911
 20
254.8744587949678
 30
0.0
 11
588.4709559828944
 21
254.8744587949678
 31
0.0
  0
LINE
  5
149
330
1F
100
AcDbEntity
  8
0
100
AcDbLine
 10
521.2382696702453
 20
245.2420133878704
 30
0.0
 11
551.6017005204198
 21
247.8984618147785
 31
0.0
  0
LINE
  5
14A
330
1F
100
AcDbEntity
  8
0
100
AcDbLine
 10
554.4709050773429
 20
287.0741487949679
 30
0.0
 11
554.4709050773429
 21
259.374188794968
 31
0.0
  0
LINE
  5
14B
330
1F
100
AcDbEntity
  8
0
100
AcDbLine
 10
536.4411000773429
 20
302.0770737949679
 30
0.0
 11
556.9107450773429
 21
302.0770737949679
 31
0.0
  0
LINE
  5
14C
330
1F
100
AcDbEntity
  8
0
100
AcDbLine
 10
520.9708950773428
 20
298.6960887949679
 30
0.0
 11
520.9708950773428
 21
289.0741587949679
 31
0.0
  0
LINE
  5
14D
330
1F
100
AcDbEntity
  8
0
100
AcDbLine
 10
586.4664351304955
 20
258.374198794968
 30
0.0
 11
555.4708950773429
 21
258.374198794968
 31
0.0
  0
LINE
  5
14E
330
1F
100
AcDbEntity
  8
0
100
AcDbLine
 10
536.0728350773428
 20
301.2217437949678
 30
0.0
 11
536.0728350773428
 21
287.0741487949679
 31
0.0
  0
LINE
  5
14F
330
1F
100
AcDbEntity
  8
0
100
AcDbLine
 10
522.5122650773427
 20
302.0770737949679
 30
0.0
 11
522.5122650773427
 21
287.0741487949679
 31
0.0
  0
LINE
  5
150
330
1F
100
AcDbEntity
  8
0
100
AcDbLine
 10
557.4103350773428
 20
301.0372737949679
 30
0.0
 11
557.4103350773428
 21
287.0741487949679
 31
0.0
  0
LINE
  5
151
330
1F
100
AcDbEntity
  8
0
100
AcDbLine
 10
584.4709050773428
 20
311.374208794968
 30
0.0
 11
557.4710400773429
 21
311.374208794968
 31
0.0
  0
LINE
  5
152
330
1F
100
AcDbEntity
  8
0
100
AcDbLine
 10
618.9709050773428
 20
287.0741487949679
 30
0.0
 11
522.9709050773428
 21
287.0741487949679
 31
0.0
  0
LINE
  5
153
330
1F
100
AcDbEntity
  8
0
100
AcDbLine
 10
553.4708541717911
 20
254.8744587949678
 30
0.0
 11
551.6017005204198
 21
247.8984618147785
 31
0.0
  0
ARC
  5
154
330
1F
100
AcDbEntity
  8
0
100
AcDbCircle
 10
570.9709050773429
 20
182.0770587949679
 30
0.0
 40
129.999996
100
AcDbArc
 50
95.96069199999787
 51
111.1002100000001
  0
ARC
  5
155
330
1F
100
AcDbEntity
  8
0
100
AcDbCircle
 10
525.9709050773428
 20
298.6960887949679
 30
0.0
 40
4.99999995
100
AcDbArc
 50
111.1004399999975
 51
180.0
  0
ARC
  5
156
330
1F
100
AcDbEntity
  8
0
100
AcDbCircle
 10
555.4708950773429
 20
259.374188794968
 30
0.0
 40
1.000000035
100
AcDbArc
 50
180.0
 51
270.0
  0
ARC
  5
157
330
1F
100
AcDbEntity
  8
0
100
AcDbCircle
 10
522.9709050773428
 20
289.0741587949679
 30
0.0
 40
2.000000099999999
100
AcDbArc
 50
180.0
 51
270.0
  0
ARC
  5
158
330
1F
100
AcDbEntity
  8
0
100
AcDbCircle
 10
521.2875750773427
 20
306.077063794968
 30
0.0
 40
4.000000049999999
100
AcDbArc
 50
286.9698699999979
 51
293.5929199999991
  0
ELLIPSE
  5
159
330
1F
100
AcDbEntity
  8
0
100
AcDbEllipse
 10
533.7317850773429
 20
302.0770287949679
 30
0.0
 11
-2.341064099999999
 21
-0.0000000000000853
 31
0.0
210
0.0
220
0.0
230
1.0
 40
0.5561573500000002
 41
3.141645399999999
 42
4.712388999999999
  0
ELLIPSE
  5
15A
330
1F
100
AcDbEntity
  8
0
100
AcDbEllipse
 10
570.9709050773429
 20
302.0770737949679
 30
0.0
 11
-13.56059145
 21
-0.00273249
 31
0.0
210
0.0
220
0.0
230
1.0
 40
0.096013511
 41
3.139493970029148
 42
6.281086599999999
  0
ELLIPSE
  5
15B
330
1F
100
AcDbEntity
  8
0
100
AcDbEllipse
 10
533.7317850773429
 20
302.0770287949679
 30
0.0
 11
-11.21952585
 21
-0.0000000000000853
 31
0.0
210
0.0
220
0.0
230
1.0
 40
0.11604769
 41
4.712388999999999
 42
6.283132599999999
  0
LINE
  5
15C
330
1F
100
AcDbEntity
  8
0
100
AcDbLine
 10
505.9708950773428
 20
229.9746387949678
 30
0.0
 11
505.9708950773427
 21
229.7246487949679
 31
0.0
  0
LINE
  5
15D
330
1F
100
AcDbEntity
  8
0
100
AcDbLine
 10
635.9709150773428
 20
229.9746387949678
 30
0.0
 11
620.7035404844404
 21
245.2420133878704
 31
0.0
  0
LINE
  5
15E
330
1F
100
AcDbEntity
  8
0
100
AcDbLine
 10
581.9709150773428
 20
258.374198794968
 30
0.0
 11
581.9709150773428
 21
254.8744587949678
 31
0.0
  0
LINE
  5
15F
330
1F
100
AcDbEntity
  8
0
100
AcDbLine
 10
620.7035404844404
 20
245.2420133878704
 30
0.0
 11
590.3401096342658
 21
247.8984618147785
 31
0.0
  0
LINE
  5
160
330
1F
100
AcDbEntity
  8
0
100
AcDbLine
 10
587.4709050773429
 20
287.0741487949679
 30
0.0
 11
587.4709050773429
 21
259.374188794968
 31
0.0
  0
LINE
  5
161
330
1F
100
AcDbEntity
  8
0
100
AcDbLine
 10
605.5007100773427
 20
302.0770737949679
 30
0.0
 11
585.0310650773429
 21
302.0770737949679
 31
0.0
  0
LINE
  5
162
330
1F
100
AcDbEntity
  8
0
100
AcDbLine
 10
620.9709150773428
 20
298.6960887949679
 30
0.0
 11
620.9709150773428
 21
289.0741587949679
 31
0.0
  0
LINE
  5
163
330
1F
100
AcDbEntity
  8
0
100
AcDbLine
 10
605.8689750773428
 20
301.2217437949678
 30
0.0
 11
605.8689750773428
 21
287.0741487949679
 31
0.0
  0
LINE
  5
164
330
1F
100
AcDbEntity
  8
0
100
AcDbLine
 10
619.4295450773429
 20
302.0770737949679
 30
0.0
 11
619.4295450773429
 21
287.0741487949679
 31
0.0
  0
LINE
  5
165
330
1F
100
AcDbEntity
  8
0
100
AcDbLine
 10
584.531475077343
 20
301.0372737949679
 30
0.0
 11
584.531475077343
 21
287.0741487949679
 31
0.0
  0
LINE
  5
166
330
1F
100
AcDbEntity
  8
0
100
AcDbLine
 10
588.4709559828944
 20
254.8744587949678
 30
0.0
 11
590.3401096342658
 21
247.8984618147785
 31
0.0
  0
ARC
  5
167
330
1F
100
AcDbEntity
  8
0
100
AcDbCircle
 10
570.9709050773429
 20
182.0770587949679
 30
0.0
 40
129.999996
100
AcDbArc
 50
68.89978999999986
 51
84.03930800000212
  0
ARC
  5
168
330
1F
100
AcDbEntity
  8
0
100
AcDbCircle
 10
615.9709050773429
 20
298.6960887949679
 30
0.0
 40
4.99999995
100
AcDbArc
 50
0.0
 51
68.89956000000243
  0
ARC
  5
169
330
1F
100
AcDbEntity
  8
0
100
AcDbCircle
 10
618.9709050773428
 20
289.0741587949679
 30
0.0
 40
2.000000099999999
100
AcDbArc
 50
270.0
 51
0.0
  0
ARC
  5
16A
330
1F
100
AcDbEntity
  8
0
100
AcDbCircle
 10
620.6542350773429
 20
306.077063794968
 30
0.0
 40
4.000000049999999
100
AcDbArc
 50
246.4070800000009
 51
253.030130000002
  0
ELLIPSE
  5
16B
330
1F
100
AcDbEntity
  8
0
100
AcDbEllipse
 10
608.2100250773428
 20
302.0770287949679
 30
0.0
 11
2.341064099999999
 21
-0.0000000000000853
 31
0.0
210
0.0
220
0.0
230
-1.0
 40
0.5561573500000002
 41
3.141645399999999
 42
4.712388999999999
  0
ELLIPSE
  5
16C
330
1F
100
AcDbEntity
  8
0
100
AcDbEllipse
 10
608.2100250773428
 20
302.0770287949679
 30
0.0
 11
11.21952585
 21
-0.0000000000000853
 31
0.0
210
0.0
220
0.0
230
-1.0
 40
0.11604769
 41
4.712388999999999
 42
6.283132599999999
  0
LINE
  5
16D
330
1F
100
AcDbEntity
  8
0
100
AcDbLine
 10
635.9709150773428
 20
229.9746387949678
 30
0.0
 11
635.9709150773429
 21
229.7246487949679
 31
0.0
  0
ARC
  5
16E
330
1F
100
AcDbEntity
  8
0
100
AcDbCircle
 10
586.4709150773428
 20
259.374188794968
 30
0.0
 40
1.000000035
100
AcDbArc
 50
269.7433171035729
 51
0.0
  0
CIRCLE
  5
16F
330
1F
100
AcDbEntity
  8
0
100
AcDbCircle
 10
570.9709050773426
 20
832.8457176356142
 30
0.0
 40
6.75
  0
ARC
  5
170
330
1F
100
AcDbEntity
  8
0
100
AcDbCircle
 10
570.9709050773426
 20
832.8457176356142
 30
0.0
 40
49.999998
100
AcDbArc
 50
18.25445499999849
 51
41.74554199999253
  0
ARC
  5
171
330
1F
100
AcDbEntity
  8
0
100
AcDbCircle
 10
570.9709050773426
 20
832.8457176356142
 30
0.0
 40
49.999998
100
AcDbArc
 50
78.25445200000439
 51
101.7455500000054
  0
ARC
  5
172
330
1F
100
AcDbEntity
  8
0
100
AcDbCircle
 10
570.9709050773426
 20
832.8457176356142
 30
0.0
 40
49.999998
100
AcDbArc
 50
258.2544499999944
 51
281.7455500000054
  0
ARC
  5
173
330
1F
100
AcDbEntity
  8
0
100
AcDbCircle
 10
570.9709050773426
 20
832.8457176356142
 30
0.0
 40
49.999998
100
AcDbArc
 50
318.2544599999934
 51
341.7455499999985
  0
ARC
  5
174
330
1F
100
AcDbEntity
  8
0
100
AcDbCircle
 10
570.9709050773426
 20
832.8457176356142
 30
0.0
 40
49.999998
100
AcDbArc
 50
198.2544500000014
 51
221.7455500000006
  0
ARC
  5
175
330
1F
100
AcDbEntity
  8
0
100
AcDbCircle
 10
570.9709050773426
 20
832.8457176356142
 30
0.0
 40
49.999998
100
AcDbArc
 50
138.2544499999994
 51
161.7455499999985
  0
ARC
  5
176
330
1F
100
AcDbEntity
  8
0
100
AcDbCircle
 10
527.2858500773427
 20
847.254657635614
 30
0.0
 40
4.000000049999999
100
AcDbArc
 50
161.7456500000001
 51
216.0239499999949
  0
ARC
  5
177
330
1F
100
AcDbEntity
  8
0
100
AcDbCircle
 10
507.4708950773426
 20
832.8457176356142
 30
0.0
 40
20.5000005
100
AcDbArc
 50
0.0
 51
36.0236769999997
  0
ARC
  5
178
330
1F
100
AcDbEntity
  8
0
100
AcDbCircle
 10
507.4708950773426
 20
832.8457176356142
 30
0.0
 40
20.5000005
100
AcDbArc
 50
323.9763199999978
 51
0.0
  0
ARC
  5
179
330
1F
100
AcDbEntity
  8
0
100
AcDbCircle
 10
527.2858500773427
 20
818.4367776356141
 30
0.0
 40
4.000000049999999
100
AcDbArc
 50
143.976050000005
 51
198.2543499999998
  0
ARC
  5
17A
330
1F
100
AcDbEntity
  8
0
100
AcDbCircle
 10
634.4708745773427
 20
832.8457176356142
 30
0.0
 40
20.5000005
100
AcDbArc
 50
180.0
 51
216.0236599999934
  0
ARC
  5
17B
330
1F
100
AcDbEntity
  8
0
100
AcDbCircle
 10
539.2209000773427
 20
777.8530326356141
 30
0.0
 40
20.5000005
100
AcDbArc
 50
60.00001300000149
 51
96.02368499999595
  0
ARC
  5
17C
330
1F
100
AcDbEntity
  8
0
100
AcDbCircle
 10
539.2209000773427
 20
777.8530326356141
 30
0.0
 40
20.5000005
100
AcDbArc
 50
23.97632999999888
 51
60.00001300000149
  0
ARC
  5
17D
330
1F
100
AcDbEntity
  8
0
100
AcDbCircle
 10
602.7208800773428
 20
777.8530326356141
 30
0.0
 40
20.5000005
100
AcDbArc
 50
83.97631500000404
 51
120.0000100000081
  0
ARC
  5
17E
330
1F
100
AcDbEntity
  8
0
100
AcDbCircle
 10
602.7208800773428
 20
777.8530326356141
 30
0.0
 40
20.5000005
100
AcDbArc
 50
120.0000100000081
 51
156.023680000003
  0
ARC
  5
17F
330
1F
100
AcDbEntity
  8
0
100
AcDbCircle
 10
634.4708745773427
 20
832.8457176356142
 30
0.0
 40
20.5000005
100
AcDbArc
 50
143.9763400000065
 51
180.0
  0
ARC
  5
180
330
1F
100
AcDbEntity
  8
0
100
AcDbCircle
 10
602.7208800773428
 20
887.8383276356142
 30
0.0
 40
20.5000005
100
AcDbArc
 50
203.9762600000029
 51
240.0000199999981
  0
ARC
  5
181
330
1F
100
AcDbEntity
  8
0
100
AcDbCircle
 10
602.7208800773428
 20
887.8383276356142
 30
0.0
 40
20.5000005
100
AcDbArc
 50
240.0000199999981
 51
276.0236799999938
  0
ARC
  5
182
330
1F
100
AcDbEntity
  8
0
100
AcDbCircle
 10
539.2209000773427
 20
887.8383276356142
 30
0.0
 40
20.5000005
100
AcDbArc
 50
263.9763200000061
 51
299.9999500000049
  0
ARC
  5
183
330
1F
100
AcDbEntity
  8
0
100
AcDbCircle
 10
539.2209000773427
 20
887.8383276356142
 30
0.0
 40
20.5000005
100
AcDbArc
 50
299.9999500000049
 51
336.0237299999993
  0
ARC
  5
184
330
1F
100
AcDbEntity
  8
0
100
AcDbCircle
 10
536.6498700773426
 20
863.4735876356142
 30
0.0
 40
4.000000049999999
100
AcDbArc
 50
83.97616699999678
 51
138.25422999999
  0
ARC
  5
185
330
1F
100
AcDbEntity
  8
0
100
AcDbCircle
 10
561.6068850773427
 20
877.882527635614
 30
0.0
 40
4.000000049999999
100
AcDbArc
 50
101.7456100000027
 51
156.0237999999988
  0
ARC
  5
186
330
1F
100
AcDbEntity
  8
0
100
AcDbCircle
 10
580.3349250773426
 20
877.882527635614
 30
0.0
 40
4.000000049999999
100
AcDbArc
 50
23.97620400000021
 51
78.25439199999427
  0
ARC
  5
187
330
1F
100
AcDbEntity
  8
0
100
AcDbCircle
 10
614.6559000773427
 20
847.254657635614
 30
0.0
 40
4.000000049999999
100
AcDbArc
 50
323.9761500000006
 51
18.25439799999877
  0
ARC
  5
188
330
1F
100
AcDbEntity
  8
0
100
AcDbCircle
 10
605.2918800773427
 20
863.4735876356142
 30
0.0
 40
4.000000049999999
100
AcDbArc
 50
41.74576599999933
 51
96.02367000000286
  0
ARC
  5
189
330
1F
100
AcDbEntity
  8
0
100
AcDbCircle
 10
614.6559000773427
 20
818.4367776356141
 30
0.0
 40
4.000000049999999
100
AcDbArc
 50
341.7456000000003
 51
36.02385400000132
  0
ARC
  5
18A
330
1F
100
AcDbEntity
  8
0
100
AcDbCircle
 10
580.3349250773426
 20
787.8088476356141
 30
0.0
 40
4.000000049999999
100
AcDbArc
 50
281.7456699999997
 51
336.0237999999988
  0
ARC
  5
18B
330
1F
100
AcDbEntity
  8
0
100
AcDbCircle
 10
605.2918800773427
 20
802.217802635614
 30
0.0
 40
4.000000049999999
100
AcDbArc
 50
263.9763299999971
 51
318.2542300000084
  0
ARC
  5
18C
330
1F
100
AcDbEntity
  8
0
100
AcDbCircle
 10
561.6068850773427
 20
787.8088476356141
 30
0.0
 40
4.000000049999999
100
AcDbArc
 50
203.9762000000011
 51
258.2543300000003
  0
ARC
  5
18D
330
1F
100
AcDbEntity
  8
0
100
AcDbCircle
 10
536.6498700773426
 20
802.217802635614
 30
0.0
 40
4.000000049999999
100
AcDbArc
 50
221.7457699999915
 51
276.0238299999985
  0
CIRCLE
  5
18E
330
1F
100
AcDbEntity
  8
0
100
AcDbCircle
 10
570.9709050773426
 20
832.8457176356142
 30
0.0
 40
13.5
  0
CIRCLE
  5
18F
330
1F
100
AcDbEntity
  8
0
100
AcDbCircle
 10
570.9709050773426
 20
832.8457176356142
 30
0.0
 40
67.750002
  0
CIRCLE
  5
190
330
1F
100
AcDbEntity
  8
0
100
AcDbCircle
 10
570.9709050773426
 20
832.8457176356142
 30
0.0
 40
78.75
  0
CIRCLE
  5
191
330
1F
100
AcDbEntity
  8
0
100
AcDbCircle
 10
570.9709050773426
 20
832.8457176356142
 30
0.0
 40
50.8000035
  0
CIRCLE
  5
192
330
1F
100
AcDbEntity
  8
0
100
AcDbCircle
 10
570.9709050773426
 20
832.8457176356142
 30
0.0
 40
65.00000399999999
  0
LINE
  5
193
330
1F
100
AcDbEntity
  8
0
100
AcDbLine
 10
680.9709600773429
 20
878.3456751356141
 30
0.0
 11
680.9709600773429
 21
787.345760135614
 31
0.0
  0
LINE
  5
194
330
1F
100
AcDbEntity
  8
0
100
AcDbLine
 10
675.4457475705205
 20
794.6957301356141
 30
0.0
 11
639.8631466851597
 21
794.6957301356141
 31
0.0
  0
LINE
  5
195
330
1F
100
AcDbEntity
  8
0
100
AcDbLine
 10
678.120889712475
 20
787.345760135614
 30
0.0
 11
675.4457475705205
 21
794.6957301356141
 31
0.0
  0
LINE
  5
196
330
1F
100
AcDbEntity
  8
0
100
AcDbLine
 10
680.9709600773429
 20
787.345760135614
 30
0.0
 11
678.120889712475
 21
787.345760135614
 31
0.0
  0
LINE
  5
197
330
1F
100
AcDbEntity
  8
0
100
AcDbLine
 10
680.9709600773429
 20
878.3456751356141
 30
0.0
 11
678.1209341906949
 21
878.3456751356141
 31
0.0
  0
LINE
  5
198
330
1F
100
AcDbEntity
  8
0
100
AcDbLine
 10
678.1209341906949
 20
878.3456751356141
 30
0.0
 11
675.4458102534442
 21
870.9957351356141
 31
0.0
  0
LINE
  5
199
330
1F
100
AcDbEntity
  8
0
100
AcDbLine
 10
675.4458102534442
 20
870.9957351356141
 30
0.0
 11
639.8631300722554
 21
870.9957351356141
 31
0.0
  0
LINE
  5
19A
330
1F
100
AcDbEntity
  8
0
100
AcDbLine
 10
675.4458102534442
 20
870.9957351356141
 30
0.0
 11
675.4457475705205
 21
794.6957301356141
 31
0.0
  0
LINE
  5
19B
330
1F
100
AcDbEntity
  8
0
100
AcDbLine
 10
678.1209341906949
 20
878.3456751356141
 30
0.0
 11
678.120889712475
 21
787.345760135614
 31
0.0
  0
LINE
  5
19C
330
1F
100
AcDbEntity
  8
0
100
AcDbLine
 10
460.9708500773423
 20
787.3457601356142
 30
0.0
 11
460.9708500773423
 21
878.3456751356142
 31
0.0
  0
LINE
  5
19D
330
1F
100
AcDbEntity
  8
0
100
AcDbLine
 10
466.4960625841646
 20
870.9957051356143
 30
0.0
 11
502.0786634695254
 21
870.9957051356143
 31
0.0
  0
LINE
  5
19E
330
1F
100
AcDbEntity
  8
0
100
AcDbLine
 10
463.8209204422101
 20
878.3456751356142
 30
0.0
 11
466.4960625841646
 21
870.9957051356143
 31
0.0
  0
LINE
  5
19F
330
1F
100
AcDbEntity
  8
0
100
AcDbLine
 10
460.9708500773423
 20
878.3456751356142
 30
0.0
 11
463.8209204422101
 21
878.3456751356142
 31
0.0
  0
LINE
  5
1A0
330
1F
100
AcDbEntity
  8
0
100
AcDbLine
 10
460.9708500773423
 20
787.3457601356142
 30
0.0
 11
463.8208759639902
 21
787.3457601356142
 31
0.0
  0
LINE
  5
1A1
330
1F
100
AcDbEntity
  8
0
100
AcDbLine
 10
463.8208759639902
 20
787.3457601356142
 30
0.0
 11
466.4959999012409
 21
794.6957001356143
 31
0.0
  0
LINE
  5
1A2
330
1F
100
AcDbEntity
  8
0
100
AcDbLine
 10
466.4959999012409
 20
794.6957001356143
 30
0.0
 11
502.0786800824297
 21
794.6957001356143
 31
0.0
  0
LINE
  5
1A3
330
1F
100
AcDbEntity
  8
0
100
AcDbLine
 10
466.4959999012409
 20
794.6957001356143
 30
0.0
 11
466.4960625841646
 21
870.9957051356143
 31
0.0
  0
LINE
  5
1A4
330
1F
100
AcDbEntity
  8
0
100
AcDbLine
 10
463.8208759639902
 20
787.3457601356142
 30
0.0
 11
463.8209204422101
 21
878.3456751356142
 31
0.0
  0
TEXT
  5
1A5
330
1F
100
AcDbEntity
  8
0
  6
Continuous
100
AcDbText
 10
311.6343375501146
 20
1054.353576519206
 30
0.0
 40
48.000002
  1
DAS3J 3S
 41
1.32095
100
AcDbText
  0
LINE
  5
1FE
330
1F
100
AcDbEntity
  8
0
  6
CENTER
100
AcDbLine
 10
441.2356075557827
 20
832.8457176356142
 30
0.0
 11
700.7062025989033
 21
832.8457176356142
 31
0.0
  0
LINE
  5
1FF
330
1F
100
AcDbEntity
  8
0
  6
CENTER
100
AcDbLine
 10
570.970905077343
 20
716.177506543419
 30
0.0
 11
570.970905077343
 21
949.5139287278091
 31
0.0
  0
LINE
  5
200
330
1F
100
AcDbEntity
  8
0
  6
CENTER
100
AcDbLine
 10
486.717538159608
 20
171.3246312949679
 30
0.0
 11
713.966613186897
 21
171.3246312949679
 31
0.0
  0
LINE
  5
201
330
1F
100
AcDbEntity
  8
0
  6
CENTER
100
AcDbLine
 10
428.8998248588813
 20
73.02467379496795
 30
0.0
 11
654.7060775989031
 21
73.02467379496795
 31
0.0
  0
LINE
  5
202
330
1F
100
AcDbEntity
  8
0
  6
CENTER
100
AcDbLine
 10
570.9709050773429
 20
-69.40307363559077
 30
0.0
 11
570.9709050773429
 21
339.5069650686464
 31
0.0
  0
VIEWPORT
  5
71
330
55
100
AcDbEntity
 67
     1
  8
0
100
AcDbViewport
 10
133.3499908447265
 20
101.5999970436096
 30
0.0
 40
381.3957395593834
 41
218.2856291881582
 68
     1
 69
     1
 12
133.3499908447265
 22
101.5999970436096
 13
0.0
 23
0.0
 14
10.0
 24
10.0
 15
10.0
 25
10.0
 16
0.0
 26
0.0
 36
1.0
 17
0.0
 27
0.0
 37
0.0
 42
50.0
 43
0.0
 44
0.0
 45
218.2856291881582
 50
0.0
 51
0.0
 72
   100
 90
    32800
  1

281
     0
 71
     1
 74
     0
110
0.0
120
0.0
130
0.0
111
1.0
121
0.0
131
0.0
112
0.0
122
1.0
132
0.0
 79
     0
146
0.0
  0
VIEWPORT
  5
73
330
55
100
AcDbEntity
 67
     1
  8
0
100
AcDbViewport
 10
133.349993944168
 20
101.599993944168
 30
0.0
 40
213.3599903106689
 41
162.5599903106689
 68
     2
 69
     2
 12
210.0
 22
148.5
 13
0.0
 23
0.0
 14
10.0
 24
10.0
 15
10.0
 25
10.0
 16
0.0
 26
0.0
 36
1.0
 17
0.0
 27
0.0
 37
0.0
 42
50.0
 43
0.0
 44
0.0
 45
324.0677920111345
 50
0.0
 51
0.0
 72
   100
 90
    32864
  1

281
     0
 71
     1
 74
     0
110
0.0
120
0.0
130
0.0
111
1.0
121
0.0
131
0.0
112
0.0
122
1.0
132
0.0
 79
     0
146
0.0
  0
ENDSEC
  0
SECTION
  2
OBJECTS
  0
DICTIONARY
  5
C
330
0
100
AcDbDictionary
281
     1
  3
ACAD_GROUP
350
D
  3
ACAD_LAYOUT
350
1A
  3
ACAD_MLINESTYLE
350
17
  3
ACAD_PLOTSETTINGS
350
19
  3
ACAD_PLOTSTYLENAME
350
E
  3
AcDbVariableDictionary
350
5E
  0
DICTIONARY
  5
1F3
330
2
100
AcDbDictionary
280
     1
281
     1
  3
ACAD_LAYERSTATES
360
1F4
  0
DICTIONARY
  5
1AB
330
1F
100
AcDbDictionary
280
     1
281
     1
  3
ACAD_LAYOUTSELFREF
360
1E2
  0
DICTIONARY
  5
1AD
330
55
100
AcDbDictionary
280
     1
281
     1
  3
ACAD_LAYOUTSELFREF
360
1E6
  0
DICTIONARY
  5
1AF
330
50
100
AcDbDictionary
280
     1
281
     1
  3
ACAD_LAYOUTSELFREF
360
1E5
  0
DICTIONARY
  5
D
102
{ACAD_REACTORS
330
C
102
}
330
C
100
AcDbDictionary
281
     1
  0
DICTIONARY
  5
1A
102
{ACAD_REACTORS
330
C
102
}
330
C
100
AcDbDictionary
281
     1
  3
Model
350
22
  3
ﾚｲｱｳﾄ1
350
51
  3
ﾚｲｱｳﾄ2
350
56
  0
DICTIONARY
  5
17
102
{ACAD_REACTORS
330
C
102
}
330
C
100
AcDbDictionary
281
     1
  3
Standard
350
18
  0
DICTIONARY
  5
19
102
{ACAD_REACTORS
330
C
102
}
330
C
100
AcDbDictionary
281
     1
  0
ACDBDICTIONARYWDFLT
  5
E
102
{ACAD_REACTORS
330
C
102
}
330
C
100
AcDbDictionary
281
     1
  3
Normal
350
F
100
AcDbDictionaryWithDefault
340
F
  0
DICTIONARY
  5
5E
102
{ACAD_REACTORS
330
C
102
}
330
C
100
AcDbDictionary
281
     1
  3
DIMASSOC
350
5F
  3
HIDETEXT
350
63
  0
DICTIONARY
  5
1F4
102
{ACAD_REACTORS
330
1F3
102
}
330
1F3
100
AcDbDictionary
281
     1
  0
XRECORD
  5
1E2
102
{ACAD_REACTORS
330
1AB
102
}
330
1AB
100
AcDbXrecord
280
     1
340
1F
  0
XRECORD
  5
1E6
102
{ACAD_REACTORS
330
1AD
102
}
330
1AD
100
AcDbXrecord
280
     1
340
55
  0
XRECORD
  5
1E5
102
{ACAD_REACTORS
330
1AF
102
}
330
1AF
100
AcDbXrecord
280
     1
340
50
  0
LAYOUT
  5
22
102
{ACAD_REACTORS
330
1A
102
}
330
1A
100
AcDbPlotSettings
  1

  2
none_device
  4
ANSI_A_(8.50_x_11.00_Inches)
  6

 40
6.349999904632568
 41
19.04999923706054
 42
6.350006103515625
 43
19.04998779296875
 44
215.8999938964843
 45
279.3999938964843
 46
0.0
 47
0.0
 48
0.0
 49
0.0
140
0.0
141
0.0
142
1.0
143
78.436453180766
 70
 11952
 72
     0
 73
     1
 74
     0
  7

 75
     0
147
0.0127491741332998
148
0.0
149
0.0
100
AcDbLayout
  1
Model
 70
     1
 71
     0
 10
0.0
 20
0.0
 11
12.0
 21
9.0
 12
0.0
 22
0.0
 32
0.0
 14
0.0
 24
0.0
 34
0.0
 15
0.0
 25
0.0
 35
0.0
146
0.0
 13
0.0
 23
0.0
 33
0.0
 16
1.0
 26
0.0
 36
0.0
 17
0.0
 27
1.0
 37
0.0
 76
     0
330
1F
  0
LAYOUT
  5
51
102
{ACAD_REACTORS
330
1A
102
}
330
1A
100
AcDbPlotSettings
  1

  2
none_device
  4
Letter_(8.50_x_11.00_Inches)
  6

 40
6.349999904632568
 41
6.349999904632568
 42
6.350006103515625
 43
6.350006103515625
 44
215.8999938964843
 45
279.3999938964843
 46
0.0
 47
0.0
 48
0.0
 49
0.0
140
0.0
141
0.0
142
1.0
143
1.0
 70
   688
 72
     1
 73
     1
 74
     5
  7

 75
    16
147
1.0
148
0.0
149
0.0
100
AcDbLayout
  1
ﾚｲｱｳﾄ1
 70
     1
 71
     1
 10
-6.350006103515625
 20
-6.349999904632568
 11
273.0499877929687
 21
209.5499939918517
 12
0.0
 22
0.0
 32
0.0
 14
26.66076962115562
 24
20.31135699206657
 34
-0.0015258207003583
 15
240.039213369355
 25
182.8886381005154
 35
0.0000000349246037
146
0.0
 13
0.0
 23
0.0
 33
0.0
 16
1.0
 26
0.0
 36
0.0
 17
0.0
 27
1.0
 37
0.0
 76
     0
330
50
331
6B
  0
LAYOUT
  5
56
102
{ACAD_REACTORS
330
1A
102
}
330
1A
100
AcDbPlotSettings
  1

  2
none_device
  4
Letter_(8.50_x_11.00_Inches)
  6

 40
6.349999904632568
 41
6.349999904632568
 42
6.350006103515625
 43
6.350006103515625
 44
215.8999938964843
 45
279.3999938964843
 46
0.0
 47
0.0
 48
0.0
 49
0.0
140
0.0
141
0.0
142
1.0
143
1.0
 70
   688
 72
     1
 73
     1
 74
     5
  7

 75
    16
147
1.0
148
0.0
149
0.0
100
AcDbLayout
  1
ﾚｲｱｳﾄ2
 70
     1
 71
     2
 10
-6.350006103515625
 20
-6.349999904632568
 11
273.0499877929687
 21
209.5499939918517
 12
0.0
 22
0.0
 32
0.0
 14
26.66076962115562
 24
20.31135699206657
 34
-0.0015258207003583
 15
240.039213369355
 25
182.8886381005154
 35
0.0000000349246037
146
0.0
 13
0.0
 23
0.0
 33
0.0
 16
1.0
 26
0.0
 36
0.0
 17
0.0
 27
1.0
 37
0.0
 76
     0
330
55
331
71
  0
MLINESTYLE
  5
18
102
{ACAD_REACTORS
330
17
102
}
330
17
100
AcDbMlineStyle
  2
STANDARD
 70
     0
  3

 62
   256
 51
90.0
 52
90.0
 71
     2
 49
0.5
 62
   256
  6
BYLAYER
 49
-0.5
 62
   256
  6
BYLAYER
  0
ACDBPLACEHOLDER
  5
F
102
{ACAD_REACTORS
330
E
102
}
330
E
  0
DICTIONARYVAR
  5
5F
102
{ACAD_REACTORS
330
5E
102
}
330
5E
100
DictionaryVariables
280
     0
  1
2
  0
DICTIONARYVAR
  5
63
102
{ACAD_REACTORS
330
5E
102
}
330
5E
100
DictionaryVariables
280
     0
  1
1
  0
ENDSEC
  0
EOF
