  0
SECTION
  2
HEADER
  9
$ACADVER
  1
AC1015
  9
$ACADMAINTVER
 70
    14
  9
$DWGCODEPAGE
  3
ANSI_932
  9
$INSBASE
 10
0.0
 20
0.0
 30
0.0
  9
$EXTMIN
 10
823.1120756998162
 20
247.2327784798744
 30
-0.0000000000000058
  9
$EXTMAX
 10
1284.007360168359
 20
1124.983800820486
 30
0.0000000000000104
  9
$LIMMIN
 10
-580.5701293945312
 20
0.0
  9
$LIMMAX
 10
0.0
 20
407.8999938964844
  9
$ORTHOMODE
 70
     0
  9
$REGENMODE
 70
     1
  9
$FILLMODE
 70
     1
  9
$QTEXTMODE
 70
     0
  9
$MIRRTEXT
 70
     1
  9
$LTSCALE
 40
1.0
  9
$ATTMODE
 70
     1
  9
$TEXTSIZE
 40
0.2
  9
$TRACEWID
 40
0.05
  9
$TEXTSTYLE
  7
STANDARD
  9
$CLAYER
  8
0
  9
$CELTYPE
  6
ByLayer
  9
$CECOLOR
 62
   256
  9
$CELTSCALE
 40
1.0
  9
$DISPSILH
 70
     0
  9
$DIMSCALE
 40
1.0
  9
$DIMASZ
 40
1.0
  9
$DIMEXO
 40
2.54
  9
$DIMDLI
 40
0.38
  9
$DIMRND
 40
0.0
  9
$DIMDLE
 40
0.0
  9
$DIMEXE
 40
2.54
  9
$DIMTP
 40
0.0
  9
$DIMTM
 40
0.0
  9
$DIMTXT
 40
3.200000047683714
  9
$DIMCEN
 40
0.09
  9
$DIMTSZ
 40
0.0
  9
$DIMTOL
 70
     0
  9
$DIMLIM
 70
     0
  9
$DIMTIH
 70
     0
  9
$DIMTOH
 70
     0
  9
$DIMSE1
 70
     0
  9
$DIMSE2
 70
     0
  9
$DIMTAD
 70
     1
  9
$DIMZIN
 70
     0
  9
$DIMBLK
  1

  9
$DIMASO
 70
     1
  9
$DIMSHO
 70
     0
  9
$DIMPOST
  1

  9
$DIMAPOST
  1

  9
$DIMALT
 70
     0
  9
$DIMALTD
 70
     2
  9
$DIMALTF
 40
25.4
  9
$DIMLFAC
 40
1.0
  9
$DIMTOFL
 70
     0
  9
$DIMTVP
 40
1.0
  9
$DIMTIX
 70
     0
  9
$DIMSOXD
 70
     0
  9
$DIMSAH
 70
     0
  9
$DIMBLK1
  1

  9
$DIMBLK2
  1

  9
$DIMSTYLE
  2
STANDARD
  9
$DIMCLRD
 70
     0
  9
$DIMCLRE
 70
     0
  9
$DIMCLRT
 70
     0
  9
$DIMTFAC
 40
1.0
  9
$DIMGAP
 40
1.600000023841857
  9
$DIMJUST
 70
     0
  9
$DIMSD1
 70
     0
  9
$DIMSD2
 70
     0
  9
$DIMTOLJ
 70
     1
  9
$DIMTZIN
 70
     0
  9
$DIMALTZ
 70
     0
  9
$DIMALTTZ
 70
     0
  9
$DIMUPT
 70
     0
  9
$DIMDEC
 70
     4
  9
$DIMTDEC
 70
     4
  9
$DIMALTU
 70
     2
  9
$DIMALTTD
 70
     2
  9
$DIMTXSTY
  7
STANDARD
  9
$DIMAUNIT
 70
     0
  9
$DIMADEC
 70
     0
  9
$DIMALTRND
 40
0.0
  9
$DIMAZIN
 70
     0
  9
$DIMDSEP
 70
    46
  9
$DIMATFIT
 70
     3
  9
$DIMFRAC
 70
     0
  9
$DIMLDRBLK
  1

  9
$DIMLUNIT
 70
     2
  9
$DIMLWD
 70
    -2
  9
$DIMLWE
 70
    -2
  9
$DIMTMOVE
 70
     0
  9
$LUNITS
 70
     2
  9
$LUPREC
 70
     4
  9
$SKETCHINC
 40
0.1
  9
$FILLETRAD
 40
0.0
  9
$AUNITS
 70
     0
  9
$AUPREC
 70
     0
  9
$MENU
  1
.
  9
$ELEVATION
 40
0.0
  9
$PELEVATION
 40
0.0
  9
$THICKNESS
 40
0.0
  9
$LIMCHECK
 70
     0
  9
$CHAMFERA
 40
0.0
  9
$CHAMFERB
 40
0.0
  9
$CHAMFERC
 40
0.0
  9
$CHAMFERD
 40
0.0
  9
$SKPOLY
 70
     0
  9
$TDCREATE
 40
2452717.604314595
  9
$TDUCREATE
 40
2452717.229314595
  9
$TDUPDATE
 40
2456899.671547083
  9
$TDUUPDATE
 40
2456899.296547083
  9
$TDINDWG
 40
0.3836108449
  9
$TDUSRTIMER
 40
0.3836108449
  9
$USRTIMER
 70
     1
  9
$ANGBASE
 50
0.0
  9
$ANGDIR
 70
     0
  9
$PDMODE
 70
     3
  9
$PDSIZE
 40
0.0
  9
$PLINEWID
 40
0.0
  9
$SPLFRAME
 70
     0
  9
$SPLINETYPE
 70
     6
  9
$SPLINESEGS
 70
     8
  9
$HANDSEED
  5
E29E
  9
$SURFTAB1
 70
     6
  9
$SURFTAB2
 70
     6
  9
$SURFTYPE
 70
     6
  9
$SURFU
 70
     6
  9
$SURFV
 70
     6
  9
$UCSBASE
  2

  9
$UCSNAME
  2

  9
$UCSORG
 10
0.0
 20
0.0
 30
0.0
  9
$UCSXDIR
 10
1.0
 20
0.0
 30
0.0
  9
$UCSYDIR
 10
0.0
 20
1.0
 30
0.0
  9
$UCSORTHOREF
  2

  9
$UCSORTHOVIEW
 70
     0
  9
$UCSORGTOP
 10
0.0
 20
0.0
 30
0.0
  9
$UCSORGBOTTOM
 10
0.0
 20
0.0
 30
0.0
  9
$UCSORGLEFT
 10
0.0
 20
0.0
 30
0.0
  9
$UCSORGRIGHT
 10
0.0
 20
0.0
 30
0.0
  9
$UCSORGFRONT
 10
0.0
 20
0.0
 30
0.0
  9
$UCSORGBACK
 10
0.0
 20
0.0
 30
0.0
  9
$PUCSBASE
  2

  9
$PUCSNAME
  2

  9
$PUCSORG
 10
0.0
 20
0.0
 30
0.0
  9
$PUCSXDIR
 10
1.0
 20
0.0
 30
0.0
  9
$PUCSYDIR
 10
0.0
 20
1.0
 30
0.0
  9
$PUCSORTHOREF
  2

  9
$PUCSORTHOVIEW
 70
     0
  9
$PUCSORGTOP
 10
0.0
 20
0.0
 30
0.0
  9
$PUCSORGBOTTOM
 10
0.0
 20
0.0
 30
0.0
  9
$PUCSORGLEFT
 10
0.0
 20
0.0
 30
0.0
  9
$PUCSORGRIGHT
 10
0.0
 20
0.0
 30
0.0
  9
$PUCSORGFRONT
 10
0.0
 20
0.0
 30
0.0
  9
$PUCSORGBACK
 10
0.0
 20
0.0
 30
0.0
  9
$USERI1
 70
     0
  9
$USERI2
 70
     0
  9
$USERI3
 70
     0
  9
$USERI4
 70
     0
  9
$USERI5
 70
     0
  9
$USERR1
 40
0.0
  9
$USERR2
 40
0.0
  9
$USERR3
 40
0.0
  9
$USERR4
 40
0.0
  9
$USERR5
 40
0.0
  9
$WORLDVIEW
 70
     1
  9
$SHADEDGE
 70
     3
  9
$SHADEDIF
 70
    70
  9
$TILEMODE
 70
     1
  9
$MAXACTVP
 70
    48
  9
$PINSBASE
 10
0.0
 20
0.0
 30
0.0
  9
$PLIMCHECK
 70
     0
  9
$PEXTMIN
 10
-580.5701293945312
 20
0.0
 30
0.0
  9
$PEXTMAX
 10
0.0
 20
407.8999938964844
 30
0.0
  9
$PLIMMIN
 10
-580.5701293945312
 20
0.0
  9
$PLIMMAX
 10
0.0
 20
407.8999938964844
  9
$UNITMODE
 70
     0
  9
$VISRETAIN
 70
     1
  9
$PLINEGEN
 70
     0
  9
$PSLTSCALE
 70
     1
  9
$TREEDEPTH
 70
  3020
  9
$CMLSTYLE
  2
Standard
  9
$CMLJUST
 70
     0
  9
$CMLSCALE
 40
1.0
  9
$PROXYGRAPHICS
 70
     1
  9
$MEASUREMENT
 70
     0
  9
$CELWEIGHT
370
    -1
  9
$ENDCAPS
280
     0
  9
$JOINSTYLE
280
     0
  9
$LWDISPLAY
290
     0
  9
$INSUNITS
 70
     0
  9
$HYPERLINKBASE
  1

  9
$STYLESHEET
  1

  9
$XEDIT
290
     1
  9
$CEPSNTYPE
380
     0
  9
$PSTYLEMODE
290
     1
  9
$FINGERPRINTGUID
  2
{1E6EDDDF-0687-4EBA-BFD2-484134766C73}
  9
$VERSIONGUID
  2
{CB85FF5B-1D6F-46B4-9198-1BFCF286DAE7}
  9
$EXTNAMES
290
     1
  9
$PSVPSCALE
 40
0.0
  9
$OLESTARTUP
290
     0
  0
ENDSEC
  0
SECTION
  2
CLASSES
  0
CLASS
  1
ACDBDICTIONARYWDFLT
  2
AcDbDictionaryWithDefault
  3
AutoCAD 2000
 90
        0
280
     0
281
     0
  0
CLASS
  1
ACDBPLACEHOLDER
  2
AcDbPlaceHolder
  3
AutoCAD 2000
 90
        0
280
     0
281
     0
  0
CLASS
  1
LAYOUT
  2
AcDbLayout
  3
AutoCAD 2000
 90
        0
280
     0
281
     0
  0
CLASS
  1
DICTIONARYVAR
  2
AcDbDictionaryVar
  3
AutoCAD 2000
 90
        0
280
     0
281
     0
  0
CLASS
  1
LONG_TRANSACTION
  2
AcDbLongTransaction
  3
AutoCAD 2000
 90
    32768
280
     0
281
     0
  0
CLASS
  1
LWPOLYLINE
  2
AcDbPolyline
  3
AutoCAD 2000
 90
    32768
280
     0
281
     1
  0
CLASS
  1
HATCH
  2
AcDbHatch
  3
AutoCAD 2000
 90
    32768
280
     0
281
     1
  0
CLASS
  1
XRECORD
  2
AcDbXrecord
  3
AutoCAD 2000
 90
    32768
280
     0
281
     0
  0
CLASS
  1
LONG_TRANSACTION
  2
AcDbLongTransaction
  3
AutoCAD 2000
 90
    32768
280
     0
281
     0
  0
CLASS
  1
LWPOLYLINE
  2
AcDbPolyline
  3
AutoCAD 2000
 90
    32768
280
     0
281
     1
  0
CLASS
  1
HATCH
  2
AcDbHatch
  3
AutoCAD 2000
 90
    32768
280
     0
281
     1
  0
CLASS
  1
XRECORD
  2
AcDbXrecord
  3
AutoCAD 2000
 90
    32768
280
     0
281
     0
  0
CLASS
  1
LONG_TRANSACTION
  2
AcDbLongTransaction
  3
AutoCAD 2000
 90
    32768
280
     0
281
     0
  0
CLASS
  1
LWPOLYLINE
  2
AcDbPolyline
  3
AutoCAD 2000
 90
    32768
280
     0
281
     1
  0
CLASS
  1
HATCH
  2
AcDbHatch
  3
AutoCAD 2000
 90
    32768
280
     0
281
     1
  0
CLASS
  1
XRECORD
  2
AcDbXrecord
  3
AutoCAD 2000
 90
    32768
280
     0
281
     0
  0
ENDSEC
  0
SECTION
  2
TABLES
  0
TABLE
  2
VPORT
  5
E1B2
330
0
100
AcDbSymbolTable
 70
     2
  0
VPORT
  5
E29D
330
E1B2
100
AcDbSymbolTableRecord
100
AcDbViewportTableRecord
  2
*Active
 70
     0
 10
0.0
 20
0.0
 11
1.0
 21
1.0
 12
1053.559717934087
 22
686.1082896501803
 13
0.0
 23
0.0
 14
1.0
 24
1.0
 15
0.0
 25
0.0
 16
0.0
 26
0.0
 36
1.0
 17
0.0
 27
0.0
 37
0.0
 40
883.324044704679
 41
1.592161016949152
 42
50.0
 43
0.0
 44
0.0
 50
0.0
 51
0.0
 71
     0
 72
   100
 73
     1
 74
     3
 75
     0
 76
     0
 77
     0
 78
     0
281
     0
 65
     1
110
0.0
120
0.0
130
0.0
111
1.0
121
0.0
131
0.0
112
0.0
122
1.0
132
0.0
 79
     0
146
0.0
  0
ENDTAB
  0
TABLE
  2
LTYPE
  5
E1AF
330
0
100
AcDbSymbolTable
 70
     2
  0
LTYPE
  5
E1BD
330
E1AF
100
AcDbSymbolTableRecord
100
AcDbLinetypeTableRecord
  2
ByBlock
 70
     0
  3

 72
    65
 73
     0
 40
0.0
  0
LTYPE
  5
E1BE
330
E1AF
100
AcDbSymbolTableRecord
100
AcDbLinetypeTableRecord
  2
ByLayer
 70
     0
  3

 72
    65
 73
     0
 40
0.0
  0
LTYPE
  5
E1BF
330
E1AF
100
AcDbSymbolTableRecord
100
AcDbLinetypeTableRecord
  2
CONTINUOUS
 70
     0
  3
Solid line
 72
    65
 73
     0
 40
0.0
  0
LTYPE
  5
E284
330
E1AF
100
AcDbSymbolTableRecord
100
AcDbLinetypeTableRecord
  2
CENTER
 70
     0
  3
__ . __
 72
    65
 73
     4
 40
7.0
 49
4.0
 74
     0
 49
-1.0
 74
     0
 49
1.0
 74
     0
 49
-1.0
 74
     0
  0
ENDTAB
  0
TABLE
  2
LAYER
  5
E1AC
102
{ACAD_XDICTIONARY
360
E286
102
}
330
0
100
AcDbSymbolTable
 70
     1
  0
LAYER
  5
E1BA
330
E1AC
100
AcDbSymbolTableRecord
100
AcDbLayerTableRecord
  2
0
 70
     0
 62
     7
  6
CONTINUOUS
370
    -3
390
E1B9
  0
ENDTAB
  0
TABLE
  2
STYLE
  5
E1AD
330
0
100
AcDbSymbolTable
 70
     1
  0
STYLE
  5
E1BB
330
E1AD
100
AcDbSymbolTableRecord
100
AcDbTextStyleTableRecord
  2
STANDARD
 70
     0
 40
0.0
 41
1.0
 50
0.0
 71
     0
 42
0.2
  3
txt
  4
BIGFONT
  0
ENDTAB
  0
TABLE
  2
VIEW
  5
E1B0
330
0
100
AcDbSymbolTable
 70
     0
  0
ENDTAB
  0
TABLE
  2
UCS
  5
E1B1
330
0
100
AcDbSymbolTable
 70
     0
  0
ENDTAB
  0
TABLE
  2
APPID
  5
E1B3
330
0
100
AcDbSymbolTable
 70
     4
  0
APPID
  5
E1BC
330
E1B3
100
AcDbSymbolTableRecord
100
AcDbRegAppTableRecord
  2
ACAD
 70
     0
  0
APPID
  5
E1CE
330
E1B3
100
AcDbSymbolTableRecord
100
AcDbRegAppTableRecord
  2
MCAD_NO_VIS
 70
     0
  0
APPID
  5
E1CF
330
E1B3
100
AcDbSymbolTableRecord
100
AcDbRegAppTableRecord
  2
ACAD_TEMP_GRAPHIC
 70
     0
  0
APPID
  5
E1D0
330
E1B3
100
AcDbSymbolTableRecord
100
AcDbRegAppTableRecord
  2
ACATTRIBSERVICES
 70
     0
  0
ENDTAB
  0
TABLE
  2
DIMSTYLE
  5
E1B4
330
0
100
AcDbSymbolTable
 70
     1
100
AcDbDimStyleTable
 71
     0
  0
DIMSTYLE
105
E1D1
330
E1B4
100
AcDbSymbolTableRecord
100
AcDbDimStyleTableRecord
  2
STANDARD
 70
     0
279
     2
340
E1BB
  0
ENDTAB
  0
TABLE
  2
BLOCK_RECORD
  5
E1AB
330
0
100
AcDbSymbolTable
 70
     0
  0
BLOCK_RECORD
  5
E1C8
102
{ACAD_XDICTIONARY
360
E1DA
102
}
330
E1AB
100
AcDbSymbolTableRecord
100
AcDbBlockTableRecord
  2
*Model_Space
340
E1CB
  0
BLOCK_RECORD
  5
E1C4
102
{ACAD_XDICTIONARY
360
E1DC
102
}
330
E1AB
100
AcDbSymbolTableRecord
100
AcDbBlockTableRecord
  2
*Paper_Space
340
E1C7
  0
ENDTAB
  0
ENDSEC
  0
SECTION
  2
BLOCKS
  0
BLOCK
  5
E1C9
330
E1C8
100
AcDbEntity
  8
0
100
AcDbBlockBegin
  2
*Model_Space
 70
     0
 10
0.0
 20
0.0
 30
0.0
  3
*Model_Space
  1

  0
ENDBLK
  5
E1CA
330
E1C8
100
AcDbEntity
  8
0
100
AcDbBlockEnd
  0
BLOCK
  5
E1C5
330
E1C4
100
AcDbEntity
 67
     1
  8
0
100
AcDbBlockBegin
  2
*Paper_Space
 70
     0
 10
0.0
 20
0.0
 30
0.0
  3
*Paper_Space
  1

  0
ENDBLK
  5
E1C6
330
E1C4
100
AcDbEntity
 67
     1
  8
0
100
AcDbBlockEnd
  0
ENDSEC
  0
SECTION
  2
ENTITIES
  0
TEXT
  5
1105
330
E1C8
100
AcDbEntity
  8
0
  6
Continuous
100
AcDbText
 10
823.1746165341313
 20
1076.932294601071
 30
0.0
 40
48.000002
  1
DAS2T 2S
 41
1.32095
100
AcDbText
  0
LINE
  5
D2C1
330
E1C8
100
AcDbEntity
  8
0
100
AcDbLine
 10
1098.4750348242
 20
407.9863623261345
 30
0.0
 11
1098.475034824201
 21
389.4863470673452
 31
0.0
  0
LINE
  5
D2D3
330
E1C8
100
AcDbEntity
  8
0
100
AcDbLine
 10
940.9750348242011
 20
407.9863623261346
 30
0.0
 11
940.9750348242011
 21
389.4863470673452
 31
0.0
  0
LINE
  5
D2DF
330
E1C8
100
AcDbEntity
  8
0
100
AcDbLine
 10
1114.472788162034
 20
387.2363928437126
 30
0.0
 11
1083.725019565411
 21
387.2363928437126
 31
0.0
  0
LINE
  5
D2E1
330
E1C8
100
AcDbEntity
  8
0
100
AcDbLine
 10
1114.47282955807
 20
336.4363325714956
 30
0.0
 11
1068.499934981516
 21
336.4363325714956
 31
0.0
  0
LINE
  5
D2F1
330
E1C8
100
AcDbEntity
  8
0
100
AcDbLine
 10
1098.475034824201
 20
389.4863470673452
 30
0.0
 11
940.9750348242011
 21
389.4863470673452
 31
0.0
  0
LINE
  5
D2F6
330
E1C8
100
AcDbEntity
  8
0
100
AcDbLine
 10
1051.72505008299
 20
291.8363722443472
 30
0.0
 11
987.7250195654127
 21
291.8363722443472
 31
0.0
  0
LINE
  5
D2FE
330
E1C8
100
AcDbEntity
  8
0
100
AcDbLine
 10
994.3250104101393
 20
297.0885528602398
 30
0.0
 11
994.3250104101393
 21
328.7363356232558
 31
0.0
  0
LINE
  5
D301
330
E1C8
100
AcDbEntity
  8
0
100
AcDbLine
 10
987.7250195654127
 20
294.6863525603106
 30
0.0
 11
994.3250104101393
 21
297.0885528602398
 31
0.0
  0
LINE
  5
D302
330
E1C8
100
AcDbEntity
  8
0
100
AcDbLine
 10
987.7250195654127
 20
291.8363722443472
 30
0.0
 11
987.7250195654127
 21
294.6863525603106
 31
0.0
  0
ARC
  5
D324
330
E1C8
100
AcDbEntity
  8
0
100
AcDbCircle
 10
1054.925001254866
 20
361.836356985558
 30
0.0
 40
28.80000114440917
100
AcDbArc
 50
295.8593161109877
 51
0.0000025044687019
  0
LINE
  5
D32D
330
E1C8
100
AcDbEntity
  8
0
100
AcDbLine
 10
971.963575473616
 20
328.7363356232548
 30
0.0
 11
1067.486494174786
 21
328.7363356232529
 31
0.0
  0
LINE
  5
D331
330
E1C8
100
AcDbEntity
  8
0
100
AcDbLine
 10
1051.72505008299
 20
294.686334662852
 30
0.0
 11
1045.125013461897
 21
297.0885516240171
 31
0.0
  0
LINE
  5
D339
330
E1C8
100
AcDbEntity
  8
0
100
AcDbLine
 10
1051.72505008299
 20
291.8363722443472
 30
0.0
 11
1051.72505008299
 21
294.686334662852
 31
0.0
  0
LINE
  5
D360
330
E1C8
100
AcDbEntity
  8
0
100
AcDbLine
 10
1045.125013461897
 20
328.7363356232533
 30
0.0
 11
1045.125013461897
 21
297.0885516240171
 31
0.0
  0
LINE
  5
D369
330
E1C8
100
AcDbEntity
  8
0
100
AcDbLine
 10
1067.486494174786
 20
335.9201658776934
 30
0.0
 11
1067.486494174786
 21
328.7363356232529
 31
0.0
  0
LINE
  5
D45C
330
E1C8
100
AcDbEntity
  8
0
100
AcDbLine
 10
1083.725019565411
 20
389.2363623261342
 30
0.0
 11
1083.725019565411
 21
361.836356985558
 31
0.0
  0
LINE
  5
D4B1
330
E1C8
100
AcDbEntity
  8
0
100
AcDbLine
 10
1119.725019565412
 20
329.8363417267689
 30
0.0
 11
1119.725019565412
 21
393.836383688439
 31
0.0
  0
LINE
  5
D4B6
330
E1C8
100
AcDbEntity
  8
0
100
AcDbLine
 10
1119.725019565412
 20
329.8363417267689
 30
0.0
 11
1116.875029857997
 21
329.8363417267689
 31
0.0
  0
LINE
  5
D4B8
330
E1C8
100
AcDbEntity
  8
0
100
AcDbLine
 10
1116.875029857997
 20
329.8363417267689
 30
0.0
 11
1114.47282955807
 21
336.4363325714956
 31
0.0
  0
LINE
  5
D4C9
330
E1C8
100
AcDbEntity
  8
0
100
AcDbLine
 10
1116.874988461963
 20
393.836383688439
 30
0.0
 11
1114.472788162034
 21
387.2363928437126
 31
0.0
  0
LINE
  5
D4CF
330
E1C8
100
AcDbEntity
  8
0
100
AcDbLine
 10
1119.725019565412
 20
393.836383688439
 30
0.0
 11
1116.874988461963
 21
393.836383688439
 31
0.0
  0
ARC
  5
D4EB
330
E1C8
100
AcDbEntity
  8
0
100
AcDbCircle
 10
964.7324200781085
 20
868.7765685346318
 30
0.0
 40
20.50000047683716
100
AcDbArc
 50
293.9763110673414
 51
330.00000258028
  0
ARC
  5
D4F2
330
E1C8
100
AcDbEntity
  8
0
100
AcDbCircle
 10
1074.717649570295
 20
868.7765685346318
 30
0.0
 40
20.50000047683716
100
AcDbArc
 50
210.0000026560694
 51
246.0236907538912
  0
CIRCLE
  5
D4F5
330
E1C8
100
AcDbEntity
  8
0
100
AcDbCircle
 10
1019.725034824202
 20
837.0265837934205
 30
0.0
 40
64.99999809265137
  0
LINE
  5
D502
330
E1C8
100
AcDbEntity
  8
0
100
AcDbLine
 10
1033.2250348242
 20
476.6263311982043
 30
0.0
 11
1006.225034824202
 21
476.6263311982043
 31
0.0
  0
LINE
  5
D508
330
E1C8
100
AcDbEntity
  8
0
100
AcDbLine
 10
1098.4750348242
 20
407.9863623261345
 30
0.0
 11
940.9750348242011
 21
407.9863623261346
 31
0.0
  0
LINE
  5
D509
330
E1C8
100
AcDbEntity
  8
0
100
AcDbLine
 10
1069.72505008299
 20
452.3263357758414
 30
0.0
 11
969.7250195654136
 21
452.3263357758414
 31
0.0
  0
LINE
  5
D50B
330
E1C8
100
AcDbEntity
  8
0
100
AcDbLine
 10
1006.164426914045
 20
468.6158560395131
 30
0.0
 11
1006.164426914045
 21
452.3263357758414
 31
0.0
  0
LINE
  5
D50C
330
E1C8
100
AcDbEntity
  8
0
100
AcDbLine
 10
984.8270093115068
 20
468.6158560395131
 30
0.0
 11
984.8270093115068
 21
452.3263357758414
 31
0.0
  0
LINE
  5
D50D
330
E1C8
100
AcDbEntity
  8
0
100
AcDbLine
 10
969.7250195654127
 20
467.3291634201882
 30
0.0
 11
969.7250195654136
 21
452.3263357758414
 31
0.0
  0
LINE
  5
D519
330
E1C8
100
AcDbEntity
  8
0
100
AcDbLine
 10
1003.225034824201
 20
452.3263357758414
 30
0.0
 11
1003.225034824201
 21
423.6263159394158
 31
0.0
  0
LINE
  5
D521
330
E1C8
100
AcDbEntity
  8
0
100
AcDbLine
 10
1008.725019565412
 20
423.6263159394158
 30
0.0
 11
1008.725019565412
 21
420.6363638520127
 31
0.0
  0
ARC
  5
D52D
330
E1C8
100
AcDbEntity
  8
0
100
AcDbCircle
 10
1019.725034824202
 20
347.3291739106069
 30
0.0
 40
129.9999961853027
100
AcDbArc
 50
95.96068810257776
 51
112.6198729341082
  0
LINE
  5
D534
330
E1C8
100
AcDbEntity
  8
0
100
AcDbLine
 10
1066.517552883613
 20
468.6158560395131
 30
0.0
 11
972.9325167647903
 21
468.6158560395131
 31
0.0
  0
LINE
  5
D53B
330
E1C8
100
AcDbEntity
  8
0
100
AcDbLine
 10
1036.225034824201
 20
452.3263357758414
 30
0.0
 11
1036.225034824201
 21
423.6263159394158
 31
0.0
  0
LINE
  5
D53F
330
E1C8
100
AcDbEntity
  8
0
100
AcDbLine
 10
1037.840797980881
 20
418.3382142453536
 30
0.0
 11
1084.72505008299
 21
414.2363737005037
 31
0.0
  0
LINE
  5
D540
330
E1C8
100
AcDbEntity
  8
0
100
AcDbLine
 10
1030.72505008299
 20
423.6263159394158
 30
0.0
 11
1030.72505008299
 21
420.6363638520135
 31
0.0
  0
LINE
  5
D54A
330
E1C8
100
AcDbEntity
  8
0
100
AcDbLine
 10
1036.225034824201
 20
423.6263159394158
 30
0.0
 11
1003.225034824201
 21
423.6263159394158
 31
0.0
  0
LINE
  5
D54C
330
E1C8
100
AcDbEntity
  8
0
100
AcDbLine
 10
1037.225010644529
 20
420.6363638520135
 30
0.0
 11
1002.225059003874
 21
420.6363638520135
 31
0.0
  0
LINE
  5
D55C
330
E1C8
100
AcDbEntity
  8
0
100
AcDbLine
 10
1037.225010644529
 20
420.6363638520135
 30
0.0
 11
1037.840797980881
 21
418.3382142453536
 31
0.0
  0
LINE
  5
D58D
330
E1C8
100
AcDbEntity
  8
0
100
AcDbLine
 10
1084.72505008299
 20
414.2363737005037
 30
0.0
 11
1084.72505008299
 21
407.9863623261345
 31
0.0
  0
ARC
  5
D5B0
330
E1C8
100
AcDbEntity
  8
0
100
AcDbCircle
 10
1019.725034824202
 20
773.5265914228149
 30
0.0
 40
20.50000047683716
100
AcDbArc
 50
89.99998884410334
 51
126.0236837721292
  0
ARC
  5
D5B1
330
E1C8
100
AcDbEntity
  8
0
100
AcDbCircle
 10
1019.725034824202
 20
837.0265837934205
 30
0.0
 40
49.99999809265137
100
AcDbArc
 50
228.2544618544862
 51
251.7455451272899
  0
ARC
  5
D5C3
330
E1C8
100
AcDbEntity
  8
0
100
AcDbCircle
 10
1005.316099277327
 20
793.3415557172486
 30
0.0
 40
4.000000119209286
100
AcDbArc
 50
251.7455451272899
 51
306.0236890084472
  0
ARC
  5
D5CB
330
E1C8
100
AcDbEntity
  8
0
100
AcDbCircle
 10
974.6881848486154
 20
827.6625701215458
 30
0.0
 40
4.000000119209286
100
AcDbArc
 50
191.7455434576416
 51
246.0236907538912
  0
ARC
  5
D5CC
330
E1C8
100
AcDbEntity
  8
0
100
AcDbCircle
 10
964.7324200781085
 20
805.2765990522098
 30
0.0
 40
20.50000047683716
100
AcDbArc
 50
30.00000424992341
 51
66.02368893265839
  0
ARC
  5
D5CD
330
E1C8
100
AcDbEntity
  8
0
100
AcDbCircle
 10
964.7324200781085
 20
805.2765990522098
 30
0.0
 40
20.50000047683716
100
AcDbArc
 50
353.9763084681154
 51
30.00000424992341
  0
ARC
  5
D5CE
330
E1C8
100
AcDbEntity
  8
0
100
AcDbCircle
 10
989.0971203954906
 20
802.7055693891236
 30
0.0
 40
4.000000119209286
100
AcDbArc
 50
173.9763109157495
 51
228.2544582120234
  0
ARC
  5
D5CF
330
E1C8
100
AcDbEntity
  8
0
100
AcDbCircle
 10
1019.725034824202
 20
837.0265837934205
 30
0.0
 40
49.99999809265137
100
AcDbArc
 50
168.2544565423581
 51
191.7455398151604
  0
ARC
  5
D5D0
330
E1C8
100
AcDbEntity
  8
0
100
AcDbCircle
 10
974.6881848486154
 20
846.3905974652957
 30
0.0
 40
4.000000119209286
100
AcDbArc
 50
113.9763092461087
 51
168.2544565423581
  0
ARC
  5
D5D7
330
E1C8
100
AcDbEntity
  8
0
100
AcDbCircle
 10
1019.725034824202
 20
837.0265837934205
 30
0.0
 40
49.99999809265137
100
AcDbArc
 50
288.2544566939523
 51
311.7455433818332
  0
ARC
  5
D5D8
330
E1C8
100
AcDbEntity
  8
0
100
AcDbCircle
 10
1019.725034824202
 20
773.5265914228149
 30
0.0
 40
20.50000047683716
100
AcDbArc
 50
53.97631782173628
 51
90.0000025044817
  0
ARC
  5
D5E5
330
E1C8
100
AcDbEntity
  8
0
100
AcDbCircle
 10
1034.133970371076
 20
793.3415557172486
 30
0.0
 40
4.000000119209286
100
AcDbArc
 50
233.9763162278706
 51
288.25445669394
  0
ARC
  5
D5E7
330
E1C8
100
AcDbEntity
  8
0
100
AcDbCircle
 10
1074.717649570295
 20
805.2765990522098
 30
0.0
 40
20.50000047683716
100
AcDbArc
 50
149.999997343937
 51
186.0236854417757
  0
ARC
  5
D5ED
330
E1C8
100
AcDbEntity
  8
0
100
AcDbCircle
 10
1050.352903476545
 20
802.7055693891236
 30
0.0
 40
4.000000119209286
100
AcDbArc
 50
311.7455433818332
 51
6.023689824315979
  0
ARC
  5
D5FB
330
E1C8
100
AcDbEntity
  8
0
100
AcDbCircle
 10
1064.76183902342
 20
827.6625701215458
 30
0.0
 40
4.000000119209286
100
AcDbArc
 50
293.9763110673414
 51
348.2544540947391
  0
ARC
  5
D5FC
330
E1C8
100
AcDbEntity
  8
0
100
AcDbCircle
 10
1074.717649570295
 20
805.2765990522098
 30
0.0
 40
20.50000047683716
100
AcDbArc
 50
113.9763092461087
 51
149.999997343937
  0
ARC
  5
D5FD
330
E1C8
100
AcDbEntity
  8
0
100
AcDbCircle
 10
1019.725034824202
 20
837.0265837934205
 30
0.0
 40
49.99999809265137
100
AcDbArc
 50
348.2544540947391
 51
11.74554419773225
  0
ARC
  5
D5FE
330
E1C8
100
AcDbEntity
  8
0
100
AcDbCircle
 10
1064.76183902342
 20
846.3905974652957
 30
0.0
 40
4.000000119209286
100
AcDbArc
 50
11.74554419773225
 51
66.02368893265839
  0
ARC
  5
D624
330
E1C8
100
AcDbEntity
  8
0
100
AcDbCircle
 10
1019.725034824202
 20
900.5265990522101
 30
0.0
 40
20.50000047683716
100
AcDbArc
 50
233.9763162278706
 51
269.9999974955181
  0
ARC
  5
D630
330
E1C8
100
AcDbEntity
  8
0
100
AcDbCircle
 10
1019.725034824202
 20
837.0265837934205
 30
0.0
 40
49.99999809265137
100
AcDbArc
 50
108.2544548727099
 51
131.7455381455135
  0
ARC
  5
D631
330
E1C8
100
AcDbEntity
  8
0
100
AcDbCircle
 10
989.0971203954906
 20
871.3475981977181
 30
0.0
 40
4.000000119209286
100
AcDbArc
 50
131.7455381455135
 51
186.0236854417757
  0
ARC
  5
D632
330
E1C8
100
AcDbEntity
  8
0
100
AcDbCircle
 10
964.7324200781085
 20
868.7765685346318
 30
0.0
 40
20.50000047683716
100
AcDbArc
 50
330.00000258028
 51
6.023689824315979
  0
ARC
  5
D633
330
E1C8
100
AcDbEntity
  8
0
100
AcDbCircle
 10
1005.316099277327
 20
880.711611869593
 30
0.0
 40
4.000000119209286
100
AcDbArc
 50
53.97631782173628
 51
108.2544480425166
  0
ARC
  5
D643
330
E1C8
100
AcDbEntity
  8
0
100
AcDbCircle
 10
1074.717649570295
 20
868.7765685346318
 30
0.0
 40
20.50000047683716
100
AcDbArc
 50
173.9763109157495
 51
209.9999990136028
  0
ARC
  5
D644
330
E1C8
100
AcDbEntity
  8
0
100
AcDbCircle
 10
1034.133970371076
 20
880.711611869593
 30
0.0
 40
4.000000119209286
100
AcDbArc
 50
71.74554330605978
 51
126.0236974324964
  0
ARC
  5
D645
330
E1C8
100
AcDbEntity
  8
0
100
AcDbCircle
 10
1019.725034824202
 20
900.5265990522101
 30
0.0
 40
20.50000047683716
100
AcDbArc
 50
269.9999974955181
 51
306.0236890084472
  0
ARC
  5
D646
330
E1C8
100
AcDbEntity
  8
0
100
AcDbCircle
 10
1050.352903476545
 20
871.3475981977181
 30
0.0
 40
4.000000119209286
100
AcDbArc
 50
353.9763084681154
 51
48.2544634483433
  0
ARC
  5
D647
330
E1C8
100
AcDbEntity
  8
0
100
AcDbCircle
 10
1019.725034824202
 20
837.0265837934205
 30
0.0
 40
49.99999809265137
100
AcDbArc
 50
48.2544634483433
 51
71.74554330605978
  0
ARC
  5
D658
330
E1C8
100
AcDbEntity
  8
0
100
AcDbCircle
 10
984.5250683935372
 20
361.836356985558
 30
0.0
 40
28.80000114440917
100
AcDbArc
 50
179.9999974955312
 51
244.1406838890121
  0
LINE
  5
D659
330
E1C8
100
AcDbEntity
  8
0
100
AcDbLine
 10
955.7250500829907
 20
389.2363623261342
 30
0.0
 11
955.7250500829907
 21
361.836356985558
 31
0.0
  0
LINE
  5
D65A
330
E1C8
100
AcDbEntity
  8
0
100
AcDbLine
 10
971.9635754736154
 20
335.9201658776934
 30
0.0
 11
971.963575473616
 21
328.7363356232548
 31
0.0
  0
LINE
  5
D65B
330
E1C8
100
AcDbEntity
  8
0
100
AcDbLine
 10
1001.609271667522
 20
418.3382142453536
 30
0.0
 11
954.7250195654127
 21
414.2363737005037
 31
0.0
  0
LINE
  5
D65C
330
E1C8
100
AcDbEntity
  8
0
100
AcDbLine
 10
954.7250195654127
 20
414.2363737005037
 30
0.0
 11
954.7250195654127
 21
407.9863623261345
 31
0.0
  0
LINE
  5
D65D
330
E1C8
100
AcDbEntity
  8
0
100
AcDbLine
 10
1002.225059003874
 20
420.6363638520135
 30
0.0
 11
1001.609271667522
 21
418.3382142453536
 31
0.0
  0
LINE
  5
D65F
330
E1C8
100
AcDbEntity
  8
0
100
AcDbLine
 10
1054.623060336897
 20
468.6158560395131
 30
0.0
 11
1054.623060336897
 21
452.3263357758414
 31
0.0
  0
LINE
  5
D660
330
E1C8
100
AcDbEntity
  8
0
100
AcDbLine
 10
1033.285642734358
 20
468.6158560395131
 30
0.0
 11
1033.285642734358
 21
452.3263357758414
 31
0.0
  0
ARC
  5
D661
330
E1C8
100
AcDbEntity
  8
0
100
AcDbCircle
 10
1019.725034824202
 20
347.3291739106069
 30
0.0
 40
129.9999961853027
100
AcDbArc
 50
67.38012706589177
 51
84.03931189742227
  0
LINE
  5
D662
330
E1C8
100
AcDbEntity
  8
0
100
AcDbLine
 10
1069.72505008299
 20
467.3291634201882
 30
0.0
 11
1069.72505008299
 21
452.3263357758414
 31
0.0
  0
LINE
  5
D663
330
E1C8
100
AcDbEntity
  8
0
100
AcDbLine
 10
1114.472788162034
 20
387.2363928437126
 30
0.0
 11
1114.47282955807
 21
336.4363325714956
 31
0.0
  0
LINE
  5
D664
330
E1C8
100
AcDbEntity
  8
0
100
AcDbLine
 10
994.3250104101393
 20
297.0885528602398
 30
0.0
 11
1045.125013461897
 21
297.0885516240171
 31
0.0
  0
CIRCLE
  5
D666
330
E1C8
100
AcDbEntity
  8
0
100
AcDbCircle
 10
1019.475027194806
 20
837.0265837934205
 30
0.0
 40
68.00000953674318
  0
CIRCLE
  5
D668
330
E1C8
100
AcDbEntity
  8
0
100
AcDbCircle
 10
1019.725034824202
 20
837.0265837934205
 30
0.0
 40
78.75
  0
LINE
  5
D66B
330
E1C8
100
AcDbEntity
  8
0
100
AcDbLine
 10
1114.472788162034
 20
862.4266139295292
 30
0.0
 11
1114.47282955807
 21
811.6265536573115
 31
0.0
  0
LINE
  5
D66C
330
E1C8
100
AcDbEntity
  8
0
100
AcDbLine
 10
1119.725019565412
 20
805.0265628125858
 30
0.0
 11
1119.725019565412
 21
869.0266047742557
 31
0.0
  0
LINE
  5
D66D
330
E1C8
100
AcDbEntity
  8
0
100
AcDbLine
 10
1114.47282955807
 20
811.6265536573115
 30
0.0
 11
1094.266305064819
 21
811.6265536573115
 31
0.0
  0
LINE
  5
D66E
330
E1C8
100
AcDbEntity
  8
0
100
AcDbLine
 10
1116.875029857997
 20
805.0265628125858
 30
0.0
 11
1114.47282955807
 21
811.6265536573115
 31
0.0
  0
LINE
  5
D66F
330
E1C8
100
AcDbEntity
  8
0
100
AcDbLine
 10
1119.725019565412
 20
805.0265628125858
 30
0.0
 11
1116.875029857997
 21
805.0265628125858
 31
0.0
  0
LINE
  5
D671
330
E1C8
100
AcDbEntity
  8
0
100
AcDbLine
 10
1114.472788162034
 20
862.4266139295292
 30
0.0
 11
1094.266305064819
 21
862.4266139295292
 31
0.0
  0
LINE
  5
D672
330
E1C8
100
AcDbEntity
  8
0
100
AcDbLine
 10
1116.874988461963
 20
869.0266047742557
 30
0.0
 11
1114.472788162034
 21
862.4266139295292
 31
0.0
  0
LINE
  5
D673
330
E1C8
100
AcDbEntity
  8
0
100
AcDbLine
 10
1119.725019565412
 20
869.0266047742557
 30
0.0
 11
1116.874988461963
 21
869.0266047742557
 31
0.0
  0
LINE
  5
DAD5
330
E1C8
100
AcDbEntity
  8
0
100
AcDbLine
 10
971.9635754736154
 20
335.9201658776672
 30
0.0
 11
1067.486494174786
 21
335.9201658776672
 31
0.0
  0
LINE
  5
E191
330
E1C8
100
AcDbEntity
  8
0
100
AcDbLine
 10
924.9772814863684
 20
387.2363928437117
 30
0.0
 11
924.9772400903331
 21
336.4363325714947
 31
0.0
  0
LINE
  5
E192
330
E1C8
100
AcDbEntity
  8
0
100
AcDbLine
 10
919.7250500829911
 20
329.8363417267681
 30
0.0
 11
919.7250500829905
 21
393.8363836884381
 31
0.0
  0
LINE
  5
E193
330
E1C8
100
AcDbEntity
  8
0
100
AcDbLine
 10
924.9772400903331
 20
336.4363325714947
 30
0.0
 11
970.9501346668861
 21
336.436332571495
 31
0.0
  0
LINE
  5
E194
330
E1C8
100
AcDbEntity
  8
0
100
AcDbLine
 10
922.5750397904052
 20
329.8363417267681
 30
0.0
 11
924.9772400903331
 21
336.4363325714947
 31
0.0
  0
LINE
  5
E195
330
E1C8
100
AcDbEntity
  8
0
100
AcDbLine
 10
919.7250500829911
 20
329.8363417267681
 30
0.0
 11
922.5750397904052
 21
329.8363417267681
 31
0.0
  0
LINE
  5
E196
330
E1C8
100
AcDbEntity
  8
0
100
AcDbLine
 10
922.5750811864397
 20
393.8363836884381
 30
0.0
 11
924.9772814863684
 21
387.2363928437117
 31
0.0
  0
LINE
  5
E197
330
E1C8
100
AcDbEntity
  8
0
100
AcDbLine
 10
924.9772814863684
 20
387.2363928437117
 30
0.0
 11
955.7250500829903
 21
387.236392843712
 31
0.0
  0
LINE
  5
E198
330
E1C8
100
AcDbEntity
  8
0
100
AcDbLine
 10
919.7250500829905
 20
393.8363836884381
 30
0.0
 11
922.5750811864397
 21
393.8363836884381
 31
0.0
  0
LINE
  5
E199
330
E1C8
100
AcDbEntity
  8
0
100
AcDbLine
 10
919.7250500829868
 20
805.0265628125851
 30
0.0
 11
919.7250500829865
 21
869.026604774255
 31
0.0
  0
LINE
  5
E19A
330
E1C8
100
AcDbEntity
  8
0
100
AcDbLine
 10
924.9772814863645
 20
862.4266139295283
 30
0.0
 11
924.9772400903292
 21
811.6265536573111
 31
0.0
  0
LINE
  5
E19B
330
E1C8
100
AcDbEntity
  8
0
100
AcDbLine
 10
919.7250500829868
 20
805.0265628125851
 30
0.0
 11
922.5750397904011
 21
805.0265628125851
 31
0.0
  0
LINE
  5
E19C
330
E1C8
100
AcDbEntity
  8
0
100
AcDbLine
 10
922.5750397904011
 20
805.0265628125851
 30
0.0
 11
924.9772400903292
 21
811.6265536573111
 31
0.0
  0
LINE
  5
E19D
330
E1C8
100
AcDbEntity
  8
0
100
AcDbLine
 10
924.9772400903292
 20
811.6265536573111
 30
0.0
 11
945.1837645835794
 21
811.6265536573111
 31
0.0
  0
LINE
  5
E19E
330
E1C8
100
AcDbEntity
  8
0
100
AcDbLine
 10
919.7250500829865
 20
869.026604774255
 30
0.0
 11
922.5750811864353
 21
869.026604774255
 31
0.0
  0
LINE
  5
E19F
330
E1C8
100
AcDbEntity
  8
0
100
AcDbLine
 10
922.5750811864353
 20
869.026604774255
 30
0.0
 11
924.9772814863645
 21
862.4266139295283
 31
0.0
  0
LINE
  5
E1A0
330
E1C8
100
AcDbEntity
  8
0
100
AcDbLine
 10
924.9772814863645
 20
862.4266139295283
 30
0.0
 11
945.1837645835794
 21
862.4266139295285
 31
0.0
  0
LINE
  5
E28F
330
E1C8
100
AcDbEntity
  8
0
  6
CENTER
100
AcDbLine
 10
887.2091463273484
 20
361.8363627076039
 30
0.0
 11
1152.240892803476
 21
361.8363627076039
 31
0.0
  0
LINE
  5
E290
330
E1C8
100
AcDbEntity
  8
0
  6
CENTER
100
AcDbLine
 10
1019.725019565412
 20
247.2868792090039
 30
0.0
 11
1019.725019565412
 21
512.0073665004201
 31
0.0
  0
LINE
  5
E291
330
E1C8
100
AcDbEntity
  8
0
  6
CENTER
100
AcDbLine
 10
1019.725034824202
 20
732.7258788380443
 30
0.0
 11
1019.725034824202
 21
941.3272887487966
 31
0.0
  0
LINE
  5
E292
330
E1C8
100
AcDbEntity
  8
0
  6
CENTER
100
AcDbLine
 10
887.2091615861378
 20
837.0265837934205
 30
0.0
 11
1152.240908062265
 21
837.0265837934205
 31
0.0
  0
ENDSEC
  0
SECTION
  2
OBJECTS
  0
DICTIONARY
  5
E1B6
330
0
100
AcDbDictionary
281
     1
  3
ACAD_GROUP
350
E1B7
  3
ACAD_LAYOUT
350
E1C3
  3
ACAD_MLINESTYLE
350
E1C0
  3
ACAD_PLOTSETTINGS
350
E1C2
  3
ACAD_PLOTSTYLENAME
350
E1B8
  3
AcDbVariableDictionary
350
E20E
  0
DICTIONARY
  5
E286
330
E1AC
100
AcDbDictionary
280
     1
281
     1
  3
ACAD_LAYERSTATES
360
E287
  0
DICTIONARY
  5
E1DA
330
E1C8
100
AcDbDictionary
280
     1
281
     1
  3
ACAD_LAYOUTSELFREF
360
E27D
  0
DICTIONARY
  5
E1DC
330
E1C4
100
AcDbDictionary
280
     1
281
     1
  3
ACAD_LAYOUTSELFREF
360
E27C
  0
DICTIONARY
  5
E1B7
102
{ACAD_REACTORS
330
E1B6
102
}
330
E1B6
100
AcDbDictionary
281
     1
  0
DICTIONARY
  5
E1C3
102
{ACAD_REACTORS
330
E1B6
102
}
330
E1B6
100
AcDbDictionary
281
     1
  3
Model
350
E1CB
  3
ﾚｲｱｳﾄ1
350
E1C7
  0
DICTIONARY
  5
E1C0
102
{ACAD_REACTORS
330
E1B6
102
}
330
E1B6
100
AcDbDictionary
281
     1
  3
Standard
350
E1C1
  0
DICTIONARY
  5
E1C2
102
{ACAD_REACTORS
330
E1B6
102
}
330
E1B6
100
AcDbDictionary
281
     1
  0
ACDBDICTIONARYWDFLT
  5
E1B8
102
{ACAD_REACTORS
330
E1B6
102
}
330
E1B6
100
AcDbDictionary
281
     1
  3
Normal
350
E1B9
100
AcDbDictionaryWithDefault
340
E1B9
  0
DICTIONARY
  5
E20E
102
{ACAD_REACTORS
330
E1B6
102
}
330
E1B6
100
AcDbDictionary
281
     1
  3
DIMASSOC
350
E20F
  0
DICTIONARY
  5
E287
102
{ACAD_REACTORS
330
E286
102
}
330
E286
100
AcDbDictionary
281
     1
  0
XRECORD
  5
E27D
102
{ACAD_REACTORS
330
E1DA
102
}
330
E1DA
100
AcDbXrecord
280
     1
340
E1C8
  0
XRECORD
  5
E27C
102
{ACAD_REACTORS
330
E1DC
102
}
330
E1DC
100
AcDbXrecord
280
     1
340
E1C4
  0
LAYOUT
  5
E1CB
102
{ACAD_REACTORS
330
E1C3
102
}
330
E1C3
100
AcDbPlotSettings
  1

  2
SII LP-2150 (D-SCAN C2)
  4

  6

 40
0.0
 41
0.0
 42
0.0
 43
0.0
 44
0.0
 45
0.0
 46
0.0
 47
0.0
 48
0.0
 49
0.0
140
0.0
141
0.0
142
1.0
143
1.0
 70
  1712
 72
     0
 73
     0
 74
     0
  7

 75
     0
147
1.0
148
0.0
149
0.0
100
AcDbLayout
  1
Model
 70
     1
 71
     0
 10
0.0
 20
0.0
 11
12.0
 21
9.0
 12
0.0
 22
0.0
 32
0.0
 14
0.0
 24
0.0
 34
0.0
 15
0.0
 25
0.0
 35
0.0
146
0.0
 13
0.0
 23
0.0
 33
0.0
 16
1.0
 26
0.0
 36
0.0
 17
0.0
 27
1.0
 37
0.0
 76
     0
330
E1C8
  0
LAYOUT
  5
E1C7
102
{ACAD_REACTORS
330
E1C3
102
}
330
E1C3
100
AcDbPlotSettings
  1

  2
SII LP-2150 (D-SCAN C2)
  4

  6

 40
0.0
 41
0.0
 42
0.0
 43
0.0
 44
0.0
 45
0.0
 46
0.0
 47
0.0
 48
0.0
 49
0.0
140
0.0
141
0.0
142
1.0
143
1.0
 70
   688
 72
     0
 73
     0
 74
     5
  7

 75
    16
147
1.0
148
0.0
149
0.0
100
AcDbLayout
  1
ﾚｲｱｳﾄ1
 70
     1
 71
     1
 10
-580.5701293945312
 20
0.0
 11
0.0
 21
407.8999938964844
 12
0.0
 22
0.0
 32
0.0
 14
-580.5701293945312
 24
0.0
 34
0.0
 15
0.0
 25
407.8999938964844
 35
0.0
146
0.0
 13
0.0
 23
0.0
 33
0.0
 16
1.0
 26
0.0
 36
0.0
 17
0.0
 27
1.0
 37
0.0
 76
     0
330
E1C4
  0
MLINESTYLE
  5
E1C1
102
{ACAD_REACTORS
330
E1C0
102
}
330
E1C0
100
AcDbMlineStyle
  2
STANDARD
 70
     0
  3

 62
   256
 51
90.0
 52
90.0
 71
     2
 49
0.5
 62
   256
  6
BYLAYER
 49
-0.5
 62
   256
  6
BYLAYER
  0
ACDBPLACEHOLDER
  5
E1B9
102
{ACAD_REACTORS
330
E1B8
102
}
330
E1B8
  0
DICTIONARYVAR
  5
E20F
102
{ACAD_REACTORS
330
E20E
102
}
330
E20E
100
DictionaryVariables
280
     0
  1
1
  0
ENDSEC
  0
EOF
