  0
SECTION
  2
HEADER
  9
$ACADVER
  1
AC1015
  9
$ACADMAINTVER
 70
    14
  9
$DWGCODEPAGE
  3
ANSI_932
  9
$INSBASE
 10
0.0
 20
0.0
 30
0.0
  9
$EXTMIN
 10
225.3471658305925
 20
174.5741062121846
 30
-0.0000000000000058
  9
$EXTMAX
 10
717.876391029864
 20
698.7868857037006
 30
0.0000000000000104
  9
$LIMMIN
 10
-580.5701293945312
 20
0.0
  9
$LIMMAX
 10
0.0
 20
407.8999938964844
  9
$ORTHOMODE
 70
     0
  9
$REGENMODE
 70
     1
  9
$FILLMODE
 70
     1
  9
$QTEXTMODE
 70
     0
  9
$MIRRTEXT
 70
     1
  9
$LTSCALE
 40
1.0
  9
$ATTMODE
 70
     1
  9
$TEXTSIZE
 40
0.2
  9
$TRACEWID
 40
0.05
  9
$TEXTSTYLE
  7
STANDARD
  9
$CLAYER
  8
0
  9
$CELTYPE
  6
ByLayer
  9
$CECOLOR
 62
   256
  9
$CELTSCALE
 40
1.0
  9
$DISPSILH
 70
     0
  9
$DIMSCALE
 40
1.0
  9
$DIMASZ
 40
1.0
  9
$DIMEXO
 40
2.54
  9
$DIMDLI
 40
0.38
  9
$DIMRND
 40
0.0
  9
$DIMDLE
 40
0.0
  9
$DIMEXE
 40
2.54
  9
$DIMTP
 40
0.0
  9
$DIMTM
 40
0.0
  9
$DIMTXT
 40
3.200000047683714
  9
$DIMCEN
 40
0.09
  9
$DIMTSZ
 40
0.0
  9
$DIMTOL
 70
     0
  9
$DIMLIM
 70
     0
  9
$DIMTIH
 70
     0
  9
$DIMTOH
 70
     0
  9
$DIMSE1
 70
     0
  9
$DIMSE2
 70
     0
  9
$DIMTAD
 70
     1
  9
$DIMZIN
 70
     0
  9
$DIMBLK
  1

  9
$DIMASO
 70
     1
  9
$DIMSHO
 70
     0
  9
$DIMPOST
  1

  9
$DIMAPOST
  1

  9
$DIMALT
 70
     0
  9
$DIMALTD
 70
     2
  9
$DIMALTF
 40
25.4
  9
$DIMLFAC
 40
1.0
  9
$DIMTOFL
 70
     0
  9
$DIMTVP
 40
1.0
  9
$DIMTIX
 70
     0
  9
$DIMSOXD
 70
     0
  9
$DIMSAH
 70
     0
  9
$DIMBLK1
  1

  9
$DIMBLK2
  1

  9
$DIMSTYLE
  2
STANDARD
  9
$DIMCLRD
 70
     0
  9
$DIMCLRE
 70
     0
  9
$DIMCLRT
 70
     0
  9
$DIMTFAC
 40
1.0
  9
$DIMGAP
 40
1.600000023841857
  9
$DIMJUST
 70
     0
  9
$DIMSD1
 70
     0
  9
$DIMSD2
 70
     0
  9
$DIMTOLJ
 70
     1
  9
$DIMTZIN
 70
     0
  9
$DIMALTZ
 70
     0
  9
$DIMALTTZ
 70
     0
  9
$DIMUPT
 70
     0
  9
$DIMDEC
 70
     4
  9
$DIMTDEC
 70
     4
  9
$DIMALTU
 70
     2
  9
$DIMALTTD
 70
     2
  9
$DIMTXSTY
  7
STANDARD
  9
$DIMAUNIT
 70
     0
  9
$DIMADEC
 70
     0
  9
$DIMALTRND
 40
0.0
  9
$DIMAZIN
 70
     0
  9
$DIMDSEP
 70
    46
  9
$DIMATFIT
 70
     3
  9
$DIMFRAC
 70
     0
  9
$DIMLDRBLK
  1

  9
$DIMLUNIT
 70
     2
  9
$DIMLWD
 70
    -2
  9
$DIMLWE
 70
    -2
  9
$DIMTMOVE
 70
     0
  9
$LUNITS
 70
     2
  9
$LUPREC
 70
     4
  9
$SKETCHINC
 40
0.1
  9
$FILLETRAD
 40
0.0
  9
$AUNITS
 70
     0
  9
$AUPREC
 70
     0
  9
$MENU
  1
.
  9
$ELEVATION
 40
0.0
  9
$PELEVATION
 40
0.0
  9
$THICKNESS
 40
0.0
  9
$LIMCHECK
 70
     0
  9
$CHAMFERA
 40
0.0
  9
$CHAMFERB
 40
0.0
  9
$CHAMFERC
 40
0.0
  9
$CHAMFERD
 40
0.0
  9
$SKPOLY
 70
     0
  9
$TDCREATE
 40
2452717.604314595
  9
$TDUCREATE
 40
2452717.229314595
  9
$TDUPDATE
 40
2456899.671586944
  9
$TDUUPDATE
 40
2456899.296586944
  9
$TDINDWG
 40
0.3822124884
  9
$TDUSRTIMER
 40
0.3822123032
  9
$USRTIMER
 70
     1
  9
$ANGBASE
 50
0.0
  9
$ANGDIR
 70
     0
  9
$PDMODE
 70
     3
  9
$PDSIZE
 40
0.0
  9
$PLINEWID
 40
0.0
  9
$SPLFRAME
 70
     0
  9
$SPLINETYPE
 70
     6
  9
$SPLINESEGS
 70
     8
  9
$HANDSEED
  5
E2A1
  9
$SURFTAB1
 70
     6
  9
$SURFTAB2
 70
     6
  9
$SURFTYPE
 70
     6
  9
$SURFU
 70
     6
  9
$SURFV
 70
     6
  9
$UCSBASE
  2

  9
$UCSNAME
  2

  9
$UCSORG
 10
0.0
 20
0.0
 30
0.0
  9
$UCSXDIR
 10
1.0
 20
0.0
 30
0.0
  9
$UCSYDIR
 10
0.0
 20
1.0
 30
0.0
  9
$UCSORTHOREF
  2

  9
$UCSORTHOVIEW
 70
     0
  9
$UCSORGTOP
 10
0.0
 20
0.0
 30
0.0
  9
$UCSORGBOTTOM
 10
0.0
 20
0.0
 30
0.0
  9
$UCSORGLEFT
 10
0.0
 20
0.0
 30
0.0
  9
$UCSORGRIGHT
 10
0.0
 20
0.0
 30
0.0
  9
$UCSORGFRONT
 10
0.0
 20
0.0
 30
0.0
  9
$UCSORGBACK
 10
0.0
 20
0.0
 30
0.0
  9
$PUCSBASE
  2

  9
$PUCSNAME
  2

  9
$PUCSORG
 10
0.0
 20
0.0
 30
0.0
  9
$PUCSXDIR
 10
1.0
 20
0.0
 30
0.0
  9
$PUCSYDIR
 10
0.0
 20
1.0
 30
0.0
  9
$PUCSORTHOREF
  2

  9
$PUCSORTHOVIEW
 70
     0
  9
$PUCSORGTOP
 10
0.0
 20
0.0
 30
0.0
  9
$PUCSORGBOTTOM
 10
0.0
 20
0.0
 30
0.0
  9
$PUCSORGLEFT
 10
0.0
 20
0.0
 30
0.0
  9
$PUCSORGRIGHT
 10
0.0
 20
0.0
 30
0.0
  9
$PUCSORGFRONT
 10
0.0
 20
0.0
 30
0.0
  9
$PUCSORGBACK
 10
0.0
 20
0.0
 30
0.0
  9
$USERI1
 70
     0
  9
$USERI2
 70
     0
  9
$USERI3
 70
     0
  9
$USERI4
 70
     0
  9
$USERI5
 70
     0
  9
$USERR1
 40
0.0
  9
$USERR2
 40
0.0
  9
$USERR3
 40
0.0
  9
$USERR4
 40
0.0
  9
$USERR5
 40
0.0
  9
$WORLDVIEW
 70
     1
  9
$SHADEDGE
 70
     3
  9
$SHADEDIF
 70
    70
  9
$TILEMODE
 70
     1
  9
$MAXACTVP
 70
    48
  9
$PINSBASE
 10
0.0
 20
0.0
 30
0.0
  9
$PLIMCHECK
 70
     0
  9
$PEXTMIN
 10
-580.5701293945312
 20
0.0
 30
0.0
  9
$PEXTMAX
 10
0.0
 20
407.8999938964844
 30
0.0
  9
$PLIMMIN
 10
-580.5701293945312
 20
0.0
  9
$PLIMMAX
 10
0.0
 20
407.8999938964844
  9
$UNITMODE
 70
     0
  9
$VISRETAIN
 70
     1
  9
$PLINEGEN
 70
     0
  9
$PSLTSCALE
 70
     1
  9
$TREEDEPTH
 70
  3020
  9
$CMLSTYLE
  2
Standard
  9
$CMLJUST
 70
     0
  9
$CMLSCALE
 40
1.0
  9
$PROXYGRAPHICS
 70
     1
  9
$MEASUREMENT
 70
     0
  9
$CELWEIGHT
370
    -1
  9
$ENDCAPS
280
     0
  9
$JOINSTYLE
280
     0
  9
$LWDISPLAY
290
     0
  9
$INSUNITS
 70
     0
  9
$HYPERLINKBASE
  1

  9
$STYLESHEET
  1

  9
$XEDIT
290
     1
  9
$CEPSNTYPE
380
     0
  9
$PSTYLEMODE
290
     1
  9
$FINGERPRINTGUID
  2
{E6C6A635-9227-417B-9ADE-7670F2E7B534}
  9
$VERSIONGUID
  2
{8E65EA04-17C0-480A-81B6-E4CEBDDC73A3}
  9
$EXTNAMES
290
     1
  9
$PSVPSCALE
 40
0.0
  9
$OLESTARTUP
290
     0
  0
ENDSEC
  0
SECTION
  2
CLASSES
  0
CLASS
  1
ACDBDICTIONARYWDFLT
  2
AcDbDictionaryWithDefault
  3
AutoCAD 2000
 90
        0
280
     0
281
     0
  0
CLASS
  1
ACDBPLACEHOLDER
  2
AcDbPlaceHolder
  3
AutoCAD 2000
 90
        0
280
     0
281
     0
  0
CLASS
  1
LAYOUT
  2
AcDbLayout
  3
AutoCAD 2000
 90
        0
280
     0
281
     0
  0
CLASS
  1
DICTIONARYVAR
  2
AcDbDictionaryVar
  3
AutoCAD 2000
 90
        0
280
     0
281
     0
  0
CLASS
  1
LONG_TRANSACTION
  2
AcDbLongTransaction
  3
AutoCAD 2000
 90
    32768
280
     0
281
     0
  0
CLASS
  1
LWPOLYLINE
  2
AcDbPolyline
  3
AutoCAD 2000
 90
    32768
280
     0
281
     1
  0
CLASS
  1
HATCH
  2
AcDbHatch
  3
AutoCAD 2000
 90
    32768
280
     0
281
     1
  0
CLASS
  1
XRECORD
  2
AcDbXrecord
  3
AutoCAD 2000
 90
    32768
280
     0
281
     0
  0
CLASS
  1
LONG_TRANSACTION
  2
AcDbLongTransaction
  3
AutoCAD 2000
 90
    32768
280
     0
281
     0
  0
CLASS
  1
LWPOLYLINE
  2
AcDbPolyline
  3
AutoCAD 2000
 90
    32768
280
     0
281
     1
  0
CLASS
  1
HATCH
  2
AcDbHatch
  3
AutoCAD 2000
 90
    32768
280
     0
281
     1
  0
CLASS
  1
XRECORD
  2
AcDbXrecord
  3
AutoCAD 2000
 90
    32768
280
     0
281
     0
  0
CLASS
  1
LONG_TRANSACTION
  2
AcDbLongTransaction
  3
AutoCAD 2000
 90
    32768
280
     0
281
     0
  0
CLASS
  1
LWPOLYLINE
  2
AcDbPolyline
  3
AutoCAD 2000
 90
    32768
280
     0
281
     1
  0
CLASS
  1
HATCH
  2
AcDbHatch
  3
AutoCAD 2000
 90
    32768
280
     0
281
     1
  0
CLASS
  1
XRECORD
  2
AcDbXrecord
  3
AutoCAD 2000
 90
    32768
280
     0
281
     0
  0
ENDSEC
  0
SECTION
  2
TABLES
  0
TABLE
  2
VPORT
  5
E1B6
330
0
100
AcDbSymbolTable
 70
     2
  0
VPORT
  5
E2A0
330
E1B6
100
AcDbSymbolTableRecord
100
AcDbViewportTableRecord
  2
*Active
 70
     0
 10
0.0
 20
0.0
 11
1.0
 21
1.0
 12
471.6117784302281
 22
436.6804959579426
 13
0.0
 23
0.0
 14
1.0
 24
1.0
 15
0.0
 25
0.0
 16
0.0
 26
0.0
 36
1.0
 17
0.0
 27
0.0
 37
0.0
 40
527.5411145993984
 41
1.592161016949152
 42
50.0
 43
0.0
 44
0.0
 50
0.0
 51
0.0
 71
     0
 72
   100
 73
     1
 74
     3
 75
     0
 76
     0
 77
     0
 78
     0
281
     0
 65
     1
110
0.0
120
0.0
130
0.0
111
1.0
121
0.0
131
0.0
112
0.0
122
1.0
132
0.0
 79
     0
146
0.0
  0
ENDTAB
  0
TABLE
  2
LTYPE
  5
E1B3
330
0
100
AcDbSymbolTable
 70
     2
  0
LTYPE
  5
E1C1
330
E1B3
100
AcDbSymbolTableRecord
100
AcDbLinetypeTableRecord
  2
ByBlock
 70
     0
  3

 72
    65
 73
     0
 40
0.0
  0
LTYPE
  5
E1C2
330
E1B3
100
AcDbSymbolTableRecord
100
AcDbLinetypeTableRecord
  2
ByLayer
 70
     0
  3

 72
    65
 73
     0
 40
0.0
  0
LTYPE
  5
E1C3
330
E1B3
100
AcDbSymbolTableRecord
100
AcDbLinetypeTableRecord
  2
CONTINUOUS
 70
     0
  3
Solid line
 72
    65
 73
     0
 40
0.0
  0
LTYPE
  5
E288
330
E1B3
100
AcDbSymbolTableRecord
100
AcDbLinetypeTableRecord
  2
CENTER
 70
     0
  3
__ . __
 72
    65
 73
     4
 40
7.0
 49
4.0
 74
     0
 49
-1.0
 74
     0
 49
1.0
 74
     0
 49
-1.0
 74
     0
  0
ENDTAB
  0
TABLE
  2
LAYER
  5
E1B0
102
{ACAD_XDICTIONARY
360
E289
102
}
330
0
100
AcDbSymbolTable
 70
     1
  0
LAYER
  5
E1BE
330
E1B0
100
AcDbSymbolTableRecord
100
AcDbLayerTableRecord
  2
0
 70
     0
 62
     7
  6
CONTINUOUS
370
    -3
390
E1BD
  0
ENDTAB
  0
TABLE
  2
STYLE
  5
E1B1
330
0
100
AcDbSymbolTable
 70
     1
  0
STYLE
  5
E1BF
330
E1B1
100
AcDbSymbolTableRecord
100
AcDbTextStyleTableRecord
  2
STANDARD
 70
     0
 40
0.0
 41
1.0
 50
0.0
 71
     0
 42
0.2
  3
txt
  4
BIGFONT
  0
ENDTAB
  0
TABLE
  2
VIEW
  5
E1B4
330
0
100
AcDbSymbolTable
 70
     0
  0
ENDTAB
  0
TABLE
  2
UCS
  5
E1B5
330
0
100
AcDbSymbolTable
 70
     0
  0
ENDTAB
  0
TABLE
  2
APPID
  5
E1B7
330
0
100
AcDbSymbolTable
 70
     4
  0
APPID
  5
E1C0
330
E1B7
100
AcDbSymbolTableRecord
100
AcDbRegAppTableRecord
  2
ACAD
 70
     0
  0
APPID
  5
E1D2
330
E1B7
100
AcDbSymbolTableRecord
100
AcDbRegAppTableRecord
  2
MCAD_NO_VIS
 70
     0
  0
APPID
  5
E1D3
330
E1B7
100
AcDbSymbolTableRecord
100
AcDbRegAppTableRecord
  2
ACAD_TEMP_GRAPHIC
 70
     0
  0
APPID
  5
E1D4
330
E1B7
100
AcDbSymbolTableRecord
100
AcDbRegAppTableRecord
  2
ACATTRIBSERVICES
 70
     0
  0
ENDTAB
  0
TABLE
  2
DIMSTYLE
  5
E1B8
330
0
100
AcDbSymbolTable
 70
     1
100
AcDbDimStyleTable
 71
     0
  0
DIMSTYLE
105
E1D5
330
E1B8
100
AcDbSymbolTableRecord
100
AcDbDimStyleTableRecord
  2
STANDARD
 70
     0
279
     2
340
E1BF
  0
ENDTAB
  0
TABLE
  2
BLOCK_RECORD
  5
E1AF
330
0
100
AcDbSymbolTable
 70
     0
  0
BLOCK_RECORD
  5
E1CC
102
{ACAD_XDICTIONARY
360
E1DE
102
}
330
E1AF
100
AcDbSymbolTableRecord
100
AcDbBlockTableRecord
  2
*Model_Space
340
E1CF
  0
BLOCK_RECORD
  5
E1C8
102
{ACAD_XDICTIONARY
360
E1E0
102
}
330
E1AF
100
AcDbSymbolTableRecord
100
AcDbBlockTableRecord
  2
*Paper_Space
340
E1CB
  0
ENDTAB
  0
ENDSEC
  0
SECTION
  2
BLOCKS
  0
BLOCK
  5
E1CD
330
E1CC
100
AcDbEntity
  8
0
100
AcDbBlockBegin
  2
*Model_Space
 70
     0
 10
0.0
 20
0.0
 30
0.0
  3
*Model_Space
  1

  0
ENDBLK
  5
E1CE
330
E1CC
100
AcDbEntity
  8
0
100
AcDbBlockEnd
  0
BLOCK
  5
E1C9
330
E1C8
100
AcDbEntity
 67
     1
  8
0
100
AcDbBlockBegin
  2
*Paper_Space
 70
     0
 10
0.0
 20
0.0
 30
0.0
  3
*Paper_Space
  1

  0
ENDBLK
  5
E1CA
330
E1C8
100
AcDbEntity
 67
     1
  8
0
100
AcDbBlockEnd
  0
ENDSEC
  0
SECTION
  2
ENTITIES
  0
TEXT
  5
4515
330
E1CC
100
AcDbEntity
  8
0
  6
Continuous
100
AcDbText
 10
225.3667647889232
 20
650.7548917114081
 30
0.0
 40
48.000002
  1
DAS2T 10A
 41
1.32095
100
AcDbText
  0
LINE
  5
A0C8
330
E1CC
100
AcDbEntity
  8
0
100
AcDbLine
 10
482.7384319587292
 20
194.2102229836739
 30
0.0
 11
448.7384319587292
 21
194.2102229836739
 31
0.0
  0
LINE
  5
A0DE
330
E1CC
100
AcDbEntity
  8
0
100
AcDbLine
 10
448.7384319587292
 20
197.0602421784437
 30
0.0
 11
457.0884075446659
 21
200.0993848574008
 31
0.0
  0
LINE
  5
A0E2
330
E1CC
100
AcDbEntity
  8
0
100
AcDbLine
 10
448.7384319587292
 20
194.2102229836739
 30
0.0
 11
448.7384319587292
 21
197.0602421784437
 31
0.0
  0
LINE
  5
A0EE
330
E1CC
100
AcDbEntity
  8
0
100
AcDbLine
 10
457.0884075446659
 20
200.0993848574008
 30
0.0
 11
457.0884075446659
 21
216.9667467202265
 31
0.0
  0
LINE
  5
A0F3
330
E1CC
100
AcDbEntity
  8
0
100
AcDbLine
 10
457.0884075446659
 20
216.9667467202265
 30
0.0
 11
449.7384911875813
 21
221.2102229836739
 31
0.0
  0
ARC
  5
A15A
330
E1CC
100
AcDbEntity
  8
0
100
AcDbCircle
 10
482.7384319587292
 20
234.2102229836739
 30
0.0
 40
15.0
100
AcDbArc
 50
316.9113698140165
 51
0.0000025044687019
  0
LINE
  5
A15C
330
E1CC
100
AcDbEntity
  8
0
100
AcDbLine
 10
535.7384319587293
 20
251.2102535012516
 30
0.0
 11
535.7384319587293
 21
217.2102229836739
 31
0.0
  0
LINE
  5
A15F
330
E1CC
100
AcDbEntity
  8
0
100
AcDbLine
 10
529.8492629947389
 20
225.56022908719
 30
0.0
 11
494.9931292455151
 21
225.5602290871885
 31
0.0
  0
LINE
  5
A161
330
E1CC
100
AcDbEntity
  8
0
100
AcDbLine
 10
482.7384319587292
 20
197.0602039105448
 30
0.0
 11
474.3884563727911
 21
200.0993465895011
 31
0.0
  0
LINE
  5
A16D
330
E1CC
100
AcDbEntity
  8
0
100
AcDbLine
 10
482.7384319587292
 20
194.2102229836739
 30
0.0
 11
482.7384319587292
 21
197.0602039105448
 31
0.0
  0
LINE
  5
A16F
330
E1CC
100
AcDbEntity
  8
0
100
AcDbLine
 10
437.7839641852911
 20
221.2102229836709
 30
0.0
 11
493.6928997321659
 21
221.2102229836739
 31
0.0
  0
LINE
  5
A172
330
E1CC
100
AcDbEntity
  8
0
100
AcDbLine
 10
474.3884563727911
 20
216.9667322094928
 30
0.0
 11
474.3884563727911
 21
200.0993465895011
 31
0.0
  0
LINE
  5
A175
330
E1CC
100
AcDbEntity
  8
0
100
AcDbLine
 10
474.3884563727911
 20
216.9667322094928
 30
0.0
 11
481.7383978632032
 21
221.2102229836739
 31
0.0
  0
LINE
  5
A1A1
330
E1CC
100
AcDbEntity
  8
0
100
AcDbLine
 10
493.6928997321659
 20
223.9632899888346
 30
0.0
 11
493.6928997321659
 21
221.2102229836739
 31
0.0
  0
LINE
  5
A1A6
330
E1CC
100
AcDbEntity
  8
0
100
AcDbLine
 10
532.8884167811876
 20
217.2102229836739
 30
0.0
 11
529.8492629947389
 21
225.56022908719
 31
0.0
  0
LINE
  5
A1A9
330
E1CC
100
AcDbEntity
  8
0
100
AcDbLine
 10
535.7384319587293
 20
217.2102229836739
 30
0.0
 11
532.8884167811876
 21
217.2102229836739
 31
0.0
  0
LINE
  5
A1B1
330
E1CC
100
AcDbEntity
  8
0
100
AcDbLine
 10
529.8492929949518
 20
242.8602168801579
 30
0.0
 11
497.7384319587292
 21
242.8602168801579
 31
0.0
  0
LINE
  5
A27A
330
E1CC
100
AcDbEntity
  8
0
100
AcDbLine
 10
497.7384319587292
 20
246.4602535012528
 30
0.0
 11
497.7384319587292
 21
234.2102229836739
 31
0.0
  0
LINE
  5
A2D9
330
E1CC
100
AcDbEntity
  8
0
100
AcDbLine
 10
532.888457888891
 20
251.2102535012516
 30
0.0
 11
529.8492929949518
 21
242.8602168801579
 31
0.0
  0
LINE
  5
A2DF
330
E1CC
100
AcDbEntity
  8
0
100
AcDbLine
 10
535.7384319587293
 20
251.2102535012516
 30
0.0
 11
532.888457888891
 21
251.2102535012516
 31
0.0
  0
ARC
  5
A83D
330
E1CC
100
AcDbEntity
  8
0
100
AcDbCircle
 10
448.7384319587292
 20
234.2102229836739
 30
0.0
 40
15.0
100
AcDbArc
 50
179.9999974955312
 51
223.0886301859833
  0
LINE
  5
A83E
330
E1CC
100
AcDbEntity
  8
0
100
AcDbLine
 10
433.7384319587291
 20
246.4602535012485
 30
0.0
 11
433.7384319587291
 21
234.2102229836739
 31
0.0
  0
LINE
  5
A844
330
E1CC
100
AcDbEntity
  8
0
100
AcDbLine
 10
437.7839641852911
 20
223.9632899888346
 30
0.0
 11
437.7839641852911
 21
221.2102229836709
 31
0.0
  0
CIRCLE
  5
A84F
330
E1CC
100
AcDbEntity
  8
0
100
AcDbCircle
 10
465.7384472175177
 20
515.6161526961132
 30
0.0
 40
45.74998474121094
  0
ARC
  5
A850
330
E1CC
100
AcDbEntity
  8
0
100
AcDbCircle
 10
465.7384472175177
 20
557.6161526961132
 30
0.0
 40
12.0
100
AcDbArc
 50
233.8449033882592
 51
306.1550950178884
  0
ARC
  5
A851
330
E1CC
100
AcDbEntity
  8
0
100
AcDbCircle
 10
465.7384472175177
 20
473.6161526961132
 30
0.0
 40
12.0
100
AcDbArc
 50
53.84490498211139
 51
126.1550966117408
  0
CIRCLE
  5
A852
330
E1CC
100
AcDbEntity
  8
0
100
AcDbCircle
 10
465.7384472175177
 20
515.6161526961132
 30
0.0
 40
34.99998474121093
  0
ARC
  5
A853
330
E1CC
100
AcDbEntity
  8
0
100
AcDbCircle
 10
429.3653698249399
 20
536.6161526961132
 30
0.0
 40
12.0
100
AcDbArc
 50
293.8449460390294
 51
6.155068513009591
  0
ARC
  5
A854
330
E1CC
100
AcDbEntity
  8
0
100
AcDbCircle
 10
465.7384472175177
 20
515.6161526961132
 30
0.0
 40
35.0
100
AcDbArc
 50
169.5310598793884
 51
190.4689364781548
  0
ARC
  5
A855
330
E1CC
100
AcDbEntity
  8
0
100
AcDbCircle
 10
436.2378368659546
 20
510.1650723738478
 30
0.0
 40
5.0
100
AcDbArc
 50
190.468940120637
 51
246.1550489520009
  0
ARC
  5
A856
330
E1CC
100
AcDbEntity
  8
0
100
AcDbCircle
 10
436.2378368659546
 20
521.0672330183792
 30
0.0
 40
5.0
100
AcDbArc
 50
113.844951047999
 51
169.5310598793884
  0
ARC
  5
A857
330
E1CC
100
AcDbEntity
  8
0
100
AcDbCircle
 10
455.7089062018928
 20
487.3423489851757
 30
0.0
 40
5.0
100
AcDbArc
 50
250.4689281298853
 51
306.1550950178884
  0
ARC
  5
A858
330
E1CC
100
AcDbEntity
  8
0
100
AcDbCircle
 10
446.2673778815799
 20
492.793429307442
 30
0.0
 40
5.0
100
AcDbArc
 50
173.8449253968838
 51
229.5310478886503
  0
ARC
  5
A859
330
E1CC
100
AcDbEntity
  8
0
100
AcDbCircle
 10
465.7384472175177
 20
515.6161526961132
 30
0.0
 40
35.0
100
AcDbArc
 50
229.5310515311117
 51
250.4689281298853
  0
ARC
  5
A85A
330
E1CC
100
AcDbEntity
  8
0
100
AcDbCircle
 10
429.3653698249399
 20
494.6161526961128
 30
0.0
 40
12.0
100
AcDbArc
 50
353.8449366096411
 51
66.15504713078547
  0
ARC
  5
A85B
330
E1CC
100
AcDbEntity
  8
0
100
AcDbCircle
 10
455.7089062018928
 20
543.8899564070505
 30
0.0
 40
5.0
100
AcDbArc
 50
53.84490498211139
 51
109.531065039904
  0
ARC
  5
A85C
330
E1CC
100
AcDbEntity
  8
0
100
AcDbCircle
 10
446.2673778815799
 20
538.4388760847842
 30
0.0
 40
5.0
100
AcDbArc
 50
130.4689484688882
 51
186.1550573002806
  0
ARC
  5
A85D
330
E1CC
100
AcDbEntity
  8
0
100
AcDbCircle
 10
465.7384472175177
 20
515.6161526961132
 30
0.0
 40
35.0
100
AcDbArc
 50
109.5310718701144
 51
130.4689484688882
  0
ARC
  5
A85E
330
E1CC
100
AcDbEntity
  8
0
100
AcDbCircle
 10
502.1114635749399
 20
536.6161526961132
 30
0.0
 40
12.0
100
AcDbArc
 50
173.8448980761357
 51
246.1550999510611
  0
ARC
  5
A85F
330
E1CC
100
AcDbEntity
  8
0
100
AcDbCircle
 10
495.2390270515016
 20
510.1651028914254
 30
0.0
 40
5.0
100
AcDbArc
 50
293.8448913975248
 51
349.5310779222993
  0
ARC
  5
A860
330
E1CC
100
AcDbEntity
  8
0
100
AcDbCircle
 10
495.2390270515016
 20
521.0672025008005
 30
0.0
 40
5.0
100
AcDbArc
 50
10.46892037015502
 51
66.15511543266013
  0
ARC
  5
A861
330
E1CC
100
AcDbEntity
  8
0
100
AcDbCircle
 10
485.2095165534546
 20
492.7933987898629
 30
0.0
 40
5.0
100
AcDbArc
 50
310.4689161391592
 51
6.155102663954047
  0
ARC
  5
A862
330
E1CC
100
AcDbEntity
  8
0
100
AcDbCircle
 10
475.7679882331427
 20
487.3423489851757
 30
0.0
 40
5.0
100
AcDbArc
 50
233.8449033882592
 51
289.5310736913438
  0
ARC
  5
A863
330
E1CC
100
AcDbEntity
  8
0
100
AcDbCircle
 10
465.7384472175177
 20
515.6161526961132
 30
0.0
 40
35.0
100
AcDbArc
 50
289.5310736913438
 51
310.4689161391592
  0
ARC
  5
A864
330
E1CC
100
AcDbEntity
  8
0
100
AcDbCircle
 10
502.1114635749399
 20
494.6161526961128
 30
0.0
 40
12.0
100
AcDbArc
 50
113.8448827461004
 51
186.155098281416
  0
ARC
  5
A865
330
E1CC
100
AcDbEntity
  8
0
100
AcDbCircle
 10
465.7384472175177
 20
515.6161526961132
 30
0.0
 40
35.0
100
AcDbArc
 50
349.5310779222993
 51
10.46892037015502
  0
ARC
  5
A866
330
E1CC
100
AcDbEntity
  8
0
100
AcDbCircle
 10
485.2095165534546
 20
538.4389066023628
 30
0.0
 40
5.0
100
AcDbArc
 50
353.8448956285031
 51
49.5310804457375
  0
ARC
  5
A867
330
E1CC
100
AcDbEntity
  8
0
100
AcDbCircle
 10
475.7679882331427
 20
543.8899564070505
 30
0.0
 40
5.0
100
AcDbArc
 50
70.46892630865617
 51
126.1550966117408
  0
ARC
  5
A868
330
E1CC
100
AcDbEntity
  8
0
100
AcDbCircle
 10
465.7384472175177
 20
515.6161526961132
 30
0.0
 40
35.0
100
AcDbArc
 50
49.5310804457375
 51
70.46892630865617
  0
LINE
  5
A869
330
E1CC
100
AcDbEntity
  8
0
100
AcDbLine
 10
479.23841669994
 20
314.8102901223471
 30
0.0
 11
452.2384777350959
 21
314.8102901223471
 31
0.0
  0
LINE
  5
A86A
330
E1CC
100
AcDbEntity
  8
0
100
AcDbLine
 10
450.773095775515
 20
271.8102596047699
 30
0.0
 11
480.7038040084119
 21
271.8102596047685
 31
0.0
  0
LINE
  5
A86B
330
E1CC
100
AcDbEntity
  8
0
100
AcDbLine
 10
482.2384472175177
 20
274.8102901223457
 30
0.0
 11
449.2384472175177
 21
274.8102901223471
 31
0.0
  0
LINE
  5
A86C
330
E1CC
100
AcDbEntity
  8
0
100
AcDbLine
 10
419.9884472175178
 20
261.9602535012528
 30
0.0
 11
511.48841669994
 21
261.9602535012528
 31
0.0
  0
LINE
  5
A86D
330
E1CC
100
AcDbEntity
  8
0
100
AcDbLine
 10
500.7384166999393
 20
297.7102840188305
 30
0.0
 11
430.7384472175177
 21
297.7102840188305
 31
0.0
  0
LINE
  5
A86E
330
E1CC
100
AcDbEntity
  8
0
100
AcDbLine
 10
496.9340560061787
 20
311.7146785500805
 30
0.0
 11
434.542838428856
 21
311.7146785500805
 31
0.0
  0
LINE
  5
A86F
330
E1CC
100
AcDbEntity
  8
0
100
AcDbLine
 10
456.913038281971
 20
311.7146785500805
 30
0.0
 11
456.913038281971
 21
297.7102840188305
 31
0.0
  0
LINE
  5
A870
330
E1CC
100
AcDbEntity
  8
0
100
AcDbLine
 10
440.8196850104872
 20
311.7146785500805
 30
0.0
 11
440.8196850104872
 21
297.7102840188305
 31
0.0
  0
LINE
  5
A871
330
E1CC
100
AcDbEntity
  8
0
100
AcDbLine
 10
450.773095775515
 20
271.8102596047699
 30
0.0
 11
449.2983808354512
 21
266.3065485679001
 31
0.0
  0
LINE
  5
A872
330
E1CC
100
AcDbEntity
  8
0
100
AcDbLine
 10
454.7384472175178
 20
274.8102901223471
 30
0.0
 11
454.7384472175178
 21
271.8102596047699
 31
0.0
  0
LINE
  5
A873
330
E1CC
100
AcDbEntity
  8
0
100
AcDbLine
 10
449.2384472175177
 20
297.7102840188305
 30
0.0
 11
449.2384472175177
 21
274.8102901223471
 31
0.0
  0
LINE
  5
A874
330
E1CC
100
AcDbEntity
  8
0
100
AcDbLine
 10
430.7384472175177
 20
310.7129578314485
 30
0.0
 11
430.7384472175177
 21
297.7102840188305
 31
0.0
  0
LINE
  5
A875
330
E1CC
100
AcDbEntity
  8
0
100
AcDbLine
 10
431.7384472175177
 20
263.2102584021449
 30
0.0
 11
431.7384472175177
 21
261.9602535012528
 31
0.0
  0
ARC
  5
A876
330
E1CC
100
AcDbEntity
  8
0
100
AcDbCircle
 10
465.7384472175177
 20
185.51311757596
 30
0.0
 40
130.0
100
AcDbArc
 50
95.96067444220977
 51
105.6184982756485
  0
LINE
  5
A877
330
E1CC
100
AcDbEntity
  8
0
100
AcDbLine
 10
449.2983808354512
 20
266.3065485679001
 30
0.0
 11
431.7384472175177
 21
263.2102584021449
 31
0.0
  0
LINE
  5
A878
330
E1CC
100
AcDbEntity
  8
0
100
AcDbLine
 10
482.1785254876339
 20
266.3065241634319
 30
0.0
 11
499.73841669994
 21
263.2102414749329
 31
0.0
  0
ARC
  5
A879
330
E1CC
100
AcDbEntity
  8
0
100
AcDbCircle
 10
465.7384472175177
 20
185.51311757596
 30
0.0
 40
130.0
100
AcDbArc
 50
74.38151569025078
 51
84.03932373656594
  0
LINE
  5
A87A
330
E1CC
100
AcDbEntity
  8
0
100
AcDbLine
 10
490.657178906971
 20
311.7146785500805
 30
0.0
 11
490.657178906971
 21
297.7102840188305
 31
0.0
  0
LINE
  5
A87B
330
E1CC
100
AcDbEntity
  8
0
100
AcDbLine
 10
474.5638256354872
 20
311.7146785500805
 30
0.0
 11
474.5638256354872
 21
297.7102840188305
 31
0.0
  0
LINE
  5
A87C
330
E1CC
100
AcDbEntity
  8
0
100
AcDbLine
 10
480.7038040084119
 20
271.8102596047685
 30
0.0
 11
482.1785254876339
 21
266.3065241634319
 31
0.0
  0
LINE
  5
A87D
330
E1CC
100
AcDbEntity
  8
0
100
AcDbLine
 10
476.7384472175177
 20
274.8102901223457
 30
0.0
 11
476.7384472175177
 21
271.8102596047685
 31
0.0
  0
LINE
  5
A87E
330
E1CC
100
AcDbEntity
  8
0
100
AcDbLine
 10
482.2384472175177
 20
297.7102840188305
 30
0.0
 11
482.2384472175177
 21
274.8102901223457
 31
0.0
  0
LINE
  5
A87F
330
E1CC
100
AcDbEntity
  8
0
100
AcDbLine
 10
500.7384166999393
 20
310.7129663627279
 30
0.0
 11
500.7384166999393
 21
297.7102840188305
 31
0.0
  0
LINE
  5
A880
330
E1CC
100
AcDbEntity
  8
0
100
AcDbLine
 10
499.73841669994
 20
263.2102414749329
 30
0.0
 11
499.73841669994
 21
261.9602535012528
 31
0.0
  0
LINE
  5
A881
330
E1CC
100
AcDbEntity
  8
0
100
AcDbLine
 10
419.9884472175178
 20
261.9602535012528
 30
0.0
 11
419.9884472175178
 21
246.4602535012485
 31
0.0
  0
LINE
  5
A882
330
E1CC
100
AcDbEntity
  8
0
100
AcDbLine
 10
419.9884472175178
 20
246.4602535012485
 30
0.0
 11
511.48841669994
 21
246.4602535012528
 31
0.0
  0
LINE
  5
A883
330
E1CC
100
AcDbEntity
  8
0
100
AcDbLine
 10
511.48841669994
 20
261.9602535012528
 30
0.0
 11
511.48841669994
 21
246.4602535012528
 31
0.0
  0
LINE
  5
A8BB
330
E1CC
100
AcDbEntity
  8
0
100
AcDbLine
 10
529.8492929949518
 20
242.8602168801579
 30
0.0
 11
529.8492629947389
 21
225.56022908719
 31
0.0
  0
LINE
  5
A8BC
330
E1CC
100
AcDbEntity
  8
0
100
AcDbLine
 10
457.0884075446659
 20
200.0993848574008
 30
0.0
 11
474.3884563727911
 21
200.0993465895011
 31
0.0
  0
LINE
  5
A8C3
330
E1CC
100
AcDbEntity
  8
0
100
AcDbLine
 10
529.8493082537405
 20
524.2661313338088
 30
0.0
 11
529.8492782535279
 21
506.9661435408398
 31
0.0
  0
LINE
  5
A8C4
330
E1CC
100
AcDbEntity
  8
0
100
AcDbLine
 10
535.7384472175181
 20
532.6161679549029
 30
0.0
 11
535.7384472175181
 21
498.6161374373239
 31
0.0
  0
LINE
  5
A8C5
330
E1CC
100
AcDbEntity
  8
0
100
AcDbLine
 10
535.7384472175181
 20
532.6161679549029
 30
0.0
 11
532.8884731476797
 21
532.6161679549029
 31
0.0
  0
LINE
  5
A8C6
330
E1CC
100
AcDbEntity
  8
0
100
AcDbLine
 10
532.8884731476797
 20
532.6161679549029
 30
0.0
 11
529.8493082537405
 21
524.2661313338088
 31
0.0
  0
LINE
  5
A8C7
330
E1CC
100
AcDbEntity
  8
0
100
AcDbLine
 10
532.8884320399768
 20
498.6161374373239
 30
0.0
 11
529.8492782535279
 21
506.9661435408398
 31
0.0
  0
LINE
  5
A8C8
330
E1CC
100
AcDbEntity
  8
0
100
AcDbLine
 10
535.7384472175181
 20
498.6161374373239
 30
0.0
 11
532.8884320399768
 21
498.6161374373239
 31
0.0
  0
LINE
  5
A8C9
330
E1CC
100
AcDbEntity
  8
0
100
AcDbLine
 10
529.8493082537405
 20
524.2661313338088
 30
0.0
 11
510.6632618903505
 21
524.2661313338088
 31
0.0
  0
LINE
  5
A8CA
330
E1CC
100
AcDbEntity
  8
0
100
AcDbLine
 10
529.8492782535279
 20
506.9661435408398
 30
0.0
 11
510.6632560143808
 21
506.9661435408398
 31
0.0
  0
LINE
  5
E195
330
E1CC
100
AcDbEntity
  8
0
100
AcDbLine
 10
395.7384166999391
 20
532.6161679549029
 30
0.0
 11
395.7384166999391
 21
498.6161374373239
 31
0.0
  0
LINE
  5
E196
330
E1CC
100
AcDbEntity
  8
0
100
AcDbLine
 10
401.6275556637165
 20
524.2661313338088
 30
0.0
 11
401.6275856639292
 21
506.9661435408398
 31
0.0
  0
LINE
  5
E197
330
E1CC
100
AcDbEntity
  8
0
100
AcDbLine
 10
401.6275856639292
 20
506.9661435408398
 30
0.0
 11
420.8136079030762
 21
506.9661435408398
 31
0.0
  0
LINE
  5
E198
330
E1CC
100
AcDbEntity
  8
0
100
AcDbLine
 10
398.5884318774802
 20
498.6161374373239
 30
0.0
 11
401.6275856639292
 21
506.9661435408398
 31
0.0
  0
LINE
  5
E199
330
E1CC
100
AcDbEntity
  8
0
100
AcDbLine
 10
395.7384166999391
 20
498.6161374373239
 30
0.0
 11
398.5884318774802
 21
498.6161374373239
 31
0.0
  0
LINE
  5
E19A
330
E1CC
100
AcDbEntity
  8
0
100
AcDbLine
 10
401.6275556637165
 20
524.2661313338088
 30
0.0
 11
420.8136020271064
 21
524.2661313338088
 31
0.0
  0
LINE
  5
E19B
330
E1CC
100
AcDbEntity
  8
0
100
AcDbLine
 10
398.5883907697772
 20
532.6161679549029
 30
0.0
 11
401.6275556637165
 21
524.2661313338088
 31
0.0
  0
LINE
  5
E19C
330
E1CC
100
AcDbEntity
  8
0
100
AcDbLine
 10
395.7384166999391
 20
532.6161679549029
 30
0.0
 11
398.5883907697772
 21
532.6161679549029
 31
0.0
  0
LINE
  5
E19D
330
E1CC
100
AcDbEntity
  8
0
100
AcDbLine
 10
401.6275709225054
 20
242.8602168801579
 30
0.0
 11
401.6276009227181
 21
225.56022908719
 31
0.0
  0
LINE
  5
E19E
330
E1CC
100
AcDbEntity
  8
0
100
AcDbLine
 10
395.738431958728
 20
251.2102535012516
 30
0.0
 11
395.738431958728
 21
217.2102229836739
 31
0.0
  0
LINE
  5
E19F
330
E1CC
100
AcDbEntity
  8
0
100
AcDbLine
 10
401.6276009227181
 20
225.56022908719
 30
0.0
 11
436.4837346719418
 21
225.5602290871885
 31
0.0
  0
LINE
  5
E1A0
330
E1CC
100
AcDbEntity
  8
0
100
AcDbLine
 10
395.738431958728
 20
217.2102229836739
 30
0.0
 11
398.5884471362694
 21
217.2102229836739
 31
0.0
  0
LINE
  5
E1A1
330
E1CC
100
AcDbEntity
  8
0
100
AcDbLine
 10
398.5884471362694
 20
217.2102229836739
 30
0.0
 11
401.6276009227181
 21
225.56022908719
 31
0.0
  0
LINE
  5
E1A2
330
E1CC
100
AcDbEntity
  8
0
100
AcDbLine
 10
401.6275709225054
 20
242.8602168801579
 30
0.0
 11
433.7384319587279
 21
242.8602168801579
 31
0.0
  0
LINE
  5
E1A3
330
E1CC
100
AcDbEntity
  8
0
100
AcDbLine
 10
395.738431958728
 20
251.2102535012516
 30
0.0
 11
398.588406028566
 21
251.2102535012516
 31
0.0
  0
LINE
  5
E1A4
330
E1CC
100
AcDbEntity
  8
0
100
AcDbLine
 10
398.588406028566
 20
251.2102535012516
 30
0.0
 11
401.6275709225054
 21
242.8602168801579
 31
0.0
  0
LINE
  5
E292
330
E1CC
100
AcDbEntity
  8
0
  6
CENTER
100
AcDbLine
 10
465.7384472175177
 20
443.7555706339999
 30
0.0
 11
465.7384472175177
 21
587.4767347582264
 31
0.0
  0
LINE
  5
E293
330
E1CC
100
AcDbEntity
  8
0
  6
CENTER
100
AcDbLine
 10
378.6631100285691
 20
234.2102382424627
 30
0.0
 11
552.8137538888865
 21
234.2102382424627
 31
0.0
  0
LINE
  5
E294
330
E1CC
100
AcDbEntity
  8
0
  6
CENTER
100
AcDbLine
 10
465.7384319587277
 20
174.5996714391378
 30
0.0
 11
465.7384319587277
 21
340.1453334928645
 31
0.0
  0
LINE
  5
E295
330
E1CC
100
AcDbEntity
  8
0
  6
CENTER
100
AcDbLine
 10
378.663125287359
 20
515.6161526961132
 30
0.0
 11
552.8137691476764
 21
515.6161526961132
 31
0.0
  0
ENDSEC
  0
SECTION
  2
OBJECTS
  0
DICTIONARY
  5
E1BA
330
0
100
AcDbDictionary
281
     1
  3
ACAD_GROUP
350
E1BB
  3
ACAD_LAYOUT
350
E1C7
  3
ACAD_MLINESTYLE
350
E1C4
  3
ACAD_PLOTSETTINGS
350
E1C6
  3
ACAD_PLOTSTYLENAME
350
E1BC
  3
AcDbVariableDictionary
350
E212
  0
DICTIONARY
  5
E289
330
E1B0
100
AcDbDictionary
280
     1
281
     1
  3
ACAD_LAYERSTATES
360
E28A
  0
DICTIONARY
  5
E1DE
330
E1CC
100
AcDbDictionary
280
     1
281
     1
  3
ACAD_LAYOUTSELFREF
360
E281
  0
DICTIONARY
  5
E1E0
330
E1C8
100
AcDbDictionary
280
     1
281
     1
  3
ACAD_LAYOUTSELFREF
360
E280
  0
DICTIONARY
  5
E1BB
102
{ACAD_REACTORS
330
E1BA
102
}
330
E1BA
100
AcDbDictionary
281
     1
  0
DICTIONARY
  5
E1C7
102
{ACAD_REACTORS
330
E1BA
102
}
330
E1BA
100
AcDbDictionary
281
     1
  3
Model
350
E1CF
  3
ﾚｲｱｳﾄ1
350
E1CB
  0
DICTIONARY
  5
E1C4
102
{ACAD_REACTORS
330
E1BA
102
}
330
E1BA
100
AcDbDictionary
281
     1
  3
Standard
350
E1C5
  0
DICTIONARY
  5
E1C6
102
{ACAD_REACTORS
330
E1BA
102
}
330
E1BA
100
AcDbDictionary
281
     1
  0
ACDBDICTIONARYWDFLT
  5
E1BC
102
{ACAD_REACTORS
330
E1BA
102
}
330
E1BA
100
AcDbDictionary
281
     1
  3
Normal
350
E1BD
100
AcDbDictionaryWithDefault
340
E1BD
  0
DICTIONARY
  5
E212
102
{ACAD_REACTORS
330
E1BA
102
}
330
E1BA
100
AcDbDictionary
281
     1
  3
DIMASSOC
350
E213
  0
DICTIONARY
  5
E28A
102
{ACAD_REACTORS
330
E289
102
}
330
E289
100
AcDbDictionary
281
     1
  0
XRECORD
  5
E281
102
{ACAD_REACTORS
330
E1DE
102
}
330
E1DE
100
AcDbXrecord
280
     1
340
E1CC
  0
XRECORD
  5
E280
102
{ACAD_REACTORS
330
E1E0
102
}
330
E1E0
100
AcDbXrecord
280
     1
340
E1C8
  0
LAYOUT
  5
E1CF
102
{ACAD_REACTORS
330
E1C7
102
}
330
E1C7
100
AcDbPlotSettings
  1

  2
SII LP-2150 (D-SCAN C2)
  4

  6

 40
0.0
 41
0.0
 42
0.0
 43
0.0
 44
0.0
 45
0.0
 46
0.0
 47
0.0
 48
0.0
 49
0.0
140
0.0
141
0.0
142
1.0
143
1.0
 70
  1712
 72
     0
 73
     0
 74
     0
  7

 75
     0
147
1.0
148
0.0
149
0.0
100
AcDbLayout
  1
Model
 70
     1
 71
     0
 10
0.0
 20
0.0
 11
12.0
 21
9.0
 12
0.0
 22
0.0
 32
0.0
 14
0.0
 24
0.0
 34
0.0
 15
0.0
 25
0.0
 35
0.0
146
0.0
 13
0.0
 23
0.0
 33
0.0
 16
1.0
 26
0.0
 36
0.0
 17
0.0
 27
1.0
 37
0.0
 76
     0
330
E1CC
  0
LAYOUT
  5
E1CB
102
{ACAD_REACTORS
330
E1C7
102
}
330
E1C7
100
AcDbPlotSettings
  1

  2
SII LP-2150 (D-SCAN C2)
  4

  6

 40
0.0
 41
0.0
 42
0.0
 43
0.0
 44
0.0
 45
0.0
 46
0.0
 47
0.0
 48
0.0
 49
0.0
140
0.0
141
0.0
142
1.0
143
1.0
 70
   688
 72
     0
 73
     0
 74
     5
  7

 75
    16
147
1.0
148
0.0
149
0.0
100
AcDbLayout
  1
ﾚｲｱｳﾄ1
 70
     1
 71
     1
 10
-580.5701293945312
 20
0.0
 11
0.0
 21
407.8999938964844
 12
0.0
 22
0.0
 32
0.0
 14
-580.5701293945312
 24
0.0
 34
0.0
 15
0.0
 25
407.8999938964844
 35
0.0
146
0.0
 13
0.0
 23
0.0
 33
0.0
 16
1.0
 26
0.0
 36
0.0
 17
0.0
 27
1.0
 37
0.0
 76
     0
330
E1C8
  0
MLINESTYLE
  5
E1C5
102
{ACAD_REACTORS
330
E1C4
102
}
330
E1C4
100
AcDbMlineStyle
  2
STANDARD
 70
     0
  3

 62
   256
 51
90.0
 52
90.0
 71
     2
 49
0.5
 62
   256
  6
BYLAYER
 49
-0.5
 62
   256
  6
BYLAYER
  0
ACDBPLACEHOLDER
  5
E1BD
102
{ACAD_REACTORS
330
E1BC
102
}
330
E1BC
  0
DICTIONARYVAR
  5
E213
102
{ACAD_REACTORS
330
E212
102
}
330
E212
100
DictionaryVariables
280
     0
  1
1
  0
ENDSEC
  0
EOF
