  0
SECTION
  2
HEADER
  9
$ACADVER
  1
AC1015
  9
$ACADMAINTVER
 70
    14
  9
$DWGCODEPAGE
  3
ANSI_932
  9
$INSBASE
 10
0.0
 20
0.0
 30
0.0
  9
$EXTMIN
 10
230.048807669721
 20
100.3975891500376
 30
-0.000000000000013
  9
$EXTMAX
 10
690.8151390275297
 20
677.0276923361727
 30
0.0000000000000023
  9
$LIMMIN
 10
-580.5701293945312
 20
0.0
  9
$LIMMAX
 10
0.0
 20
407.8999938964844
  9
$ORTHOMODE
 70
     0
  9
$REGENMODE
 70
     1
  9
$FILLMODE
 70
     1
  9
$QTEXTMODE
 70
     0
  9
$MIRRTEXT
 70
     1
  9
$LTSCALE
 40
1.0
  9
$ATTMODE
 70
     1
  9
$TEXTSIZE
 40
0.2
  9
$TRACEWID
 40
0.05
  9
$TEXTSTYLE
  7
STANDARD
  9
$CLAYER
  8
0
  9
$CELTYPE
  6
ByLayer
  9
$CECOLOR
 62
   256
  9
$CELTSCALE
 40
1.0
  9
$DISPSILH
 70
     0
  9
$DIMSCALE
 40
1.0
  9
$DIMASZ
 40
1.0
  9
$DIMEXO
 40
2.54
  9
$DIMDLI
 40
0.38
  9
$DIMRND
 40
0.0
  9
$DIMDLE
 40
0.0
  9
$DIMEXE
 40
2.54
  9
$DIMTP
 40
0.0
  9
$DIMTM
 40
0.0
  9
$DIMTXT
 40
3.200000047683714
  9
$DIMCEN
 40
0.09
  9
$DIMTSZ
 40
0.0
  9
$DIMTOL
 70
     0
  9
$DIMLIM
 70
     0
  9
$DIMTIH
 70
     0
  9
$DIMTOH
 70
     0
  9
$DIMSE1
 70
     0
  9
$DIMSE2
 70
     0
  9
$DIMTAD
 70
     1
  9
$DIMZIN
 70
     0
  9
$DIMBLK
  1

  9
$DIMASO
 70
     1
  9
$DIMSHO
 70
     0
  9
$DIMPOST
  1

  9
$DIMAPOST
  1

  9
$DIMALT
 70
     0
  9
$DIMALTD
 70
     2
  9
$DIMALTF
 40
25.4
  9
$DIMLFAC
 40
1.0
  9
$DIMTOFL
 70
     0
  9
$DIMTVP
 40
1.0
  9
$DIMTIX
 70
     0
  9
$DIMSOXD
 70
     0
  9
$DIMSAH
 70
     0
  9
$DIMBLK1
  1

  9
$DIMBLK2
  1

  9
$DIMSTYLE
  2
STANDARD
  9
$DIMCLRD
 70
     0
  9
$DIMCLRE
 70
     0
  9
$DIMCLRT
 70
     0
  9
$DIMTFAC
 40
1.0
  9
$DIMGAP
 40
1.600000023841857
  9
$DIMJUST
 70
     0
  9
$DIMSD1
 70
     0
  9
$DIMSD2
 70
     0
  9
$DIMTOLJ
 70
     1
  9
$DIMTZIN
 70
     0
  9
$DIMALTZ
 70
     0
  9
$DIMALTTZ
 70
     0
  9
$DIMUPT
 70
     0
  9
$DIMDEC
 70
     4
  9
$DIMTDEC
 70
     4
  9
$DIMALTU
 70
     2
  9
$DIMALTTD
 70
     2
  9
$DIMTXSTY
  7
STANDARD
  9
$DIMAUNIT
 70
     0
  9
$DIMADEC
 70
     0
  9
$DIMALTRND
 40
0.0
  9
$DIMAZIN
 70
     0
  9
$DIMDSEP
 70
    46
  9
$DIMATFIT
 70
     3
  9
$DIMFRAC
 70
     0
  9
$DIMLDRBLK
  1

  9
$DIMLUNIT
 70
     2
  9
$DIMLWD
 70
    -2
  9
$DIMLWE
 70
    -2
  9
$DIMTMOVE
 70
     0
  9
$LUNITS
 70
     2
  9
$LUPREC
 70
     4
  9
$SKETCHINC
 40
0.1
  9
$FILLETRAD
 40
0.0
  9
$AUNITS
 70
     0
  9
$AUPREC
 70
     0
  9
$MENU
  1
.
  9
$ELEVATION
 40
0.0
  9
$PELEVATION
 40
0.0
  9
$THICKNESS
 40
0.0
  9
$LIMCHECK
 70
     0
  9
$CHAMFERA
 40
0.0
  9
$CHAMFERB
 40
0.0
  9
$CHAMFERC
 40
0.0
  9
$CHAMFERD
 40
0.0
  9
$SKPOLY
 70
     0
  9
$TDCREATE
 40
2452717.604314595
  9
$TDUCREATE
 40
2452717.229314595
  9
$TDUPDATE
 40
2456899.671193171
  9
$TDUUPDATE
 40
2456899.296193171
  9
$TDINDWG
 40
0.3824487963
  9
$TDUSRTIMER
 40
0.3824487963
  9
$USRTIMER
 70
     1
  9
$ANGBASE
 50
0.0
  9
$ANGDIR
 70
     0
  9
$PDMODE
 70
     3
  9
$PDSIZE
 40
0.0
  9
$PLINEWID
 40
0.0
  9
$SPLFRAME
 70
     0
  9
$SPLINETYPE
 70
     6
  9
$SPLINESEGS
 70
     8
  9
$HANDSEED
  5
E2C0
  9
$SURFTAB1
 70
     6
  9
$SURFTAB2
 70
     6
  9
$SURFTYPE
 70
     6
  9
$SURFU
 70
     6
  9
$SURFV
 70
     6
  9
$UCSBASE
  2

  9
$UCSNAME
  2

  9
$UCSORG
 10
0.0
 20
0.0
 30
0.0
  9
$UCSXDIR
 10
1.0
 20
0.0
 30
0.0
  9
$UCSYDIR
 10
0.0
 20
1.0
 30
0.0
  9
$UCSORTHOREF
  2

  9
$UCSORTHOVIEW
 70
     0
  9
$UCSORGTOP
 10
0.0
 20
0.0
 30
0.0
  9
$UCSORGBOTTOM
 10
0.0
 20
0.0
 30
0.0
  9
$UCSORGLEFT
 10
0.0
 20
0.0
 30
0.0
  9
$UCSORGRIGHT
 10
0.0
 20
0.0
 30
0.0
  9
$UCSORGFRONT
 10
0.0
 20
0.0
 30
0.0
  9
$UCSORGBACK
 10
0.0
 20
0.0
 30
0.0
  9
$PUCSBASE
  2

  9
$PUCSNAME
  2

  9
$PUCSORG
 10
0.0
 20
0.0
 30
0.0
  9
$PUCSXDIR
 10
1.0
 20
0.0
 30
0.0
  9
$PUCSYDIR
 10
0.0
 20
1.0
 30
0.0
  9
$PUCSORTHOREF
  2

  9
$PUCSORTHOVIEW
 70
     0
  9
$PUCSORGTOP
 10
0.0
 20
0.0
 30
0.0
  9
$PUCSORGBOTTOM
 10
0.0
 20
0.0
 30
0.0
  9
$PUCSORGLEFT
 10
0.0
 20
0.0
 30
0.0
  9
$PUCSORGRIGHT
 10
0.0
 20
0.0
 30
0.0
  9
$PUCSORGFRONT
 10
0.0
 20
0.0
 30
0.0
  9
$PUCSORGBACK
 10
0.0
 20
0.0
 30
0.0
  9
$USERI1
 70
     0
  9
$USERI2
 70
     0
  9
$USERI3
 70
     0
  9
$USERI4
 70
     0
  9
$USERI5
 70
     0
  9
$USERR1
 40
0.0
  9
$USERR2
 40
0.0
  9
$USERR3
 40
0.0
  9
$USERR4
 40
0.0
  9
$USERR5
 40
0.0
  9
$WORLDVIEW
 70
     1
  9
$SHADEDGE
 70
     3
  9
$SHADEDIF
 70
    70
  9
$TILEMODE
 70
     1
  9
$MAXACTVP
 70
    48
  9
$PINSBASE
 10
0.0
 20
0.0
 30
0.0
  9
$PLIMCHECK
 70
     0
  9
$PEXTMIN
 10
-580.5701293945312
 20
0.0
 30
0.0
  9
$PEXTMAX
 10
0.0
 20
407.8999938964844
 30
0.0
  9
$PLIMMIN
 10
-580.5701293945312
 20
0.0
  9
$PLIMMAX
 10
0.0
 20
407.8999938964844
  9
$UNITMODE
 70
     0
  9
$VISRETAIN
 70
     1
  9
$PLINEGEN
 70
     0
  9
$PSLTSCALE
 70
     1
  9
$TREEDEPTH
 70
  3020
  9
$CMLSTYLE
  2
Standard
  9
$CMLJUST
 70
     0
  9
$CMLSCALE
 40
1.0
  9
$PROXYGRAPHICS
 70
     1
  9
$MEASUREMENT
 70
     0
  9
$CELWEIGHT
370
    -1
  9
$ENDCAPS
280
     0
  9
$JOINSTYLE
280
     0
  9
$LWDISPLAY
290
     0
  9
$INSUNITS
 70
     0
  9
$HYPERLINKBASE
  1

  9
$STYLESHEET
  1

  9
$XEDIT
290
     1
  9
$CEPSNTYPE
380
     0
  9
$PSTYLEMODE
290
     1
  9
$FINGERPRINTGUID
  2
{642771B3-0B10-4C2E-B97C-E23C55DE10D8}
  9
$VERSIONGUID
  2
{FD2D5291-A22B-46CF-946E-5D7602144C1B}
  9
$EXTNAMES
290
     1
  9
$PSVPSCALE
 40
0.0
  9
$OLESTARTUP
290
     0
  0
ENDSEC
  0
SECTION
  2
CLASSES
  0
CLASS
  1
ACDBDICTIONARYWDFLT
  2
AcDbDictionaryWithDefault
  3
AutoCAD 2000
 90
        0
280
     0
281
     0
  0
CLASS
  1
ACDBPLACEHOLDER
  2
AcDbPlaceHolder
  3
AutoCAD 2000
 90
        0
280
     0
281
     0
  0
CLASS
  1
LAYOUT
  2
AcDbLayout
  3
AutoCAD 2000
 90
        0
280
     0
281
     0
  0
CLASS
  1
DICTIONARYVAR
  2
AcDbDictionaryVar
  3
AutoCAD 2000
 90
        0
280
     0
281
     0
  0
CLASS
  1
LONG_TRANSACTION
  2
AcDbLongTransaction
  3
AutoCAD 2000
 90
    32768
280
     0
281
     0
  0
CLASS
  1
LWPOLYLINE
  2
AcDbPolyline
  3
AutoCAD 2000
 90
    32768
280
     0
281
     1
  0
CLASS
  1
HATCH
  2
AcDbHatch
  3
AutoCAD 2000
 90
    32768
280
     0
281
     1
  0
CLASS
  1
XRECORD
  2
AcDbXrecord
  3
AutoCAD 2000
 90
    32768
280
     0
281
     0
  0
CLASS
  1
LONG_TRANSACTION
  2
AcDbLongTransaction
  3
AutoCAD 2000
 90
    32768
280
     0
281
     0
  0
CLASS
  1
LWPOLYLINE
  2
AcDbPolyline
  3
AutoCAD 2000
 90
    32768
280
     0
281
     1
  0
CLASS
  1
HATCH
  2
AcDbHatch
  3
AutoCAD 2000
 90
    32768
280
     0
281
     1
  0
CLASS
  1
XRECORD
  2
AcDbXrecord
  3
AutoCAD 2000
 90
    32768
280
     0
281
     0
  0
CLASS
  1
LONG_TRANSACTION
  2
AcDbLongTransaction
  3
AutoCAD 2000
 90
    32768
280
     0
281
     0
  0
CLASS
  1
LWPOLYLINE
  2
AcDbPolyline
  3
AutoCAD 2000
 90
    32768
280
     0
281
     1
  0
CLASS
  1
HATCH
  2
AcDbHatch
  3
AutoCAD 2000
 90
    32768
280
     0
281
     1
  0
CLASS
  1
XRECORD
  2
AcDbXrecord
  3
AutoCAD 2000
 90
    32768
280
     0
281
     0
  0
CLASS
  1
LONG_TRANSACTION
  2
AcDbLongTransaction
  3
AutoCAD 2000
 90
    32768
280
     0
281
     0
  0
CLASS
  1
LWPOLYLINE
  2
AcDbPolyline
  3
AutoCAD 2000
 90
    32768
280
     0
281
     1
  0
CLASS
  1
HATCH
  2
AcDbHatch
  3
AutoCAD 2000
 90
    32768
280
     0
281
     1
  0
CLASS
  1
XRECORD
  2
AcDbXrecord
  3
AutoCAD 2000
 90
    32768
280
     0
281
     0
  0
ENDSEC
  0
SECTION
  2
TABLES
  0
TABLE
  2
VPORT
  5
E19C
330
0
100
AcDbSymbolTable
 70
     2
  0
VPORT
  5
E2BF
330
E19C
100
AcDbSymbolTableRecord
100
AcDbViewportTableRecord
  2
*Active
 70
     0
 10
0.0
 20
0.0
 11
1.0
 21
1.0
 12
460.4319733486254
 22
388.7126407431052
 13
0.0
 23
0.0
 14
1.0
 24
1.0
 15
0.0
 25
0.0
 16
0.0
 26
0.0
 36
1.0
 17
0.0
 27
0.0
 37
0.0
 40
580.291246698428
 41
1.592161016949152
 42
50.0
 43
0.0
 44
0.0
 50
0.0
 51
0.0
 71
     0
 72
   100
 73
     1
 74
     3
 75
     0
 76
     0
 77
     0
 78
     0
281
     0
 65
     1
110
0.0
120
0.0
130
0.0
111
1.0
121
0.0
131
0.0
112
0.0
122
1.0
132
0.0
 79
     0
146
0.0
  0
ENDTAB
  0
TABLE
  2
LTYPE
  5
E199
330
0
100
AcDbSymbolTable
 70
     2
  0
LTYPE
  5
E1A7
330
E199
100
AcDbSymbolTableRecord
100
AcDbLinetypeTableRecord
  2
ByBlock
 70
     0
  3

 72
    65
 73
     0
 40
0.0
  0
LTYPE
  5
E1A8
330
E199
100
AcDbSymbolTableRecord
100
AcDbLinetypeTableRecord
  2
ByLayer
 70
     0
  3

 72
    65
 73
     0
 40
0.0
  0
LTYPE
  5
E1A9
330
E199
100
AcDbSymbolTableRecord
100
AcDbLinetypeTableRecord
  2
CONTINUOUS
 70
     0
  3
Solid line
 72
    65
 73
     0
 40
0.0
  0
LTYPE
  5
E2A5
330
E199
100
AcDbSymbolTableRecord
100
AcDbLinetypeTableRecord
  2
CENTER
 70
     0
  3
__ . __
 72
    65
 73
     4
 40
7.0
 49
4.0
 74
     0
 49
-1.0
 74
     0
 49
1.0
 74
     0
 49
-1.0
 74
     0
  0
ENDTAB
  0
TABLE
  2
LAYER
  5
E196
102
{ACAD_XDICTIONARY
360
E2A7
102
}
330
0
100
AcDbSymbolTable
 70
     1
  0
LAYER
  5
E1A4
330
E196
100
AcDbSymbolTableRecord
100
AcDbLayerTableRecord
  2
0
 70
     0
 62
     7
  6
CONTINUOUS
370
    -3
390
E1A3
  0
ENDTAB
  0
TABLE
  2
STYLE
  5
E197
330
0
100
AcDbSymbolTable
 70
     1
  0
STYLE
  5
E1A5
330
E197
100
AcDbSymbolTableRecord
100
AcDbTextStyleTableRecord
  2
STANDARD
 70
     0
 40
0.0
 41
1.0
 50
0.0
 71
     0
 42
0.2
  3
txt
  4
BIGFONT
  0
ENDTAB
  0
TABLE
  2
VIEW
  5
E19A
330
0
100
AcDbSymbolTable
 70
     0
  0
ENDTAB
  0
TABLE
  2
UCS
  5
E19B
330
0
100
AcDbSymbolTable
 70
     0
  0
ENDTAB
  0
TABLE
  2
APPID
  5
E19D
330
0
100
AcDbSymbolTable
 70
     4
  0
APPID
  5
E1A6
330
E19D
100
AcDbSymbolTableRecord
100
AcDbRegAppTableRecord
  2
ACAD
 70
     0
  0
APPID
  5
E1B8
330
E19D
100
AcDbSymbolTableRecord
100
AcDbRegAppTableRecord
  2
MCAD_NO_VIS
 70
     0
  0
APPID
  5
E1B9
330
E19D
100
AcDbSymbolTableRecord
100
AcDbRegAppTableRecord
  2
ACAD_TEMP_GRAPHIC
 70
     0
  0
APPID
  5
E1BA
330
E19D
100
AcDbSymbolTableRecord
100
AcDbRegAppTableRecord
  2
ACATTRIBSERVICES
 70
     0
  0
ENDTAB
  0
TABLE
  2
DIMSTYLE
  5
E19E
330
0
100
AcDbSymbolTable
 70
     1
100
AcDbDimStyleTable
 71
     0
  0
DIMSTYLE
105
E1BB
330
E19E
100
AcDbSymbolTableRecord
100
AcDbDimStyleTableRecord
  2
STANDARD
 70
     0
279
     2
340
E1A5
  0
ENDTAB
  0
TABLE
  2
BLOCK_RECORD
  5
E195
330
0
100
AcDbSymbolTable
 70
     0
  0
BLOCK_RECORD
  5
E1B2
102
{ACAD_XDICTIONARY
360
E1C4
102
}
330
E195
100
AcDbSymbolTableRecord
100
AcDbBlockTableRecord
  2
*Model_Space
340
E1B5
  0
BLOCK_RECORD
  5
E1AE
102
{ACAD_XDICTIONARY
360
E1C6
102
}
330
E195
100
AcDbSymbolTableRecord
100
AcDbBlockTableRecord
  2
*Paper_Space
340
E1B1
  0
ENDTAB
  0
ENDSEC
  0
SECTION
  2
BLOCKS
  0
BLOCK
  5
E1B3
330
E1B2
100
AcDbEntity
  8
0
100
AcDbBlockBegin
  2
*Model_Space
 70
     0
 10
0.0
 20
0.0
 30
0.0
  3
*Model_Space
  1

  0
ENDBLK
  5
E1B4
330
E1B2
100
AcDbEntity
  8
0
100
AcDbBlockEnd
  0
BLOCK
  5
E1AF
330
E1AE
100
AcDbEntity
 67
     1
  8
0
100
AcDbBlockBegin
  2
*Paper_Space
 70
     0
 10
0.0
 20
0.0
 30
0.0
  3
*Paper_Space
  1

  0
ENDBLK
  5
E1B0
330
E1AE
100
AcDbEntity
 67
     1
  8
0
100
AcDbBlockEnd
  0
ENDSEC
  0
SECTION
  2
ENTITIES
  0
TEXT
  5
1104
330
E1B2
100
AcDbEntity
  8
0
  6
Continuous
100
AcDbText
 10
230.0677494691572
 20
629.0276848190488
 30
0.0
 40
48.000002
  1
DAS2L 8A
 41
1.32095
100
AcDbText
  0
LINE
  5
9D2E
330
E1B2
100
AcDbEntity
  8
0
100
AcDbLine
 10
441.8706298059764
 20
142.8409349302534
 30
0.0
 11
498.4907469934764
 21
142.8409349302534
 31
0.0
  0
LINE
  5
9D69
330
E1B2
100
AcDbEntity
  8
0
100
AcDbLine
 10
453.1806883997265
 20
119.9409165096855
 30
0.0
 11
463.2807860559764
 21
123.6170515513774
 31
0.0
  0
LINE
  5
9D6A
330
E1B2
100
AcDbEntity
  8
0
100
AcDbLine
 10
487.1806883997265
 20
119.9409751067437
 30
0.0
 11
477.0807128137891
 21
123.6170657184742
 31
0.0
  0
LINE
  5
9D6D
330
E1B2
100
AcDbEntity
  8
0
100
AcDbLine
 10
487.1806883997265
 20
117.0909349302535
 30
0.0
 11
453.1806883997265
 21
117.0909349302535
 31
0.0
  0
LINE
  5
9D71
330
E1B2
100
AcDbEntity
  8
0
100
AcDbLine
 10
453.1806883997265
 20
117.0909349302535
 30
0.0
 11
453.1806883997265
 21
119.9409165096855
 31
0.0
  0
LINE
  5
9D7E
330
E1B2
100
AcDbEntity
  8
0
100
AcDbLine
 10
487.1806883997265
 20
117.0909349302535
 30
0.0
 11
487.1806883997265
 21
119.9409751067437
 31
0.0
  0
LINE
  5
9D88
330
E1B2
100
AcDbEntity
  8
0
100
AcDbLine
 10
463.2807860559764
 20
123.6170515513774
 30
0.0
 11
463.2807860559764
 21
138.4530610222043
 31
0.0
  0
LINE
  5
9D8C
330
E1B2
100
AcDbEntity
  8
0
100
AcDbLine
 10
463.2807860559764
 20
138.4530610222043
 30
0.0
 11
456.3769085483603
 21
142.4390166312198
 31
0.0
  0
LINE
  5
9D97
330
E1B2
100
AcDbEntity
  8
0
100
AcDbLine
 10
477.0807128137891
 20
123.6170657184742
 30
0.0
 11
477.0807128137891
 21
138.4530771647045
 31
0.0
  0
LINE
  5
9D9D
330
E1B2
100
AcDbEntity
  8
0
100
AcDbLine
 10
477.0807128137891
 20
138.4530771647045
 30
0.0
 11
484.6807052636967
 21
142.8409349302534
 31
0.0
  0
ARC
  5
9EE5
330
E1B2
100
AcDbEntity
  8
0
100
AcDbCircle
 10
491.1806883997265
 20
154.0909349302534
 30
0.0
 40
11.0
100
AcDbArc
 50
311.6478717812917
 51
0.0000025044687019
  0
LINE
  5
9EE6
330
E1B2
100
AcDbEntity
  8
0
100
AcDbLine
 10
540.1806883997265
 20
171.0909349302534
 30
0.0
 11
540.1806883997265
 21
137.0909349302535
 31
0.0
  0
LINE
  5
9EEB
330
E1B2
100
AcDbEntity
  8
0
100
AcDbLine
 10
540.1806883997265
 20
137.0909349302535
 30
0.0
 11
537.3307685008681
 21
137.0909349302535
 31
0.0
  0
LINE
  5
9EEC
330
E1B2
100
AcDbEntity
  8
0
100
AcDbLine
 10
533.6546667816463
 20
147.1909410337687
 30
0.0
 11
499.7474896830807
 21
147.1909410337687
 31
0.0
  0
LINE
  5
9EEF
330
E1B2
100
AcDbEntity
  8
0
100
AcDbLine
 10
498.4907469934764
 20
145.8712607666416
 30
0.0
 11
498.4907469934764
 21
142.8409349302534
 31
0.0
  0
LINE
  5
9EF2
330
E1B2
100
AcDbEntity
  8
0
100
AcDbLine
 10
537.3307685008681
 20
137.0909349302535
 30
0.0
 11
533.6546667816463
 21
147.1909410337687
 31
0.0
  0
LINE
  5
9F05
330
E1B2
100
AcDbEntity
  8
0
100
AcDbLine
 10
540.1806883997265
 20
171.0909349302534
 30
0.0
 11
537.3307522920022
 21
171.0909349302534
 31
0.0
  0
LINE
  5
9F06
330
E1B2
100
AcDbEntity
  8
0
100
AcDbLine
 10
533.65465057278
 20
160.9909288267376
 30
0.0
 11
502.1806883997264
 21
160.9909288267376
 31
0.0
  0
LINE
  5
9F0F
330
E1B2
100
AcDbEntity
  8
0
100
AcDbLine
 10
502.1806883997264
 20
164.5909349302544
 30
0.0
 11
502.1806883997264
 21
154.0909349302534
 31
0.0
  0
LINE
  5
9F4F
330
E1B2
100
AcDbEntity
  8
0
100
AcDbLine
 10
537.3307522920022
 20
171.0909349302534
 30
0.0
 11
533.65465057278
 21
160.9909288267376
 31
0.0
  0
ARC
  5
A84C
330
E1B2
100
AcDbEntity
  8
0
100
AcDbCircle
 10
449.1806883997265
 20
154.0909349302534
 30
0.0
 40
11.0
100
AcDbArc
 50
179.9999974955312
 51
228.3521282187082
  0
LINE
  5
A84D
330
E1B2
100
AcDbEntity
  8
0
100
AcDbLine
 10
441.8706298059764
 20
145.8712607666416
 30
0.0
 11
441.8706298059764
 21
142.8409349302534
 31
0.0
  0
LINE
  5
A84E
330
E1B2
100
AcDbEntity
  8
0
100
AcDbLine
 10
438.1806883997263
 20
164.5909349302505
 30
0.0
 11
438.1806883997263
 21
154.0909349302534
 31
0.0
  0
LINE
  5
A884
330
E1B2
100
AcDbEntity
  8
0
100
AcDbLine
 10
453.7406372764483
 20
184.4372299969005
 30
0.0
 11
436.1807036585155
 21
181.3409398311463
 31
0.0
  0
ARC
  5
A885
330
E1B2
100
AcDbEntity
  8
0
100
AcDbCircle
 10
470.1807036585154
 20
103.6437990049614
 30
0.0
 40
130.0
100
AcDbArc
 50
95.96067444220977
 51
105.6184982756485
  0
LINE
  5
A886
330
E1B2
100
AcDbEntity
  8
0
100
AcDbLine
 10
501.3763124471766
 20
229.8453599790823
 30
0.0
 11
438.985094869854
 21
229.8453599790823
 31
0.0
  0
LINE
  5
A887
330
E1B2
100
AcDbEntity
  8
0
100
AcDbLine
 10
505.1806731409373
 20
215.8409654478322
 30
0.0
 11
435.1807036585155
 21
215.8409654478322
 31
0.0
  0
LINE
  5
A888
330
E1B2
100
AcDbEntity
  8
0
100
AcDbLine
 10
424.4307036585154
 20
180.0909349302544
 30
0.0
 11
515.9306731409373
 21
180.0909349302544
 31
0.0
  0
LINE
  5
A889
330
E1B2
100
AcDbEntity
  8
0
100
AcDbLine
 10
436.1807036585155
 20
181.3409398311463
 30
0.0
 11
436.1807036585155
 21
180.0909349302544
 31
0.0
  0
LINE
  5
A88A
330
E1B2
100
AcDbEntity
  8
0
100
AcDbLine
 10
435.1807036585155
 20
228.8436392604503
 30
0.0
 11
435.1807036585155
 21
215.8409654478322
 31
0.0
  0
LINE
  5
A88B
330
E1B2
100
AcDbEntity
  8
0
100
AcDbLine
 10
485.1460604494095
 20
189.9409410337708
 30
0.0
 11
486.6207819286313
 21
184.4372055924324
 31
0.0
  0
LINE
  5
A88C
330
E1B2
100
AcDbEntity
  8
0
100
AcDbLine
 10
455.2153522165125
 20
189.9409410337708
 30
0.0
 11
453.7406372764483
 21
184.4372299969005
 31
0.0
  0
LINE
  5
A88D
330
E1B2
100
AcDbEntity
  8
0
100
AcDbLine
 10
504.1806731409373
 20
181.3409229039343
 30
0.0
 11
504.1806731409373
 21
180.0909349302544
 31
0.0
  0
LINE
  5
A88E
330
E1B2
100
AcDbEntity
  8
0
100
AcDbLine
 10
486.6207819286313
 20
184.4372055924324
 30
0.0
 11
504.1806731409373
 21
181.3409229039343
 31
0.0
  0
LINE
  5
A88F
330
E1B2
100
AcDbEntity
  8
0
100
AcDbLine
 10
486.6807036585154
 20
192.9409715513477
 30
0.0
 11
453.6807036585154
 21
192.9409715513486
 31
0.0
  0
LINE
  5
A890
330
E1B2
100
AcDbEntity
  8
0
100
AcDbLine
 10
455.2153522165125
 20
189.9409410337708
 30
0.0
 11
485.1460604494095
 21
189.9409410337708
 31
0.0
  0
LINE
  5
A891
330
E1B2
100
AcDbEntity
  8
0
100
AcDbLine
 10
483.6806731409374
 20
232.9409715513476
 30
0.0
 11
456.6807341760935
 21
232.9409715513476
 31
0.0
  0
LINE
  5
A892
330
E1B2
100
AcDbEntity
  8
0
100
AcDbLine
 10
453.6807036585154
 20
215.8409654478322
 30
0.0
 11
453.6807036585154
 21
192.9409715513486
 31
0.0
  0
LINE
  5
A893
330
E1B2
100
AcDbEntity
  8
0
100
AcDbLine
 10
459.1807036585153
 20
192.9409715513486
 30
0.0
 11
459.1807036585153
 21
189.9409410337708
 31
0.0
  0
LINE
  5
A894
330
E1B2
100
AcDbEntity
  8
0
100
AcDbLine
 10
445.2619414514842
 20
229.8453599790823
 30
0.0
 11
445.2619414514842
 21
215.8409654478322
 31
0.0
  0
LINE
  5
A895
330
E1B2
100
AcDbEntity
  8
0
100
AcDbLine
 10
461.3552947229687
 20
229.8453599790823
 30
0.0
 11
461.3552947229687
 21
215.8409654478322
 31
0.0
  0
LINE
  5
A896
330
E1B2
100
AcDbEntity
  8
0
100
AcDbLine
 10
505.1806731409373
 20
228.8436477917284
 30
0.0
 11
505.1806731409373
 21
215.8409654478322
 31
0.0
  0
LINE
  5
A897
330
E1B2
100
AcDbEntity
  8
0
100
AcDbLine
 10
486.6807036585154
 20
215.8409654478322
 30
0.0
 11
486.6807036585154
 21
192.9409715513477
 31
0.0
  0
LINE
  5
A898
330
E1B2
100
AcDbEntity
  8
0
100
AcDbLine
 10
481.1807036585153
 20
192.9409715513477
 30
0.0
 11
481.1807036585153
 21
189.9409410337708
 31
0.0
  0
LINE
  5
A899
330
E1B2
100
AcDbEntity
  8
0
100
AcDbLine
 10
479.0060820764842
 20
229.8453599790823
 30
0.0
 11
479.0060820764842
 21
215.8409654478322
 31
0.0
  0
LINE
  5
A89A
330
E1B2
100
AcDbEntity
  8
0
100
AcDbLine
 10
495.0994353479686
 20
229.8453599790823
 30
0.0
 11
495.0994353479686
 21
215.8409654478322
 31
0.0
  0
ARC
  5
A89B
330
E1B2
100
AcDbEntity
  8
0
100
AcDbCircle
 10
470.1807036585154
 20
103.6437990049614
 30
0.0
 40
130.0
100
AcDbArc
 50
74.38151569025078
 51
84.03932373656594
  0
LINE
  5
A89C
330
E1B2
100
AcDbEntity
  8
0
100
AcDbLine
 10
515.9306731409373
 20
180.0909349302544
 30
0.0
 11
515.9306731409373
 21
164.5909349302544
 31
0.0
  0
LINE
  5
A89D
330
E1B2
100
AcDbEntity
  8
0
100
AcDbLine
 10
424.4307036585154
 20
164.5909349302505
 30
0.0
 11
515.9306731409373
 21
164.5909349302544
 31
0.0
  0
LINE
  5
A89E
330
E1B2
100
AcDbEntity
  8
0
100
AcDbLine
 10
424.4307036585154
 20
180.0909349302544
 30
0.0
 11
424.4307036585154
 21
164.5909349302505
 31
0.0
  0
ARC
  5
A89F
330
E1B2
100
AcDbEntity
  8
0
100
AcDbCircle
 10
433.8076262659374
 20
436.3743808107565
 30
0.0
 40
12.0
100
AcDbArc
 50
353.8449366096411
 51
66.15504713078547
  0
ARC
  5
A8A0
330
E1B2
100
AcDbEntity
  8
0
100
AcDbCircle
 10
433.8076262659374
 20
478.3743808107569
 30
0.0
 40
12.0
100
AcDbArc
 50
293.8449460390294
 51
6.155068513009591
  0
CIRCLE
  5
A8A1
330
E1B2
100
AcDbEntity
  8
0
100
AcDbCircle
 10
470.1807036585154
 20
457.3743808107565
 30
0.0
 40
34.99998474121093
  0
CIRCLE
  5
A8A2
330
E1B2
100
AcDbEntity
  8
0
100
AcDbCircle
 10
470.1807036585154
 20
457.3743808107565
 30
0.0
 40
45.74998474121094
  0
ARC
  5
A8A3
330
E1B2
100
AcDbEntity
  8
0
100
AcDbCircle
 10
440.6800933069529
 20
462.8254611330226
 30
0.0
 40
5.0
100
AcDbArc
 50
113.844951047999
 51
169.5310598793884
  0
ARC
  5
A8A4
330
E1B2
100
AcDbEntity
  8
0
100
AcDbCircle
 10
440.6800933069529
 20
451.9233004884912
 30
0.0
 40
5.0
100
AcDbArc
 50
190.468940120637
 51
246.1550489520009
  0
ARC
  5
A8A5
330
E1B2
100
AcDbEntity
  8
0
100
AcDbCircle
 10
470.1807036585154
 20
457.3743808107565
 30
0.0
 40
35.0
100
AcDbArc
 50
169.5310598793884
 51
190.4689364781548
  0
ARC
  5
A8A6
330
E1B2
100
AcDbEntity
  8
0
100
AcDbCircle
 10
489.6517729944529
 20
480.1971347170079
 30
0.0
 40
5.0
100
AcDbArc
 50
353.8448956285031
 51
49.5310804457375
  0
ARC
  5
A8A7
330
E1B2
100
AcDbEntity
  8
0
100
AcDbCircle
 10
450.709634322578
 20
480.1971041994284
 30
0.0
 40
5.0
100
AcDbArc
 50
130.4689484688882
 51
186.1550573002806
  0
ARC
  5
A8A8
330
E1B2
100
AcDbEntity
  8
0
100
AcDbCircle
 10
470.1807036585154
 20
415.3743808107565
 30
0.0
 40
12.0
100
AcDbArc
 50
53.84490498211139
 51
126.1550966117408
  0
ARC
  5
A8A9
330
E1B2
100
AcDbEntity
  8
0
100
AcDbCircle
 10
470.1807036585154
 20
457.3743808107565
 30
0.0
 40
35.0
100
AcDbArc
 50
229.5310515311117
 51
250.4689281298853
  0
ARC
  5
A8AA
330
E1B2
100
AcDbEntity
  8
0
100
AcDbCircle
 10
450.709634322578
 20
434.5516574220845
 30
0.0
 40
5.0
100
AcDbArc
 50
173.8449253968838
 51
229.5310478886503
  0
ARC
  5
A8AB
330
E1B2
100
AcDbEntity
  8
0
100
AcDbCircle
 10
460.1511626428903
 20
429.1005770998194
 30
0.0
 40
5.0
100
AcDbArc
 50
250.4689281298853
 51
306.1550950178884
  0
ARC
  5
A8AC
330
E1B2
100
AcDbEntity
  8
0
100
AcDbCircle
 10
470.1807036585154
 20
457.3743808107565
 30
0.0
 40
35.0
100
AcDbArc
 50
349.5310779222993
 51
10.46892037015502
  0
ARC
  5
A8AD
330
E1B2
100
AcDbEntity
  8
0
100
AcDbCircle
 10
506.5537200159373
 20
436.3743808107565
 30
0.0
 40
12.0
100
AcDbArc
 50
113.8448827461004
 51
186.155098281416
  0
ARC
  5
A8AE
330
E1B2
100
AcDbEntity
  8
0
100
AcDbCircle
 10
470.1807036585154
 20
457.3743808107565
 30
0.0
 40
35.0
100
AcDbArc
 50
289.5310736913438
 51
310.4689161391592
  0
ARC
  5
A8AF
330
E1B2
100
AcDbEntity
  8
0
100
AcDbCircle
 10
480.2102446741403
 20
429.1005770998194
 30
0.0
 40
5.0
100
AcDbArc
 50
233.8449033882592
 51
289.5310736913438
  0
ARC
  5
A8B0
330
E1B2
100
AcDbEntity
  8
0
100
AcDbCircle
 10
489.6517729944529
 20
434.5516269045065
 30
0.0
 40
5.0
100
AcDbArc
 50
310.4689161391592
 51
6.155102663954047
  0
ARC
  5
A8B1
330
E1B2
100
AcDbEntity
  8
0
100
AcDbCircle
 10
499.6812834924998
 20
462.8254306154444
 30
0.0
 40
5.0
100
AcDbArc
 50
10.46892037015502
 51
66.15511543266013
  0
ARC
  5
A8B2
330
E1B2
100
AcDbEntity
  8
0
100
AcDbCircle
 10
499.6812834924998
 20
451.9233310060689
 30
0.0
 40
5.0
100
AcDbArc
 50
293.8448913975248
 51
349.5310779222993
  0
ARC
  5
A8B3
330
E1B2
100
AcDbEntity
  8
0
100
AcDbCircle
 10
506.5537200159373
 20
478.3743808107569
 30
0.0
 40
12.0
100
AcDbArc
 50
173.8448980761357
 51
246.1550999510611
  0
ARC
  5
A8B4
330
E1B2
100
AcDbEntity
  8
0
100
AcDbCircle
 10
470.1807036585154
 20
499.3743808107565
 30
0.0
 40
12.0
100
AcDbArc
 50
233.8449033882592
 51
306.1550950178884
  0
ARC
  5
A8B5
330
E1B2
100
AcDbEntity
  8
0
100
AcDbCircle
 10
470.1807036585154
 20
457.3743808107565
 30
0.0
 40
35.0
100
AcDbArc
 50
109.5310718701144
 51
130.4689484688882
  0
ARC
  5
A8B6
330
E1B2
100
AcDbEntity
  8
0
100
AcDbCircle
 10
460.1511626428903
 20
485.6481845216944
 30
0.0
 40
5.0
100
AcDbArc
 50
53.84490498211139
 51
109.531065039904
  0
ARC
  5
A8B7
330
E1B2
100
AcDbEntity
  8
0
100
AcDbCircle
 10
470.1807036585154
 20
457.3743808107565
 30
0.0
 40
35.0
100
AcDbArc
 50
49.5310804457375
 51
70.46892630865617
  0
ARC
  5
A8B8
330
E1B2
100
AcDbEntity
  8
0
100
AcDbCircle
 10
480.2102446741403
 20
485.6481845216944
 30
0.0
 40
5.0
100
AcDbArc
 50
70.46892630865617
 51
126.1550966117408
  0
LINE
  5
A8BF
330
E1B2
100
AcDbEntity
  8
0
100
AcDbLine
 10
463.2807860559764
 20
123.6170515513774
 30
0.0
 11
477.0807128137891
 21
123.6170657184742
 31
0.0
  0
LINE
  5
A8C0
330
E1B2
100
AcDbEntity
  8
0
100
AcDbLine
 10
533.65465057278
 20
160.9909288267376
 30
0.0
 11
533.6546667816463
 21
147.1909410337687
 31
0.0
  0
LINE
  5
A8CB
330
E1B2
100
AcDbEntity
  8
0
100
AcDbLine
 10
540.1807036585154
 20
474.3743808107569
 30
0.0
 11
537.3307675507913
 21
474.3743808107569
 31
0.0
  0
LINE
  5
A8CC
330
E1B2
100
AcDbEntity
  8
0
100
AcDbLine
 10
540.1807036585154
 20
440.3743808107565
 30
0.0
 11
537.3307837596569
 21
440.3743808107565
 31
0.0
  0
LINE
  5
A8CD
330
E1B2
100
AcDbEntity
  8
0
100
AcDbLine
 10
533.6546658315691
 20
464.2743747072421
 30
0.0
 11
533.6546820404354
 21
450.4743869142726
 31
0.0
  0
LINE
  5
A8CE
330
E1B2
100
AcDbEntity
  8
0
100
AcDbLine
 10
537.3307675507913
 20
474.3743808107569
 30
0.0
 11
533.6546658315691
 21
464.2743747072421
 31
0.0
  0
LINE
  5
A8CF
330
E1B2
100
AcDbEntity
  8
0
100
AcDbLine
 10
537.3307837596569
 20
440.3743808107565
 30
0.0
 11
533.6546820404354
 21
450.4743869142726
 31
0.0
  0
LINE
  5
A8D0
330
E1B2
100
AcDbEntity
  8
0
100
AcDbLine
 10
540.1807036585154
 20
474.3743808107569
 30
0.0
 11
540.1807036585154
 21
440.3743808107565
 31
0.0
  0
LINE
  5
A8D1
330
E1B2
100
AcDbEntity
  8
0
100
AcDbLine
 10
533.6546658315691
 20
464.2743747072421
 30
0.0
 11
515.4073682276557
 21
464.2743747072421
 31
0.0
  0
LINE
  5
A8D2
330
E1B2
100
AcDbEntity
  8
0
100
AcDbLine
 10
533.6546820404354
 20
450.4743869142726
 30
0.0
 11
515.4073682276557
 21
450.4743869142726
 31
0.0
  0
LINE
  5
E2B1
330
E1B2
100
AcDbEntity
  8
0
  6
CENTER
100
AcDbLine
 10
429.0891687039962
 20
154.0909349302534
 30
0.0
 11
561.083037639898
 21
154.0909349302534
 31
0.0
  0
LINE
  5
E2B2
330
E1B2
100
AcDbEntity
  8
0
  6
CENTER
100
AcDbLine
 10
470.1806883997263
 20
100.4024120072237
 30
0.0
 11
470.1806883997263
 21
252.8897762683927
 31
0.0
  0
LINE
  5
E2B3
330
E1B2
100
AcDbEntity
  8
0
  6
CENTER
100
AcDbLine
 10
402.7085960912129
 20
457.3743808107565
 30
0.0
 11
559.5269747929819
 21
457.3743808107565
 31
0.0
  0
LINE
  5
E2B4
330
E1B2
100
AcDbEntity
  8
0
  6
CENTER
100
AcDbLine
 10
470.1807036585154
 20
385.5137987486432
 30
0.0
 11
470.1807036585154
 21
529.2349628728698
 31
0.0
  0
ENDSEC
  0
SECTION
  2
OBJECTS
  0
DICTIONARY
  5
E1A0
330
0
100
AcDbDictionary
281
     1
  3
ACAD_GROUP
350
E1A1
  3
ACAD_LAYOUT
350
E1AD
  3
ACAD_MLINESTYLE
350
E1AA
  3
ACAD_PLOTSETTINGS
350
E1AC
  3
ACAD_PLOTSTYLENAME
350
E1A2
  3
AcDbVariableDictionary
350
E1F8
  0
DICTIONARY
  5
E2A7
330
E196
100
AcDbDictionary
280
     1
281
     1
  3
ACAD_LAYERSTATES
360
E2A8
  0
DICTIONARY
  5
E1C4
330
E1B2
100
AcDbDictionary
280
     1
281
     1
  3
ACAD_LAYOUTSELFREF
360
E29E
  0
DICTIONARY
  5
E1C6
330
E1AE
100
AcDbDictionary
280
     1
281
     1
  3
ACAD_LAYOUTSELFREF
360
E29D
  0
DICTIONARY
  5
E1A1
102
{ACAD_REACTORS
330
E1A0
102
}
330
E1A0
100
AcDbDictionary
281
     1
  0
DICTIONARY
  5
E1AD
102
{ACAD_REACTORS
330
E1A0
102
}
330
E1A0
100
AcDbDictionary
281
     1
  3
Model
350
E1B5
  3
ﾚｲｱｳﾄ1
350
E1B1
  0
DICTIONARY
  5
E1AA
102
{ACAD_REACTORS
330
E1A0
102
}
330
E1A0
100
AcDbDictionary
281
     1
  3
Standard
350
E1AB
  0
DICTIONARY
  5
E1AC
102
{ACAD_REACTORS
330
E1A0
102
}
330
E1A0
100
AcDbDictionary
281
     1
  0
ACDBDICTIONARYWDFLT
  5
E1A2
102
{ACAD_REACTORS
330
E1A0
102
}
330
E1A0
100
AcDbDictionary
281
     1
  3
Normal
350
E1A3
100
AcDbDictionaryWithDefault
340
E1A3
  0
DICTIONARY
  5
E1F8
102
{ACAD_REACTORS
330
E1A0
102
}
330
E1A0
100
AcDbDictionary
281
     1
  3
DIMASSOC
350
E1F9
  0
DICTIONARY
  5
E2A8
102
{ACAD_REACTORS
330
E2A7
102
}
330
E2A7
100
AcDbDictionary
281
     1
  0
XRECORD
  5
E29E
102
{ACAD_REACTORS
330
E1C4
102
}
330
E1C4
100
AcDbXrecord
280
     1
340
E1B2
  0
XRECORD
  5
E29D
102
{ACAD_REACTORS
330
E1C6
102
}
330
E1C6
100
AcDbXrecord
280
     1
340
E1AE
  0
LAYOUT
  5
E1B5
102
{ACAD_REACTORS
330
E1AD
102
}
330
E1AD
100
AcDbPlotSettings
  1

  2
SII LP-2150 (D-SCAN C2)
  4

  6

 40
0.0
 41
0.0
 42
0.0
 43
0.0
 44
0.0
 45
0.0
 46
0.0
 47
0.0
 48
0.0
 49
0.0
140
0.0
141
0.0
142
1.0
143
1.0
 70
  1712
 72
     0
 73
     0
 74
     0
  7

 75
     0
147
1.0
148
0.0
149
0.0
100
AcDbLayout
  1
Model
 70
     1
 71
     0
 10
0.0
 20
0.0
 11
12.0
 21
9.0
 12
0.0
 22
0.0
 32
0.0
 14
0.0
 24
0.0
 34
0.0
 15
0.0
 25
0.0
 35
0.0
146
0.0
 13
0.0
 23
0.0
 33
0.0
 16
1.0
 26
0.0
 36
0.0
 17
0.0
 27
1.0
 37
0.0
 76
     0
330
E1B2
  0
LAYOUT
  5
E1B1
102
{ACAD_REACTORS
330
E1AD
102
}
330
E1AD
100
AcDbPlotSettings
  1

  2
SII LP-2150 (D-SCAN C2)
  4

  6

 40
0.0
 41
0.0
 42
0.0
 43
0.0
 44
0.0
 45
0.0
 46
0.0
 47
0.0
 48
0.0
 49
0.0
140
0.0
141
0.0
142
1.0
143
1.0
 70
   688
 72
     0
 73
     0
 74
     5
  7

 75
    16
147
1.0
148
0.0
149
0.0
100
AcDbLayout
  1
ﾚｲｱｳﾄ1
 70
     1
 71
     1
 10
-580.5701293945312
 20
0.0
 11
0.0
 21
407.8999938964844
 12
0.0
 22
0.0
 32
0.0
 14
-580.5701293945312
 24
0.0
 34
0.0
 15
0.0
 25
407.8999938964844
 35
0.0
146
0.0
 13
0.0
 23
0.0
 33
0.0
 16
1.0
 26
0.0
 36
0.0
 17
0.0
 27
1.0
 37
0.0
 76
     0
330
E1AE
  0
MLINESTYLE
  5
E1AB
102
{ACAD_REACTORS
330
E1AA
102
}
330
E1AA
100
AcDbMlineStyle
  2
STANDARD
 70
     0
  3

 62
   256
 51
90.0
 52
90.0
 71
     2
 49
0.5
 62
   256
  6
BYLAYER
 49
-0.5
 62
   256
  6
BYLAYER
  0
ACDBPLACEHOLDER
  5
E1A3
102
{ACAD_REACTORS
330
E1A2
102
}
330
E1A2
  0
DICTIONARYVAR
  5
E1F9
102
{ACAD_REACTORS
330
E1F8
102
}
330
E1F8
100
DictionaryVariables
280
     0
  1
1
  0
ENDSEC
  0
EOF
