  0
SECTION
  2
HEADER
  9
$ACADVER
  1
AC1015
  9
$ACADMAINTVER
 70
    14
  9
$DWGCODEPAGE
  3
ANSI_932
  9
$INSBASE
 10
0.0
 20
0.0
 30
0.0
  9
$EXTMIN
 10
326.4016519856177
 20
-52.81824055874904
 30
-0.0000000000112498
  9
$EXTMAX
 10
1171.866504446574
 20
734.6264340052491
 30
0.0000000000002956
  9
$LIMMIN
 10
0.0
 20
0.0
  9
$LIMMAX
 10
420.0
 20
297.0
  9
$ORTHOMODE
 70
     0
  9
$REGENMODE
 70
     1
  9
$FILLMODE
 70
     1
  9
$QTEXTMODE
 70
     0
  9
$MIRRTEXT
 70
     1
  9
$LTSCALE
 40
1.0
  9
$ATTMODE
 70
     1
  9
$TEXTSIZE
 40
2.5
  9
$TRACEWID
 40
1.0
  9
$TEXTSTYLE
  7
Standard
  9
$CLAYER
  8
0
  9
$CELTYPE
  6
ByLayer
  9
$CECOLOR
 62
   256
  9
$CELTSCALE
 40
1.0
  9
$DISPSILH
 70
     0
  9
$DIMSCALE
 40
1.0
  9
$DIMASZ
 40
2.5
  9
$DIMEXO
 40
0.625
  9
$DIMDLI
 40
3.75
  9
$DIMRND
 40
0.0
  9
$DIMDLE
 40
0.0
  9
$DIMEXE
 40
1.25
  9
$DIMTP
 40
0.0
  9
$DIMTM
 40
0.0
  9
$DIMTXT
 40
2.5
  9
$DIMCEN
 40
2.5
  9
$DIMTSZ
 40
0.0
  9
$DIMTOL
 70
     0
  9
$DIMLIM
 70
     0
  9
$DIMTIH
 70
     0
  9
$DIMTOH
 70
     0
  9
$DIMSE1
 70
     0
  9
$DIMSE2
 70
     0
  9
$DIMTAD
 70
     1
  9
$DIMZIN
 70
     8
  9
$DIMBLK
  1

  9
$DIMASO
 70
     1
  9
$DIMSHO
 70
     1
  9
$DIMPOST
  1

  9
$DIMAPOST
  1

  9
$DIMALT
 70
     0
  9
$DIMALTD
 70
     3
  9
$DIMALTF
 40
0.03937007874016
  9
$DIMLFAC
 40
1.0
  9
$DIMTOFL
 70
     1
  9
$DIMTVP
 40
0.0
  9
$DIMTIX
 70
     0
  9
$DIMSOXD
 70
     0
  9
$DIMSAH
 70
     0
  9
$DIMBLK1
  1

  9
$DIMBLK2
  1

  9
$DIMSTYLE
  2
ISO-25
  9
$DIMCLRD
 70
     0
  9
$DIMCLRE
 70
     0
  9
$DIMCLRT
 70
     0
  9
$DIMTFAC
 40
1.0
  9
$DIMGAP
 40
0.625
  9
$DIMJUST
 70
     0
  9
$DIMSD1
 70
     0
  9
$DIMSD2
 70
     0
  9
$DIMTOLJ
 70
     0
  9
$DIMTZIN
 70
     8
  9
$DIMALTZ
 70
     0
  9
$DIMALTTZ
 70
     0
  9
$DIMUPT
 70
     0
  9
$DIMDEC
 70
     2
  9
$DIMTDEC
 70
     2
  9
$DIMALTU
 70
     2
  9
$DIMALTTD
 70
     3
  9
$DIMTXSTY
  7
Standard
  9
$DIMAUNIT
 70
     0
  9
$DIMADEC
 70
     0
  9
$DIMALTRND
 40
0.0
  9
$DIMAZIN
 70
     0
  9
$DIMDSEP
 70
    44
  9
$DIMATFIT
 70
     3
  9
$DIMFRAC
 70
     0
  9
$DIMLDRBLK
  1

  9
$DIMLUNIT
 70
     2
  9
$DIMLWD
 70
    -2
  9
$DIMLWE
 70
    -2
  9
$DIMTMOVE
 70
     0
  9
$LUNITS
 70
     2
  9
$LUPREC
 70
     4
  9
$SKETCHINC
 40
1.0
  9
$FILLETRAD
 40
10.0
  9
$AUNITS
 70
     0
  9
$AUPREC
 70
     0
  9
$MENU
  1
.
  9
$ELEVATION
 40
0.0
  9
$PELEVATION
 40
0.0
  9
$THICKNESS
 40
0.0
  9
$LIMCHECK
 70
     0
  9
$CHAMFERA
 40
10.0
  9
$CHAMFERB
 40
10.0
  9
$CHAMFERC
 40
20.0
  9
$CHAMFERD
 40
0.0
  9
$SKPOLY
 70
     0
  9
$TDCREATE
 40
2454278.655484837
  9
$TDUCREATE
 40
2454278.280484837
  9
$TDUPDATE
 40
2456899.668137847
  9
$TDUUPDATE
 40
2456899.293137847
  9
$TDINDWG
 40
0.0016451042
  9
$TDUSRTIMER
 40
0.0016451042
  9
$USRTIMER
 70
     1
  9
$ANGBASE
 50
0.0
  9
$ANGDIR
 70
     0
  9
$PDMODE
 70
     0
  9
$PDSIZE
 40
0.0
  9
$PLINEWID
 40
0.0
  9
$SPLFRAME
 70
     0
  9
$SPLINETYPE
 70
     6
  9
$SPLINESEGS
 70
     8
  9
$HANDSEED
  5
252
  9
$SURFTAB1
 70
     6
  9
$SURFTAB2
 70
     6
  9
$SURFTYPE
 70
     6
  9
$SURFU
 70
     6
  9
$SURFV
 70
     6
  9
$UCSBASE
  2

  9
$UCSNAME
  2

  9
$UCSORG
 10
0.0
 20
0.0
 30
0.0
  9
$UCSXDIR
 10
1.0
 20
0.0
 30
0.0
  9
$UCSYDIR
 10
0.0
 20
1.0
 30
0.0
  9
$UCSORTHOREF
  2

  9
$UCSORTHOVIEW
 70
     0
  9
$UCSORGTOP
 10
0.0
 20
0.0
 30
0.0
  9
$UCSORGBOTTOM
 10
0.0
 20
0.0
 30
0.0
  9
$UCSORGLEFT
 10
0.0
 20
0.0
 30
0.0
  9
$UCSORGRIGHT
 10
0.0
 20
0.0
 30
0.0
  9
$UCSORGFRONT
 10
0.0
 20
0.0
 30
0.0
  9
$UCSORGBACK
 10
0.0
 20
0.0
 30
0.0
  9
$PUCSBASE
  2

  9
$PUCSNAME
  2

  9
$PUCSORG
 10
0.0
 20
0.0
 30
0.0
  9
$PUCSXDIR
 10
1.0
 20
0.0
 30
0.0
  9
$PUCSYDIR
 10
0.0
 20
1.0
 30
0.0
  9
$PUCSORTHOREF
  2

  9
$PUCSORTHOVIEW
 70
     0
  9
$PUCSORGTOP
 10
0.0
 20
0.0
 30
0.0
  9
$PUCSORGBOTTOM
 10
0.0
 20
0.0
 30
0.0
  9
$PUCSORGLEFT
 10
0.0
 20
0.0
 30
0.0
  9
$PUCSORGRIGHT
 10
0.0
 20
0.0
 30
0.0
  9
$PUCSORGFRONT
 10
0.0
 20
0.0
 30
0.0
  9
$PUCSORGBACK
 10
0.0
 20
0.0
 30
0.0
  9
$USERI1
 70
     0
  9
$USERI2
 70
     0
  9
$USERI3
 70
     0
  9
$USERI4
 70
     0
  9
$USERI5
 70
     0
  9
$USERR1
 40
0.0
  9
$USERR2
 40
0.0
  9
$USERR3
 40
0.0
  9
$USERR4
 40
0.0
  9
$USERR5
 40
0.0
  9
$WORLDVIEW
 70
     1
  9
$SHADEDGE
 70
     3
  9
$SHADEDIF
 70
    70
  9
$TILEMODE
 70
     1
  9
$MAXACTVP
 70
    48
  9
$PINSBASE
 10
0.0
 20
0.0
 30
0.0
  9
$PLIMCHECK
 70
     0
  9
$PEXTMIN
 10
26.66076962115562
 20
20.31135699206657
 30
-0.0015258207003583
  9
$PEXTMAX
 10
240.039213369355
 20
182.8886381005154
 30
0.0000000349246037
  9
$PLIMMIN
 10
-6.350006103515625
 20
-6.349999904632568
  9
$PLIMMAX
 10
273.0499877929687
 20
209.5499939918517
  9
$UNITMODE
 70
     0
  9
$VISRETAIN
 70
     1
  9
$PLINEGEN
 70
     0
  9
$PSLTSCALE
 70
     1
  9
$TREEDEPTH
 70
  3020
  9
$CMLSTYLE
  2
Standard
  9
$CMLJUST
 70
     0
  9
$CMLSCALE
 40
20.0
  9
$PROXYGRAPHICS
 70
     1
  9
$MEASUREMENT
 70
     1
  9
$CELWEIGHT
370
    -1
  9
$ENDCAPS
280
     0
  9
$JOINSTYLE
280
     0
  9
$LWDISPLAY
290
     0
  9
$INSUNITS
 70
     4
  9
$HYPERLINKBASE
  1

  9
$STYLESHEET
  1

  9
$XEDIT
290
     1
  9
$CEPSNTYPE
380
     0
  9
$PSTYLEMODE
290
     1
  9
$FINGERPRINTGUID
  2
{FDEAD578-A652-11D2-9A35-0060089B3A3F}
  9
$VERSIONGUID
  2
{27F6AE55-7F9B-4729-BCA1-6C627057CB4D}
  9
$EXTNAMES
290
     1
  9
$PSVPSCALE
 40
0.0
  9
$OLESTARTUP
290
     0
  0
ENDSEC
  0
SECTION
  2
CLASSES
  0
CLASS
  1
ACDBDICTIONARYWDFLT
  2
AcDbDictionaryWithDefault
  3
AutoCAD 2000
 90
        0
280
     0
281
     0
  0
CLASS
  1
ACDBPLACEHOLDER
  2
AcDbPlaceHolder
  3
AutoCAD 2000
 90
        0
280
     0
281
     0
  0
CLASS
  1
LAYOUT
  2
AcDbLayout
  3
AutoCAD 2000
 90
        0
280
     0
281
     0
  0
CLASS
  1
DICTIONARYVAR
  2
AcDbDictionaryVar
  3
AutoCAD 2000
 90
        0
280
     0
281
     0
  0
CLASS
  1
LONG_TRANSACTION
  2
AcDbLongTransaction
  3
AutoCAD 2000
 90
    32768
280
     0
281
     0
  0
CLASS
  1
LWPOLYLINE
  2
AcDbPolyline
  3
AutoCAD 2000
 90
    32768
280
     0
281
     1
  0
CLASS
  1
HATCH
  2
AcDbHatch
  3
AutoCAD 2000
 90
    32768
280
     0
281
     1
  0
CLASS
  1
XRECORD
  2
AcDbXrecord
  3
AutoCAD 2000
 90
    32768
280
     0
281
     0
  0
ENDSEC
  0
SECTION
  2
TABLES
  0
TABLE
  2
VPORT
  5
8
330
0
100
AcDbSymbolTable
 70
     2
  0
VPORT
  5
251
330
8
100
AcDbSymbolTableRecord
100
AcDbViewportTableRecord
  2
*Active
 70
     0
 10
0.0
 20
0.0
 11
1.0
 21
1.0
 12
749.1340782160963
 22
340.90409672325
 13
0.0
 23
0.0
 14
10.0
 24
10.0
 15
10.0
 25
10.0
 16
0.0
 26
0.0
 36
1.0
 17
0.0
 27
0.0
 37
0.0
 40
792.4443232913886
 41
1.592161016949152
 42
50.0
 43
0.0
 44
0.0
 50
0.0
 51
0.0
 71
     0
 72
   100
 73
     1
 74
     3
 75
     0
 76
     0
 77
     0
 78
     0
281
     0
 65
     1
110
0.0
120
0.0
130
0.0
111
1.0
121
0.0
131
0.0
112
0.0
122
1.0
132
0.0
 79
     0
146
0.0
  0
ENDTAB
  0
TABLE
  2
LTYPE
  5
5
330
0
100
AcDbSymbolTable
 70
     2
  0
LTYPE
  5
14
330
5
100
AcDbSymbolTableRecord
100
AcDbLinetypeTableRecord
  2
ByBlock
 70
     0
  3

 72
    65
 73
     0
 40
0.0
  0
LTYPE
  5
15
330
5
100
AcDbSymbolTableRecord
100
AcDbLinetypeTableRecord
  2
ByLayer
 70
     0
  3

 72
    65
 73
     0
 40
0.0
  0
LTYPE
  5
16
330
5
100
AcDbSymbolTableRecord
100
AcDbLinetypeTableRecord
  2
Continuous
 70
     0
  3
Solid line
 72
    65
 73
     0
 40
0.0
  0
LTYPE
  5
23B
330
5
100
AcDbSymbolTableRecord
100
AcDbLinetypeTableRecord
  2
CENTER
 70
     0
  3
__ . __
 72
    65
 73
     4
 40
7.0
 49
4.0
 74
     0
 49
-1.0
 74
     0
 49
1.0
 74
     0
 49
-1.0
 74
     0
  0
ENDTAB
  0
TABLE
  2
LAYER
  5
2
102
{ACAD_XDICTIONARY
360
23D
102
}
330
0
100
AcDbSymbolTable
 70
     1
  0
LAYER
  5
10
330
2
100
AcDbSymbolTableRecord
100
AcDbLayerTableRecord
  2
0
 70
     0
 62
     7
  6
Continuous
370
    -3
390
F
  0
ENDTAB
  0
TABLE
  2
STYLE
  5
3
330
0
100
AcDbSymbolTable
 70
     1
  0
STYLE
  5
11
330
3
100
AcDbSymbolTableRecord
100
AcDbTextStyleTableRecord
  2
Standard
 70
     0
 40
0.0
 41
1.0
 50
0.0
 71
     0
 42
2.5
  3
txt
  4

  0
ENDTAB
  0
TABLE
  2
VIEW
  5
6
330
0
100
AcDbSymbolTable
 70
     0
  0
ENDTAB
  0
TABLE
  2
UCS
  5
7
330
0
100
AcDbSymbolTable
 70
     0
  0
ENDTAB
  0
TABLE
  2
APPID
  5
9
330
0
100
AcDbSymbolTable
 70
     2
  0
APPID
  5
12
330
9
100
AcDbSymbolTableRecord
100
AcDbRegAppTableRecord
  2
ACAD
 70
     0
  0
APPID
  5
87
330
9
100
AcDbSymbolTableRecord
100
AcDbRegAppTableRecord
  2
ACAD_PSEXT
 70
     0
  0
ENDTAB
  0
TABLE
  2
DIMSTYLE
  5
A
330
0
100
AcDbSymbolTable
 70
     1
100
AcDbDimStyleTable
 71
     0
  0
DIMSTYLE
105
27
330
A
100
AcDbSymbolTableRecord
100
AcDbDimStyleTableRecord
  2
ISO-25
 70
     0
 41
2.5
 42
0.625
 43
3.75
 44
1.25
 73
     0
 74
     0
 77
     1
 78
     8
140
2.5
141
2.5
143
0.03937007874016
147
0.625
171
     3
172
     1
271
     2
272
     2
274
     3
278
    44
283
     0
284
     8
340
11
  0
ENDTAB
  0
TABLE
  2
BLOCK_RECORD
  5
1
330
0
100
AcDbSymbolTable
 70
     1
  0
BLOCK_RECORD
  5
1F
102
{ACAD_XDICTIONARY
360
1F3
102
}
330
1
100
AcDbSymbolTableRecord
100
AcDbBlockTableRecord
  2
*Model_Space
340
22
  0
BLOCK_RECORD
  5
55
102
{ACAD_XDICTIONARY
360
1F5
102
}
330
1
100
AcDbSymbolTableRecord
100
AcDbBlockTableRecord
  2
*Paper_Space
340
56
  0
BLOCK_RECORD
  5
50
102
{ACAD_XDICTIONARY
360
1F7
102
}
330
1
100
AcDbSymbolTableRecord
100
AcDbBlockTableRecord
  2
*Paper_Space0
340
51
  0
ENDTAB
  0
ENDSEC
  0
SECTION
  2
BLOCKS
  0
BLOCK
  5
20
330
1F
100
AcDbEntity
  8
0
100
AcDbBlockBegin
  2
*Model_Space
 70
     0
 10
0.0
 20
0.0
 30
0.0
  3
*Model_Space
  1

  0
ENDBLK
  5
21
330
1F
100
AcDbEntity
  8
0
100
AcDbBlockEnd
  0
BLOCK
  5
57
330
55
100
AcDbEntity
 67
     1
  8
0
100
AcDbBlockBegin
  2
*Paper_Space
 70
     0
 10
0.0
 20
0.0
 30
0.0
  3
*Paper_Space
  1

  0
ENDBLK
  5
58
330
55
100
AcDbEntity
 67
     1
  8
0
100
AcDbBlockEnd
  0
BLOCK
  5
52
330
50
100
AcDbEntity
  8
0
100
AcDbBlockBegin
  2
*Paper_Space0
 70
     0
 10
0.0
 20
0.0
 30
0.0
  3
*Paper_Space0
  1

  0
VIEWPORT
  5
6B
330
50
100
AcDbEntity
  8
0
100
AcDbViewport
 10
133.3499908447265
 20
101.5999970436096
 30
0.0
 40
381.3957395593834
 41
218.2856291881582
 69
     0
 12
133.3499908447265
 22
101.5999970436096
 13
0.0
 23
0.0
 14
10.0
 24
10.0
 15
10.0
 25
10.0
 16
0.0
 26
0.0
 36
1.0
 17
0.0
 27
0.0
 37
0.0
 42
50.0
 43
0.0
 44
0.0
 45
218.2856291881582
 50
0.0
 51
0.0
 72
   100
 90
    32800
  1

281
     0
 71
     1
 74
     0
110
0.0
120
0.0
130
0.0
111
1.0
121
0.0
131
0.0
112
0.0
122
1.0
132
0.0
 79
     0
146
0.0
  0
VIEWPORT
  5
6D
330
50
100
AcDbEntity
  8
0
100
AcDbViewport
 10
133.349993944168
 20
101.599993944168
 30
0.0
 40
213.3599903106689
 41
162.5599903106689
 69
     0
 12
210.0
 22
148.5
 13
0.0
 23
0.0
 14
10.0
 24
10.0
 15
10.0
 25
10.0
 16
0.0
 26
0.0
 36
1.0
 17
0.0
 27
0.0
 37
0.0
 42
50.0
 43
0.0
 44
0.0
 45
324.0677920111345
 50
0.0
 51
0.0
 72
   100
 90
    32864
  1

281
     0
 71
     1
 74
     0
110
0.0
120
0.0
130
0.0
111
1.0
121
0.0
131
0.0
112
0.0
122
1.0
132
0.0
 79
     0
146
0.0
  0
ENDBLK
  5
53
330
50
100
AcDbEntity
  8
0
100
AcDbBlockEnd
  0
ENDSEC
  0
SECTION
  2
ENTITIES
  0
TEXT
  5
13D
330
1F
100
AcDbEntity
  8
0
  6
Continuous
100
AcDbText
 10
326.4405822277895
 20
686.6149940407503
 30
0.0
 40
48.000002
  1
DAC3J10RD000 1S
 41
1.32095
100
AcDbText
  0
LINE
  5
13E
330
1F
100
AcDbEntity
  8
0
100
AcDbLine
 10
610.5892208745481
 20
142.4381037212723
 30
0.0
 11
686.5892056157592
 21
142.4381037212729
 31
0.0
  0
LINE
  5
13F
330
1F
100
AcDbEntity
  8
0
100
AcDbLine
 10
610.5892208745481
 20
127.9381037212729
 30
0.0
 11
686.5892056157592
 21
127.9381037212729
 31
0.0
  0
LINE
  5
140
330
1F
100
AcDbEntity
  8
0
100
AcDbLine
 10
610.5892208745481
 20
142.4381037212723
 30
0.0
 11
610.5892208745481
 21
127.9381037212729
 31
0.0
  0
LINE
  5
141
330
1F
100
AcDbEntity
  8
0
100
AcDbLine
 10
686.5892056157592
 20
142.4381037212729
 30
0.0
 11
686.5892056157592
 21
127.9381037212729
 31
0.0
  0
LINE
  5
142
330
1F
100
AcDbEntity
  8
0
100
AcDbLine
 10
578.5892437627331
 20
465.9458502307842
 30
0.0
 11
578.5892437627327
 21
516.4458502307842
 31
0.0
  0
LINE
  5
143
330
1F
100
AcDbEntity
  8
0
100
AcDbLine
 10
718.5891827275773
 20
486.1958502307841
 30
0.0
 11
718.5891827275772
 21
465.9458502307842
 31
0.0
  0
LINE
  5
144
330
1F
100
AcDbEntity
  8
0
100
AcDbLine
 10
581.4392504387667
 20
516.4458502307843
 30
0.0
 11
586.0070725993788
 21
503.8958624378151
 31
0.0
  0
LINE
  5
145
330
1F
100
AcDbEntity
  8
0
100
AcDbLine
 10
578.5892437627327
 20
516.4458502307842
 30
0.0
 11
581.4392504387667
 21
516.4458502307843
 31
0.0
  0
LINE
  5
146
330
1F
100
AcDbEntity
  8
0
100
AcDbLine
 10
581.439235189238
 20
465.9458502307848
 30
0.0
 11
586.0070573498484
 21
478.4958380237534
 31
0.0
  0
LINE
  5
147
330
1F
100
AcDbEntity
  8
0
100
AcDbLine
 10
586.0070725993789
 20
478.4958380237533
 30
0.0
 11
588.9258335929826
 21
478.4958380237533
 31
0.0
  0
LINE
  5
148
330
1F
100
AcDbEntity
  8
0
100
AcDbLine
 10
586.0070725993788
 20
503.8958624378151
 30
0.0
 11
588.9258335929825
 21
503.8958624378151
 31
0.0
  0
LINE
  5
149
330
1F
100
AcDbEntity
  8
0
100
AcDbLine
 10
711.1713691404617
 20
503.8958624378151
 30
0.0
 11
711.1713645175698
 21
496.1958502307842
 31
0.0
  0
LINE
  5
14A
330
1F
100
AcDbEntity
  8
0
100
AcDbLine
 10
711.1713585138233
 20
486.1958502307841
 30
0.0
 11
711.1713538909314
 21
478.4958380237535
 31
0.0
  0
LINE
  5
14B
330
1F
100
AcDbEntity
  8
0
100
AcDbLine
 10
578.5892437627331
 20
465.9458502307842
 30
0.0
 11
581.439235189238
 21
465.9458502307848
 31
0.0
  0
CIRCLE
  5
14C
330
1F
100
AcDbEntity
  8
0
100
AcDbCircle
 10
648.5892132451551
 20
491.1958502307842
 30
0.0
 40
25.00001525878963
  0
CIRCLE
  5
14D
330
1F
100
AcDbEntity
  8
0
100
AcDbCircle
 10
648.5892132451551
 20
491.1958502307842
 30
0.0
 40
8.0
  0
CIRCLE
  5
14E
330
1F
100
AcDbEntity
  8
0
100
AcDbCircle
 10
648.5892132451551
 20
491.1958502307842
 30
0.0
 40
7.50000000024
  0
LINE
  5
14F
330
1F
100
AcDbEntity
  8
0
100
AcDbLine
 10
704.6531685039448
 20
495.9459102307842
 30
0.0
 11
701.5892285039448
 21
495.8501502307842
 31
0.0
  0
LINE
  5
150
330
1F
100
AcDbEntity
  8
0
100
AcDbLine
 10
704.6545885039448
 20
486.4458502307842
 30
0.0
 11
701.5892685039451
 21
486.541670230784
 31
0.0
  0
LINE
  5
151
330
1F
100
AcDbEntity
  8
0
100
AcDbLine
 10
703.5892285039448
 20
495.9127102307842
 30
0.0
 11
703.5892285039448
 21
486.4791102307841
 31
0.0
  0
LINE
  5
152
330
1F
100
AcDbEntity
  8
0
100
AcDbLine
 10
706.6531885039447
 20
486.4458502307842
 30
0.0
 11
704.6531885039447
 21
486.4458502307842
 31
0.0
  0
LINE
  5
153
330
1F
100
AcDbEntity
  8
0
100
AcDbLine
 10
706.6531885039447
 20
495.9458502307842
 30
0.0
 11
704.6531885039447
 21
495.9458502307842
 31
0.0
  0
LINE
  5
154
330
1F
100
AcDbEntity
  8
0
100
AcDbLine
 10
706.6531885039447
 20
496.1958502307842
 30
0.0
 11
706.6531885039447
 21
486.1958502307841
 31
0.0
  0
LINE
  5
155
330
1F
100
AcDbEntity
  8
0
100
AcDbLine
 10
719.1531685039448
 20
496.1958502307842
 30
0.0
 11
706.6531885039447
 21
496.1958502307842
 31
0.0
  0
LINE
  5
156
330
1F
100
AcDbEntity
  8
0
100
AcDbLine
 10
719.1531685039448
 20
486.1958502307841
 30
0.0
 11
706.6531885039447
 21
486.1958502307841
 31
0.0
  0
LINE
  5
157
330
1F
100
AcDbEntity
  8
0
100
AcDbLine
 10
719.1531685039448
 20
496.1958502307842
 30
0.0
 11
719.1531685039448
 21
486.1958502307841
 31
0.0
  0
CIRCLE
  5
158
330
1F
100
AcDbEntity
  8
0
100
AcDbCircle
 10
648.5892132451551
 20
491.1958502307842
 30
0.0
 40
53.00001525878963
  0
ARC
  5
159
330
1F
100
AcDbEntity
  8
0
100
AcDbCircle
 10
648.5892132451551
 20
491.1958502307842
 30
0.0
 40
61.00007525878971
100
AcDbArc
 50
4.701644383036408
 51
355.2983556169635
  0
LINE
  5
15A
330
1F
100
AcDbEntity
  8
0
100
AcDbLine
 10
648.589213245154
 20
223.1879837212727
 30
0.0
 11
690.4875532451537
 21
223.1879837212727
 31
0.0
  0
LINE
  5
15B
330
1F
100
AcDbEntity
  8
0
100
AcDbLine
 10
673.589213245154
 20
223.1879837212727
 30
0.0
 11
673.589213245154
 21
227.1879837212727
 31
0.0
  0
LINE
  5
15C
330
1F
100
AcDbEntity
  8
0
100
AcDbLine
 10
701.589213245154
 20
206.3135837212727
 30
0.0
 11
701.589213245154
 21
180.1849237212729
 31
0.0
  0
LINE
  5
15D
330
1F
100
AcDbEntity
  8
0
100
AcDbLine
 10
709.5892732451538
 20
169.8012637212728
 30
0.0
 11
709.5892732451538
 21
153.1881037212729
 31
0.0
  0
LINE
  5
15E
330
1F
100
AcDbEntity
  8
0
100
AcDbLine
 10
707.1017532451537
 20
172.6880437212728
 30
0.0
 11
590.0772132451538
 21
172.6880437212728
 31
0.0
  0
LINE
  5
15F
330
1F
100
AcDbEntity
  8
0
100
AcDbLine
 10
701.589213245154
 20
177.3068837212728
 30
0.0
 11
595.589213245154
 21
177.3068837212728
 31
0.0
  0
LINE
  5
160
330
1F
100
AcDbEntity
  8
0
100
AcDbLine
 10
700.9906132451537
 20
208.0769037212727
 30
0.0
 11
596.1936532451541
 21
208.0769037212727
 31
0.0
  0
LINE
  5
161
330
1F
100
AcDbEntity
  8
0
100
AcDbLine
 10
599.173333245154
 20
217.9241837212728
 30
0.0
 11
596.1922932451539
 21
209.7338237212729
 31
0.0
  0
LINE
  5
162
330
1F
100
AcDbEntity
  8
0
100
AcDbLine
 10
593.089233245154
 20
175.8634637212727
 30
0.0
 11
590.0891732451541
 21
174.1314037212728
 31
0.0
  0
LINE
  5
163
330
1F
100
AcDbEntity
  8
0
100
AcDbLine
 10
648.589213245154
 20
223.1879837212727
 30
0.0
 11
606.6908732451538
 21
223.1879837212727
 31
0.0
  0
LINE
  5
164
330
1F
100
AcDbEntity
  8
0
100
AcDbLine
 10
595.589213245154
 20
206.3135837212727
 30
0.0
 11
595.589213245154
 21
180.1849237212729
 31
0.0
  0
LINE
  5
165
330
1F
100
AcDbEntity
  8
0
100
AcDbLine
 10
587.5891532451537
 20
169.8012637212728
 30
0.0
 11
587.5891532451537
 21
153.1881037212728
 31
0.0
  0
LINE
  5
166
330
1F
100
AcDbEntity
  8
0
100
AcDbLine
 10
623.589213245154
 20
223.1879837212727
 30
0.0
 11
623.589213245154
 21
227.1879837212727
 31
0.0
  0
LINE
  5
167
330
1F
100
AcDbEntity
  8
0
100
AcDbLine
 10
709.5892732451538
 20
157.6880437212728
 30
0.0
 11
587.5891532451537
 21
157.6880437212728
 31
0.0
  0
LINE
  5
168
330
1F
100
AcDbEntity
  8
0
100
AcDbLine
 10
704.0891732451541
 20
175.8634637212727
 30
0.0
 11
707.0999332451537
 21
174.1252437212728
 31
0.0
  0
LINE
  5
169
330
1F
100
AcDbEntity
  8
0
100
AcDbLine
 10
698.0051132451539
 20
217.9241837212728
 30
0.0
 11
700.9861532451541
 21
209.7338237212729
 31
0.0
  0
LINE
  5
16A
330
1F
100
AcDbEntity
  8
0
100
AcDbLine
 10
709.5892732451538
 20
153.1881037212729
 30
0.0
 11
648.589213245154
 21
153.1881037212728
 31
0.0
  0
LINE
  5
16B
330
1F
100
AcDbEntity
  8
0
100
AcDbLine
 10
621.5893132451538
 20
148.1881037212728
 30
0.0
 11
621.5893132451538
 21
142.4381037212724
 31
0.0
  0
LINE
  5
16C
330
1F
100
AcDbEntity
  8
0
100
AcDbLine
 10
587.5891532451537
 20
153.1881037212728
 30
0.0
 11
648.589213245154
 21
153.1881037212728
 31
0.0
  0
LINE
  5
16D
330
1F
100
AcDbEntity
  8
0
100
AcDbLine
 10
605.5247732451539
 20
150.1881037212728
 30
0.0
 11
643.589213245154
 21
150.1881037212728
 31
0.0
  0
LINE
  5
16E
330
1F
100
AcDbEntity
  8
0
100
AcDbLine
 10
652.8963732451538
 20
145.6881037212728
 30
0.0
 11
653.5891732451541
 21
146.0880637212727
 31
0.0
  0
LINE
  5
16F
330
1F
100
AcDbEntity
  8
0
100
AcDbLine
 10
644.2820332451538
 20
145.6881037212728
 30
0.0
 11
643.589213245154
 21
146.0880637212727
 31
0.0
  0
LINE
  5
170
330
1F
100
AcDbEntity
  8
0
100
AcDbLine
 10
643.589213245154
 20
146.0880637212727
 30
0.0
 11
643.589213245154
 21
151.6881037212728
 31
0.0
  0
LINE
  5
171
330
1F
100
AcDbEntity
  8
0
100
AcDbLine
 10
643.589213245154
 20
146.0880637212727
 30
0.0
 11
653.589213245154
 21
146.0880637212727
 31
0.0
  0
LINE
  5
172
330
1F
100
AcDbEntity
  8
0
100
AcDbLine
 10
644.2820332451538
 20
145.6881037212728
 30
0.0
 11
652.8963732451538
 21
145.6881037212728
 31
0.0
  0
LINE
  5
173
330
1F
100
AcDbEntity
  8
0
100
AcDbLine
 10
643.589213245154
 20
150.8880637212727
 30
0.0
 11
653.589213245154
 21
150.8880637212727
 31
0.0
  0
LINE
  5
174
330
1F
100
AcDbEntity
  8
0
100
AcDbLine
 10
653.589213245154
 20
146.0880637212727
 30
0.0
 11
653.589213245154
 21
151.6881037212728
 31
0.0
  0
LINE
  5
175
330
1F
100
AcDbEntity
  8
0
100
AcDbLine
 10
643.589213245154
 20
151.6881037212728
 30
0.0
 11
643.589213245154
 21
153.1881037212728
 31
0.0
  0
LINE
  5
176
330
1F
100
AcDbEntity
  8
0
100
AcDbLine
 10
643.589213245154
 20
151.6881037212728
 30
0.0
 11
653.589213245154
 21
151.6881037212728
 31
0.0
  0
LINE
  5
177
330
1F
100
AcDbEntity
  8
0
100
AcDbLine
 10
653.589213245154
 20
151.6881037212728
 30
0.0
 11
653.589213245154
 21
153.1881037212728
 31
0.0
  0
LINE
  5
178
330
1F
100
AcDbEntity
  8
0
100
AcDbLine
 10
595.5247732451539
 20
151.6881037212728
 30
0.0
 11
595.5247732451539
 21
153.1881037212728
 31
0.0
  0
LINE
  5
179
330
1F
100
AcDbEntity
  8
0
100
AcDbLine
 10
595.5247732451539
 20
151.6881037212728
 30
0.0
 11
605.5247732451539
 21
151.6881037212728
 31
0.0
  0
LINE
  5
17A
330
1F
100
AcDbEntity
  8
0
100
AcDbLine
 10
595.5247732451539
 20
146.0880637212727
 30
0.0
 11
595.5247732451539
 21
151.6881037212728
 31
0.0
  0
LINE
  5
17B
330
1F
100
AcDbEntity
  8
0
100
AcDbLine
 10
596.2175932451541
 20
145.6881037212728
 30
0.0
 11
595.5247732451539
 21
146.0881237212728
 31
0.0
  0
LINE
  5
17C
330
1F
100
AcDbEntity
  8
0
100
AcDbLine
 10
605.5247732451539
 20
146.0880637212727
 30
0.0
 11
605.5247732451539
 21
151.6881037212728
 31
0.0
  0
LINE
  5
17D
330
1F
100
AcDbEntity
  8
0
100
AcDbLine
 10
595.5247732451539
 20
150.8880637212727
 30
0.0
 11
605.5247732451539
 21
150.8880637212727
 31
0.0
  0
LINE
  5
17E
330
1F
100
AcDbEntity
  8
0
100
AcDbLine
 10
596.2175932451541
 20
145.6881037212728
 30
0.0
 11
604.8319332451537
 21
145.6881037212728
 31
0.0
  0
LINE
  5
17F
330
1F
100
AcDbEntity
  8
0
100
AcDbLine
 10
595.5247732451539
 20
146.0880637212727
 30
0.0
 11
605.5247732451539
 21
146.0880637212727
 31
0.0
  0
LINE
  5
180
330
1F
100
AcDbEntity
  8
0
100
AcDbLine
 10
604.8319332451537
 20
145.6881037212728
 30
0.0
 11
605.5248132451538
 21
146.0881237212728
 31
0.0
  0
LINE
  5
181
330
1F
100
AcDbEntity
  8
0
100
AcDbLine
 10
605.5247732451539
 20
151.6881037212728
 30
0.0
 11
605.5247732451539
 21
153.1881037212728
 31
0.0
  0
LINE
  5
182
330
1F
100
AcDbEntity
  8
0
100
AcDbLine
 10
624.589213245154
 20
228.1879837212727
 30
0.0
 11
672.589213245154
 21
228.1879837212727
 31
0.0
  0
LINE
  5
183
330
1F
100
AcDbEntity
  8
0
100
AcDbLine
 10
704.653153245154
 20
208.4381037212728
 30
0.0
 11
701.3826132451541
 21
208.3358637212727
 31
0.0
  0
LINE
  5
184
330
1F
100
AcDbEntity
  8
0
100
AcDbLine
 10
706.6531732451539
 20
198.9380437212728
 30
0.0
 11
704.653173245154
 21
198.9380437212728
 31
0.0
  0
LINE
  5
185
330
1F
100
AcDbEntity
  8
0
100
AcDbLine
 10
706.6531732451539
 20
208.4380437212728
 30
0.0
 11
704.653173245154
 21
208.4380437212728
 31
0.0
  0
LINE
  5
186
330
1F
100
AcDbEntity
  8
0
100
AcDbLine
 10
706.6531732451539
 20
208.6880437212728
 30
0.0
 11
706.6531732451539
 21
198.6880437212728
 31
0.0
  0
LINE
  5
187
330
1F
100
AcDbEntity
  8
0
100
AcDbLine
 10
719.153153245154
 20
208.6880437212728
 30
0.0
 11
706.6531732451539
 21
208.6880437212728
 31
0.0
  0
LINE
  5
188
330
1F
100
AcDbEntity
  8
0
100
AcDbLine
 10
719.153153245154
 20
198.6880437212728
 30
0.0
 11
706.6531732451539
 21
198.6880437212728
 31
0.0
  0
LINE
  5
189
330
1F
100
AcDbEntity
  8
0
100
AcDbLine
 10
719.153153245154
 20
208.6880437212728
 30
0.0
 11
719.153153245154
 21
198.6880437212728
 31
0.0
  0
LINE
  5
18A
330
1F
100
AcDbEntity
  8
0
100
AcDbLine
 10
704.6545532451541
 20
198.9380437212728
 30
0.0
 11
701.589213245154
 21
199.0338637212727
 31
0.0
  0
LINE
  5
18B
330
1F
100
AcDbEntity
  8
0
100
AcDbLine
 10
703.589213245154
 20
208.4049037212728
 30
0.0
 11
703.589213245154
 21
198.9713037212727
 31
0.0
  0
LINE
  5
18C
330
1F
100
AcDbEntity
  8
0
100
AcDbLine
 10
642.589213245154
 20
253.1879837212727
 30
0.0
 11
654.589213245154
 21
253.1879837212727
 31
0.0
  0
LINE
  5
18D
330
1F
100
AcDbEntity
  8
0
100
AcDbLine
 10
640.589213245154
 20
229.1879837212727
 30
0.0
 11
656.589213245154
 21
229.1879837212727
 31
0.0
  0
LINE
  5
18E
330
1F
100
AcDbEntity
  8
0
100
AcDbLine
 10
656.589213245154
 20
229.1879837212727
 30
0.0
 11
656.589213245154
 21
228.1879837212727
 31
0.0
  0
LINE
  5
18F
330
1F
100
AcDbEntity
  8
0
100
AcDbLine
 10
640.589213245154
 20
229.1879837212727
 30
0.0
 11
640.589213245154
 21
228.1879837212727
 31
0.0
  0
LINE
  5
190
330
1F
100
AcDbEntity
  8
0
100
AcDbLine
 10
640.589213245154
 20
229.1879837212727
 30
0.0
 11
641.089213245154
 21
231.0540637212727
 31
0.0
  0
LINE
  5
191
330
1F
100
AcDbEntity
  8
0
100
AcDbLine
 10
656.089213245154
 20
231.0540037212728
 30
0.0
 11
656.589213245154
 21
229.1880437212728
 31
0.0
  0
LINE
  5
192
330
1F
100
AcDbEntity
  8
0
100
AcDbLine
 10
641.089213245154
 20
251.6879837212727
 30
0.0
 11
641.089213245154
 21
231.0540037212728
 31
0.0
  0
LINE
  5
193
330
1F
100
AcDbEntity
  8
0
100
AcDbLine
 10
656.089213245154
 20
251.6879837212727
 30
0.0
 11
656.089213245154
 21
231.0540037212728
 31
0.0
  0
LINE
  5
194
330
1F
100
AcDbEntity
  8
0
100
AcDbLine
 10
642.589213245154
 20
253.1879837212727
 30
0.0
 11
641.089213245154
 21
251.6879837212727
 31
0.0
  0
LINE
  5
195
330
1F
100
AcDbEntity
  8
0
100
AcDbLine
 10
654.5892532451539
 20
253.1879837212727
 30
0.0
 11
656.089213245154
 21
251.6880437212728
 31
0.0
  0
LINE
  5
196
330
1F
100
AcDbEntity
  8
0
100
AcDbLine
 10
641.089213245154
 20
231.0540037212728
 30
0.0
 11
656.089213245154
 21
231.0540037212728
 31
0.0
  0
LINE
  5
197
330
1F
100
AcDbEntity
  8
0
100
AcDbLine
 10
641.089213245154
 20
251.6879837212727
 30
0.0
 11
656.089213245154
 21
251.6879837212727
 31
0.0
  0
LINE
  5
198
330
1F
100
AcDbEntity
  8
0
100
AcDbLine
 10
691.6536332451542
 20
150.1881037212728
 30
0.0
 11
653.589213245154
 21
150.1881037212728
 31
0.0
  0
LINE
  5
199
330
1F
100
AcDbEntity
  8
0
100
AcDbLine
 10
675.5891132451538
 20
148.1881037212728
 30
0.0
 11
675.5891132451538
 21
142.4381037212728
 31
0.0
  0
LINE
  5
19A
330
1F
100
AcDbEntity
  8
0
100
AcDbLine
 10
701.6536332451542
 20
151.6881037212728
 30
0.0
 11
701.6536332451542
 21
153.1881037212728
 31
0.0
  0
LINE
  5
19B
330
1F
100
AcDbEntity
  8
0
100
AcDbLine
 10
701.6536332451542
 20
151.6881037212728
 30
0.0
 11
691.6536332451542
 21
151.6881037212728
 31
0.0
  0
LINE
  5
19C
330
1F
100
AcDbEntity
  8
0
100
AcDbLine
 10
701.6536332451542
 20
146.0880637212727
 30
0.0
 11
701.6536332451542
 21
151.6881037212728
 31
0.0
  0
LINE
  5
19D
330
1F
100
AcDbEntity
  8
0
100
AcDbLine
 10
700.9608332451539
 20
145.6881037212728
 30
0.0
 11
701.6536332451542
 21
146.0880637212727
 31
0.0
  0
LINE
  5
19E
330
1F
100
AcDbEntity
  8
0
100
AcDbLine
 10
691.6536332451542
 20
146.0880637212727
 30
0.0
 11
691.6536332451542
 21
151.6881037212728
 31
0.0
  0
LINE
  5
19F
330
1F
100
AcDbEntity
  8
0
100
AcDbLine
 10
701.6536332451542
 20
150.8880637212727
 30
0.0
 11
691.6536332451542
 21
150.8880637212727
 31
0.0
  0
LINE
  5
1A0
330
1F
100
AcDbEntity
  8
0
100
AcDbLine
 10
700.9608332451539
 20
145.6881037212728
 30
0.0
 11
692.3464732451539
 21
145.6881037212728
 31
0.0
  0
LINE
  5
1A1
330
1F
100
AcDbEntity
  8
0
100
AcDbLine
 10
701.6536332451542
 20
146.0880637212727
 30
0.0
 11
691.6536332451542
 21
146.0880637212727
 31
0.0
  0
LINE
  5
1A2
330
1F
100
AcDbEntity
  8
0
100
AcDbLine
 10
692.3465332451537
 20
145.6881037212728
 30
0.0
 11
691.653673245154
 21
146.0881237212728
 31
0.0
  0
LINE
  5
1A3
330
1F
100
AcDbEntity
  8
0
100
AcDbLine
 10
691.6536332451542
 20
151.6881037212728
 30
0.0
 11
691.6536332451542
 21
153.1881037212728
 31
0.0
  0
ARC
  5
1A4
330
1F
100
AcDbEntity
  8
0
100
AcDbCircle
 10
691.589213245154
 20
206.3135837212727
 30
0.0
 40
10.0
100
AcDbArc
 50
0.0
 51
20.00017000000418
  0
ARC
  5
1A5
330
1F
100
AcDbEntity
  8
0
100
AcDbCircle
 10
606.6908732451538
 20
215.1879837212728
 30
0.0
 40
8.0
100
AcDbArc
 50
90.0
 51
160.0001199999889
  0
ARC
  5
1A6
330
1F
100
AcDbEntity
  8
0
100
AcDbCircle
 10
690.4875532451537
 20
215.1879837212728
 30
0.0
 40
8.0
100
AcDbArc
 50
19.99988000001103
 51
90.0
  0
ARC
  5
1A7
330
1F
100
AcDbEntity
  8
0
100
AcDbCircle
 10
605.589213245154
 20
206.3135837212727
 30
0.0
 40
10.0
100
AcDbArc
 50
159.9998599999918
 51
180.0
  0
ARC
  5
1A8
330
1F
100
AcDbEntity
  8
0
100
AcDbCircle
 10
592.5891532451537
 20
169.8013237212729
 30
0.0
 40
5.0
100
AcDbArc
 50
119.9999300000017
 51
180.0
  0
ARC
  5
1A9
330
1F
100
AcDbEntity
  8
0
100
AcDbCircle
 10
590.589213245154
 20
180.1936037212728
 30
0.0
 40
5.0
100
AcDbArc
 50
299.9999300000017
 51
0.0
  0
ARC
  5
1AA
330
1F
100
AcDbEntity
  8
0
100
AcDbCircle
 10
624.589213245154
 20
227.1879837212727
 30
0.0
 40
1.0
100
AcDbArc
 50
90.0
 51
180.0
  0
ARC
  5
1AB
330
1F
100
AcDbEntity
  8
0
100
AcDbCircle
 10
704.5892732451538
 20
169.8013237212729
 30
0.0
 40
5.0
100
AcDbArc
 50
0.0
 51
60.00006999999821
  0
ARC
  5
1AC
330
1F
100
AcDbEntity
  8
0
100
AcDbCircle
 10
672.589213245154
 20
227.1879837212727
 30
0.0
 40
1.0
100
AcDbArc
 50
0.0
 51
90.0
  0
ARC
  5
1AD
330
1F
100
AcDbEntity
  8
0
100
AcDbCircle
 10
706.589213245154
 20
180.1936037212728
 30
0.0
 40
5.0
100
AcDbArc
 50
180.0
 51
240.0000699999982
  0
ARC
  5
1AE
330
1F
100
AcDbEntity
  8
0
100
AcDbCircle
 10
619.5893132451537
 20
148.1881037212728
 30
0.0
 40
2.0
100
AcDbArc
 50
0.0
 51
90.0
  0
ARC
  5
1AF
330
1F
100
AcDbEntity
  8
0
100
AcDbCircle
 10
677.5891132451538
 20
148.1881037212728
 30
0.0
 40
2.0
100
AcDbArc
 50
90.0
 51
180.0
  0
LINE
  5
1B0
330
1F
100
AcDbEntity
  8
0
100
AcDbLine
 10
623.339213245154
 20
-33.81188627872708
 30
0.0
 11
623.339213245154
 21
-30.96192184958858
 31
0.0
  0
LINE
  5
1B1
330
1F
100
AcDbEntity
  8
0
100
AcDbLine
 10
673.8392732451538
 20
-33.81188627872708
 30
0.0
 11
623.339213245154
 21
-33.81188627872708
 31
0.0
  0
LINE
  5
1B2
330
1F
100
AcDbEntity
  8
0
100
AcDbLine
 10
673.8392732451538
 20
-33.81188627872708
 30
0.0
 11
673.8392732451538
 21
-30.96187373966149
 31
0.0
  0
LINE
  5
1B3
330
1F
100
AcDbEntity
  8
0
100
AcDbLine
 10
661.2892232451537
 20
-26.39403172564165
 30
0.0
 11
673.8392732451538
 21
-30.96187373966149
 31
0.0
  0
LINE
  5
1B4
330
1F
100
AcDbEntity
  8
0
100
AcDbLine
 10
661.2892232451539
 20
-5.526576843433915
 30
0.0
 11
661.2892232451537
 21
-26.39403172564165
 31
0.0
  0
LINE
  5
1B5
330
1F
100
AcDbEntity
  8
0
100
AcDbLine
 10
661.2892232451539
 20
-5.526576843433915
 30
0.0
 11
668.5892965105391
 21
-1.311886714333475
 31
0.0
  0
LINE
  5
1B6
330
1F
100
AcDbEntity
  8
0
100
AcDbLine
 10
682.0892732451539
 20
2.577456132456717
 30
0.0
 11
682.0892732451539
 21
-1.311886278727087
 31
0.0
  0
LINE
  5
1B7
330
1F
100
AcDbEntity
  8
0
100
AcDbLine
 10
682.0892732451539
 20
-1.311886278727087
 30
0.0
 11
615.0892132451539
 21
-1.311886278727087
 31
0.0
  0
LINE
  5
1B8
330
1F
100
AcDbEntity
  8
0
100
AcDbLine
 10
628.589270139582
 20
-1.311886437527633
 30
0.0
 11
635.889203245154
 21
-5.52650145070622
 31
0.0
  0
LINE
  5
1B9
330
1F
100
AcDbEntity
  8
0
100
AcDbLine
 10
715.7392427750616
 20
39.93811372127291
 30
0.0
 11
711.171408942448
 21
52.48812372127284
 31
0.0
  0
LINE
  5
1BA
330
1F
100
AcDbEntity
  8
0
100
AcDbLine
 10
715.7392580496112
 20
90.43811372127292
 30
0.0
 11
711.1714144326052
 21
77.88812372127295
 31
0.0
  0
LINE
  5
1BB
330
1F
100
AcDbEntity
  8
0
100
AcDbLine
 10
616.589213245154
 20
81.9381137212729
 30
0.0
 11
616.589213245154
 21
49.18811372127291
 31
0.0
  0
LINE
  5
1BC
330
1F
100
AcDbEntity
  8
0
100
AcDbLine
 10
608.589213245154
 20
32.18811372127291
 30
0.0
 11
608.589213245154
 21
16.18811372127291
 31
0.0
  0
LINE
  5
1BD
330
1F
100
AcDbEntity
  8
0
100
AcDbLine
 10
578.589213245154
 20
-9.061886278727087
 30
0.0
 11
581.4391625457802
 21
-9.061886278727087
 31
0.0
  0
LINE
  5
1BE
330
1F
100
AcDbEntity
  8
0
100
AcDbLine
 10
578.589213245154
 20
41.43811372127291
 30
0.0
 11
578.589213245154
 21
-9.061886278727087
 31
0.0
  0
LINE
  5
1BF
330
1F
100
AcDbEntity
  8
0
100
AcDbLine
 10
586.0069476775841
 20
3.488033721272842
 30
0.0
 11
614.0493640769294
 21
3.488033721272842
 31
0.0
  0
LINE
  5
1C0
330
1F
100
AcDbEntity
  8
0
100
AcDbLine
 10
635.889203245154
 20
-5.52650145070622
 30
0.0
 11
635.889203245154
 21
-26.39410378524357
 31
0.0
  0
LINE
  5
1C1
330
1F
100
AcDbEntity
  8
0
100
AcDbLine
 10
615.089213245154
 20
2.577456132456703
 30
0.0
 11
615.0892132451539
 21
-1.311886278727087
 31
0.0
  0
LINE
  5
1C2
330
1F
100
AcDbEntity
  8
0
100
AcDbLine
 10
718.5892932451538
 20
39.93811372127291
 30
0.0
 11
715.7392427750616
 21
39.93811372127291
 31
0.0
  0
LINE
  5
1C3
330
1F
100
AcDbEntity
  8
0
100
AcDbLine
 10
578.589213245154
 20
41.43811372127291
 30
0.0
 11
581.4392198514368
 21
41.43811372127291
 31
0.0
  0
LINE
  5
1C4
330
1F
100
AcDbEntity
  8
0
100
AcDbLine
 10
711.171408942448
 20
52.48812372127284
 30
0.0
 11
680.5892932451544
 21
52.48812372127284
 31
0.0
  0
LINE
  5
1C5
330
1F
100
AcDbEntity
  8
0
100
AcDbLine
 10
711.1714144326052
 20
77.88812372127295
 30
0.0
 11
680.589293245154
 21
77.88812372127293
 31
0.0
  0
LINE
  5
1C6
330
1F
100
AcDbEntity
  8
0
100
AcDbLine
 10
682.5892732451538
 20
98.68835072167616
 30
0.0
 11
682.5892732451538
 21
97.43811372127289
 31
0.0
  0
LINE
  5
1C7
330
1F
100
AcDbEntity
  8
0
100
AcDbLine
 10
688.5892732451538
 20
32.18811372127291
 30
0.0
 11
688.5892732451538
 21
16.18811372127291
 31
0.0
  0
LINE
  5
1C8
330
1F
100
AcDbEntity
  8
0
100
AcDbLine
 10
581.4391625457802
 20
-9.061886278727087
 30
0.0
 11
586.0069476775841
 21
3.488033721272842
 31
0.0
  0
LINE
  5
1C9
330
1F
100
AcDbEntity
  8
0
100
AcDbLine
 10
623.339213245154
 20
-30.96192184958858
 30
0.0
 11
635.889203245154
 21
-26.39410378524357
 31
0.0
  0
LINE
  5
1CA
330
1F
100
AcDbEntity
  8
0
100
AcDbLine
 10
676.0892732451538
 20
127.9381037212729
 30
0.0
 11
676.0892732451537
 21
105.1883044247653
 31
0.0
  0
LINE
  5
1CB
330
1F
100
AcDbEntity
  8
0
100
AcDbLine
 10
718.5892932451538
 20
90.43811372127292
 30
0.0
 11
718.5892932451538
 21
39.93811372127291
 31
0.0
  0
LINE
  5
1CC
330
1F
100
AcDbEntity
  8
0
100
AcDbLine
 10
718.5892932451538
 20
90.43811372127292
 30
0.0
 11
715.7392580496112
 21
90.43811372127292
 31
0.0
  0
LINE
  5
1CD
330
1F
100
AcDbEntity
  8
0
100
AcDbLine
 10
581.4392198514368
 20
41.43811372127291
 30
0.0
 11
586.0070735861068
 21
28.88806372127286
 31
0.0
  0
LINE
  5
1CE
330
1F
100
AcDbEntity
  8
0
100
AcDbLine
 10
586.0070735861068
 20
28.88806372127286
 30
0.0
 11
608.589213245154
 21
28.88806372127286
 31
0.0
  0
LINE
  5
1CF
330
1F
100
AcDbEntity
  8
0
100
AcDbLine
 10
694.3392932451536
 20
97.43811372127289
 30
0.0
 11
694.3392932451539
 21
81.9381137212729
 31
0.0
  0
LINE
  5
1D0
330
1F
100
AcDbEntity
  8
0
100
AcDbLine
 10
694.3392932451536
 20
97.43811372127289
 30
0.0
 11
602.839213245154
 21
97.43811372127291
 31
0.0
  0
LINE
  5
1D1
330
1F
100
AcDbEntity
  8
0
100
AcDbLine
 10
602.839213245154
 20
97.43811372127291
 30
0.0
 11
602.839213245154
 21
81.9381137212729
 31
0.0
  0
LINE
  5
1D2
330
1F
100
AcDbEntity
  8
0
100
AcDbLine
 10
694.3392932451539
 20
81.9381137212729
 30
0.0
 11
602.839213245154
 21
81.9381137212729
 31
0.0
  0
LINE
  5
1D3
330
1F
100
AcDbEntity
  8
0
100
AcDbLine
 10
596.089213245154
 20
32.18811372127291
 30
0.0
 11
701.0892932451538
 21
32.18811372127291
 31
0.0
  0
LINE
  5
1D4
330
1F
100
AcDbEntity
  8
0
100
AcDbLine
 10
596.089213245154
 20
49.18811372127291
 30
0.0
 11
701.0892932451538
 21
49.18811372127291
 31
0.0
  0
LINE
  5
1D5
330
1F
100
AcDbEntity
  8
0
100
AcDbLine
 10
596.089213245154
 20
49.18811372127291
 30
0.0
 11
596.089213245154
 21
32.18811372127291
 31
0.0
  0
LINE
  5
1D6
330
1F
100
AcDbEntity
  8
0
100
AcDbLine
 10
701.0892932451538
 20
49.18811372127291
 30
0.0
 11
701.0892932451538
 21
32.18811372127291
 31
0.0
  0
LINE
  5
1D7
330
1F
100
AcDbEntity
  8
0
100
AcDbLine
 10
621.0892129168723
 20
105.1882322935145
 30
0.0
 11
614.5892299659593
 21
98.6882615412618
 31
0.0
  0
ARC
  5
1D8
330
1F
100
AcDbEntity
  8
0
100
AcDbCircle
 10
671.0892732451538
 20
16.18811372127291
 30
0.0
 40
17.5
100
AcDbArc
 50
308.9448035940958
 51
0.0
  0
ARC
  5
1D9
330
1F
100
AcDbEntity
  8
0
100
AcDbCircle
 10
626.089213245154
 20
16.18811372127291
 30
0.0
 40
17.5
100
AcDbArc
 50
180.0
 51
231.0551964059041
  0
LINE
  5
1DA
330
1F
100
AcDbEntity
  8
0
100
AcDbLine
 10
614.5892299659593
 20
98.6882615412618
 30
0.0
 11
614.5892332450365
 21
97.43811372127289
 31
0.0
  0
LINE
  5
1DB
330
1F
100
AcDbEntity
  8
0
100
AcDbLine
 10
621.0891532450586
 20
127.9381037212729
 30
0.0
 11
621.0892129168723
 21
105.1882322935145
 31
0.0
  0
LINE
  5
1DC
330
1F
100
AcDbEntity
  8
0
100
AcDbLine
 10
676.0892732451537
 20
105.1883044247653
 30
0.0
 11
682.5892732451538
 21
98.68835072167616
 31
0.0
  0
LINE
  5
1DD
330
1F
100
AcDbEntity
  8
0
100
AcDbLine
 10
680.589293245154
 20
81.9381137212734
 30
0.0
 11
680.5892932451545
 21
49.1881137212734
 31
0.0
  0
LINE
  5
1DE
330
1F
100
AcDbEntity
  8
0
100
AcDbLine
 10
581.4392198514368
 20
41.43811372127291
 30
0.0
 11
581.4391625457802
 21
-9.061886278727087
 31
0.0
  0
LINE
  5
1DF
330
1F
100
AcDbEntity
  8
0
100
AcDbLine
 10
586.0069476775841
 20
3.488033721272842
 30
0.0
 11
586.0070735861068
 21
28.88806372127286
 31
0.0
  0
LINE
  5
1E0
330
1F
100
AcDbEntity
  8
0
100
AcDbLine
 10
635.889203245154
 20
-26.39410378524357
 30
0.0
 11
661.2894212273966
 21
-26.39410378524357
 31
0.0
  0
LINE
  5
1E1
330
1F
100
AcDbEntity
  8
0
100
AcDbLine
 10
623.339213245154
 20
-30.96192184958858
 30
0.0
 11
673.8394054261681
 21
-30.96192184958858
 31
0.0
  0
LINE
  5
1E2
330
1F
100
AcDbEntity
  8
0
100
AcDbLine
 10
715.7392580496112
 20
90.43811372127292
 30
0.0
 11
715.7392427750616
 21
39.93811372127291
 31
0.0
  0
LINE
  5
1E3
330
1F
100
AcDbEntity
  8
0
100
AcDbLine
 10
711.1714144326052
 20
77.88812372127295
 30
0.0
 11
711.1714144326052
 21
52.48810863720212
 31
0.0
  0
LINE
  5
1E4
330
1F
100
AcDbEntity
  8
0
100
AcDbLine
 10
682.089273245154
 20
2.577456132456703
 30
0.0
 11
615.089213245154
 21
2.577456132456703
 31
0.0
  0
LINE
  5
1E5
330
1F
100
AcDbEntity
  8
0
100
AcDbLine
 10
718.5891827275772
 20
516.4458502307843
 30
0.0
 11
718.5891827275773
 21
496.1958502307842
 31
0.0
  0
LINE
  5
1E6
330
1F
100
AcDbEntity
  8
0
100
AcDbLine
 10
715.7391760515435
 20
465.9458502307842
 30
0.0
 11
711.1713538909314
 21
478.4958380237535
 31
0.0
  0
LINE
  5
1E7
330
1F
100
AcDbEntity
  8
0
100
AcDbLine
 10
718.5891827275772
 20
465.9458502307842
 30
0.0
 11
715.7391760515435
 21
465.9458502307842
 31
0.0
  0
LINE
  5
1E8
330
1F
100
AcDbEntity
  8
0
100
AcDbLine
 10
715.7391913010721
 20
516.4458502307837
 30
0.0
 11
711.1713691404617
 21
503.8958624378151
 31
0.0
  0
LINE
  5
1E9
330
1F
100
AcDbEntity
  8
0
100
AcDbLine
 10
711.1713691404617
 20
503.8958624378151
 30
0.0
 11
708.2525928973276
 21
503.8958624378152
 31
0.0
  0
LINE
  5
1EA
330
1F
100
AcDbEntity
  8
0
100
AcDbLine
 10
711.1713538909314
 20
478.4958380237535
 30
0.0
 11
708.2525928973277
 21
478.4958380237533
 31
0.0
  0
LINE
  5
1EB
330
1F
100
AcDbEntity
  8
0
100
AcDbLine
 10
718.5891827275772
 20
516.4458502307843
 30
0.0
 11
715.7391913010721
 21
516.4458502307837
 31
0.0
  0
LINE
  5
1EC
330
1F
100
AcDbEntity
  8
0
100
AcDbLine
 10
581.439250438767
 20
465.9458502307843
 30
0.0
 11
581.4392504387667
 21
516.4458502307843
 31
0.0
  0
LINE
  5
1ED
330
1F
100
AcDbEntity
  8
0
100
AcDbLine
 10
586.0070725993789
 20
478.4958380237533
 30
0.0
 11
586.0070725993788
 21
503.8958624378151
 31
0.0
  0
LINE
  5
244
330
1F
100
AcDbEntity
  8
0
  6
CENTER
100
AcDbLine
 10
559.2429421106886
 20
491.1958502307842
 30
0.0
 11
737.9354843796217
 21
491.1958502307842
 31
0.0
  0
LINE
  5
245
330
1F
100
AcDbEntity
  8
0
  6
CENTER
100
AcDbLine
 10
648.5892132451551
 20
419.3352681686709
 30
0.0
 11
648.5892132451551
 21
563.0564322928974
 31
0.0
  0
LINE
  5
246
330
1F
100
AcDbEntity
  8
0
  6
CENTER
100
AcDbLine
 10
605.2088571062677
 20
65.18811372127292
 30
0.0
 11
738.940001505503
 21
65.18811372127292
 31
0.0
  0
LINE
  5
247
330
1F
100
AcDbEntity
  8
0
  6
CENTER
100
AcDbLine
 10
648.5892532451539
 20
-52.80097138201108
 30
0.0
 11
648.5892532451539
 21
272.3614574281993
 31
0.0
  0
LINE
  5
248
330
1F
100
AcDbEntity
  8
0
  6
CENTER
100
AcDbLine
 10
559.2429821106874
 20
16.18811372127291
 30
0.0
 11
699.6790897710366
 21
16.18811372127291
 31
0.0
  0
VIEWPORT
  5
71
330
55
100
AcDbEntity
 67
     1
  8
0
100
AcDbViewport
 10
133.3499908447265
 20
101.5999970436096
 30
0.0
 40
381.3957395593834
 41
218.2856291881582
 68
     1
 69
     1
 12
133.3499908447265
 22
101.5999970436096
 13
0.0
 23
0.0
 14
10.0
 24
10.0
 15
10.0
 25
10.0
 16
0.0
 26
0.0
 36
1.0
 17
0.0
 27
0.0
 37
0.0
 42
50.0
 43
0.0
 44
0.0
 45
218.2856291881582
 50
0.0
 51
0.0
 72
   100
 90
    32800
  1

281
     0
 71
     1
 74
     0
110
0.0
120
0.0
130
0.0
111
1.0
121
0.0
131
0.0
112
0.0
122
1.0
132
0.0
 79
     0
146
0.0
  0
VIEWPORT
  5
73
330
55
100
AcDbEntity
 67
     1
  8
0
100
AcDbViewport
 10
133.349993944168
 20
101.599993944168
 30
0.0
 40
213.3599903106689
 41
162.5599903106689
 68
     2
 69
     2
 12
210.0
 22
148.5
 13
0.0
 23
0.0
 14
10.0
 24
10.0
 15
10.0
 25
10.0
 16
0.0
 26
0.0
 36
1.0
 17
0.0
 27
0.0
 37
0.0
 42
50.0
 43
0.0
 44
0.0
 45
324.0677920111345
 50
0.0
 51
0.0
 72
   100
 90
    32864
  1

281
     0
 71
     1
 74
     0
110
0.0
120
0.0
130
0.0
111
1.0
121
0.0
131
0.0
112
0.0
122
1.0
132
0.0
 79
     0
146
0.0
  0
ENDSEC
  0
SECTION
  2
OBJECTS
  0
DICTIONARY
  5
C
330
0
100
AcDbDictionary
281
     1
  3
ACAD_GROUP
350
D
  3
ACAD_LAYOUT
350
1A
  3
ACAD_MLINESTYLE
350
17
  3
ACAD_PLOTSETTINGS
350
19
  3
ACAD_PLOTSTYLENAME
350
E
  3
AcDbVariableDictionary
350
5E
  0
DICTIONARY
  5
23D
330
2
100
AcDbDictionary
280
     1
281
     1
  3
ACAD_LAYERSTATES
360
23E
  0
DICTIONARY
  5
1F3
330
1F
100
AcDbDictionary
280
     1
281
     1
  3
ACAD_LAYOUTSELFREF
360
22A
  0
DICTIONARY
  5
1F5
330
55
100
AcDbDictionary
280
     1
281
     1
  3
ACAD_LAYOUTSELFREF
360
22E
  0
DICTIONARY
  5
1F7
330
50
100
AcDbDictionary
280
     1
281
     1
  3
ACAD_LAYOUTSELFREF
360
22D
  0
DICTIONARY
  5
D
102
{ACAD_REACTORS
330
C
102
}
330
C
100
AcDbDictionary
281
     1
  0
DICTIONARY
  5
1A
102
{ACAD_REACTORS
330
C
102
}
330
C
100
AcDbDictionary
281
     1
  3
Model
350
22
  3
ﾚｲｱｳﾄ1
350
51
  3
ﾚｲｱｳﾄ2
350
56
  0
DICTIONARY
  5
17
102
{ACAD_REACTORS
330
C
102
}
330
C
100
AcDbDictionary
281
     1
  3
Standard
350
18
  0
DICTIONARY
  5
19
102
{ACAD_REACTORS
330
C
102
}
330
C
100
AcDbDictionary
281
     1
  0
ACDBDICTIONARYWDFLT
  5
E
102
{ACAD_REACTORS
330
C
102
}
330
C
100
AcDbDictionary
281
     1
  3
Normal
350
F
100
AcDbDictionaryWithDefault
340
F
  0
DICTIONARY
  5
5E
102
{ACAD_REACTORS
330
C
102
}
330
C
100
AcDbDictionary
281
     1
  3
DIMASSOC
350
5F
  3
HIDETEXT
350
63
  0
DICTIONARY
  5
23E
102
{ACAD_REACTORS
330
23D
102
}
330
23D
100
AcDbDictionary
281
     1
  0
XRECORD
  5
22A
102
{ACAD_REACTORS
330
1F3
102
}
330
1F3
100
AcDbXrecord
280
     1
340
1F
  0
XRECORD
  5
22E
102
{ACAD_REACTORS
330
1F5
102
}
330
1F5
100
AcDbXrecord
280
     1
340
55
  0
XRECORD
  5
22D
102
{ACAD_REACTORS
330
1F7
102
}
330
1F7
100
AcDbXrecord
280
     1
340
50
  0
LAYOUT
  5
22
102
{ACAD_REACTORS
330
1A
102
}
330
1A
100
AcDbPlotSettings
  1

  2
none_device
  4
ANSI_A_(8.50_x_11.00_Inches)
  6

 40
6.349999904632568
 41
19.04999923706054
 42
6.350006103515625
 43
19.04998779296875
 44
215.8999938964843
 45
279.3999938964843
 46
0.0
 47
0.0
 48
0.0
 49
0.0
140
0.0
141
0.0
142
1.0
143
78.436453180766
 70
 11952
 72
     0
 73
     1
 74
     0
  7

 75
     0
147
0.0127491741332998
148
0.0
149
0.0
100
AcDbLayout
  1
Model
 70
     1
 71
     0
 10
0.0
 20
0.0
 11
12.0
 21
9.0
 12
0.0
 22
0.0
 32
0.0
 14
0.0
 24
0.0
 34
0.0
 15
0.0
 25
0.0
 35
0.0
146
0.0
 13
0.0
 23
0.0
 33
0.0
 16
1.0
 26
0.0
 36
0.0
 17
0.0
 27
1.0
 37
0.0
 76
     0
330
1F
  0
LAYOUT
  5
51
102
{ACAD_REACTORS
330
1A
102
}
330
1A
100
AcDbPlotSettings
  1

  2
none_device
  4
Letter_(8.50_x_11.00_Inches)
  6

 40
6.349999904632568
 41
6.349999904632568
 42
6.350006103515625
 43
6.350006103515625
 44
215.8999938964843
 45
279.3999938964843
 46
0.0
 47
0.0
 48
0.0
 49
0.0
140
0.0
141
0.0
142
1.0
143
1.0
 70
   688
 72
     1
 73
     1
 74
     5
  7

 75
    16
147
1.0
148
0.0
149
0.0
100
AcDbLayout
  1
ﾚｲｱｳﾄ1
 70
     1
 71
     1
 10
-6.350006103515625
 20
-6.349999904632568
 11
273.0499877929687
 21
209.5499939918517
 12
0.0
 22
0.0
 32
0.0
 14
26.66076962115562
 24
20.31135699206657
 34
-0.0015258207003583
 15
240.039213369355
 25
182.8886381005154
 35
0.0000000349246037
146
0.0
 13
0.0
 23
0.0
 33
0.0
 16
1.0
 26
0.0
 36
0.0
 17
0.0
 27
1.0
 37
0.0
 76
     0
330
50
331
6B
  0
LAYOUT
  5
56
102
{ACAD_REACTORS
330
1A
102
}
330
1A
100
AcDbPlotSettings
  1

  2
none_device
  4
Letter_(8.50_x_11.00_Inches)
  6

 40
6.349999904632568
 41
6.349999904632568
 42
6.350006103515625
 43
6.350006103515625
 44
215.8999938964843
 45
279.3999938964843
 46
0.0
 47
0.0
 48
0.0
 49
0.0
140
0.0
141
0.0
142
1.0
143
1.0
 70
   688
 72
     1
 73
     1
 74
     5
  7

 75
    16
147
1.0
148
0.0
149
0.0
100
AcDbLayout
  1
ﾚｲｱｳﾄ2
 70
     1
 71
     2
 10
-6.350006103515625
 20
-6.349999904632568
 11
273.0499877929687
 21
209.5499939918517
 12
0.0
 22
0.0
 32
0.0
 14
26.66076962115562
 24
20.31135699206657
 34
-0.0015258207003583
 15
240.039213369355
 25
182.8886381005154
 35
0.0000000349246037
146
0.0
 13
0.0
 23
0.0
 33
0.0
 16
1.0
 26
0.0
 36
0.0
 17
0.0
 27
1.0
 37
0.0
 76
     0
330
55
331
71
  0
MLINESTYLE
  5
18
102
{ACAD_REACTORS
330
17
102
}
330
17
100
AcDbMlineStyle
  2
STANDARD
 70
     0
  3

 62
   256
 51
90.0
 52
90.0
 71
     2
 49
0.5
 62
   256
  6
BYLAYER
 49
-0.5
 62
   256
  6
BYLAYER
  0
ACDBPLACEHOLDER
  5
F
102
{ACAD_REACTORS
330
E
102
}
330
E
  0
DICTIONARYVAR
  5
5F
102
{ACAD_REACTORS
330
5E
102
}
330
5E
100
DictionaryVariables
280
     0
  1
2
  0
DICTIONARYVAR
  5
63
102
{ACAD_REACTORS
330
5E
102
}
330
5E
100
DictionaryVariables
280
     0
  1
1
  0
ENDSEC
  0
EOF
