  0
SECTION
  2
HEADER
  9
$ACADVER
  1
AC1015
  9
$ACADMAINTVER
 70
    14
  9
$DWGCODEPAGE
  3
ANSI_932
  9
$INSBASE
 10
0.0
 20
0.0
 30
0.0
  9
$EXTMIN
 10
326.3867112636912
 20
9.001235332036912
 30
-0.0000000000000058
  9
$EXTMAX
 10
1171.902269702682
 20
734.6486298621412
 30
0.0000000000000104
  9
$LIMMIN
 10
0.0
 20
0.0
  9
$LIMMAX
 10
420.0
 20
297.0
  9
$ORTHOMODE
 70
     0
  9
$REGENMODE
 70
     1
  9
$FILLMODE
 70
     1
  9
$QTEXTMODE
 70
     0
  9
$MIRRTEXT
 70
     1
  9
$LTSCALE
 40
1.0
  9
$ATTMODE
 70
     1
  9
$TEXTSIZE
 40
2.5
  9
$TRACEWID
 40
1.0
  9
$TEXTSTYLE
  7
Standard
  9
$CLAYER
  8
0
  9
$CELTYPE
  6
ByLayer
  9
$CECOLOR
 62
   256
  9
$CELTSCALE
 40
1.0
  9
$DISPSILH
 70
     0
  9
$DIMSCALE
 40
1.0
  9
$DIMASZ
 40
2.5
  9
$DIMEXO
 40
0.625
  9
$DIMDLI
 40
3.75
  9
$DIMRND
 40
0.0
  9
$DIMDLE
 40
0.0
  9
$DIMEXE
 40
1.25
  9
$DIMTP
 40
0.0
  9
$DIMTM
 40
0.0
  9
$DIMTXT
 40
2.5
  9
$DIMCEN
 40
2.5
  9
$DIMTSZ
 40
0.0
  9
$DIMTOL
 70
     0
  9
$DIMLIM
 70
     0
  9
$DIMTIH
 70
     0
  9
$DIMTOH
 70
     0
  9
$DIMSE1
 70
     0
  9
$DIMSE2
 70
     0
  9
$DIMTAD
 70
     1
  9
$DIMZIN
 70
     8
  9
$DIMBLK
  1

  9
$DIMASO
 70
     1
  9
$DIMSHO
 70
     1
  9
$DIMPOST
  1

  9
$DIMAPOST
  1

  9
$DIMALT
 70
     0
  9
$DIMALTD
 70
     3
  9
$DIMALTF
 40
0.03937007874016
  9
$DIMLFAC
 40
1.0
  9
$DIMTOFL
 70
     1
  9
$DIMTVP
 40
0.0
  9
$DIMTIX
 70
     0
  9
$DIMSOXD
 70
     0
  9
$DIMSAH
 70
     0
  9
$DIMBLK1
  1

  9
$DIMBLK2
  1

  9
$DIMSTYLE
  2
ISO-25
  9
$DIMCLRD
 70
     0
  9
$DIMCLRE
 70
     0
  9
$DIMCLRT
 70
     0
  9
$DIMTFAC
 40
1.0
  9
$DIMGAP
 40
0.625
  9
$DIMJUST
 70
     0
  9
$DIMSD1
 70
     0
  9
$DIMSD2
 70
     0
  9
$DIMTOLJ
 70
     0
  9
$DIMTZIN
 70
     8
  9
$DIMALTZ
 70
     0
  9
$DIMALTTZ
 70
     0
  9
$DIMUPT
 70
     0
  9
$DIMDEC
 70
     2
  9
$DIMTDEC
 70
     2
  9
$DIMALTU
 70
     2
  9
$DIMALTTD
 70
     3
  9
$DIMTXSTY
  7
Standard
  9
$DIMAUNIT
 70
     0
  9
$DIMADEC
 70
     0
  9
$DIMALTRND
 40
0.0
  9
$DIMAZIN
 70
     0
  9
$DIMDSEP
 70
    44
  9
$DIMATFIT
 70
     3
  9
$DIMFRAC
 70
     0
  9
$DIMLDRBLK
  1

  9
$DIMLUNIT
 70
     2
  9
$DIMLWD
 70
    -2
  9
$DIMLWE
 70
    -2
  9
$DIMTMOVE
 70
     0
  9
$LUNITS
 70
     2
  9
$LUPREC
 70
     4
  9
$SKETCHINC
 40
1.0
  9
$FILLETRAD
 40
10.0
  9
$AUNITS
 70
     0
  9
$AUPREC
 70
     0
  9
$MENU
  1
.
  9
$ELEVATION
 40
0.0
  9
$PELEVATION
 40
0.0
  9
$THICKNESS
 40
0.0
  9
$LIMCHECK
 70
     0
  9
$CHAMFERA
 40
10.0
  9
$CHAMFERB
 40
10.0
  9
$CHAMFERC
 40
20.0
  9
$CHAMFERD
 40
0.0
  9
$SKPOLY
 70
     0
  9
$TDCREATE
 40
2454278.645507812
  9
$TDUCREATE
 40
2454278.270507812
  9
$TDUPDATE
 40
2456899.669710370
  9
$TDUUPDATE
 40
2456899.294710370
  9
$TDINDWG
 40
0.0010226852
  9
$TDUSRTIMER
 40
0.0010226852
  9
$USRTIMER
 70
     1
  9
$ANGBASE
 50
0.0
  9
$ANGDIR
 70
     0
  9
$PDMODE
 70
     0
  9
$PDSIZE
 40
0.0
  9
$PLINEWID
 40
0.0
  9
$SPLFRAME
 70
     0
  9
$SPLINETYPE
 70
     6
  9
$SPLINESEGS
 70
     8
  9
$HANDSEED
  5
28D
  9
$SURFTAB1
 70
     6
  9
$SURFTAB2
 70
     6
  9
$SURFTYPE
 70
     6
  9
$SURFU
 70
     6
  9
$SURFV
 70
     6
  9
$UCSBASE
  2

  9
$UCSNAME
  2

  9
$UCSORG
 10
0.0
 20
0.0
 30
0.0
  9
$UCSXDIR
 10
1.0
 20
0.0
 30
0.0
  9
$UCSYDIR
 10
0.0
 20
1.0
 30
0.0
  9
$UCSORTHOREF
  2

  9
$UCSORTHOVIEW
 70
     0
  9
$UCSORGTOP
 10
0.0
 20
0.0
 30
0.0
  9
$UCSORGBOTTOM
 10
0.0
 20
0.0
 30
0.0
  9
$UCSORGLEFT
 10
0.0
 20
0.0
 30
0.0
  9
$UCSORGRIGHT
 10
0.0
 20
0.0
 30
0.0
  9
$UCSORGFRONT
 10
0.0
 20
0.0
 30
0.0
  9
$UCSORGBACK
 10
0.0
 20
0.0
 30
0.0
  9
$PUCSBASE
  2

  9
$PUCSNAME
  2

  9
$PUCSORG
 10
0.0
 20
0.0
 30
0.0
  9
$PUCSXDIR
 10
1.0
 20
0.0
 30
0.0
  9
$PUCSYDIR
 10
0.0
 20
1.0
 30
0.0
  9
$PUCSORTHOREF
  2

  9
$PUCSORTHOVIEW
 70
     0
  9
$PUCSORGTOP
 10
0.0
 20
0.0
 30
0.0
  9
$PUCSORGBOTTOM
 10
0.0
 20
0.0
 30
0.0
  9
$PUCSORGLEFT
 10
0.0
 20
0.0
 30
0.0
  9
$PUCSORGRIGHT
 10
0.0
 20
0.0
 30
0.0
  9
$PUCSORGFRONT
 10
0.0
 20
0.0
 30
0.0
  9
$PUCSORGBACK
 10
0.0
 20
0.0
 30
0.0
  9
$USERI1
 70
     0
  9
$USERI2
 70
     0
  9
$USERI3
 70
     0
  9
$USERI4
 70
     0
  9
$USERI5
 70
     0
  9
$USERR1
 40
0.0
  9
$USERR2
 40
0.0
  9
$USERR3
 40
0.0
  9
$USERR4
 40
0.0
  9
$USERR5
 40
0.0
  9
$WORLDVIEW
 70
     1
  9
$SHADEDGE
 70
     3
  9
$SHADEDIF
 70
    70
  9
$TILEMODE
 70
     1
  9
$MAXACTVP
 70
    48
  9
$PINSBASE
 10
0.0
 20
0.0
 30
0.0
  9
$PLIMCHECK
 70
     0
  9
$PEXTMIN
 10
26.66076962115562
 20
20.31135699206657
 30
-0.0015258207003583
  9
$PEXTMAX
 10
240.039213369355
 20
182.8886381005154
 30
0.0000000349246037
  9
$PLIMMIN
 10
-6.350006103515625
 20
-6.349999904632568
  9
$PLIMMAX
 10
273.0499877929687
 20
209.5499939918517
  9
$UNITMODE
 70
     0
  9
$VISRETAIN
 70
     1
  9
$PLINEGEN
 70
     0
  9
$PSLTSCALE
 70
     1
  9
$TREEDEPTH
 70
  3020
  9
$CMLSTYLE
  2
Standard
  9
$CMLJUST
 70
     0
  9
$CMLSCALE
 40
20.0
  9
$PROXYGRAPHICS
 70
     1
  9
$MEASUREMENT
 70
     1
  9
$CELWEIGHT
370
    -1
  9
$ENDCAPS
280
     0
  9
$JOINSTYLE
280
     0
  9
$LWDISPLAY
290
     0
  9
$INSUNITS
 70
     4
  9
$HYPERLINKBASE
  1

  9
$STYLESHEET
  1

  9
$XEDIT
290
     1
  9
$CEPSNTYPE
380
     0
  9
$PSTYLEMODE
290
     1
  9
$FINGERPRINTGUID
  2
{FDEAD578-A652-11D2-9A35-0060089B3A3F}
  9
$VERSIONGUID
  2
{AF2B1EB5-564C-4A53-9683-E124EA02B3B6}
  9
$EXTNAMES
290
     1
  9
$PSVPSCALE
 40
0.0
  9
$OLESTARTUP
290
     0
  0
ENDSEC
  0
SECTION
  2
CLASSES
  0
CLASS
  1
ACDBDICTIONARYWDFLT
  2
AcDbDictionaryWithDefault
  3
AutoCAD 2000
 90
        0
280
     0
281
     0
  0
CLASS
  1
ACDBPLACEHOLDER
  2
AcDbPlaceHolder
  3
AutoCAD 2000
 90
        0
280
     0
281
     0
  0
CLASS
  1
LAYOUT
  2
AcDbLayout
  3
AutoCAD 2000
 90
        0
280
     0
281
     0
  0
CLASS
  1
DICTIONARYVAR
  2
AcDbDictionaryVar
  3
AutoCAD 2000
 90
        0
280
     0
281
     0
  0
CLASS
  1
LONG_TRANSACTION
  2
AcDbLongTransaction
  3
AutoCAD 2000
 90
    32768
280
     0
281
     0
  0
CLASS
  1
LWPOLYLINE
  2
AcDbPolyline
  3
AutoCAD 2000
 90
    32768
280
     0
281
     1
  0
CLASS
  1
HATCH
  2
AcDbHatch
  3
AutoCAD 2000
 90
    32768
280
     0
281
     1
  0
CLASS
  1
XRECORD
  2
AcDbXrecord
  3
AutoCAD 2000
 90
    32768
280
     0
281
     0
  0
ENDSEC
  0
SECTION
  2
TABLES
  0
TABLE
  2
VPORT
  5
8
330
0
100
AcDbSymbolTable
 70
     2
  0
VPORT
  5
28C
330
8
100
AcDbSymbolTableRecord
100
AcDbViewportTableRecord
  2
*Active
 70
     0
 10
0.0
 20
0.0
 11
1.0
 21
1.0
 12
749.1444904831866
 22
371.824932597089
 13
0.0
 23
0.0
 14
10.0
 24
10.0
 15
10.0
 25
10.0
 16
0.0
 26
0.0
 36
1.0
 17
0.0
 27
0.0
 37
0.0
 40
730.2546795747398
 41
1.592161016949152
 42
50.0
 43
0.0
 44
0.0
 50
0.0
 51
0.0
 71
     0
 72
   100
 73
     1
 74
     3
 75
     0
 76
     0
 77
     0
 78
     0
281
     0
 65
     1
110
0.0
120
0.0
130
0.0
111
1.0
121
0.0
131
0.0
112
0.0
122
1.0
132
0.0
 79
     0
146
0.0
  0
ENDTAB
  0
TABLE
  2
LTYPE
  5
5
330
0
100
AcDbSymbolTable
 70
     2
  0
LTYPE
  5
14
330
5
100
AcDbSymbolTableRecord
100
AcDbLinetypeTableRecord
  2
ByBlock
 70
     0
  3

 72
    65
 73
     0
 40
0.0
  0
LTYPE
  5
15
330
5
100
AcDbSymbolTableRecord
100
AcDbLinetypeTableRecord
  2
ByLayer
 70
     0
  3

 72
    65
 73
     0
 40
0.0
  0
LTYPE
  5
16
330
5
100
AcDbSymbolTableRecord
100
AcDbLinetypeTableRecord
  2
Continuous
 70
     0
  3
Solid line
 72
    65
 73
     0
 40
0.0
  0
LTYPE
  5
271
330
5
100
AcDbSymbolTableRecord
100
AcDbLinetypeTableRecord
  2
CENTER
 70
     0
  3
__ . __
 72
    65
 73
     4
 40
7.0
 49
4.0
 74
     0
 49
-1.0
 74
     0
 49
1.0
 74
     0
 49
-1.0
 74
     0
  0
ENDTAB
  0
TABLE
  2
LAYER
  5
2
102
{ACAD_XDICTIONARY
360
272
102
}
330
0
100
AcDbSymbolTable
 70
     1
  0
LAYER
  5
10
330
2
100
AcDbSymbolTableRecord
100
AcDbLayerTableRecord
  2
0
 70
     0
 62
     7
  6
Continuous
370
    -3
390
F
  0
ENDTAB
  0
TABLE
  2
STYLE
  5
3
330
0
100
AcDbSymbolTable
 70
     1
  0
STYLE
  5
11
330
3
100
AcDbSymbolTableRecord
100
AcDbTextStyleTableRecord
  2
Standard
 70
     0
 40
0.0
 41
1.0
 50
0.0
 71
     0
 42
2.5
  3
txt
  4

  0
ENDTAB
  0
TABLE
  2
VIEW
  5
6
330
0
100
AcDbSymbolTable
 70
     0
  0
ENDTAB
  0
TABLE
  2
UCS
  5
7
330
0
100
AcDbSymbolTable
 70
     0
  0
ENDTAB
  0
TABLE
  2
APPID
  5
9
330
0
100
AcDbSymbolTable
 70
     1
  0
APPID
  5
12
330
9
100
AcDbSymbolTableRecord
100
AcDbRegAppTableRecord
  2
ACAD
 70
     0
  0
ENDTAB
  0
TABLE
  2
DIMSTYLE
  5
A
330
0
100
AcDbSymbolTable
 70
     1
100
AcDbDimStyleTable
 71
     0
  0
DIMSTYLE
105
27
330
A
100
AcDbSymbolTableRecord
100
AcDbDimStyleTableRecord
  2
ISO-25
 70
     0
 41
2.5
 42
0.625
 43
3.75
 44
1.25
 73
     0
 74
     0
 77
     1
 78
     8
140
2.5
141
2.5
143
0.03937007874016
147
0.625
171
     3
172
     1
271
     2
272
     2
274
     3
278
    44
283
     0
284
     8
340
11
  0
ENDTAB
  0
TABLE
  2
BLOCK_RECORD
  5
1
330
0
100
AcDbSymbolTable
 70
     1
  0
BLOCK_RECORD
  5
1F
102
{ACAD_XDICTIONARY
360
22A
102
}
330
1
100
AcDbSymbolTableRecord
100
AcDbBlockTableRecord
  2
*Model_Space
340
22
  0
BLOCK_RECORD
  5
55
102
{ACAD_XDICTIONARY
360
22C
102
}
330
1
100
AcDbSymbolTableRecord
100
AcDbBlockTableRecord
  2
*Paper_Space
340
56
  0
BLOCK_RECORD
  5
50
102
{ACAD_XDICTIONARY
360
22E
102
}
330
1
100
AcDbSymbolTableRecord
100
AcDbBlockTableRecord
  2
*Paper_Space0
340
51
  0
ENDTAB
  0
ENDSEC
  0
SECTION
  2
BLOCKS
  0
BLOCK
  5
20
330
1F
100
AcDbEntity
  8
0
100
AcDbBlockBegin
  2
*Model_Space
 70
     0
 10
0.0
 20
0.0
 30
0.0
  3
*Model_Space
  1

  0
ENDBLK
  5
21
330
1F
100
AcDbEntity
  8
0
100
AcDbBlockEnd
  0
BLOCK
  5
57
330
55
100
AcDbEntity
 67
     1
  8
0
100
AcDbBlockBegin
  2
*Paper_Space
 70
     0
 10
0.0
 20
0.0
 30
0.0
  3
*Paper_Space
  1

  0
ENDBLK
  5
58
330
55
100
AcDbEntity
 67
     1
  8
0
100
AcDbBlockEnd
  0
BLOCK
  5
52
330
50
100
AcDbEntity
  8
0
100
AcDbBlockBegin
  2
*Paper_Space0
 70
     0
 10
0.0
 20
0.0
 30
0.0
  3
*Paper_Space0
  1

  0
VIEWPORT
  5
6B
330
50
100
AcDbEntity
  8
0
100
AcDbViewport
 10
133.3499908447265
 20
101.5999970436096
 30
0.0
 40
381.3957395593834
 41
218.2856291881582
 69
     0
 12
133.3499908447265
 22
101.5999970436096
 13
0.0
 23
0.0
 14
10.0
 24
10.0
 15
10.0
 25
10.0
 16
0.0
 26
0.0
 36
1.0
 17
0.0
 27
0.0
 37
0.0
 42
50.0
 43
0.0
 44
0.0
 45
218.2856291881582
 50
0.0
 51
0.0
 72
   100
 90
    32800
  1

281
     0
 71
     1
 74
     0
110
0.0
120
0.0
130
0.0
111
1.0
121
0.0
131
0.0
112
0.0
122
1.0
132
0.0
 79
     0
146
0.0
  0
VIEWPORT
  5
6D
330
50
100
AcDbEntity
  8
0
100
AcDbViewport
 10
133.349993944168
 20
101.599993944168
 30
0.0
 40
213.3599903106689
 41
162.5599903106689
 69
     0
 12
210.0
 22
148.5
 13
0.0
 23
0.0
 14
10.0
 24
10.0
 15
10.0
 25
10.0
 16
0.0
 26
0.0
 36
1.0
 17
0.0
 27
0.0
 37
0.0
 42
50.0
 43
0.0
 44
0.0
 45
324.0677920111345
 50
0.0
 51
0.0
 72
   100
 90
    32864
  1

281
     0
 71
     1
 74
     0
110
0.0
120
0.0
130
0.0
111
1.0
121
0.0
131
0.0
112
0.0
122
1.0
132
0.0
 79
     0
146
0.0
  0
ENDBLK
  5
53
330
50
100
AcDbEntity
  8
0
100
AcDbBlockEnd
  0
ENDSEC
  0
SECTION
  2
ENTITIES
  0
TEXT
  5
158
330
1F
100
AcDbEntity
  8
0
  6
Continuous
100
AcDbText
 10
326.4405822277895
 20
686.6149940407503
 30
0.0
 40
48.000002
  1
DAC2L10AD000 1S
 41
1.32095
100
AcDbText
  0
LINE
  5
159
330
1F
100
AcDbEntity
  8
0
100
AcDbLine
 10
602.8392285039434
 20
83.4381037212702
 30
0.0
 11
694.3391979863655
 21
83.43810372127427
 31
0.0
  0
LINE
  5
15A
330
1F
100
AcDbEntity
  8
0
100
AcDbLine
 10
602.8392285039434
 20
98.93810372127385
 30
0.0
 11
694.3391979863655
 21
98.93810372127385
 31
0.0
  0
LINE
  5
15B
330
1F
100
AcDbEntity
  8
0
100
AcDbLine
 10
610.5892208745481
 20
142.4381037212723
 30
0.0
 11
686.5892056157592
 21
142.4381037212729
 31
0.0
  0
LINE
  5
15C
330
1F
100
AcDbEntity
  8
0
100
AcDbLine
 10
610.5892208745481
 20
127.9381037212729
 30
0.0
 11
686.5892056157592
 21
127.9381037212729
 31
0.0
  0
LINE
  5
15D
330
1F
100
AcDbEntity
  8
0
100
AcDbLine
 10
673.8392132451545
 20
16.68810372127245
 30
0.0
 11
623.3392132451545
 21
16.68810372127245
 31
0.0
  0
LINE
  5
15E
330
1F
100
AcDbEntity
  8
0
100
AcDbLine
 10
635.8892010381232
 20
24.1059269923312
 30
0.0
 11
661.2891949346076
 21
24.10594704846562
 31
0.0
  0
LINE
  5
15F
330
1F
100
AcDbEntity
  8
0
100
AcDbLine
 10
674.2135113408568
 20
49.18810372127246
 30
0.0
 11
622.9649151494514
 21
49.18810372127246
 31
0.0
  0
LINE
  5
160
330
1F
100
AcDbEntity
  8
0
100
AcDbLine
 10
661.2891949346076
 20
44.97343069075895
 30
0.0
 11
635.8892010381232
 21
44.97344831009104
 31
0.0
  0
LINE
  5
161
330
1F
100
AcDbEntity
  8
0
100
AcDbLine
 10
622.9649151494514
 20
53.1788479357774
 30
0.0
 11
674.2135113408568
 21
53.1788479357765
 31
0.0
  0
ARC
  5
162
330
1F
100
AcDbEntity
  8
0
100
AcDbCircle
 10
634.0892132451545
 20
66.68810372127246
 30
0.0
 40
17.5
100
AcDbArc
 50
179.999997495531
 51
230.5299951399502
  0
LINE
  5
163
330
1F
100
AcDbEntity
  8
0
100
AcDbLine
 10
635.8892010381232
 20
24.1059269923312
 30
0.0
 11
635.8892010381232
 21
44.97344831009104
 31
0.0
  0
LINE
  5
164
330
1F
100
AcDbEntity
  8
0
100
AcDbLine
 10
623.3392132451545
 20
16.68810372127245
 30
0.0
 11
623.3392132451545
 21
19.53810483172081
 31
0.0
  0
LINE
  5
165
330
1F
100
AcDbEntity
  8
0
100
AcDbLine
 10
623.3392132451545
 20
19.53810483172081
 30
0.0
 11
635.8892010381232
 21
24.1059269923312
 31
0.0
  0
LINE
  5
166
330
1F
100
AcDbEntity
  8
0
100
AcDbLine
 10
628.5892038605851
 20
49.18810372127246
 30
0.0
 11
635.8892010381232
 21
44.97344831009104
 31
0.0
  0
LINE
  5
167
330
1F
100
AcDbEntity
  8
0
100
AcDbLine
 10
622.9649151494514
 20
53.1788479357774
 30
0.0
 11
622.9649151494514
 21
49.18810372127246
 31
0.0
  0
LINE
  5
168
330
1F
100
AcDbEntity
  8
0
100
AcDbLine
 10
610.5892208745481
 20
142.4381037212723
 30
0.0
 11
610.5892208745481
 21
127.9381037212729
 31
0.0
  0
LINE
  5
169
330
1F
100
AcDbEntity
  8
0
100
AcDbLine
 10
602.8392285039434
 20
98.93810372127385
 30
0.0
 11
602.8392285039434
 21
83.4381037212702
 31
0.0
  0
LINE
  5
16A
330
1F
100
AcDbEntity
  8
0
100
AcDbLine
 10
616.5892437627326
 20
83.43810372127062
 30
0.0
 11
616.5892437627326
 21
66.68810372127246
 31
0.0
  0
LINE
  5
16B
330
1F
100
AcDbEntity
  8
0
100
AcDbLine
 10
621.0892187419958
 20
127.9381077657707
 30
0.0
 11
621.0892163165206
 21
111.4464266394247
 31
0.0
  0
LINE
  5
16C
330
1F
100
AcDbEntity
  8
0
100
AcDbLine
 10
614.5892208745481
 20
100.1881044870305
 30
0.0
 11
614.5892208745481
 21
98.93810372127385
 31
0.0
  0
LINE
  5
16D
330
1F
100
AcDbEntity
  8
0
100
AcDbLine
 10
621.0892163165206
 20
111.4464266394247
 30
0.0
 11
614.5892208745481
 21
100.1881044870305
 31
0.0
  0
ARC
  5
16E
330
1F
100
AcDbEntity
  8
0
100
AcDbCircle
 10
663.0892132451545
 20
66.68810372127246
 30
0.0
 40
17.5
100
AcDbArc
 50
309.4700048600497
 51
0.0000025044687019
  0
LINE
  5
16F
330
1F
100
AcDbEntity
  8
0
100
AcDbLine
 10
718.5891827275765
 20
91.93810372127243
 30
0.0
 11
718.5891827275765
 21
41.43810372127245
 31
0.0
  0
LINE
  5
170
330
1F
100
AcDbEntity
  8
0
100
AcDbLine
 10
711.1713691404611
 20
79.38811592830325
 30
0.0
 11
711.1713538909307
 21
53.98809151424166
 31
0.0
  0
LINE
  5
171
330
1F
100
AcDbEntity
  8
0
100
AcDbLine
 10
711.1713538909307
 20
53.98809151424166
 30
0.0
 11
675.1291339235167
 21
53.98809151424075
 31
0.0
  0
LINE
  5
172
330
1F
100
AcDbEntity
  8
0
100
AcDbLine
 10
661.2891949346076
 20
44.97343069075895
 30
0.0
 11
661.2891949346076
 21
24.10594704846562
 31
0.0
  0
LINE
  5
173
330
1F
100
AcDbEntity
  8
0
100
AcDbLine
 10
673.8392132451545
 20
16.68810372127245
 30
0.0
 11
673.8392132451545
 21
19.53811378036471
 31
0.0
  0
LINE
  5
174
330
1F
100
AcDbEntity
  8
0
100
AcDbLine
 10
673.8392132451545
 20
19.53811378036471
 30
0.0
 11
661.2891949346076
 21
24.10594704846562
 31
0.0
  0
LINE
  5
175
330
1F
100
AcDbEntity
  8
0
100
AcDbLine
 10
668.5892226297236
 20
49.18810372127246
 30
0.0
 11
661.2891949346076
 21
44.97343069075895
 31
0.0
  0
LINE
  5
176
330
1F
100
AcDbEntity
  8
0
100
AcDbLine
 10
674.2135113408576
 20
53.1788479357774
 30
0.0
 11
674.2135113408568
 21
49.18810372127246
 31
0.0
  0
LINE
  5
177
330
1F
100
AcDbEntity
  8
0
100
AcDbLine
 10
715.7391760515428
 20
41.43810372127245
 30
0.0
 11
711.1713538909307
 21
53.98809151424166
 31
0.0
  0
LINE
  5
178
330
1F
100
AcDbEntity
  8
0
100
AcDbLine
 10
718.5891827275765
 20
41.43810372127245
 30
0.0
 11
715.7391760515428
 21
41.43810372127245
 31
0.0
  0
LINE
  5
179
330
1F
100
AcDbEntity
  8
0
100
AcDbLine
 10
686.5892056157592
 20
142.4381037212729
 30
0.0
 11
686.5892056157592
 21
127.9381037212729
 31
0.0
  0
LINE
  5
17A
330
1F
100
AcDbEntity
  8
0
100
AcDbLine
 10
694.3391979863655
 20
98.93810372127385
 30
0.0
 11
694.3391979863655
 21
83.43810372127427
 31
0.0
  0
LINE
  5
17B
330
1F
100
AcDbEntity
  8
0
100
AcDbLine
 10
711.1713691404611
 20
79.38811592830325
 30
0.0
 11
680.5891827275764
 21
79.3881159283037
 31
0.0
  0
LINE
  5
17C
330
1F
100
AcDbEntity
  8
0
100
AcDbLine
 10
680.5891827275764
 20
83.43810372127427
 30
0.0
 11
680.5891827275764
 21
66.68810372127246
 31
0.0
  0
LINE
  5
17D
330
1F
100
AcDbEntity
  8
0
100
AcDbLine
 10
715.7391913010715
 20
91.93810372127199
 30
0.0
 11
711.1713691404611
 21
79.38811592830325
 31
0.0
  0
LINE
  5
17E
330
1F
100
AcDbEntity
  8
0
100
AcDbLine
 10
718.5891827275765
 20
91.93810372127243
 30
0.0
 11
715.7391913010715
 21
91.93810372127199
 31
0.0
  0
LINE
  5
17F
330
1F
100
AcDbEntity
  8
0
100
AcDbLine
 10
676.0892056157591
 20
127.9381037212729
 30
0.0
 11
676.0892056157591
 21
111.4464847995254
 31
0.0
  0
LINE
  5
180
330
1F
100
AcDbEntity
  8
0
100
AcDbLine
 10
682.5892056157591
 20
100.1881547523961
 30
0.0
 11
682.5892056157591
 21
98.93810372127063
 31
0.0
  0
LINE
  5
181
330
1F
100
AcDbEntity
  8
0
100
AcDbLine
 10
676.0892056157591
 20
111.4464847995254
 30
0.0
 11
682.5892056157591
 21
100.1881547523961
 31
0.0
  0
LINE
  5
182
330
1F
100
AcDbEntity
  8
0
100
AcDbLine
 10
718.5891827275772
 20
516.4458502307843
 30
0.0
 11
718.5891827275773
 21
496.1958502307842
 31
0.0
  0
LINE
  5
183
330
1F
100
AcDbEntity
  8
0
100
AcDbLine
 10
718.5891827275773
 20
486.1958502307841
 30
0.0
 11
718.5891827275772
 21
465.9458502307842
 31
0.0
  0
LINE
  5
184
330
1F
100
AcDbEntity
  8
0
100
AcDbLine
 10
715.7391760515435
 20
465.9458502307842
 30
0.0
 11
711.1713538909314
 21
478.4958380237535
 31
0.0
  0
LINE
  5
185
330
1F
100
AcDbEntity
  8
0
100
AcDbLine
 10
718.5891827275772
 20
465.9458502307842
 30
0.0
 11
715.7391760515435
 21
465.9458502307842
 31
0.0
  0
LINE
  5
186
330
1F
100
AcDbEntity
  8
0
100
AcDbLine
 10
715.7391913010721
 20
516.4458502307837
 30
0.0
 11
711.1713691404617
 21
503.8958624378151
 31
0.0
  0
LINE
  5
187
330
1F
100
AcDbEntity
  8
0
100
AcDbLine
 10
711.1713691404617
 20
503.8958624378151
 30
0.0
 11
704.1563770196475
 21
503.8958624378154
 31
0.0
  0
LINE
  5
188
330
1F
100
AcDbEntity
  8
0
100
AcDbLine
 10
711.1713538909314
 20
478.4958380237535
 30
0.0
 11
704.1563770196476
 21
478.4958380237532
 31
0.0
  0
LINE
  5
189
330
1F
100
AcDbEntity
  8
0
100
AcDbLine
 10
711.1713691404617
 20
503.8958624378151
 30
0.0
 11
711.1713669191043
 21
500.1959102307842
 31
0.0
  0
LINE
  5
18A
330
1F
100
AcDbEntity
  8
0
100
AcDbLine
 10
711.1713561122889
 20
482.1957902307842
 30
0.0
 11
711.1713538909314
 21
478.4958380237535
 31
0.0
  0
LINE
  5
18B
330
1F
100
AcDbEntity
  8
0
100
AcDbLine
 10
718.5891827275772
 20
516.4458502307843
 30
0.0
 11
715.7391913010721
 21
516.4458502307837
 31
0.0
  0
LINE
  5
18C
330
1F
100
AcDbEntity
  8
0
100
AcDbLine
 10
593.7756756078126
 20
527.7414423612506
 30
0.0
 11
607.2059665882586
 21
531.3400960226839
 31
0.0
  0
LINE
  5
18D
330
1F
100
AcDbEntity
  8
0
100
AcDbLine
 10
589.5330252486107
 20
520.3929683421385
 30
0.0
 11
593.1316789100439
 21
506.9626773616924
 31
0.0
  0
LINE
  5
18E
330
1F
100
AcDbEntity
  8
0
100
AcDbLine
 10
703.4027582030059
 20
527.7414150407424
 30
0.0
 11
689.97245722256
 21
531.3400513816677
 31
0.0
  0
LINE
  5
18F
330
1F
100
AcDbEntity
  8
0
100
AcDbLine
 10
703.4027408824981
 20
454.650275420826
 30
0.0
 11
689.97246722256
 21
451.0516317593928
 31
0.0
  0
LINE
  5
190
330
1F
100
AcDbEntity
  8
0
100
AcDbLine
 10
589.5330598896266
 20
461.9987121194298
 30
0.0
 11
593.1316862305518
 21
475.4289957793676
 31
0.0
  0
LINE
  5
191
330
1F
100
AcDbEntity
  8
0
100
AcDbLine
 10
707.6453812416996
 20
520.3929337011224
 30
0.0
 11
704.0467475802666
 21
506.9626773616924
 31
0.0
  0
LINE
  5
192
330
1F
100
AcDbEntity
  8
0
100
AcDbLine
 10
707.6453912416998
 20
461.9987494399379
 30
0.0
 11
704.0467475802666
 21
475.4290230998759
 31
0.0
  0
LINE
  5
193
330
1F
100
AcDbEntity
  8
0
100
AcDbLine
 10
593.7757102488287
 20
454.6502381003175
 30
0.0
 11
607.2059765882588
 21
451.0516217593923
 31
0.0
  0
ARC
  5
194
330
1F
100
AcDbEntity
  8
0
100
AcDbCircle
 10
595.3286220787836
 20
521.9459001720937
 30
0.0
 40
5.999999999999999
100
AcDbArc
 50
104.9999900000008
 51
194.9999899999998
  0
ARC
  5
195
330
1F
100
AcDbEntity
  8
0
100
AcDbCircle
 10
595.3286220787836
 20
460.4458002894745
 30
0.0
 40
5.999999999999999
100
AcDbArc
 50
165.0000099999999
 51
255.000049999996
  0
ARC
  5
196
330
1F
100
AcDbEntity
  8
0
100
AcDbCircle
 10
605.9118800632959
 20
446.221980828259
 30
0.0
 40
4.999999999999999
100
AcDbArc
 50
46.50094799999711
 51
75.00000999999916
  0
ARC
  5
197
330
1F
100
AcDbEntity
  8
0
100
AcDbCircle
 10
605.9118800632961
 20
536.1697196333092
 30
0.0
 40
4.999999999999999
100
AcDbArc
 50
284.9999400000125
 51
313.4990099999924
  0
ARC
  5
198
330
1F
100
AcDbEntity
  8
0
100
AcDbCircle
 10
588.3020726199265
 20
505.6686008367299
 30
0.0
 40
4.999999999999999
100
AcDbArc
 50
346.5009100000031
 51
14.99993999999959
  0
ARC
  5
199
330
1F
100
AcDbEntity
  8
0
100
AcDbCircle
 10
588.3020726199265
 20
476.7230996248382
 30
0.0
 40
4.999999999999999
100
AcDbArc
 50
345.0000560000019
 51
13.49921600000363
  0
ARC
  5
19A
330
1F
100
AcDbEntity
  8
0
100
AcDbCircle
 10
708.8764058319082
 20
476.7231296248385
 30
0.0
 40
4.999999999999999
100
AcDbArc
 50
166.5009100000031
 51
194.9999399999995
  0
ARC
  5
19B
330
1F
100
AcDbEntity
  8
0
100
AcDbCircle
 10
701.8498563730511
 20
460.4458302894746
 30
0.0
 40
5.999999999999999
100
AcDbArc
 50
284.9999500000038
 51
14.99999000000006
  0
ARC
  5
19C
330
1F
100
AcDbEntity
  8
0
100
AcDbCircle
 10
691.2665637475225
 20
446.2219908282592
 30
0.0
 40
4.999999999999999
100
AcDbArc
 50
104.9999900000008
 51
133.4990499999992
  0
ARC
  5
19D
330
1F
100
AcDbEntity
  8
0
100
AcDbCircle
 10
648.5892132451551
 20
491.1958502307842
 30
0.0
 40
56.99999999999999
100
AcDbArc
 50
9.084781364902179
 51
350.9152186350976
  0
ARC
  5
19E
330
1F
100
AcDbEntity
  8
0
100
AcDbCircle
 10
708.8764058319082
 20
505.66857083673
 30
0.0
 40
4.999999999999999
100
AcDbArc
 50
165.0000600000004
 51
193.4990900000004
  0
ARC
  5
19F
330
1F
100
AcDbEntity
  8
0
100
AcDbCircle
 10
701.8498563730509
 20
521.9458701720936
 30
0.0
 40
5.999999999999999
100
AcDbArc
 50
345.0000099999997
 51
75.00000999999916
  0
ARC
  5
1A0
330
1F
100
AcDbEntity
  8
0
100
AcDbCircle
 10
691.2665637475225
 20
536.1697096333092
 30
0.0
 40
4.999999999999999
100
AcDbArc
 50
226.5009900000074
 51
255.0000599999874
  0
LINE
  5
1A1
330
1F
100
AcDbEntity
  8
0
100
AcDbLine
 10
644.3465982030061
 20
556.9385550407426
 30
0.0
 11
634.5149372225598
 21
547.1068913816679
 31
0.0
  0
LINE
  5
1A2
330
1F
100
AcDbEntity
  8
0
100
AcDbLine
 10
644.3465998896267
 20
425.4531521194297
 30
0.0
 11
634.5149462305519
 21
435.2847957793678
 31
0.0
  0
LINE
  5
1A3
330
1F
100
AcDbEntity
  8
0
100
AcDbLine
 10
652.8318812416999
 20
556.9385337011225
 30
0.0
 11
662.6635075802667
 21
547.1068973616926
 31
0.0
  0
LINE
  5
1A4
330
1F
100
AcDbEntity
  8
0
100
AcDbLine
 10
652.8318902488286
 20
425.4531581003178
 30
0.0
 11
662.6635165882587
 21
435.2848017593926
 31
0.0
  0
ARC
  5
1A5
330
1F
100
AcDbEntity
  8
0
100
AcDbCircle
 10
648.5892420787839
 20
429.6958002894746
 30
0.0
 40
5.999999999999999
100
AcDbArc
 50
225.0000099999906
 51
315.0000500000002
  0
ARC
  5
1A6
330
1F
100
AcDbEntity
  8
0
100
AcDbCircle
 10
666.1990600632959
 20
431.7492608282591
 30
0.0
 40
4.999999999999999
100
AcDbArc
 50
106.500947999995
 51
135.0000100000116
  0
ARC
  5
1A7
330
1F
100
AcDbEntity
  8
0
100
AcDbCircle
 10
630.9794126199265
 20
431.7492796248386
 30
0.0
 40
4.999999999999999
100
AcDbArc
 50
45.00005600000968
 51
73.49921600000353
  0
ARC
  5
1A8
330
1F
100
AcDbEntity
  8
0
100
AcDbCircle
 10
666.199065831908
 20
550.6424508367301
 30
0.0
 40
4.999999999999999
100
AcDbArc
 50
225.0000600000024
 51
253.4990900000054
  0
ARC
  5
1A9
330
1F
100
AcDbEntity
  8
0
100
AcDbCircle
 10
648.5892363730508
 20
552.6959301720938
 30
0.0
 40
5.999999999999999
100
AcDbArc
 50
45.00000999999062
 51
135.0000100000116
  0
ARC
  5
1AA
330
1F
100
AcDbEntity
  8
0
100
AcDbCircle
 10
630.9793837475224
 20
550.6424496333094
 30
0.0
 40
4.999999999999999
100
AcDbArc
 50
286.5009900000027
 51
315.0000599999926
  0
CIRCLE
  5
1AB
330
1F
100
AcDbEntity
  8
0
100
AcDbCircle
 10
648.5892132451551
 20
491.1958502307842
 30
0.0
 40
25.00001525878963
  0
CIRCLE
  5
1AC
330
1F
100
AcDbEntity
  8
0
100
AcDbCircle
 10
648.5892132451551
 20
491.1958502307842
 30
0.0
 40
8.0
  0
CIRCLE
  5
1AD
330
1F
100
AcDbEntity
  8
0
100
AcDbCircle
 10
648.5892132451551
 20
491.1958502307842
 30
0.0
 40
7.50000000024
  0
LINE
  5
1AE
330
1F
100
AcDbEntity
  8
0
100
AcDbLine
 10
714.0891979863656
 20
500.1959102307842
 30
0.0
 11
698.6347171126667
 21
500.1959102307842
 31
0.0
  0
LINE
  5
1AF
330
1F
100
AcDbEntity
  8
0
100
AcDbLine
 10
714.0891979863656
 20
482.1957902307842
 30
0.0
 11
698.6347171126667
 21
482.1957902307842
 31
0.0
  0
LINE
  5
1B0
330
1F
100
AcDbEntity
  8
0
100
AcDbLine
 10
705.0891979863656
 20
482.1957902307842
 30
0.0
 11
705.0891979863654
 21
500.1959102307842
 31
0.0
  0
LINE
  5
1B1
330
1F
100
AcDbEntity
  8
0
100
AcDbLine
 10
698.6347171126667
 20
500.1959102307842
 30
0.0
 11
698.6347171126667
 21
482.1957902307842
 31
0.0
  0
LINE
  5
1B2
330
1F
100
AcDbEntity
  8
0
100
AcDbLine
 10
708.1531379863654
 20
495.9459102307842
 30
0.0
 11
705.0891979863654
 21
495.8501502307842
 31
0.0
  0
LINE
  5
1B3
330
1F
100
AcDbEntity
  8
0
100
AcDbLine
 10
708.1545579863655
 20
486.4458502307842
 30
0.0
 11
705.0892379863655
 21
486.541670230784
 31
0.0
  0
LINE
  5
1B4
330
1F
100
AcDbEntity
  8
0
100
AcDbLine
 10
707.0891979863654
 20
495.9127102307842
 30
0.0
 11
707.0891979863654
 21
486.4791102307841
 31
0.0
  0
LINE
  5
1B5
330
1F
100
AcDbEntity
  8
0
100
AcDbLine
 10
710.1531579863653
 20
486.4458502307842
 30
0.0
 11
708.1531579863654
 21
486.4458502307842
 31
0.0
  0
LINE
  5
1B6
330
1F
100
AcDbEntity
  8
0
100
AcDbLine
 10
710.1531579863653
 20
495.9458502307842
 30
0.0
 11
708.1531579863654
 21
495.9458502307842
 31
0.0
  0
LINE
  5
1B7
330
1F
100
AcDbEntity
  8
0
100
AcDbLine
 10
710.1531579863653
 20
496.1958502307842
 30
0.0
 11
710.1531579863653
 21
486.1958502307841
 31
0.0
  0
LINE
  5
1B8
330
1F
100
AcDbEntity
  8
0
100
AcDbLine
 10
722.6531379863654
 20
496.1958502307842
 30
0.0
 11
710.1531579863653
 21
496.1958502307842
 31
0.0
  0
LINE
  5
1B9
330
1F
100
AcDbEntity
  8
0
100
AcDbLine
 10
722.6531379863654
 20
486.1958502307841
 30
0.0
 11
710.1531579863653
 21
486.1958502307841
 31
0.0
  0
LINE
  5
1BA
330
1F
100
AcDbEntity
  8
0
100
AcDbLine
 10
722.6531379863654
 20
496.1958502307842
 30
0.0
 11
722.6531379863654
 21
486.1958502307841
 31
0.0
  0
LINE
  5
1BB
330
1F
100
AcDbEntity
  8
0
100
AcDbLine
 10
714.0891979863656
 20
500.1959102307842
 30
0.0
 11
714.0891979863654
 21
496.1958502307842
 31
0.0
  0
LINE
  5
1BC
330
1F
100
AcDbEntity
  8
0
100
AcDbLine
 10
714.0891979863654
 20
486.1958502307841
 30
0.0
 11
714.0891979863656
 21
482.1957902307842
 31
0.0
  0
LINE
  5
1BD
330
1F
100
AcDbEntity
  8
0
100
AcDbLine
 10
642.589213245154
 20
253.1879837212726
 30
0.0
 11
654.589213245154
 21
253.1879837212726
 31
0.0
  0
LINE
  5
1BE
330
1F
100
AcDbEntity
  8
0
100
AcDbLine
 10
640.589213245154
 20
229.1879837212726
 30
0.0
 11
656.589213245154
 21
229.1879837212726
 31
0.0
  0
LINE
  5
1BF
330
1F
100
AcDbEntity
  8
0
100
AcDbLine
 10
656.589213245154
 20
229.1879837212726
 30
0.0
 11
656.589213245154
 21
228.1879837212726
 31
0.0
  0
LINE
  5
1C0
330
1F
100
AcDbEntity
  8
0
100
AcDbLine
 10
640.589213245154
 20
229.1879837212726
 30
0.0
 11
640.589213245154
 21
228.1879837212726
 31
0.0
  0
LINE
  5
1C1
330
1F
100
AcDbEntity
  8
0
100
AcDbLine
 10
640.589213245154
 20
229.1879837212726
 30
0.0
 11
641.089213245154
 21
231.0540637212727
 31
0.0
  0
LINE
  5
1C2
330
1F
100
AcDbEntity
  8
0
100
AcDbLine
 10
656.089213245154
 20
231.0540037212727
 30
0.0
 11
656.589213245154
 21
229.1880437212727
 31
0.0
  0
LINE
  5
1C3
330
1F
100
AcDbEntity
  8
0
100
AcDbLine
 10
641.089213245154
 20
251.6879837212726
 30
0.0
 11
641.089213245154
 21
231.0540037212727
 31
0.0
  0
LINE
  5
1C4
330
1F
100
AcDbEntity
  8
0
100
AcDbLine
 10
656.089213245154
 20
251.6879837212726
 30
0.0
 11
656.089213245154
 21
231.0540037212727
 31
0.0
  0
LINE
  5
1C5
330
1F
100
AcDbEntity
  8
0
100
AcDbLine
 10
642.589213245154
 20
253.1879837212726
 30
0.0
 11
641.089213245154
 21
251.6879837212726
 31
0.0
  0
LINE
  5
1C6
330
1F
100
AcDbEntity
  8
0
100
AcDbLine
 10
654.5892532451539
 20
253.1879837212726
 30
0.0
 11
656.089213245154
 21
251.6880437212727
 31
0.0
  0
LINE
  5
1C7
330
1F
100
AcDbEntity
  8
0
100
AcDbLine
 10
641.089213245154
 20
231.0540037212727
 30
0.0
 11
656.089213245154
 21
231.0540037212727
 31
0.0
  0
LINE
  5
1C8
330
1F
100
AcDbEntity
  8
0
100
AcDbLine
 10
641.089213245154
 20
251.6879837212726
 30
0.0
 11
656.089213245154
 21
251.6879837212726
 31
0.0
  0
LINE
  5
1C9
330
1F
100
AcDbEntity
  8
0
100
AcDbLine
 10
648.589213245154
 20
157.6881037212729
 30
0.0
 11
707.8497732451542
 21
157.6881037212729
 31
0.0
  0
LINE
  5
1CA
330
1F
100
AcDbEntity
  8
0
100
AcDbLine
 10
713.089213245154
 20
176.1881037212729
 30
0.0
 11
707.8497732451542
 21
176.1881037212729
 31
0.0
  0
LINE
  5
1CB
330
1F
100
AcDbEntity
  8
0
100
AcDbLine
 10
689.9505932451538
 20
223.1881037212727
 30
0.0
 11
607.2278332451542
 21
223.1881037212727
 31
0.0
  0
LINE
  5
1CC
330
1F
100
AcDbEntity
  8
0
100
AcDbLine
 10
657.2596332451539
 20
179.190423721273
 30
0.0
 11
650.6887332451542
 21
176.1502637212727
 31
0.0
  0
LINE
  5
1CD
330
1F
100
AcDbEntity
  8
0
100
AcDbLine
 10
672.589213245154
 20
228.1881037212726
 30
0.0
 11
624.589213245154
 21
228.1881037212726
 31
0.0
  0
LINE
  5
1CE
330
1F
100
AcDbEntity
  8
0
100
AcDbLine
 10
714.089213245154
 20
175.1881037212729
 30
0.0
 11
714.089213245154
 21
159.1881037212729
 31
0.0
  0
LINE
  5
1CF
330
1F
100
AcDbEntity
  8
0
100
AcDbLine
 10
707.8497732451542
 20
177.1152837212728
 30
0.0
 11
707.8497732451542
 21
157.6881037212729
 31
0.0
  0
LINE
  5
1D0
330
1F
100
AcDbEntity
  8
0
100
AcDbLine
 10
623.589213245154
 20
223.1881037212727
 30
0.0
 11
623.589213245154
 21
227.1881037212727
 31
0.0
  0
LINE
  5
1D1
330
1F
100
AcDbEntity
  8
0
100
AcDbLine
 10
663.5813732451538
 20
177.1152837212728
 30
0.0
 11
663.5813732451538
 21
149.6881637212727
 31
0.0
  0
LINE
  5
1D2
330
1F
100
AcDbEntity
  8
0
100
AcDbLine
 10
673.589213245154
 20
223.1881037212727
 30
0.0
 11
673.589213245154
 21
227.1881037212727
 31
0.0
  0
LINE
  5
1D3
330
1F
100
AcDbEntity
  8
0
100
AcDbLine
 10
639.9187732451541
 20
179.190423721273
 30
0.0
 11
646.4896932451538
 21
176.1502637212727
 31
0.0
  0
LINE
  5
1D4
330
1F
100
AcDbEntity
  8
0
100
AcDbLine
 10
706.6543132451538
 20
179.190423721273
 30
0.0
 11
706.4932332451539
 21
178.7963837212728
 31
0.0
  0
LINE
  5
1D5
330
1F
100
AcDbEntity
  8
0
100
AcDbLine
 10
694.1251332451538
 20
179.190423721273
 30
0.0
 11
699.4858132451541
 21
176.2904037212729
 31
0.0
  0
LINE
  5
1D6
330
1F
100
AcDbEntity
  8
0
100
AcDbLine
 10
623.589213245154
 20
223.1881037212727
 30
0.0
 11
623.589213245154
 21
227.1881037212727
 31
0.0
  0
LINE
  5
1D7
330
1F
100
AcDbEntity
  8
0
100
AcDbLine
 10
633.5970332451538
 20
177.1152837212728
 30
0.0
 11
633.5970332451538
 21
149.6881637212727
 31
0.0
  0
LINE
  5
1D8
330
1F
100
AcDbEntity
  8
0
100
AcDbLine
 10
705.089213245154
 20
212.6881037212727
 30
0.0
 11
705.089213245154
 21
181.5857437212727
 31
0.0
  0
LINE
  5
1D9
330
1F
100
AcDbEntity
  8
0
100
AcDbLine
 10
599.5004132451541
 20
217.2586037212727
 30
0.0
 11
595.9636132451541
 21
204.0590837212727
 31
0.0
  0
LINE
  5
1DA
330
1F
100
AcDbEntity
  8
0
100
AcDbLine
 10
698.2375332451538
 20
215.1704637212727
 30
0.0
 11
701.2148332451538
 21
204.0590837212727
 31
0.0
  0
LINE
  5
1DB
330
1F
100
AcDbEntity
  8
0
100
AcDbLine
 10
707.8497732451542
 20
158.1881037212729
 30
0.0
 11
713.089213245154
 21
158.1881037212729
 31
0.0
  0
LINE
  5
1DC
330
1F
100
AcDbEntity
  8
0
100
AcDbLine
 10
700.1693532451541
 20
213.6881037212727
 30
0.0
 11
704.089213245154
 21
213.6881037212727
 31
0.0
  0
LINE
  5
1DD
330
1F
100
AcDbEntity
  8
0
100
AcDbLine
 10
697.678013245154
 20
217.2586037212727
 30
0.0
 11
698.2375332451538
 21
215.1704637212727
 31
0.0
  0
LINE
  5
1DE
330
1F
100
AcDbEntity
  8
0
100
AcDbLine
 10
648.589213245154
 20
157.6881037212729
 30
0.0
 11
589.3286332451538
 21
157.6881037212729
 31
0.0
  0
LINE
  5
1DF
330
1F
100
AcDbEntity
  8
0
100
AcDbLine
 10
702.8497732451541
 20
182.1152837212727
 30
0.0
 11
693.718553245154
 21
182.1152837212727
 31
0.0
  0
LINE
  5
1E0
330
1F
100
AcDbEntity
  8
0
100
AcDbLine
 10
688.718553245154
 20
177.1152837212728
 30
0.0
 11
688.718553245154
 21
149.6881637212727
 31
0.0
  0
LINE
  5
1E1
330
1F
100
AcDbEntity
  8
0
100
AcDbLine
 10
658.5813732451538
 20
182.1152837212727
 30
0.0
 11
638.5970332451538
 21
182.1152837212727
 31
0.0
  0
LINE
  5
1E2
330
1F
100
AcDbEntity
  8
0
100
AcDbLine
 10
608.459873245154
 20
177.1152837212728
 30
0.0
 11
608.459873245154
 21
149.6881637212727
 31
0.0
  0
LINE
  5
1E3
330
1F
100
AcDbEntity
  8
0
100
AcDbLine
 10
594.3286332451539
 20
182.1152837212727
 30
0.0
 11
603.4598732451541
 21
182.1152837212727
 31
0.0
  0
LINE
  5
1E4
330
1F
100
AcDbEntity
  8
0
100
AcDbLine
 10
589.3286332451538
 20
177.1152837212728
 30
0.0
 11
589.3286332451538
 21
157.6881037212729
 31
0.0
  0
LINE
  5
1E5
330
1F
100
AcDbEntity
  8
0
100
AcDbLine
 10
590.5241332451542
 20
179.1903637212726
 30
0.0
 11
590.6851932451541
 21
178.7963837212728
 31
0.0
  0
LINE
  5
1E6
330
1F
100
AcDbEntity
  8
0
100
AcDbLine
 10
603.0532932451538
 20
179.190423721273
 30
0.0
 11
597.692593245154
 21
176.2904037212729
 31
0.0
  0
LINE
  5
1E7
330
1F
100
AcDbEntity
  8
0
100
AcDbLine
 10
675.5891132451538
 20
144.1881637212727
 30
0.0
 11
675.589113245154
 21
142.4381037212728
 31
0.0
  0
LINE
  5
1E8
330
1F
100
AcDbEntity
  8
0
100
AcDbLine
 10
602.0034332451541
 20
148.1881637212727
 30
0.0
 11
641.713853245154
 21
148.1881637212727
 31
0.0
  0
LINE
  5
1E9
330
1F
100
AcDbEntity
  8
0
100
AcDbLine
 10
707.8497732451542
 20
157.6881037212729
 30
0.0
 11
707.8497732451542
 21
150.6881637212727
 31
0.0
  0
LINE
  5
1EA
330
1F
100
AcDbEntity
  8
0
100
AcDbLine
 10
590.3286332451539
 20
149.6881637212727
 30
0.0
 11
706.8497732451541
 21
149.6881637212727
 31
0.0
  0
LINE
  5
1EB
330
1F
100
AcDbEntity
  8
0
100
AcDbLine
 10
707.8497732451542
 20
157.6881037212729
 30
0.0
 11
591.589213245154
 21
157.6881037212729
 31
0.0
  0
LINE
  5
1EC
330
1F
100
AcDbEntity
  8
0
100
AcDbLine
 10
655.2181532451541
 20
148.1881637212727
 30
0.0
 11
695.1749932451539
 21
148.1881637212727
 31
0.0
  0
LINE
  5
1ED
330
1F
100
AcDbEntity
  8
0
100
AcDbLine
 10
708.153153245154
 20
209.4381037212726
 30
0.0
 11
705.089213245154
 21
209.3423437212727
 31
0.0
  0
LINE
  5
1EE
330
1F
100
AcDbEntity
  8
0
100
AcDbLine
 10
708.1545732451541
 20
199.9380437212727
 30
0.0
 11
705.0892532451539
 21
200.0338637212726
 31
0.0
  0
LINE
  5
1EF
330
1F
100
AcDbEntity
  8
0
100
AcDbLine
 10
621.5893132451542
 20
144.1881637212727
 30
0.0
 11
621.5893132451542
 21
142.4381037212729
 31
0.0
  0
LINE
  5
1F0
330
1F
100
AcDbEntity
  8
0
100
AcDbLine
 10
707.089213245154
 20
209.4049037212727
 30
0.0
 11
707.089213245154
 21
199.9713037212726
 31
0.0
  0
LINE
  5
1F1
330
1F
100
AcDbEntity
  8
0
100
AcDbLine
 10
589.3286332451538
 20
157.6881037212729
 30
0.0
 11
589.3286332451538
 21
150.6881637212727
 31
0.0
  0
LINE
  5
1F2
330
1F
100
AcDbEntity
  8
0
100
AcDbLine
 10
710.1531732451539
 20
199.9380437212727
 30
0.0
 11
708.153173245154
 21
199.9380437212727
 31
0.0
  0
LINE
  5
1F3
330
1F
100
AcDbEntity
  8
0
100
AcDbLine
 10
710.1531732451539
 20
209.4380437212727
 30
0.0
 11
708.153173245154
 21
209.4380437212727
 31
0.0
  0
LINE
  5
1F4
330
1F
100
AcDbEntity
  8
0
100
AcDbLine
 10
710.1531732451539
 20
209.6880437212727
 30
0.0
 11
710.1531732451539
 21
199.6880437212727
 31
0.0
  0
LINE
  5
1F5
330
1F
100
AcDbEntity
  8
0
100
AcDbLine
 10
722.653153245154
 20
209.6880437212727
 30
0.0
 11
710.1531732451539
 21
209.6880437212727
 31
0.0
  0
LINE
  5
1F6
330
1F
100
AcDbEntity
  8
0
100
AcDbLine
 10
722.653153245154
 20
199.6880437212727
 30
0.0
 11
710.1531732451539
 21
199.6880437212727
 31
0.0
  0
LINE
  5
1F7
330
1F
100
AcDbEntity
  8
0
100
AcDbLine
 10
722.653153245154
 20
209.6880437212727
 30
0.0
 11
722.653153245154
 21
199.6880437212727
 31
0.0
  0
LINE
  5
1F8
330
1F
100
AcDbEntity
  8
0
100
AcDbLine
 10
592.508513245154
 20
144.7881437212727
 30
0.0
 11
598.1184932451538
 21
144.7881437212727
 31
0.0
  0
LINE
  5
1F9
330
1F
100
AcDbEntity
  8
0
100
AcDbLine
 10
589.3134932451539
 20
148.0881837212728
 30
0.0
 11
601.3134932451539
 21
148.0881837212728
 31
0.0
  0
LINE
  5
1FA
330
1F
100
AcDbEntity
  8
0
100
AcDbLine
 10
601.3134932451539
 20
149.6881637212727
 30
0.0
 11
601.3134932451539
 21
148.0881837212728
 31
0.0
  0
LINE
  5
1FB
330
1F
100
AcDbEntity
  8
0
100
AcDbLine
 10
589.3134932451539
 20
149.6881637212727
 30
0.0
 11
589.3134932451539
 21
148.0881837212728
 31
0.0
  0
LINE
  5
1FC
330
1F
100
AcDbEntity
  8
0
100
AcDbLine
 10
651.3942132451538
 20
144.7881437212727
 30
0.0
 11
645.7842132451542
 21
144.7881437212727
 31
0.0
  0
LINE
  5
1FD
330
1F
100
AcDbEntity
  8
0
100
AcDbLine
 10
654.589213245154
 20
148.0881837212728
 30
0.0
 11
642.589213245154
 21
148.0881837212728
 31
0.0
  0
LINE
  5
1FE
330
1F
100
AcDbEntity
  8
0
100
AcDbLine
 10
642.589213245154
 20
149.6881637212727
 30
0.0
 11
642.589213245154
 21
148.0881837212728
 31
0.0
  0
LINE
  5
1FF
330
1F
100
AcDbEntity
  8
0
100
AcDbLine
 10
654.589213245154
 20
149.6881637212727
 30
0.0
 11
654.589213245154
 21
148.0881837212728
 31
0.0
  0
LINE
  5
200
330
1F
100
AcDbEntity
  8
0
100
AcDbLine
 10
704.669893245154
 20
144.7881437212727
 30
0.0
 11
699.0599132451539
 21
144.7881437212727
 31
0.0
  0
LINE
  5
201
330
1F
100
AcDbEntity
  8
0
100
AcDbLine
 10
707.8649132451541
 20
148.0881837212728
 30
0.0
 11
695.8649132451541
 21
148.0881837212728
 31
0.0
  0
LINE
  5
202
330
1F
100
AcDbEntity
  8
0
100
AcDbLine
 10
695.8649132451541
 20
149.6881637212727
 30
0.0
 11
695.8649132451541
 21
148.0881837212728
 31
0.0
  0
LINE
  5
203
330
1F
100
AcDbEntity
  8
0
100
AcDbLine
 10
707.8649132451541
 20
149.6881637212727
 30
0.0
 11
707.8649132451541
 21
148.0881837212728
 31
0.0
  0
ARC
  5
204
330
1F
100
AcDbEntity
  8
0
100
AcDbCircle
 10
702.8497732451541
 20
177.1152837212728
 30
0.0
 40
5.0
100
AcDbArc
 50
0.0
 51
90.0
  0
ARC
  5
205
330
1F
100
AcDbEntity
  8
0
100
AcDbCircle
 10
693.718553245154
 20
177.1152837212728
 30
0.0
 40
5.0
100
AcDbArc
 50
90.0
 51
180.0
  0
ARC
  5
206
330
1F
100
AcDbEntity
  8
0
100
AcDbCircle
 10
595.3134932451539
 20
180.6881037212729
 30
0.0
 40
5.0
100
AcDbArc
 50
202.2312400000129
 51
298.4125379999988
  0
ARC
  5
207
330
1F
100
AcDbEntity
  8
0
100
AcDbCircle
 10
711.874733245154
 20
173.0007837212729
 30
0.0
 40
120.0
100
AcDbArc
 50
174.4255299999994
 51
175.8749800000029
  0
ARC
  5
208
330
1F
100
AcDbEntity
  8
0
100
AcDbCircle
 10
711.874733245154
 20
173.0007837212729
 30
0.0
 40
120.0
100
AcDbArc
 50
165.0000000000055
 51
174.4255299999994
  0
ARC
  5
209
330
1F
100
AcDbEntity
  8
0
100
AcDbCircle
 10
585.303713245154
 20
173.0007837212729
 30
0.0
 40
120.0
100
AcDbArc
 50
4.12501900000419
 51
14.99999999999445
  0
ARC
  5
20A
330
1F
100
AcDbEntity
  8
0
100
AcDbCircle
 10
713.089213245154
 20
159.1881037212729
 30
0.0
 40
1.0
100
AcDbArc
 50
270.0
 51
0.0
  0
ARC
  5
20B
330
1F
100
AcDbEntity
  8
0
100
AcDbCircle
 10
704.089213245154
 20
212.6881037212727
 30
0.0
 40
1.0
100
AcDbArc
 50
0.0
 51
90.0
  0
ARC
  5
20C
330
1F
100
AcDbEntity
  8
0
100
AcDbCircle
 10
713.089213245154
 20
175.1881037212729
 30
0.0
 40
1.0
100
AcDbArc
 50
0.0
 51
90.0
  0
ARC
  5
20D
330
1F
100
AcDbEntity
  8
0
100
AcDbCircle
 10
700.1693532451541
 20
215.6881037212726
 30
0.0
 40
2.0
100
AcDbArc
 50
195.0000100000037
 51
270.0
  0
ARC
  5
20E
330
1F
100
AcDbEntity
  8
0
100
AcDbCircle
 10
689.9505932451538
 20
215.1881037212727
 30
0.0
 40
8.0
100
AcDbArc
 50
15.0000100000037
 51
90.0
  0
ARC
  5
20F
330
1F
100
AcDbEntity
  8
0
100
AcDbCircle
 10
624.589213245154
 20
227.1881037212727
 30
0.0
 40
1.0
100
AcDbArc
 50
90.0
 51
180.0
  0
ARC
  5
210
330
1F
100
AcDbEntity
  8
0
100
AcDbCircle
 10
624.589213245154
 20
227.1881037212727
 30
0.0
 40
1.0
100
AcDbArc
 50
90.0
 51
180.0
  0
ARC
  5
211
330
1F
100
AcDbEntity
  8
0
100
AcDbCircle
 10
607.2278332451542
 20
215.1881037212727
 30
0.0
 40
8.0
100
AcDbArc
 50
90.0
 51
164.9999600000003
  0
ARC
  5
212
330
1F
100
AcDbEntity
  8
0
100
AcDbCircle
 10
672.589213245154
 20
227.1881037212727
 30
0.0
 40
1.0
100
AcDbArc
 50
0.0
 51
90.0
  0
ARC
  5
213
330
1F
100
AcDbEntity
  8
0
100
AcDbCircle
 10
648.589213245154
 20
180.6881037212729
 30
0.0
 40
5.0
100
AcDbArc
 50
245.1714900000007
 51
294.8285079999942
  0
ARC
  5
214
330
1F
100
AcDbEntity
  8
0
100
AcDbCircle
 10
701.8649132451542
 20
180.6881037212729
 30
0.0
 40
5.0
100
AcDbArc
 50
241.5873099999979
 51
337.7688219999959
  0
ARC
  5
215
330
1F
100
AcDbEntity
  8
0
100
AcDbCircle
 10
658.5813732451538
 20
177.1152837212728
 30
0.0
 40
5.0
100
AcDbArc
 50
0.0
 51
90.0
  0
ARC
  5
216
330
1F
100
AcDbEntity
  8
0
100
AcDbCircle
 10
638.5970332451538
 20
177.1152837212728
 30
0.0
 40
5.0
100
AcDbArc
 50
90.0
 51
180.0
  0
ARC
  5
217
330
1F
100
AcDbEntity
  8
0
100
AcDbCircle
 10
594.3286332451539
 20
177.1152837212728
 30
0.0
 40
5.0
100
AcDbArc
 50
90.0
 51
180.0
  0
ARC
  5
218
330
1F
100
AcDbEntity
  8
0
100
AcDbCircle
 10
603.4598732451541
 20
177.1152837212728
 30
0.0
 40
5.0
100
AcDbArc
 50
0.0
 51
90.0
  0
ARC
  5
219
330
1F
100
AcDbEntity
  8
0
100
AcDbCircle
 10
590.3286332451539
 20
150.6881637212727
 30
0.0
 40
1.0
100
AcDbArc
 50
180.0
 51
270.0
  0
ARC
  5
21A
330
1F
100
AcDbEntity
  8
0
100
AcDbCircle
 10
602.0034332451541
 20
149.1881637212727
 30
0.0
 40
1.0
100
AcDbArc
 50
249.7967700000103
 51
270.0
  0
ARC
  5
21B
330
1F
100
AcDbEntity
  8
0
100
AcDbCircle
 10
695.1749932451539
 20
149.1881637212727
 30
0.0
 40
1.0
100
AcDbArc
 50
270.0
 51
290.2449800000079
  0
ARC
  5
21C
330
1F
100
AcDbEntity
  8
0
100
AcDbCircle
 10
706.8497732451541
 20
150.6881637212727
 30
0.0
 40
1.0
100
AcDbArc
 50
270.0
 51
0.0
  0
ARC
  5
21D
330
1F
100
AcDbEntity
  8
0
100
AcDbCircle
 10
617.5893132451542
 20
144.1881637212727
 30
0.0
 40
4.0
100
AcDbArc
 50
0.0
 51
90.0
  0
ARC
  5
21E
330
1F
100
AcDbEntity
  8
0
100
AcDbCircle
 10
679.5891132451538
 20
144.1881637212727
 30
0.0
 40
4.0
100
AcDbArc
 50
90.0
 51
180.0
  0
ARC
  5
21F
330
1F
100
AcDbEntity
  8
0
100
AcDbCircle
 10
595.3134932451539
 20
149.4221637212727
 30
0.0
 40
5.4168334
100
AcDbArc
 50
301.1866320000054
 51
345.7432929999965
  0
ARC
  5
220
330
1F
100
AcDbEntity
  8
0
100
AcDbCircle
 10
595.3134932451539
 20
149.4221637212727
 30
0.0
 40
5.4168334
100
AcDbArc
 50
194.2567100000055
 51
238.8133699999983
  0
ARC
  5
221
330
1F
100
AcDbEntity
  8
0
100
AcDbCircle
 10
648.589213245154
 20
149.4221637212727
 30
0.0
 40
5.4168334
100
AcDbArc
 50
194.2567100000055
 51
238.8133699999983
  0
ARC
  5
222
330
1F
100
AcDbEntity
  8
0
100
AcDbCircle
 10
648.589213245154
 20
149.4221637212727
 30
0.0
 40
5.4168334
100
AcDbArc
 50
301.1866320000054
 51
345.7432929999965
  0
ARC
  5
223
330
1F
100
AcDbEntity
  8
0
100
AcDbCircle
 10
701.8649132451542
 20
149.4221637212727
 30
0.0
 40
5.4168334
100
AcDbArc
 50
194.2567100000055
 51
238.8133699999983
  0
ARC
  5
224
330
1F
100
AcDbEntity
  8
0
100
AcDbCircle
 10
701.8649132451542
 20
149.4221637212727
 30
0.0
 40
5.4168334
100
AcDbArc
 50
301.1866320000054
 51
345.7432929999965
  0
LINE
  5
27C
330
1F
100
AcDbEntity
  8
0
  6
CENTER
100
AcDbLine
 10
581.0194638945225
 20
491.1958502307842
 30
0.0
 11
737.9354843796217
 21
491.1958502307842
 31
0.0
  0
LINE
  5
27D
330
1F
100
AcDbEntity
  8
0
  6
CENTER
100
AcDbLine
 10
648.5892132451551
 20
419.3352681686709
 30
0.0
 11
648.5892132451551
 21
563.0564322928974
 31
0.0
  0
LINE
  5
27E
330
1F
100
AcDbEntity
  8
0
  6
CENTER
100
AcDbLine
 10
648.5891979863654
 20
9.042521250924494
 30
0.0
 11
648.5891979863654
 21
266.1775925709952
 31
0.0
  0
LINE
  5
27F
330
1F
100
AcDbEntity
  8
0
  6
CENTER
100
AcDbLine
 10
603.8828043420143
 20
66.68810372127244
 30
0.0
 11
737.935469120832
 21
66.68810372127244
 31
0.0
  0
VIEWPORT
  5
71
330
55
100
AcDbEntity
 67
     1
  8
0
100
AcDbViewport
 10
133.3499908447265
 20
101.5999970436096
 30
0.0
 40
381.3957395593834
 41
218.2856291881582
 68
     1
 69
     1
 12
133.3499908447265
 22
101.5999970436096
 13
0.0
 23
0.0
 14
10.0
 24
10.0
 15
10.0
 25
10.0
 16
0.0
 26
0.0
 36
1.0
 17
0.0
 27
0.0
 37
0.0
 42
50.0
 43
0.0
 44
0.0
 45
218.2856291881582
 50
0.0
 51
0.0
 72
   100
 90
    32800
  1

281
     0
 71
     1
 74
     0
110
0.0
120
0.0
130
0.0
111
1.0
121
0.0
131
0.0
112
0.0
122
1.0
132
0.0
 79
     0
146
0.0
  0
VIEWPORT
  5
73
330
55
100
AcDbEntity
 67
     1
  8
0
100
AcDbViewport
 10
133.349993944168
 20
101.599993944168
 30
0.0
 40
213.3599903106689
 41
162.5599903106689
 68
     2
 69
     2
 12
210.0
 22
148.5
 13
0.0
 23
0.0
 14
10.0
 24
10.0
 15
10.0
 25
10.0
 16
0.0
 26
0.0
 36
1.0
 17
0.0
 27
0.0
 37
0.0
 42
50.0
 43
0.0
 44
0.0
 45
324.0677920111345
 50
0.0
 51
0.0
 72
   100
 90
    32864
  1

281
     0
 71
     1
 74
     0
110
0.0
120
0.0
130
0.0
111
1.0
121
0.0
131
0.0
112
0.0
122
1.0
132
0.0
 79
     0
146
0.0
  0
ENDSEC
  0
SECTION
  2
OBJECTS
  0
DICTIONARY
  5
C
330
0
100
AcDbDictionary
281
     1
  3
ACAD_GROUP
350
D
  3
ACAD_LAYOUT
350
1A
  3
ACAD_MLINESTYLE
350
17
  3
ACAD_PLOTSETTINGS
350
19
  3
ACAD_PLOTSTYLENAME
350
E
  3
AcDbVariableDictionary
350
5E
  0
DICTIONARY
  5
272
330
2
100
AcDbDictionary
280
     1
281
     1
  3
ACAD_LAYERSTATES
360
273
  0
DICTIONARY
  5
22A
330
1F
100
AcDbDictionary
280
     1
281
     1
  3
ACAD_LAYOUTSELFREF
360
261
  0
DICTIONARY
  5
22C
330
55
100
AcDbDictionary
280
     1
281
     1
  3
ACAD_LAYOUTSELFREF
360
265
  0
DICTIONARY
  5
22E
330
50
100
AcDbDictionary
280
     1
281
     1
  3
ACAD_LAYOUTSELFREF
360
264
  0
DICTIONARY
  5
D
102
{ACAD_REACTORS
330
C
102
}
330
C
100
AcDbDictionary
281
     1
  0
DICTIONARY
  5
1A
102
{ACAD_REACTORS
330
C
102
}
330
C
100
AcDbDictionary
281
     1
  3
Model
350
22
  3
ﾚｲｱｳﾄ1
350
51
  3
ﾚｲｱｳﾄ2
350
56
  0
DICTIONARY
  5
17
102
{ACAD_REACTORS
330
C
102
}
330
C
100
AcDbDictionary
281
     1
  3
Standard
350
18
  0
DICTIONARY
  5
19
102
{ACAD_REACTORS
330
C
102
}
330
C
100
AcDbDictionary
281
     1
  0
ACDBDICTIONARYWDFLT
  5
E
102
{ACAD_REACTORS
330
C
102
}
330
C
100
AcDbDictionary
281
     1
  3
Normal
350
F
100
AcDbDictionaryWithDefault
340
F
  0
DICTIONARY
  5
5E
102
{ACAD_REACTORS
330
C
102
}
330
C
100
AcDbDictionary
281
     1
  3
DIMASSOC
350
5F
  3
HIDETEXT
350
63
  0
DICTIONARY
  5
273
102
{ACAD_REACTORS
330
272
102
}
330
272
100
AcDbDictionary
281
     1
  0
XRECORD
  5
261
102
{ACAD_REACTORS
330
22A
102
}
330
22A
100
AcDbXrecord
280
     1
340
1F
  0
XRECORD
  5
265
102
{ACAD_REACTORS
330
22C
102
}
330
22C
100
AcDbXrecord
280
     1
340
55
  0
XRECORD
  5
264
102
{ACAD_REACTORS
330
22E
102
}
330
22E
100
AcDbXrecord
280
     1
340
50
  0
LAYOUT
  5
22
102
{ACAD_REACTORS
330
1A
102
}
330
1A
100
AcDbPlotSettings
  1

  2
none_device
  4
ANSI_A_(8.50_x_11.00_Inches)
  6

 40
6.349999904632568
 41
19.04999923706054
 42
6.350006103515625
 43
19.04998779296875
 44
215.8999938964843
 45
279.3999938964843
 46
0.0
 47
0.0
 48
0.0
 49
0.0
140
0.0
141
0.0
142
1.0
143
78.436453180766
 70
 11952
 72
     0
 73
     1
 74
     0
  7

 75
     0
147
0.0127491741332998
148
0.0
149
0.0
100
AcDbLayout
  1
Model
 70
     1
 71
     0
 10
0.0
 20
0.0
 11
12.0
 21
9.0
 12
0.0
 22
0.0
 32
0.0
 14
0.0
 24
0.0
 34
0.0
 15
0.0
 25
0.0
 35
0.0
146
0.0
 13
0.0
 23
0.0
 33
0.0
 16
1.0
 26
0.0
 36
0.0
 17
0.0
 27
1.0
 37
0.0
 76
     0
330
1F
  0
LAYOUT
  5
51
102
{ACAD_REACTORS
330
1A
102
}
330
1A
100
AcDbPlotSettings
  1

  2
none_device
  4
Letter_(8.50_x_11.00_Inches)
  6

 40
6.349999904632568
 41
6.349999904632568
 42
6.350006103515625
 43
6.350006103515625
 44
215.8999938964843
 45
279.3999938964843
 46
0.0
 47
0.0
 48
0.0
 49
0.0
140
0.0
141
0.0
142
1.0
143
1.0
 70
   688
 72
     1
 73
     1
 74
     5
  7

 75
    16
147
1.0
148
0.0
149
0.0
100
AcDbLayout
  1
ﾚｲｱｳﾄ1
 70
     1
 71
     1
 10
-6.350006103515625
 20
-6.349999904632568
 11
273.0499877929687
 21
209.5499939918517
 12
0.0
 22
0.0
 32
0.0
 14
26.66076962115562
 24
20.31135699206657
 34
-0.0015258207003583
 15
240.039213369355
 25
182.8886381005154
 35
0.0000000349246037
146
0.0
 13
0.0
 23
0.0
 33
0.0
 16
1.0
 26
0.0
 36
0.0
 17
0.0
 27
1.0
 37
0.0
 76
     0
330
50
331
6B
  0
LAYOUT
  5
56
102
{ACAD_REACTORS
330
1A
102
}
330
1A
100
AcDbPlotSettings
  1

  2
none_device
  4
Letter_(8.50_x_11.00_Inches)
  6

 40
6.349999904632568
 41
6.349999904632568
 42
6.350006103515625
 43
6.350006103515625
 44
215.8999938964843
 45
279.3999938964843
 46
0.0
 47
0.0
 48
0.0
 49
0.0
140
0.0
141
0.0
142
1.0
143
1.0
 70
   688
 72
     1
 73
     1
 74
     5
  7

 75
    16
147
1.0
148
0.0
149
0.0
100
AcDbLayout
  1
ﾚｲｱｳﾄ2
 70
     1
 71
     2
 10
-6.350006103515625
 20
-6.349999904632568
 11
273.0499877929687
 21
209.5499939918517
 12
0.0
 22
0.0
 32
0.0
 14
26.66076962115562
 24
20.31135699206657
 34
-0.0015258207003583
 15
240.039213369355
 25
182.8886381005154
 35
0.0000000349246037
146
0.0
 13
0.0
 23
0.0
 33
0.0
 16
1.0
 26
0.0
 36
0.0
 17
0.0
 27
1.0
 37
0.0
 76
     0
330
55
331
71
  0
MLINESTYLE
  5
18
102
{ACAD_REACTORS
330
17
102
}
330
17
100
AcDbMlineStyle
  2
STANDARD
 70
     0
  3

 62
   256
 51
90.0
 52
90.0
 71
     2
 49
0.5
 62
   256
  6
BYLAYER
 49
-0.5
 62
   256
  6
BYLAYER
  0
ACDBPLACEHOLDER
  5
F
102
{ACAD_REACTORS
330
E
102
}
330
E
  0
DICTIONARYVAR
  5
5F
102
{ACAD_REACTORS
330
5E
102
}
330
5E
100
DictionaryVariables
280
     0
  1
2
  0
DICTIONARYVAR
  5
63
102
{ACAD_REACTORS
330
5E
102
}
330
5E
100
DictionaryVariables
280
     0
  1
1
  0
ENDSEC
  0
EOF
