  0
SECTION
  2
HEADER
  9
$ACADVER
  1
AC1015
  9
$ACADMAINTVER
 70
    14
  9
$DWGCODEPAGE
  3
ANSI_932
  9
$INSBASE
 10
0.0
 20
0.0
 30
0.0
  9
$EXTMIN
 10
464.6164059230564
 20
78.39977250342986
 30
-0.0000000000000058
  9
$EXTMAX
 10
1331.265240401248
 20
855.9327279204149
 30
0.0000000000000104
  9
$LIMMIN
 10
0.0
 20
0.0
  9
$LIMMAX
 10
420.0
 20
297.0
  9
$ORTHOMODE
 70
     0
  9
$REGENMODE
 70
     1
  9
$FILLMODE
 70
     1
  9
$QTEXTMODE
 70
     0
  9
$MIRRTEXT
 70
     1
  9
$LTSCALE
 40
1.0
  9
$ATTMODE
 70
     1
  9
$TEXTSIZE
 40
2.5
  9
$TRACEWID
 40
1.0
  9
$TEXTSTYLE
  7
Standard
  9
$CLAYER
  8
0
  9
$CELTYPE
  6
ByLayer
  9
$CECOLOR
 62
   256
  9
$CELTSCALE
 40
1.0
  9
$DISPSILH
 70
     0
  9
$DIMSCALE
 40
1.0
  9
$DIMASZ
 40
2.5
  9
$DIMEXO
 40
0.625
  9
$DIMDLI
 40
3.75
  9
$DIMRND
 40
0.0
  9
$DIMDLE
 40
0.0
  9
$DIMEXE
 40
1.25
  9
$DIMTP
 40
0.0
  9
$DIMTM
 40
0.0
  9
$DIMTXT
 40
2.5
  9
$DIMCEN
 40
2.5
  9
$DIMTSZ
 40
0.0
  9
$DIMTOL
 70
     0
  9
$DIMLIM
 70
     0
  9
$DIMTIH
 70
     0
  9
$DIMTOH
 70
     0
  9
$DIMSE1
 70
     0
  9
$DIMSE2
 70
     0
  9
$DIMTAD
 70
     1
  9
$DIMZIN
 70
     8
  9
$DIMBLK
  1

  9
$DIMASO
 70
     1
  9
$DIMSHO
 70
     1
  9
$DIMPOST
  1

  9
$DIMAPOST
  1

  9
$DIMALT
 70
     0
  9
$DIMALTD
 70
     3
  9
$DIMALTF
 40
0.03937007874016
  9
$DIMLFAC
 40
1.0
  9
$DIMTOFL
 70
     1
  9
$DIMTVP
 40
0.0
  9
$DIMTIX
 70
     0
  9
$DIMSOXD
 70
     0
  9
$DIMSAH
 70
     0
  9
$DIMBLK1
  1

  9
$DIMBLK2
  1

  9
$DIMSTYLE
  2
ISO-25
  9
$DIMCLRD
 70
     0
  9
$DIMCLRE
 70
     0
  9
$DIMCLRT
 70
     0
  9
$DIMTFAC
 40
1.0
  9
$DIMGAP
 40
0.625
  9
$DIMJUST
 70
     0
  9
$DIMSD1
 70
     0
  9
$DIMSD2
 70
     0
  9
$DIMTOLJ
 70
     0
  9
$DIMTZIN
 70
     8
  9
$DIMALTZ
 70
     0
  9
$DIMALTTZ
 70
     0
  9
$DIMUPT
 70
     0
  9
$DIMDEC
 70
     2
  9
$DIMTDEC
 70
     2
  9
$DIMALTU
 70
     2
  9
$DIMALTTD
 70
     3
  9
$DIMTXSTY
  7
Standard
  9
$DIMAUNIT
 70
     0
  9
$DIMADEC
 70
     0
  9
$DIMALTRND
 40
0.0
  9
$DIMAZIN
 70
     0
  9
$DIMDSEP
 70
    44
  9
$DIMATFIT
 70
     3
  9
$DIMFRAC
 70
     0
  9
$DIMLDRBLK
  1

  9
$DIMLUNIT
 70
     2
  9
$DIMLWD
 70
    -2
  9
$DIMLWE
 70
    -2
  9
$DIMTMOVE
 70
     0
  9
$LUNITS
 70
     2
  9
$LUPREC
 70
     4
  9
$SKETCHINC
 40
1.0
  9
$FILLETRAD
 40
10.0
  9
$AUNITS
 70
     0
  9
$AUPREC
 70
     0
  9
$MENU
  1
.
  9
$ELEVATION
 40
0.0
  9
$PELEVATION
 40
0.0
  9
$THICKNESS
 40
0.0
  9
$LIMCHECK
 70
     0
  9
$CHAMFERA
 40
10.0
  9
$CHAMFERB
 40
10.0
  9
$CHAMFERC
 40
20.0
  9
$CHAMFERD
 40
0.0
  9
$SKPOLY
 70
     0
  9
$TDCREATE
 40
2454278.643446898
  9
$TDUCREATE
 40
2454278.268446898
  9
$TDUPDATE
 40
2456899.669767569
  9
$TDUUPDATE
 40
2456899.294767569
  9
$TDINDWG
 40
0.0014448148
  9
$TDUSRTIMER
 40
0.0014446296
  9
$USRTIMER
 70
     1
  9
$ANGBASE
 50
0.0
  9
$ANGDIR
 70
     0
  9
$PDMODE
 70
     0
  9
$PDSIZE
 40
0.0
  9
$PLINEWID
 40
0.0
  9
$SPLFRAME
 70
     0
  9
$SPLINETYPE
 70
     6
  9
$SPLINESEGS
 70
     8
  9
$HANDSEED
  5
219
  9
$SURFTAB1
 70
     6
  9
$SURFTAB2
 70
     6
  9
$SURFTYPE
 70
     6
  9
$SURFU
 70
     6
  9
$SURFV
 70
     6
  9
$UCSBASE
  2

  9
$UCSNAME
  2

  9
$UCSORG
 10
0.0
 20
0.0
 30
0.0
  9
$UCSXDIR
 10
1.0
 20
0.0
 30
0.0
  9
$UCSYDIR
 10
0.0
 20
1.0
 30
0.0
  9
$UCSORTHOREF
  2

  9
$UCSORTHOVIEW
 70
     0
  9
$UCSORGTOP
 10
0.0
 20
0.0
 30
0.0
  9
$UCSORGBOTTOM
 10
0.0
 20
0.0
 30
0.0
  9
$UCSORGLEFT
 10
0.0
 20
0.0
 30
0.0
  9
$UCSORGRIGHT
 10
0.0
 20
0.0
 30
0.0
  9
$UCSORGFRONT
 10
0.0
 20
0.0
 30
0.0
  9
$UCSORGBACK
 10
0.0
 20
0.0
 30
0.0
  9
$PUCSBASE
  2

  9
$PUCSNAME
  2

  9
$PUCSORG
 10
0.0
 20
0.0
 30
0.0
  9
$PUCSXDIR
 10
1.0
 20
0.0
 30
0.0
  9
$PUCSYDIR
 10
0.0
 20
1.0
 30
0.0
  9
$PUCSORTHOREF
  2

  9
$PUCSORTHOVIEW
 70
     0
  9
$PUCSORGTOP
 10
0.0
 20
0.0
 30
0.0
  9
$PUCSORGBOTTOM
 10
0.0
 20
0.0
 30
0.0
  9
$PUCSORGLEFT
 10
0.0
 20
0.0
 30
0.0
  9
$PUCSORGRIGHT
 10
0.0
 20
0.0
 30
0.0
  9
$PUCSORGFRONT
 10
0.0
 20
0.0
 30
0.0
  9
$PUCSORGBACK
 10
0.0
 20
0.0
 30
0.0
  9
$USERI1
 70
     0
  9
$USERI2
 70
     0
  9
$USERI3
 70
     0
  9
$USERI4
 70
     0
  9
$USERI5
 70
     0
  9
$USERR1
 40
0.0
  9
$USERR2
 40
0.0
  9
$USERR3
 40
0.0
  9
$USERR4
 40
0.0
  9
$USERR5
 40
0.0
  9
$WORLDVIEW
 70
     1
  9
$SHADEDGE
 70
     3
  9
$SHADEDIF
 70
    70
  9
$TILEMODE
 70
     1
  9
$MAXACTVP
 70
    48
  9
$PINSBASE
 10
0.0
 20
0.0
 30
0.0
  9
$PLIMCHECK
 70
     0
  9
$PEXTMIN
 10
26.66076962115562
 20
20.31135699206657
 30
-0.0015258207003583
  9
$PEXTMAX
 10
240.039213369355
 20
182.8886381005154
 30
0.0000000349246037
  9
$PLIMMIN
 10
-6.350006103515625
 20
-6.349999904632568
  9
$PLIMMAX
 10
273.0499877929687
 20
209.5499939918517
  9
$UNITMODE
 70
     0
  9
$VISRETAIN
 70
     1
  9
$PLINEGEN
 70
     0
  9
$PSLTSCALE
 70
     1
  9
$TREEDEPTH
 70
  3020
  9
$CMLSTYLE
  2
Standard
  9
$CMLJUST
 70
     0
  9
$CMLSCALE
 40
20.0
  9
$PROXYGRAPHICS
 70
     1
  9
$MEASUREMENT
 70
     1
  9
$CELWEIGHT
370
    -1
  9
$ENDCAPS
280
     0
  9
$JOINSTYLE
280
     0
  9
$LWDISPLAY
290
     0
  9
$INSUNITS
 70
     4
  9
$HYPERLINKBASE
  1

  9
$STYLESHEET
  1

  9
$XEDIT
290
     1
  9
$CEPSNTYPE
380
     0
  9
$PSTYLEMODE
290
     1
  9
$FINGERPRINTGUID
  2
{FDEAD578-A652-11D2-9A35-0060089B3A3F}
  9
$VERSIONGUID
  2
{985EE416-E405-476F-A5F7-AA0A2BCB4E12}
  9
$EXTNAMES
290
     1
  9
$PSVPSCALE
 40
0.0
  9
$OLESTARTUP
290
     0
  0
ENDSEC
  0
SECTION
  2
CLASSES
  0
CLASS
  1
ACDBDICTIONARYWDFLT
  2
AcDbDictionaryWithDefault
  3
AutoCAD 2000
 90
        0
280
     0
281
     0
  0
CLASS
  1
ACDBPLACEHOLDER
  2
AcDbPlaceHolder
  3
AutoCAD 2000
 90
        0
280
     0
281
     0
  0
CLASS
  1
LAYOUT
  2
AcDbLayout
  3
AutoCAD 2000
 90
        0
280
     0
281
     0
  0
CLASS
  1
DICTIONARYVAR
  2
AcDbDictionaryVar
  3
AutoCAD 2000
 90
        0
280
     0
281
     0
  0
CLASS
  1
LONG_TRANSACTION
  2
AcDbLongTransaction
  3
AutoCAD 2000
 90
    32768
280
     0
281
     0
  0
CLASS
  1
LWPOLYLINE
  2
AcDbPolyline
  3
AutoCAD 2000
 90
    32768
280
     0
281
     1
  0
CLASS
  1
HATCH
  2
AcDbHatch
  3
AutoCAD 2000
 90
    32768
280
     0
281
     1
  0
CLASS
  1
XRECORD
  2
AcDbXrecord
  3
AutoCAD 2000
 90
    32768
280
     0
281
     0
  0
ENDSEC
  0
SECTION
  2
TABLES
  0
TABLE
  2
VPORT
  5
8
330
0
100
AcDbSymbolTable
 70
     2
  0
VPORT
  5
218
330
8
100
AcDbSymbolTableRecord
100
AcDbViewportTableRecord
  2
*Active
 70
     0
 10
0.0
 20
0.0
 11
1.0
 21
1.0
 12
897.9408231621523
 22
467.1662502119224
 13
0.0
 23
0.0
 14
10.0
 24
10.0
 15
10.0
 25
10.0
 16
0.0
 26
0.0
 36
1.0
 17
0.0
 27
0.0
 37
0.0
 40
782.4696725942358
 41
1.592161016949152
 42
50.0
 43
0.0
 44
0.0
 50
0.0
 51
0.0
 71
     0
 72
   100
 73
     1
 74
     3
 75
     0
 76
     0
 77
     0
 78
     0
281
     0
 65
     1
110
0.0
120
0.0
130
0.0
111
1.0
121
0.0
131
0.0
112
0.0
122
1.0
132
0.0
 79
     0
146
0.0
  0
ENDTAB
  0
TABLE
  2
LTYPE
  5
5
330
0
100
AcDbSymbolTable
 70
     2
  0
LTYPE
  5
14
330
5
100
AcDbSymbolTableRecord
100
AcDbLinetypeTableRecord
  2
ByBlock
 70
     0
  3

 72
    65
 73
     0
 40
0.0
  0
LTYPE
  5
15
330
5
100
AcDbSymbolTableRecord
100
AcDbLinetypeTableRecord
  2
ByLayer
 70
     0
  3

 72
    65
 73
     0
 40
0.0
  0
LTYPE
  5
16
330
5
100
AcDbSymbolTableRecord
100
AcDbLinetypeTableRecord
  2
Continuous
 70
     0
  3
Solid line
 72
    65
 73
     0
 40
0.0
  0
LTYPE
  5
1FF
330
5
100
AcDbSymbolTableRecord
100
AcDbLinetypeTableRecord
  2
CENTER
 70
     0
  3
__ . __
 72
    65
 73
     4
 40
7.0
 49
4.0
 74
     0
 49
-1.0
 74
     0
 49
1.0
 74
     0
 49
-1.0
 74
     0
  0
ENDTAB
  0
TABLE
  2
LAYER
  5
2
102
{ACAD_XDICTIONARY
360
200
102
}
330
0
100
AcDbSymbolTable
 70
     1
  0
LAYER
  5
10
330
2
100
AcDbSymbolTableRecord
100
AcDbLayerTableRecord
  2
0
 70
     0
 62
     7
  6
Continuous
370
    -3
390
F
  0
ENDTAB
  0
TABLE
  2
STYLE
  5
3
330
0
100
AcDbSymbolTable
 70
     1
  0
STYLE
  5
11
330
3
100
AcDbSymbolTableRecord
100
AcDbTextStyleTableRecord
  2
Standard
 70
     0
 40
0.0
 41
1.0
 50
0.0
 71
     0
 42
2.5
  3
txt
  4

  0
ENDTAB
  0
TABLE
  2
VIEW
  5
6
330
0
100
AcDbSymbolTable
 70
     0
  0
ENDTAB
  0
TABLE
  2
UCS
  5
7
330
0
100
AcDbSymbolTable
 70
     0
  0
ENDTAB
  0
TABLE
  2
APPID
  5
9
330
0
100
AcDbSymbolTable
 70
     1
  0
APPID
  5
12
330
9
100
AcDbSymbolTableRecord
100
AcDbRegAppTableRecord
  2
ACAD
 70
     0
  0
ENDTAB
  0
TABLE
  2
DIMSTYLE
  5
A
330
0
100
AcDbSymbolTable
 70
     1
100
AcDbDimStyleTable
 71
     0
  0
DIMSTYLE
105
27
330
A
100
AcDbSymbolTableRecord
100
AcDbDimStyleTableRecord
  2
ISO-25
 70
     0
 41
2.5
 42
0.625
 43
3.75
 44
1.25
 73
     0
 74
     0
 77
     1
 78
     8
140
2.5
141
2.5
143
0.03937007874016
147
0.625
171
     3
172
     1
271
     2
272
     2
274
     3
278
    44
283
     0
284
     8
340
11
  0
ENDTAB
  0
TABLE
  2
BLOCK_RECORD
  5
1
330
0
100
AcDbSymbolTable
 70
     1
  0
BLOCK_RECORD
  5
1F
102
{ACAD_XDICTIONARY
360
1B8
102
}
330
1
100
AcDbSymbolTableRecord
100
AcDbBlockTableRecord
  2
*Model_Space
340
22
  0
BLOCK_RECORD
  5
55
102
{ACAD_XDICTIONARY
360
1BA
102
}
330
1
100
AcDbSymbolTableRecord
100
AcDbBlockTableRecord
  2
*Paper_Space
340
56
  0
BLOCK_RECORD
  5
50
102
{ACAD_XDICTIONARY
360
1BC
102
}
330
1
100
AcDbSymbolTableRecord
100
AcDbBlockTableRecord
  2
*Paper_Space0
340
51
  0
ENDTAB
  0
ENDSEC
  0
SECTION
  2
BLOCKS
  0
BLOCK
  5
20
330
1F
100
AcDbEntity
  8
0
100
AcDbBlockBegin
  2
*Model_Space
 70
     0
 10
0.0
 20
0.0
 30
0.0
  3
*Model_Space
  1

  0
ENDBLK
  5
21
330
1F
100
AcDbEntity
  8
0
100
AcDbBlockEnd
  0
BLOCK
  5
57
330
55
100
AcDbEntity
 67
     1
  8
0
100
AcDbBlockBegin
  2
*Paper_Space
 70
     0
 10
0.0
 20
0.0
 30
0.0
  3
*Paper_Space
  1

  0
ENDBLK
  5
58
330
55
100
AcDbEntity
 67
     1
  8
0
100
AcDbBlockEnd
  0
BLOCK
  5
52
330
50
100
AcDbEntity
  8
0
100
AcDbBlockBegin
  2
*Paper_Space0
 70
     0
 10
0.0
 20
0.0
 30
0.0
  3
*Paper_Space0
  1

  0
VIEWPORT
  5
6B
330
50
100
AcDbEntity
  8
0
100
AcDbViewport
 10
133.3499908447265
 20
101.5999970436096
 30
0.0
 40
381.3957395593834
 41
218.2856291881582
 69
     0
 12
133.3499908447265
 22
101.5999970436096
 13
0.0
 23
0.0
 14
10.0
 24
10.0
 15
10.0
 25
10.0
 16
0.0
 26
0.0
 36
1.0
 17
0.0
 27
0.0
 37
0.0
 42
50.0
 43
0.0
 44
0.0
 45
218.2856291881582
 50
0.0
 51
0.0
 72
   100
 90
    32800
  1

281
     0
 71
     1
 74
     0
110
0.0
120
0.0
130
0.0
111
1.0
121
0.0
131
0.0
112
0.0
122
1.0
132
0.0
 79
     0
146
0.0
  0
VIEWPORT
  5
6D
330
50
100
AcDbEntity
  8
0
100
AcDbViewport
 10
133.349993944168
 20
101.599993944168
 30
0.0
 40
213.3599903106689
 41
162.5599903106689
 69
     0
 12
210.0
 22
148.5
 13
0.0
 23
0.0
 14
10.0
 24
10.0
 15
10.0
 25
10.0
 16
0.0
 26
0.0
 36
1.0
 17
0.0
 27
0.0
 37
0.0
 42
50.0
 43
0.0
 44
0.0
 45
324.0677920111345
 50
0.0
 51
0.0
 72
   100
 90
    32864
  1

281
     0
 71
     1
 74
     0
110
0.0
120
0.0
130
0.0
111
1.0
121
0.0
131
0.0
112
0.0
122
1.0
132
0.0
 79
     0
146
0.0
  0
ENDBLK
  5
53
330
50
100
AcDbEntity
  8
0
100
AcDbBlockEnd
  0
ENDSEC
  0
SECTION
  2
ENTITIES
  0
TEXT
  5
11F
330
1F
100
AcDbEntity
  8
0
  6
Continuous
100
AcDbText
 10
464.6610560603027
 20
807.8935394476934
 30
0.0
 40
48.000002
  1
DAC2L10RD000 8A
 41
1.32095
100
AcDbText
  0
LINE
  5
120
330
1F
100
AcDbEntity
  8
0
100
AcDbLine
 10
782.769751475998
 20
109.3374540163184
 30
0.0
 11
782.769751475998
 21
124.1734654625487
 31
0.0
  0
LINE
  5
121
330
1F
100
AcDbEntity
  8
0
100
AcDbLine
 10
768.969824718185
 20
109.3374398492223
 30
0.0
 11
768.969824718185
 21
124.1734493200487
 31
0.0
  0
LINE
  5
122
330
1F
100
AcDbEntity
  8
0
100
AcDbLine
 10
758.8697270619348
 20
105.6613048075295
 30
0.0
 11
768.969824718185
 21
109.3374398492223
 31
0.0
  0
LINE
  5
123
330
1F
100
AcDbEntity
  8
0
100
AcDbLine
 10
792.869727061935
 20
102.8113232280975
 30
0.0
 11
758.8697270619348
 21
102.8113232280975
 31
0.0
  0
LINE
  5
124
330
1F
100
AcDbEntity
  8
0
100
AcDbLine
 10
758.8697270619348
 20
102.8113232280975
 30
0.0
 11
758.8697270619348
 21
105.6613048075295
 31
0.0
  0
LINE
  5
125
330
1F
100
AcDbEntity
  8
0
100
AcDbLine
 10
792.869727061935
 20
102.8113232280975
 30
0.0
 11
792.869727061935
 21
105.6613634045878
 31
0.0
  0
LINE
  5
126
330
1F
100
AcDbEntity
  8
0
100
AcDbLine
 10
768.969824718185
 20
109.3374398492223
 30
0.0
 11
782.769751475998
 21
109.3374540163184
 31
0.0
  0
LINE
  5
127
330
1F
100
AcDbEntity
  8
0
100
AcDbLine
 10
792.869727061935
 20
105.6613634045878
 30
0.0
 11
782.769751475998
 21
109.3374540163184
 31
0.0
  0
LINE
  5
128
330
1F
100
AcDbEntity
  8
0
100
AcDbLine
 10
737.869734691329
 20
209.3113232280969
 30
0.0
 11
737.8697346913286
 21
194.8113232280975
 31
0.0
  0
LINE
  5
129
330
1F
100
AcDbEntity
  8
0
100
AcDbLine
 10
813.86971943254
 20
209.3113232280975
 30
0.0
 11
813.8697194325393
 21
194.8113232280975
 31
0.0
  0
LINE
  5
12A
330
1F
100
AcDbEntity
  8
0
100
AcDbLine
 10
730.1197423207238
 20
150.3113232280948
 30
0.0
 11
821.6197118031459
 21
150.3113232280989
 31
0.0
  0
LINE
  5
12B
330
1F
100
AcDbEntity
  8
0
100
AcDbLine
 10
730.1197423207238
 20
165.8113232280984
 30
0.0
 11
821.6197118031459
 21
165.8113232280984
 31
0.0
  0
LINE
  5
12C
330
1F
100
AcDbEntity
  8
0
100
AcDbLine
 10
747.559668468185
 20
128.5613232280973
 30
0.0
 11
804.1797856556851
 21
128.5613232280975
 31
0.0
  0
LINE
  5
12D
330
1F
100
AcDbEntity
  8
0
100
AcDbLine
 10
737.8697346913286
 20
194.8113232280975
 30
0.0
 11
813.8697194325393
 21
194.8113232280975
 31
0.0
  0
LINE
  5
12E
330
1F
100
AcDbEntity
  8
0
100
AcDbLine
 10
730.1197423207238
 20
165.8113232280984
 30
0.0
 11
730.1197423207238
 21
150.3113232280948
 31
0.0
  0
LINE
  5
12F
330
1F
100
AcDbEntity
  8
0
100
AcDbLine
 10
768.969824718185
 20
124.1734493200487
 30
0.0
 11
762.0659472105691
 21
128.1594049290638
 31
0.0
  0
ARC
  5
130
330
1F
100
AcDbEntity
  8
0
100
AcDbCircle
 10
754.8697270619348
 20
139.8113232280975
 30
0.0
 40
11.0
100
AcDbArc
 50
179.9999974955312
 51
228.3521282187074
  0
LINE
  5
131
330
1F
100
AcDbEntity
  8
0
100
AcDbLine
 10
743.869727061935
 20
150.3113232280948
 30
0.0
 11
743.869727061935
 21
139.8113232280975
 31
0.0
  0
LINE
  5
132
330
1F
100
AcDbEntity
  8
0
100
AcDbLine
 10
747.559668468185
 20
131.5916490644858
 30
0.0
 11
747.559668468185
 21
128.5613232280973
 31
0.0
  0
LINE
  5
133
330
1F
100
AcDbEntity
  8
0
100
AcDbLine
 10
782.769751475998
 20
124.1734654625487
 30
0.0
 11
790.3697439259052
 21
128.5613232280975
 31
0.0
  0
LINE
  5
134
330
1F
100
AcDbEntity
  8
0
100
AcDbLine
 10
741.8697346913286
 20
167.0613239938551
 30
0.0
 11
741.8697346913286
 21
165.8113232280984
 31
0.0
  0
LINE
  5
135
330
1F
100
AcDbEntity
  8
0
100
AcDbLine
 10
821.6197118031459
 20
165.8113232280984
 30
0.0
 11
821.6197118031459
 21
150.3113232280989
 31
0.0
  0
LINE
  5
136
330
1F
100
AcDbEntity
  8
0
100
AcDbLine
 10
839.3436892349887
 20
146.7113171245819
 30
0.0
 11
807.869727061935
 21
146.7113171245819
 31
0.0
  0
LINE
  5
137
330
1F
100
AcDbEntity
  8
0
100
AcDbLine
 10
839.343705443855
 20
132.9113293316131
 30
0.0
 11
805.4365283452892
 21
132.9113293316131
 31
0.0
  0
ARC
  5
138
330
1F
100
AcDbEntity
  8
0
100
AcDbCircle
 10
796.869727061935
 20
139.8113232280975
 30
0.0
 40
11.0
100
AcDbArc
 50
311.6478717812924
 51
0.0000025044687019
  0
LINE
  5
139
330
1F
100
AcDbEntity
  8
0
100
AcDbLine
 10
807.869727061935
 20
150.3113232280989
 30
0.0
 11
807.869727061935
 21
139.8113232280975
 31
0.0
  0
LINE
  5
13A
330
1F
100
AcDbEntity
  8
0
100
AcDbLine
 10
804.1797856556851
 20
131.5916490644858
 30
0.0
 11
804.1797856556851
 21
128.5613232280975
 31
0.0
  0
LINE
  5
13B
330
1F
100
AcDbEntity
  8
0
100
AcDbLine
 10
845.8697270619348
 20
156.8113232280975
 30
0.0
 11
843.0197909542108
 21
156.8113232280975
 31
0.0
  0
LINE
  5
13C
330
1F
100
AcDbEntity
  8
0
100
AcDbLine
 10
839.3436892349887
 20
146.7113171245819
 30
0.0
 11
839.343705443855
 21
132.9113293316131
 31
0.0
  0
LINE
  5
13D
330
1F
100
AcDbEntity
  8
0
100
AcDbLine
 10
843.0197909542108
 20
156.8113232280975
 30
0.0
 11
839.3436892349887
 21
146.7113171245819
 31
0.0
  0
LINE
  5
13E
330
1F
100
AcDbEntity
  8
0
100
AcDbLine
 10
845.8697270619348
 20
122.8113232280975
 30
0.0
 11
843.0198071630766
 21
122.8113232280975
 31
0.0
  0
LINE
  5
13F
330
1F
100
AcDbEntity
  8
0
100
AcDbLine
 10
843.0198071630766
 20
122.8113232280975
 30
0.0
 11
839.343705443855
 21
132.9113293316131
 31
0.0
  0
LINE
  5
140
330
1F
100
AcDbEntity
  8
0
100
AcDbLine
 10
845.8697270619348
 20
156.8113232280975
 30
0.0
 11
845.8697270619348
 21
122.8113232280975
 31
0.0
  0
LINE
  5
141
330
1F
100
AcDbEntity
  8
0
100
AcDbLine
 10
737.869734691329
 20
209.3113232280969
 30
0.0
 11
813.86971943254
 21
209.3113232280975
 31
0.0
  0
LINE
  5
142
330
1F
100
AcDbEntity
  8
0
100
AcDbLine
 10
845.8697423207238
 20
638.2483258454493
 30
0.0
 11
845.8697423207238
 21
626.2483258454493
 31
0.0
  0
LINE
  5
143
330
1F
100
AcDbEntity
  8
0
100
AcDbLine
 10
845.8697423207238
 20
616.2483258454493
 30
0.0
 11
845.8697423207238
 21
604.2483258454494
 31
0.0
  0
LINE
  5
144
330
1F
100
AcDbEntity
  8
0
100
AcDbLine
 10
845.8697423207238
 20
604.2483258454494
 30
0.0
 11
843.0198224218655
 21
604.2483258454494
 31
0.0
  0
LINE
  5
145
330
1F
100
AcDbEntity
  8
0
100
AcDbLine
 10
843.0198224218655
 20
604.2483258454494
 30
0.0
 11
839.3437207026442
 21
614.3483319489648
 31
0.0
  0
LINE
  5
146
330
1F
100
AcDbEntity
  8
0
100
AcDbLine
 10
845.8697423207238
 20
638.2483258454493
 30
0.0
 11
843.0198062129997
 21
638.2483258454493
 31
0.0
  0
LINE
  5
147
330
1F
100
AcDbEntity
  8
0
100
AcDbLine
 10
843.0198062129997
 20
638.2483258454493
 30
0.0
 11
839.3437044937776
 21
628.1483197419336
 31
0.0
  0
CIRCLE
  5
148
330
1F
100
AcDbEntity
  8
0
100
AcDbCircle
 10
775.8697423207245
 20
621.2483258454494
 30
0.0
 40
25.00001525878963
  0
CIRCLE
  5
149
330
1F
100
AcDbEntity
  8
0
100
AcDbCircle
 10
775.8697423207245
 20
621.2483258454494
 30
0.0
 40
8.0
  0
CIRCLE
  5
14A
330
1F
100
AcDbEntity
  8
0
100
AcDbCircle
 10
775.8697423207245
 20
621.2483258454494
 30
0.0
 40
7.50000000024
  0
LINE
  5
14B
330
1F
100
AcDbEntity
  8
0
100
AcDbLine
 10
831.9336975795142
 20
625.9983858454493
 30
0.0
 11
828.8697575795142
 21
625.9026258454493
 31
0.0
  0
LINE
  5
14C
330
1F
100
AcDbEntity
  8
0
100
AcDbLine
 10
831.9351175795143
 20
616.4983258454493
 30
0.0
 11
828.8697975795143
 21
616.5941458454492
 31
0.0
  0
LINE
  5
14D
330
1F
100
AcDbEntity
  8
0
100
AcDbLine
 10
830.8697575795141
 20
625.9651858454494
 30
0.0
 11
830.8697575795141
 21
616.5315858454492
 31
0.0
  0
LINE
  5
14E
330
1F
100
AcDbEntity
  8
0
100
AcDbLine
 10
833.933717579514
 20
616.4983258454493
 30
0.0
 11
831.9337175795141
 21
616.4983258454493
 31
0.0
  0
LINE
  5
14F
330
1F
100
AcDbEntity
  8
0
100
AcDbLine
 10
833.933717579514
 20
625.9983258454493
 30
0.0
 11
831.9337175795141
 21
625.9983258454493
 31
0.0
  0
LINE
  5
150
330
1F
100
AcDbEntity
  8
0
100
AcDbLine
 10
833.933717579514
 20
626.2483258454493
 30
0.0
 11
833.933717579514
 21
616.2483258454493
 31
0.0
  0
LINE
  5
151
330
1F
100
AcDbEntity
  8
0
100
AcDbLine
 10
846.4336975795141
 20
626.2483258454493
 30
0.0
 11
833.933717579514
 21
626.2483258454493
 31
0.0
  0
LINE
  5
152
330
1F
100
AcDbEntity
  8
0
100
AcDbLine
 10
846.4336975795141
 20
616.2483258454493
 30
0.0
 11
833.933717579514
 21
616.2483258454493
 31
0.0
  0
LINE
  5
153
330
1F
100
AcDbEntity
  8
0
100
AcDbLine
 10
846.4336975795141
 20
626.2483258454493
 30
0.0
 11
846.4336975795141
 21
616.2483258454493
 31
0.0
  0
LINE
  5
154
330
1F
100
AcDbEntity
  8
0
100
AcDbLine
 10
748.3697270619349
 20
194.8113232280975
 30
0.0
 11
748.3697270619349
 21
173.5612966317716
 31
0.0
  0
LINE
  5
155
330
1F
100
AcDbEntity
  8
0
100
AcDbLine
 10
748.3697270619349
 20
173.5612966317716
 30
0.0
 11
741.869747061935
 21
167.0613898239748
 31
0.0
  0
LINE
  5
156
330
1F
100
AcDbEntity
  8
0
100
AcDbLine
 10
809.8697194325408
 20
167.0613239938573
 30
0.0
 11
809.869719432541
 21
165.8113232281005
 31
0.0
  0
LINE
  5
157
330
1F
100
AcDbEntity
  8
0
100
AcDbLine
 10
803.3697270619329
 20
194.8113232280992
 30
0.0
 11
803.3697270619342
 21
173.5612966317733
 31
0.0
  0
LINE
  5
158
330
1F
100
AcDbEntity
  8
0
100
AcDbLine
 10
803.3697270619342
 20
173.5612966317733
 30
0.0
 11
809.8697070619344
 21
167.061389823977
 31
0.0
  0
LINE
  5
159
330
1F
100
AcDbEntity
  8
0
100
AcDbLine
 10
775.8697270619348
 20
290.0612032280974
 30
0.0
 11
817.7680670619349
 21
290.0612032280974
 31
0.0
  0
LINE
  5
15A
330
1F
100
AcDbEntity
  8
0
100
AcDbLine
 10
800.8697270619348
 20
290.0612032280974
 30
0.0
 11
800.8697270619348
 21
294.0612032280973
 31
0.0
  0
LINE
  5
15B
330
1F
100
AcDbEntity
  8
0
100
AcDbLine
 10
828.8697270619348
 20
273.1868032280973
 30
0.0
 11
828.8697270619348
 21
247.0581432280975
 31
0.0
  0
LINE
  5
15C
330
1F
100
AcDbEntity
  8
0
100
AcDbLine
 10
836.8697870619349
 20
236.6744832280974
 30
0.0
 11
836.8697870619349
 21
220.0613232280975
 31
0.0
  0
LINE
  5
15D
330
1F
100
AcDbEntity
  8
0
100
AcDbLine
 10
834.3822670619347
 20
239.5612632280974
 30
0.0
 11
717.3577270619349
 21
239.5612632280974
 31
0.0
  0
LINE
  5
15E
330
1F
100
AcDbEntity
  8
0
100
AcDbLine
 10
828.8697270619348
 20
244.1801032280974
 30
0.0
 11
722.8697270619349
 21
244.1801032280974
 31
0.0
  0
LINE
  5
15F
330
1F
100
AcDbEntity
  8
0
100
AcDbLine
 10
828.2711270619348
 20
274.9501232280973
 30
0.0
 11
723.4741670619349
 21
274.9501232280973
 31
0.0
  0
LINE
  5
160
330
1F
100
AcDbEntity
  8
0
100
AcDbLine
 10
726.4538470619348
 20
284.7974032280974
 30
0.0
 11
723.4728070619349
 21
276.6070432280975
 31
0.0
  0
LINE
  5
161
330
1F
100
AcDbEntity
  8
0
100
AcDbLine
 10
720.369747061935
 20
242.7366832280973
 30
0.0
 11
717.369687061935
 21
241.0046232280974
 31
0.0
  0
LINE
  5
162
330
1F
100
AcDbEntity
  8
0
100
AcDbLine
 10
775.8697270619348
 20
290.0612032280974
 30
0.0
 11
733.9713870619349
 21
290.0612032280974
 31
0.0
  0
LINE
  5
163
330
1F
100
AcDbEntity
  8
0
100
AcDbLine
 10
722.8697270619349
 20
273.1868032280973
 30
0.0
 11
722.8697270619349
 21
247.0581432280975
 31
0.0
  0
LINE
  5
164
330
1F
100
AcDbEntity
  8
0
100
AcDbLine
 10
714.8696670619348
 20
236.6744832280974
 30
0.0
 11
714.8696670619348
 21
220.0613232280974
 31
0.0
  0
LINE
  5
165
330
1F
100
AcDbEntity
  8
0
100
AcDbLine
 10
750.8697270619348
 20
290.0612032280974
 30
0.0
 11
750.8697270619348
 21
294.0612032280973
 31
0.0
  0
LINE
  5
166
330
1F
100
AcDbEntity
  8
0
100
AcDbLine
 10
836.8697870619349
 20
224.5612632280974
 30
0.0
 11
714.8696670619348
 21
224.5612632280974
 31
0.0
  0
LINE
  5
167
330
1F
100
AcDbEntity
  8
0
100
AcDbLine
 10
831.3696870619349
 20
242.7366832280973
 30
0.0
 11
834.3804470619348
 21
240.9984632280974
 31
0.0
  0
LINE
  5
168
330
1F
100
AcDbEntity
  8
0
100
AcDbLine
 10
825.285627061935
 20
284.7974032280974
 30
0.0
 11
828.2666670619349
 21
276.6070432280975
 31
0.0
  0
LINE
  5
169
330
1F
100
AcDbEntity
  8
0
100
AcDbLine
 10
836.8697870619349
 20
220.0613232280975
 30
0.0
 11
775.8697270619348
 21
220.0613232280974
 31
0.0
  0
LINE
  5
16A
330
1F
100
AcDbEntity
  8
0
100
AcDbLine
 10
748.8698270619348
 20
215.0613232280974
 30
0.0
 11
748.8698270619348
 21
209.311323228097
 31
0.0
  0
LINE
  5
16B
330
1F
100
AcDbEntity
  8
0
100
AcDbLine
 10
714.8696670619348
 20
220.0613232280974
 30
0.0
 11
775.8697270619348
 21
220.0613232280974
 31
0.0
  0
LINE
  5
16C
330
1F
100
AcDbEntity
  8
0
100
AcDbLine
 10
732.805287061935
 20
217.0613232280974
 30
0.0
 11
770.8697270619349
 21
217.0613232280974
 31
0.0
  0
LINE
  5
16D
330
1F
100
AcDbEntity
  8
0
100
AcDbLine
 10
780.1768870619349
 20
212.5613232280974
 30
0.0
 11
780.869687061935
 21
212.9612832280973
 31
0.0
  0
LINE
  5
16E
330
1F
100
AcDbEntity
  8
0
100
AcDbLine
 10
771.5625470619349
 20
212.5613232280974
 30
0.0
 11
770.8697270619349
 21
212.9612832280973
 31
0.0
  0
LINE
  5
16F
330
1F
100
AcDbEntity
  8
0
100
AcDbLine
 10
770.8697270619349
 20
212.9612832280973
 30
0.0
 11
770.8697270619349
 21
218.5613232280974
 31
0.0
  0
LINE
  5
170
330
1F
100
AcDbEntity
  8
0
100
AcDbLine
 10
770.8697270619349
 20
212.9612832280973
 30
0.0
 11
780.8697270619348
 21
212.9612832280973
 31
0.0
  0
LINE
  5
171
330
1F
100
AcDbEntity
  8
0
100
AcDbLine
 10
771.5625470619349
 20
212.5613232280974
 30
0.0
 11
780.1768870619349
 21
212.5613232280974
 31
0.0
  0
LINE
  5
172
330
1F
100
AcDbEntity
  8
0
100
AcDbLine
 10
770.8697270619349
 20
217.7612832280973
 30
0.0
 11
780.8697270619348
 21
217.7612832280973
 31
0.0
  0
LINE
  5
173
330
1F
100
AcDbEntity
  8
0
100
AcDbLine
 10
780.8697270619348
 20
212.9612832280973
 30
0.0
 11
780.8697270619348
 21
218.5613232280974
 31
0.0
  0
LINE
  5
174
330
1F
100
AcDbEntity
  8
0
100
AcDbLine
 10
770.8697270619349
 20
218.5613232280974
 30
0.0
 11
770.8697270619349
 21
220.0613232280974
 31
0.0
  0
LINE
  5
175
330
1F
100
AcDbEntity
  8
0
100
AcDbLine
 10
770.8697270619349
 20
218.5613232280974
 30
0.0
 11
780.8697270619348
 21
218.5613232280974
 31
0.0
  0
LINE
  5
176
330
1F
100
AcDbEntity
  8
0
100
AcDbLine
 10
780.8697270619348
 20
218.5613232280974
 30
0.0
 11
780.8697270619348
 21
220.0613232280974
 31
0.0
  0
LINE
  5
177
330
1F
100
AcDbEntity
  8
0
100
AcDbLine
 10
722.805287061935
 20
218.5613232280974
 30
0.0
 11
722.805287061935
 21
220.0613232280974
 31
0.0
  0
LINE
  5
178
330
1F
100
AcDbEntity
  8
0
100
AcDbLine
 10
722.805287061935
 20
218.5613232280974
 30
0.0
 11
732.805287061935
 21
218.5613232280974
 31
0.0
  0
LINE
  5
179
330
1F
100
AcDbEntity
  8
0
100
AcDbLine
 10
722.805287061935
 20
212.9612832280973
 30
0.0
 11
722.805287061935
 21
218.5613232280974
 31
0.0
  0
LINE
  5
17A
330
1F
100
AcDbEntity
  8
0
100
AcDbLine
 10
723.4981070619349
 20
212.5613232280974
 30
0.0
 11
722.805287061935
 21
212.9613432280974
 31
0.0
  0
LINE
  5
17B
330
1F
100
AcDbEntity
  8
0
100
AcDbLine
 10
732.805287061935
 20
212.9612832280973
 30
0.0
 11
732.805287061935
 21
218.5613232280974
 31
0.0
  0
LINE
  5
17C
330
1F
100
AcDbEntity
  8
0
100
AcDbLine
 10
722.805287061935
 20
217.7612832280973
 30
0.0
 11
732.805287061935
 21
217.7612832280973
 31
0.0
  0
LINE
  5
17D
330
1F
100
AcDbEntity
  8
0
100
AcDbLine
 10
723.4981070619349
 20
212.5613232280974
 30
0.0
 11
732.1124470619349
 21
212.5613232280974
 31
0.0
  0
LINE
  5
17E
330
1F
100
AcDbEntity
  8
0
100
AcDbLine
 10
722.805287061935
 20
212.9612832280973
 30
0.0
 11
732.805287061935
 21
212.9612832280973
 31
0.0
  0
LINE
  5
17F
330
1F
100
AcDbEntity
  8
0
100
AcDbLine
 10
732.1124470619349
 20
212.5613232280974
 30
0.0
 11
732.8053270619349
 21
212.9613432280974
 31
0.0
  0
LINE
  5
180
330
1F
100
AcDbEntity
  8
0
100
AcDbLine
 10
732.805287061935
 20
218.5613232280974
 30
0.0
 11
732.805287061935
 21
220.0613232280974
 31
0.0
  0
LINE
  5
181
330
1F
100
AcDbEntity
  8
0
100
AcDbLine
 10
751.8697270619348
 20
295.0612032280973
 30
0.0
 11
799.8697270619349
 21
295.0612032280973
 31
0.0
  0
LINE
  5
182
330
1F
100
AcDbEntity
  8
0
100
AcDbLine
 10
831.9336670619348
 20
275.3113232280974
 30
0.0
 11
828.6631270619349
 21
275.2090832280973
 31
0.0
  0
LINE
  5
183
330
1F
100
AcDbEntity
  8
0
100
AcDbLine
 10
833.933687061935
 20
265.8112632280974
 30
0.0
 11
831.933687061935
 21
265.8112632280974
 31
0.0
  0
LINE
  5
184
330
1F
100
AcDbEntity
  8
0
100
AcDbLine
 10
833.933687061935
 20
275.3112632280974
 30
0.0
 11
831.933687061935
 21
275.3112632280974
 31
0.0
  0
LINE
  5
185
330
1F
100
AcDbEntity
  8
0
100
AcDbLine
 10
833.933687061935
 20
275.5612632280974
 30
0.0
 11
833.933687061935
 21
265.5612632280974
 31
0.0
  0
LINE
  5
186
330
1F
100
AcDbEntity
  8
0
100
AcDbLine
 10
846.4336670619349
 20
275.5612632280974
 30
0.0
 11
833.933687061935
 21
275.5612632280974
 31
0.0
  0
LINE
  5
187
330
1F
100
AcDbEntity
  8
0
100
AcDbLine
 10
846.4336670619349
 20
265.5612632280974
 30
0.0
 11
833.933687061935
 21
265.5612632280974
 31
0.0
  0
LINE
  5
188
330
1F
100
AcDbEntity
  8
0
100
AcDbLine
 10
846.4336670619349
 20
275.5612632280974
 30
0.0
 11
846.4336670619349
 21
265.5612632280974
 31
0.0
  0
LINE
  5
189
330
1F
100
AcDbEntity
  8
0
100
AcDbLine
 10
831.935067061935
 20
265.8112632280974
 30
0.0
 11
828.8697270619348
 21
265.9070832280973
 31
0.0
  0
LINE
  5
18A
330
1F
100
AcDbEntity
  8
0
100
AcDbLine
 10
830.8697270619349
 20
275.2781232280974
 30
0.0
 11
830.8697270619349
 21
265.8445232280973
 31
0.0
  0
LINE
  5
18B
330
1F
100
AcDbEntity
  8
0
100
AcDbLine
 10
769.8697270619349
 20
320.0612032280973
 30
0.0
 11
781.8697270619349
 21
320.0612032280973
 31
0.0
  0
LINE
  5
18C
330
1F
100
AcDbEntity
  8
0
100
AcDbLine
 10
767.8697270619348
 20
296.0612032280973
 30
0.0
 11
783.8697270619348
 21
296.0612032280973
 31
0.0
  0
LINE
  5
18D
330
1F
100
AcDbEntity
  8
0
100
AcDbLine
 10
783.8697270619348
 20
296.0612032280973
 30
0.0
 11
783.8697270619348
 21
295.0612032280973
 31
0.0
  0
LINE
  5
18E
330
1F
100
AcDbEntity
  8
0
100
AcDbLine
 10
767.8697270619348
 20
296.0612032280973
 30
0.0
 11
767.8697270619348
 21
295.0612032280973
 31
0.0
  0
LINE
  5
18F
330
1F
100
AcDbEntity
  8
0
100
AcDbLine
 10
767.8697270619348
 20
296.0612032280973
 30
0.0
 11
768.3697270619348
 21
297.9272832280973
 31
0.0
  0
LINE
  5
190
330
1F
100
AcDbEntity
  8
0
100
AcDbLine
 10
783.3697270619349
 20
297.9272232280974
 30
0.0
 11
783.8697270619348
 21
296.0612632280974
 31
0.0
  0
LINE
  5
191
330
1F
100
AcDbEntity
  8
0
100
AcDbLine
 10
768.3697270619348
 20
318.5612032280973
 30
0.0
 11
768.3697270619348
 21
297.9272232280974
 31
0.0
  0
LINE
  5
192
330
1F
100
AcDbEntity
  8
0
100
AcDbLine
 10
783.3697270619349
 20
318.5612032280973
 30
0.0
 11
783.3697270619349
 21
297.9272232280974
 31
0.0
  0
LINE
  5
193
330
1F
100
AcDbEntity
  8
0
100
AcDbLine
 10
769.8697270619349
 20
320.0612032280973
 30
0.0
 11
768.3697270619348
 21
318.5612032280973
 31
0.0
  0
LINE
  5
194
330
1F
100
AcDbEntity
  8
0
100
AcDbLine
 10
781.869767061935
 20
320.0612032280973
 30
0.0
 11
783.3697270619349
 21
318.5612632280974
 31
0.0
  0
LINE
  5
195
330
1F
100
AcDbEntity
  8
0
100
AcDbLine
 10
768.3697270619348
 20
297.9272232280974
 30
0.0
 11
783.3697270619349
 21
297.9272232280974
 31
0.0
  0
LINE
  5
196
330
1F
100
AcDbEntity
  8
0
100
AcDbLine
 10
768.3697270619348
 20
318.5612032280973
 30
0.0
 11
783.3697270619349
 21
318.5612032280973
 31
0.0
  0
LINE
  5
197
330
1F
100
AcDbEntity
  8
0
100
AcDbLine
 10
818.934147061935
 20
217.0613232280974
 30
0.0
 11
780.8697270619348
 21
217.0613232280974
 31
0.0
  0
LINE
  5
198
330
1F
100
AcDbEntity
  8
0
100
AcDbLine
 10
802.8696270619349
 20
215.0613232280974
 30
0.0
 11
802.8696270619349
 21
209.3113232280974
 31
0.0
  0
LINE
  5
199
330
1F
100
AcDbEntity
  8
0
100
AcDbLine
 10
828.934147061935
 20
218.5613232280974
 30
0.0
 11
828.934147061935
 21
220.0613232280974
 31
0.0
  0
LINE
  5
19A
330
1F
100
AcDbEntity
  8
0
100
AcDbLine
 10
828.934147061935
 20
218.5613232280974
 30
0.0
 11
818.934147061935
 21
218.5613232280974
 31
0.0
  0
LINE
  5
19B
330
1F
100
AcDbEntity
  8
0
100
AcDbLine
 10
828.934147061935
 20
212.9612832280973
 30
0.0
 11
828.934147061935
 21
218.5613232280974
 31
0.0
  0
LINE
  5
19C
330
1F
100
AcDbEntity
  8
0
100
AcDbLine
 10
828.2413470619349
 20
212.5613232280974
 30
0.0
 11
828.934147061935
 21
212.9612832280973
 31
0.0
  0
LINE
  5
19D
330
1F
100
AcDbEntity
  8
0
100
AcDbLine
 10
818.934147061935
 20
212.9612832280973
 30
0.0
 11
818.934147061935
 21
218.5613232280974
 31
0.0
  0
LINE
  5
19E
330
1F
100
AcDbEntity
  8
0
100
AcDbLine
 10
828.934147061935
 20
217.7612832280973
 30
0.0
 11
818.934147061935
 21
217.7612832280973
 31
0.0
  0
LINE
  5
19F
330
1F
100
AcDbEntity
  8
0
100
AcDbLine
 10
828.2413470619349
 20
212.5613232280974
 30
0.0
 11
819.6269870619349
 21
212.5613232280974
 31
0.0
  0
LINE
  5
1A0
330
1F
100
AcDbEntity
  8
0
100
AcDbLine
 10
828.934147061935
 20
212.9612832280973
 30
0.0
 11
818.934147061935
 21
212.9612832280973
 31
0.0
  0
LINE
  5
1A1
330
1F
100
AcDbEntity
  8
0
100
AcDbLine
 10
819.6270470619348
 20
212.5613232280974
 30
0.0
 11
818.9341870619349
 21
212.9613432280974
 31
0.0
  0
LINE
  5
1A2
330
1F
100
AcDbEntity
  8
0
100
AcDbLine
 10
818.934147061935
 20
218.5613232280974
 30
0.0
 11
818.934147061935
 21
220.0613232280974
 31
0.0
  0
ARC
  5
1A3
330
1F
100
AcDbEntity
  8
0
100
AcDbCircle
 10
818.8697270619348
 20
273.1868032280973
 30
0.0
 40
10.0
100
AcDbArc
 50
0.0
 51
20.0001700000038
  0
ARC
  5
1A4
330
1F
100
AcDbEntity
  8
0
100
AcDbCircle
 10
733.9713870619349
 20
282.0612032280974
 30
0.0
 40
8.0
100
AcDbArc
 50
90.0
 51
160.0001199999939
  0
ARC
  5
1A5
330
1F
100
AcDbEntity
  8
0
100
AcDbCircle
 10
817.7680670619349
 20
282.0612032280974
 30
0.0
 40
8.0
100
AcDbArc
 50
19.99988000000609
 51
90.0
  0
ARC
  5
1A6
330
1F
100
AcDbEntity
  8
0
100
AcDbCircle
 10
732.8697270619349
 20
273.1868032280973
 30
0.0
 40
10.0
100
AcDbArc
 50
159.9998599999929
 51
180.0
  0
ARC
  5
1A7
330
1F
100
AcDbEntity
  8
0
100
AcDbCircle
 10
719.8696670619348
 20
236.6745432280974
 30
0.0
 40
5.0
100
AcDbArc
 50
119.9999300000056
 51
180.0
  0
ARC
  5
1A8
330
1F
100
AcDbEntity
  8
0
100
AcDbCircle
 10
717.8697270619348
 20
247.0668232280974
 30
0.0
 40
5.0
100
AcDbArc
 50
299.9999300000056
 51
0.0
  0
ARC
  5
1A9
330
1F
100
AcDbEntity
  8
0
100
AcDbCircle
 10
751.8697270619348
 20
294.0612032280973
 30
0.0
 40
1.0
100
AcDbArc
 50
90.0
 51
180.0
  0
ARC
  5
1AA
330
1F
100
AcDbEntity
  8
0
100
AcDbCircle
 10
831.8697870619349
 20
236.6745432280974
 30
0.0
 40
5.0
100
AcDbArc
 50
0.0
 51
60.00006999999438
  0
ARC
  5
1AB
330
1F
100
AcDbEntity
  8
0
100
AcDbCircle
 10
799.8697270619349
 20
294.0612032280973
 30
0.0
 40
1.0
100
AcDbArc
 50
0.0
 51
90.0
  0
ARC
  5
1AC
330
1F
100
AcDbEntity
  8
0
100
AcDbCircle
 10
833.8697270619348
 20
247.0668232280974
 30
0.0
 40
5.0
100
AcDbArc
 50
180.0
 51
240.0000699999943
  0
ARC
  5
1AD
330
1F
100
AcDbEntity
  8
0
100
AcDbCircle
 10
746.8698270619348
 20
215.0613232280974
 30
0.0
 40
2.0
100
AcDbArc
 50
0.0
 51
90.0
  0
ARC
  5
1AE
330
1F
100
AcDbEntity
  8
0
100
AcDbCircle
 10
804.8696270619348
 20
215.0613232280974
 30
0.0
 40
2.0
100
AcDbArc
 50
90.0
 51
180.0
  0
CIRCLE
  5
1AF
330
1F
100
AcDbEntity
  8
0
100
AcDbCircle
 10
775.8697423207245
 20
621.2483258454494
 30
0.0
 40
53.00001525878963
  0
ARC
  5
1B0
330
1F
100
AcDbEntity
  8
0
100
AcDbCircle
 10
775.8697423207245
 20
621.2483258454494
 30
0.0
 40
61.00007525878971
100
AcDbArc
 50
4.701644383036002
 51
355.298355616964
  0
LINE
  5
1B1
330
1F
100
AcDbEntity
  8
0
100
AcDbLine
 10
839.3437044937776
 20
628.1483197419336
 30
0.0
 11
836.4783165145338
 21
628.1483197419336
 31
0.0
  0
LINE
  5
1B2
330
1F
100
AcDbEntity
  8
0
100
AcDbLine
 10
839.3437207026442
 20
614.3483319489648
 30
0.0
 11
836.4783165145338
 21
614.3483319489648
 31
0.0
  0
LINE
  5
208
330
1F
100
AcDbEntity
  8
0
  6
CENTER
100
AcDbLine
 10
775.8697423207245
 20
549.3877437833361
 30
0.0
 11
775.8697423207245
 21
693.1089079075626
 31
0.0
  0
LINE
  5
209
330
1F
100
AcDbEntity
  8
0
  6
CENTER
100
AcDbLine
 10
704.8897400864516
 20
621.2483258454494
 30
0.0
 11
865.2160134551911
 21
621.2483258454494
 31
0.0
  0
LINE
  5
20A
330
1F
100
AcDbEntity
  8
0
  6
CENTER
100
AcDbLine
 10
732.5171221174473
 20
139.8113232280975
 30
0.0
 11
865.2160134551911
 21
139.8113232280975
 31
0.0
  0
LINE
  5
20B
330
1F
100
AcDbEntity
  8
0
  6
CENTER
100
AcDbLine
 10
775.8697423207244
 20
78.45074116598357
 30
0.0
 11
775.8697423207244
 21
334.9985806876647
 31
0.0
  0
VIEWPORT
  5
71
330
55
100
AcDbEntity
 67
     1
  8
0
100
AcDbViewport
 10
133.3499908447265
 20
101.5999970436096
 30
0.0
 40
381.3957395593834
 41
218.2856291881582
 68
     1
 69
     1
 12
133.3499908447265
 22
101.5999970436096
 13
0.0
 23
0.0
 14
10.0
 24
10.0
 15
10.0
 25
10.0
 16
0.0
 26
0.0
 36
1.0
 17
0.0
 27
0.0
 37
0.0
 42
50.0
 43
0.0
 44
0.0
 45
218.2856291881582
 50
0.0
 51
0.0
 72
   100
 90
    32800
  1

281
     0
 71
     1
 74
     0
110
0.0
120
0.0
130
0.0
111
1.0
121
0.0
131
0.0
112
0.0
122
1.0
132
0.0
 79
     0
146
0.0
  0
VIEWPORT
  5
73
330
55
100
AcDbEntity
 67
     1
  8
0
100
AcDbViewport
 10
133.349993944168
 20
101.599993944168
 30
0.0
 40
213.3599903106689
 41
162.5599903106689
 68
     2
 69
     2
 12
210.0
 22
148.5
 13
0.0
 23
0.0
 14
10.0
 24
10.0
 15
10.0
 25
10.0
 16
0.0
 26
0.0
 36
1.0
 17
0.0
 27
0.0
 37
0.0
 42
50.0
 43
0.0
 44
0.0
 45
324.0677920111345
 50
0.0
 51
0.0
 72
   100
 90
    32864
  1

281
     0
 71
     1
 74
     0
110
0.0
120
0.0
130
0.0
111
1.0
121
0.0
131
0.0
112
0.0
122
1.0
132
0.0
 79
     0
146
0.0
  0
ENDSEC
  0
SECTION
  2
OBJECTS
  0
DICTIONARY
  5
C
330
0
100
AcDbDictionary
281
     1
  3
ACAD_GROUP
350
D
  3
ACAD_LAYOUT
350
1A
  3
ACAD_MLINESTYLE
350
17
  3
ACAD_PLOTSETTINGS
350
19
  3
ACAD_PLOTSTYLENAME
350
E
  3
AcDbVariableDictionary
350
5E
  0
DICTIONARY
  5
200
330
2
100
AcDbDictionary
280
     1
281
     1
  3
ACAD_LAYERSTATES
360
201
  0
DICTIONARY
  5
1B8
330
1F
100
AcDbDictionary
280
     1
281
     1
  3
ACAD_LAYOUTSELFREF
360
1EF
  0
DICTIONARY
  5
1BA
330
55
100
AcDbDictionary
280
     1
281
     1
  3
ACAD_LAYOUTSELFREF
360
1F3
  0
DICTIONARY
  5
1BC
330
50
100
AcDbDictionary
280
     1
281
     1
  3
ACAD_LAYOUTSELFREF
360
1F2
  0
DICTIONARY
  5
D
102
{ACAD_REACTORS
330
C
102
}
330
C
100
AcDbDictionary
281
     1
  0
DICTIONARY
  5
1A
102
{ACAD_REACTORS
330
C
102
}
330
C
100
AcDbDictionary
281
     1
  3
Model
350
22
  3
ﾚｲｱｳﾄ1
350
51
  3
ﾚｲｱｳﾄ2
350
56
  0
DICTIONARY
  5
17
102
{ACAD_REACTORS
330
C
102
}
330
C
100
AcDbDictionary
281
     1
  3
Standard
350
18
  0
DICTIONARY
  5
19
102
{ACAD_REACTORS
330
C
102
}
330
C
100
AcDbDictionary
281
     1
  0
ACDBDICTIONARYWDFLT
  5
E
102
{ACAD_REACTORS
330
C
102
}
330
C
100
AcDbDictionary
281
     1
  3
Normal
350
F
100
AcDbDictionaryWithDefault
340
F
  0
DICTIONARY
  5
5E
102
{ACAD_REACTORS
330
C
102
}
330
C
100
AcDbDictionary
281
     1
  3
DIMASSOC
350
5F
  3
HIDETEXT
350
63
  0
DICTIONARY
  5
201
102
{ACAD_REACTORS
330
200
102
}
330
200
100
AcDbDictionary
281
     1
  0
XRECORD
  5
1EF
102
{ACAD_REACTORS
330
1B8
102
}
330
1B8
100
AcDbXrecord
280
     1
340
1F
  0
XRECORD
  5
1F3
102
{ACAD_REACTORS
330
1BA
102
}
330
1BA
100
AcDbXrecord
280
     1
340
55
  0
XRECORD
  5
1F2
102
{ACAD_REACTORS
330
1BC
102
}
330
1BC
100
AcDbXrecord
280
     1
340
50
  0
LAYOUT
  5
22
102
{ACAD_REACTORS
330
1A
102
}
330
1A
100
AcDbPlotSettings
  1

  2
none_device
  4
ANSI_A_(8.50_x_11.00_Inches)
  6

 40
6.349999904632568
 41
19.04999923706054
 42
6.350006103515625
 43
19.04998779296875
 44
215.8999938964843
 45
279.3999938964843
 46
0.0
 47
0.0
 48
0.0
 49
0.0
140
0.0
141
0.0
142
1.0
143
78.436453180766
 70
 11952
 72
     0
 73
     1
 74
     0
  7

 75
     0
147
0.0127491741332998
148
0.0
149
0.0
100
AcDbLayout
  1
Model
 70
     1
 71
     0
 10
0.0
 20
0.0
 11
12.0
 21
9.0
 12
0.0
 22
0.0
 32
0.0
 14
0.0
 24
0.0
 34
0.0
 15
0.0
 25
0.0
 35
0.0
146
0.0
 13
0.0
 23
0.0
 33
0.0
 16
1.0
 26
0.0
 36
0.0
 17
0.0
 27
1.0
 37
0.0
 76
     0
330
1F
  0
LAYOUT
  5
51
102
{ACAD_REACTORS
330
1A
102
}
330
1A
100
AcDbPlotSettings
  1

  2
none_device
  4
Letter_(8.50_x_11.00_Inches)
  6

 40
6.349999904632568
 41
6.349999904632568
 42
6.350006103515625
 43
6.350006103515625
 44
215.8999938964843
 45
279.3999938964843
 46
0.0
 47
0.0
 48
0.0
 49
0.0
140
0.0
141
0.0
142
1.0
143
1.0
 70
   688
 72
     1
 73
     1
 74
     5
  7

 75
    16
147
1.0
148
0.0
149
0.0
100
AcDbLayout
  1
ﾚｲｱｳﾄ1
 70
     1
 71
     1
 10
-6.350006103515625
 20
-6.349999904632568
 11
273.0499877929687
 21
209.5499939918517
 12
0.0
 22
0.0
 32
0.0
 14
26.66076962115562
 24
20.31135699206657
 34
-0.0015258207003583
 15
240.039213369355
 25
182.8886381005154
 35
0.0000000349246037
146
0.0
 13
0.0
 23
0.0
 33
0.0
 16
1.0
 26
0.0
 36
0.0
 17
0.0
 27
1.0
 37
0.0
 76
     0
330
50
331
6B
  0
LAYOUT
  5
56
102
{ACAD_REACTORS
330
1A
102
}
330
1A
100
AcDbPlotSettings
  1

  2
none_device
  4
Letter_(8.50_x_11.00_Inches)
  6

 40
6.349999904632568
 41
6.349999904632568
 42
6.350006103515625
 43
6.350006103515625
 44
215.8999938964843
 45
279.3999938964843
 46
0.0
 47
0.0
 48
0.0
 49
0.0
140
0.0
141
0.0
142
1.0
143
1.0
 70
   688
 72
     1
 73
     1
 74
     5
  7

 75
    16
147
1.0
148
0.0
149
0.0
100
AcDbLayout
  1
ﾚｲｱｳﾄ2
 70
     1
 71
     2
 10
-6.350006103515625
 20
-6.349999904632568
 11
273.0499877929687
 21
209.5499939918517
 12
0.0
 22
0.0
 32
0.0
 14
26.66076962115562
 24
20.31135699206657
 34
-0.0015258207003583
 15
240.039213369355
 25
182.8886381005154
 35
0.0000000349246037
146
0.0
 13
0.0
 23
0.0
 33
0.0
 16
1.0
 26
0.0
 36
0.0
 17
0.0
 27
1.0
 37
0.0
 76
     0
330
55
331
71
  0
MLINESTYLE
  5
18
102
{ACAD_REACTORS
330
17
102
}
330
17
100
AcDbMlineStyle
  2
STANDARD
 70
     0
  3

 62
   256
 51
90.0
 52
90.0
 71
     2
 49
0.5
 62
   256
  6
BYLAYER
 49
-0.5
 62
   256
  6
BYLAYER
  0
ACDBPLACEHOLDER
  5
F
102
{ACAD_REACTORS
330
E
102
}
330
E
  0
DICTIONARYVAR
  5
5F
102
{ACAD_REACTORS
330
5E
102
}
330
5E
100
DictionaryVariables
280
     0
  1
2
  0
DICTIONARYVAR
  5
63
102
{ACAD_REACTORS
330
5E
102
}
330
5E
100
DictionaryVariables
280
     0
  1
1
  0
ENDSEC
  0
EOF
