  0
SECTION
  2
HEADER
  9
$ACADVER
  1
AC1015
  9
$ACADMAINTVER
 70
    14
  9
$DWGCODEPAGE
  3
ANSI_932
  9
$INSBASE
 10
0.0
 20
0.0
 30
0.0
  9
$EXTMIN
 10
464.6164059230573
 20
86.10523054128838
 30
-0.0000000000000058
  9
$EXTMAX
 10
1331.265240401249
 20
855.9327279204149
 30
0.0000000000000104
  9
$LIMMIN
 10
0.0
 20
0.0
  9
$LIMMAX
 10
420.0
 20
297.0
  9
$ORTHOMODE
 70
     0
  9
$REGENMODE
 70
     1
  9
$FILLMODE
 70
     1
  9
$QTEXTMODE
 70
     0
  9
$MIRRTEXT
 70
     1
  9
$LTSCALE
 40
1.0
  9
$ATTMODE
 70
     1
  9
$TEXTSIZE
 40
2.5
  9
$TRACEWID
 40
1.0
  9
$TEXTSTYLE
  7
Standard
  9
$CLAYER
  8
0
  9
$CELTYPE
  6
ByLayer
  9
$CECOLOR
 62
   256
  9
$CELTSCALE
 40
1.0
  9
$DISPSILH
 70
     0
  9
$DIMSCALE
 40
1.0
  9
$DIMASZ
 40
2.5
  9
$DIMEXO
 40
0.625
  9
$DIMDLI
 40
3.75
  9
$DIMRND
 40
0.0
  9
$DIMDLE
 40
0.0
  9
$DIMEXE
 40
1.25
  9
$DIMTP
 40
0.0
  9
$DIMTM
 40
0.0
  9
$DIMTXT
 40
2.5
  9
$DIMCEN
 40
2.5
  9
$DIMTSZ
 40
0.0
  9
$DIMTOL
 70
     0
  9
$DIMLIM
 70
     0
  9
$DIMTIH
 70
     0
  9
$DIMTOH
 70
     0
  9
$DIMSE1
 70
     0
  9
$DIMSE2
 70
     0
  9
$DIMTAD
 70
     1
  9
$DIMZIN
 70
     8
  9
$DIMBLK
  1

  9
$DIMASO
 70
     1
  9
$DIMSHO
 70
     1
  9
$DIMPOST
  1

  9
$DIMAPOST
  1

  9
$DIMALT
 70
     0
  9
$DIMALTD
 70
     3
  9
$DIMALTF
 40
0.03937007874016
  9
$DIMLFAC
 40
1.0
  9
$DIMTOFL
 70
     1
  9
$DIMTVP
 40
0.0
  9
$DIMTIX
 70
     0
  9
$DIMSOXD
 70
     0
  9
$DIMSAH
 70
     0
  9
$DIMBLK1
  1

  9
$DIMBLK2
  1

  9
$DIMSTYLE
  2
ISO-25
  9
$DIMCLRD
 70
     0
  9
$DIMCLRE
 70
     0
  9
$DIMCLRT
 70
     0
  9
$DIMTFAC
 40
1.0
  9
$DIMGAP
 40
0.625
  9
$DIMJUST
 70
     0
  9
$DIMSD1
 70
     0
  9
$DIMSD2
 70
     0
  9
$DIMTOLJ
 70
     0
  9
$DIMTZIN
 70
     8
  9
$DIMALTZ
 70
     0
  9
$DIMALTTZ
 70
     0
  9
$DIMUPT
 70
     0
  9
$DIMDEC
 70
     2
  9
$DIMTDEC
 70
     2
  9
$DIMALTU
 70
     2
  9
$DIMALTTD
 70
     3
  9
$DIMTXSTY
  7
Standard
  9
$DIMAUNIT
 70
     0
  9
$DIMADEC
 70
     0
  9
$DIMALTRND
 40
0.0
  9
$DIMAZIN
 70
     0
  9
$DIMDSEP
 70
    44
  9
$DIMATFIT
 70
     3
  9
$DIMFRAC
 70
     0
  9
$DIMLDRBLK
  1

  9
$DIMLUNIT
 70
     2
  9
$DIMLWD
 70
    -2
  9
$DIMLWE
 70
    -2
  9
$DIMTMOVE
 70
     0
  9
$LUNITS
 70
     2
  9
$LUPREC
 70
     4
  9
$SKETCHINC
 40
1.0
  9
$FILLETRAD
 40
10.0
  9
$AUNITS
 70
     0
  9
$AUPREC
 70
     0
  9
$MENU
  1
.
  9
$ELEVATION
 40
0.0
  9
$PELEVATION
 40
0.0
  9
$THICKNESS
 40
0.0
  9
$LIMCHECK
 70
     0
  9
$CHAMFERA
 40
10.0
  9
$CHAMFERB
 40
10.0
  9
$CHAMFERC
 40
20.0
  9
$CHAMFERD
 40
0.0
  9
$SKPOLY
 70
     0
  9
$TDCREATE
 40
2454278.642665104
  9
$TDUCREATE
 40
2454278.267665104
  9
$TDUPDATE
 40
2456899.669780358
  9
$TDUUPDATE
 40
2456899.294780358
  9
$TDINDWG
 40
0.0018337037
  9
$TDUSRTIMER
 40
0.0018337037
  9
$USRTIMER
 70
     1
  9
$ANGBASE
 50
0.0
  9
$ANGDIR
 70
     0
  9
$PDMODE
 70
     0
  9
$PDSIZE
 40
0.0
  9
$PLINEWID
 40
0.0
  9
$SPLFRAME
 70
     0
  9
$SPLINETYPE
 70
     6
  9
$SPLINESEGS
 70
     8
  9
$HANDSEED
  5
27F
  9
$SURFTAB1
 70
     6
  9
$SURFTAB2
 70
     6
  9
$SURFTYPE
 70
     6
  9
$SURFU
 70
     6
  9
$SURFV
 70
     6
  9
$UCSBASE
  2

  9
$UCSNAME
  2

  9
$UCSORG
 10
0.0
 20
0.0
 30
0.0
  9
$UCSXDIR
 10
1.0
 20
0.0
 30
0.0
  9
$UCSYDIR
 10
0.0
 20
1.0
 30
0.0
  9
$UCSORTHOREF
  2

  9
$UCSORTHOVIEW
 70
     0
  9
$UCSORGTOP
 10
0.0
 20
0.0
 30
0.0
  9
$UCSORGBOTTOM
 10
0.0
 20
0.0
 30
0.0
  9
$UCSORGLEFT
 10
0.0
 20
0.0
 30
0.0
  9
$UCSORGRIGHT
 10
0.0
 20
0.0
 30
0.0
  9
$UCSORGFRONT
 10
0.0
 20
0.0
 30
0.0
  9
$UCSORGBACK
 10
0.0
 20
0.0
 30
0.0
  9
$PUCSBASE
  2

  9
$PUCSNAME
  2

  9
$PUCSORG
 10
0.0
 20
0.0
 30
0.0
  9
$PUCSXDIR
 10
1.0
 20
0.0
 30
0.0
  9
$PUCSYDIR
 10
0.0
 20
1.0
 30
0.0
  9
$PUCSORTHOREF
  2

  9
$PUCSORTHOVIEW
 70
     0
  9
$PUCSORGTOP
 10
0.0
 20
0.0
 30
0.0
  9
$PUCSORGBOTTOM
 10
0.0
 20
0.0
 30
0.0
  9
$PUCSORGLEFT
 10
0.0
 20
0.0
 30
0.0
  9
$PUCSORGRIGHT
 10
0.0
 20
0.0
 30
0.0
  9
$PUCSORGFRONT
 10
0.0
 20
0.0
 30
0.0
  9
$PUCSORGBACK
 10
0.0
 20
0.0
 30
0.0
  9
$USERI1
 70
     0
  9
$USERI2
 70
     0
  9
$USERI3
 70
     0
  9
$USERI4
 70
     0
  9
$USERI5
 70
     0
  9
$USERR1
 40
0.0
  9
$USERR2
 40
0.0
  9
$USERR3
 40
0.0
  9
$USERR4
 40
0.0
  9
$USERR5
 40
0.0
  9
$WORLDVIEW
 70
     1
  9
$SHADEDGE
 70
     3
  9
$SHADEDIF
 70
    70
  9
$TILEMODE
 70
     1
  9
$MAXACTVP
 70
    48
  9
$PINSBASE
 10
0.0
 20
0.0
 30
0.0
  9
$PLIMCHECK
 70
     0
  9
$PEXTMIN
 10
26.66076962115562
 20
20.31135699206657
 30
-0.0015258207003583
  9
$PEXTMAX
 10
240.039213369355
 20
182.8886381005154
 30
0.0000000349246037
  9
$PLIMMIN
 10
-6.350006103515625
 20
-6.349999904632568
  9
$PLIMMAX
 10
273.0499877929687
 20
209.5499939918517
  9
$UNITMODE
 70
     0
  9
$VISRETAIN
 70
     1
  9
$PLINEGEN
 70
     0
  9
$PSLTSCALE
 70
     1
  9
$TREEDEPTH
 70
  3020
  9
$CMLSTYLE
  2
Standard
  9
$CMLJUST
 70
     0
  9
$CMLSCALE
 40
20.0
  9
$PROXYGRAPHICS
 70
     1
  9
$MEASUREMENT
 70
     1
  9
$CELWEIGHT
370
    -1
  9
$ENDCAPS
280
     0
  9
$JOINSTYLE
280
     0
  9
$LWDISPLAY
290
     0
  9
$INSUNITS
 70
     4
  9
$HYPERLINKBASE
  1

  9
$STYLESHEET
  1

  9
$XEDIT
290
     1
  9
$CEPSNTYPE
380
     0
  9
$PSTYLEMODE
290
     1
  9
$FINGERPRINTGUID
  2
{FDEAD578-A652-11D2-9A35-0060089B3A3F}
  9
$VERSIONGUID
  2
{F34AFF0E-7FA4-4987-8C26-7F1BC2614E77}
  9
$EXTNAMES
290
     1
  9
$PSVPSCALE
 40
0.0
  9
$OLESTARTUP
290
     0
  0
ENDSEC
  0
SECTION
  2
CLASSES
  0
CLASS
  1
ACDBDICTIONARYWDFLT
  2
AcDbDictionaryWithDefault
  3
AutoCAD 2000
 90
        0
280
     0
281
     0
  0
CLASS
  1
ACDBPLACEHOLDER
  2
AcDbPlaceHolder
  3
AutoCAD 2000
 90
        0
280
     0
281
     0
  0
CLASS
  1
LAYOUT
  2
AcDbLayout
  3
AutoCAD 2000
 90
        0
280
     0
281
     0
  0
CLASS
  1
DICTIONARYVAR
  2
AcDbDictionaryVar
  3
AutoCAD 2000
 90
        0
280
     0
281
     0
  0
CLASS
  1
LONG_TRANSACTION
  2
AcDbLongTransaction
  3
AutoCAD 2000
 90
    32768
280
     0
281
     0
  0
CLASS
  1
LWPOLYLINE
  2
AcDbPolyline
  3
AutoCAD 2000
 90
    32768
280
     0
281
     1
  0
CLASS
  1
HATCH
  2
AcDbHatch
  3
AutoCAD 2000
 90
    32768
280
     0
281
     1
  0
CLASS
  1
XRECORD
  2
AcDbXrecord
  3
AutoCAD 2000
 90
    32768
280
     0
281
     0
  0
ENDSEC
  0
SECTION
  2
TABLES
  0
TABLE
  2
VPORT
  5
8
330
0
100
AcDbSymbolTable
 70
     2
  0
VPORT
  5
27E
330
8
100
AcDbSymbolTableRecord
100
AcDbViewportTableRecord
  2
*Active
 70
     0
 10
0.0
 20
0.0
 11
1.0
 21
1.0
 12
897.9408231621535
 22
471.0189792308516
 13
0.0
 23
0.0
 14
10.0
 24
10.0
 15
10.0
 25
10.0
 16
0.0
 26
0.0
 36
1.0
 17
0.0
 27
0.0
 37
0.0
 40
774.7152910132797
 41
1.592161016949152
 42
50.0
 43
0.0
 44
0.0
 50
0.0
 51
0.0
 71
     0
 72
   100
 73
     1
 74
     3
 75
     0
 76
     0
 77
     0
 78
     0
281
     0
 65
     1
110
0.0
120
0.0
130
0.0
111
1.0
121
0.0
131
0.0
112
0.0
122
1.0
132
0.0
 79
     0
146
0.0
  0
ENDTAB
  0
TABLE
  2
LTYPE
  5
5
330
0
100
AcDbSymbolTable
 70
     2
  0
LTYPE
  5
14
330
5
100
AcDbSymbolTableRecord
100
AcDbLinetypeTableRecord
  2
ByBlock
 70
     0
  3

 72
    65
 73
     0
 40
0.0
  0
LTYPE
  5
15
330
5
100
AcDbSymbolTableRecord
100
AcDbLinetypeTableRecord
  2
ByLayer
 70
     0
  3

 72
    65
 73
     0
 40
0.0
  0
LTYPE
  5
16
330
5
100
AcDbSymbolTableRecord
100
AcDbLinetypeTableRecord
  2
Continuous
 70
     0
  3
Solid line
 72
    65
 73
     0
 40
0.0
  0
LTYPE
  5
265
330
5
100
AcDbSymbolTableRecord
100
AcDbLinetypeTableRecord
  2
CENTER
 70
     0
  3
__ . __
 72
    65
 73
     4
 40
7.0
 49
4.0
 74
     0
 49
-1.0
 74
     0
 49
1.0
 74
     0
 49
-1.0
 74
     0
  0
ENDTAB
  0
TABLE
  2
LAYER
  5
2
102
{ACAD_XDICTIONARY
360
266
102
}
330
0
100
AcDbSymbolTable
 70
     1
  0
LAYER
  5
10
330
2
100
AcDbSymbolTableRecord
100
AcDbLayerTableRecord
  2
0
 70
     0
 62
     7
  6
Continuous
370
    -3
390
F
  0
ENDTAB
  0
TABLE
  2
STYLE
  5
3
330
0
100
AcDbSymbolTable
 70
     1
  0
STYLE
  5
11
330
3
100
AcDbSymbolTableRecord
100
AcDbTextStyleTableRecord
  2
Standard
 70
     0
 40
0.0
 41
1.0
 50
0.0
 71
     0
 42
2.5
  3
txt
  4

  0
ENDTAB
  0
TABLE
  2
VIEW
  5
6
330
0
100
AcDbSymbolTable
 70
     0
  0
ENDTAB
  0
TABLE
  2
UCS
  5
7
330
0
100
AcDbSymbolTable
 70
     0
  0
ENDTAB
  0
TABLE
  2
APPID
  5
9
330
0
100
AcDbSymbolTable
 70
     1
  0
APPID
  5
12
330
9
100
AcDbSymbolTableRecord
100
AcDbRegAppTableRecord
  2
ACAD
 70
     0
  0
ENDTAB
  0
TABLE
  2
DIMSTYLE
  5
A
330
0
100
AcDbSymbolTable
 70
     1
100
AcDbDimStyleTable
 71
     0
  0
DIMSTYLE
105
27
330
A
100
AcDbSymbolTableRecord
100
AcDbDimStyleTableRecord
  2
ISO-25
 70
     0
 41
2.5
 42
0.625
 43
3.75
 44
1.25
 73
     0
 74
     0
 77
     1
 78
     8
140
2.5
141
2.5
143
0.03937007874016
147
0.625
171
     3
172
     1
271
     2
272
     2
274
     3
278
    44
283
     0
284
     8
340
11
  0
ENDTAB
  0
TABLE
  2
BLOCK_RECORD
  5
1
330
0
100
AcDbSymbolTable
 70
     1
  0
BLOCK_RECORD
  5
1F
102
{ACAD_XDICTIONARY
360
21E
102
}
330
1
100
AcDbSymbolTableRecord
100
AcDbBlockTableRecord
  2
*Model_Space
340
22
  0
BLOCK_RECORD
  5
55
102
{ACAD_XDICTIONARY
360
220
102
}
330
1
100
AcDbSymbolTableRecord
100
AcDbBlockTableRecord
  2
*Paper_Space
340
56
  0
BLOCK_RECORD
  5
50
102
{ACAD_XDICTIONARY
360
222
102
}
330
1
100
AcDbSymbolTableRecord
100
AcDbBlockTableRecord
  2
*Paper_Space0
340
51
  0
ENDTAB
  0
ENDSEC
  0
SECTION
  2
BLOCKS
  0
BLOCK
  5
20
330
1F
100
AcDbEntity
  8
0
100
AcDbBlockBegin
  2
*Model_Space
 70
     0
 10
0.0
 20
0.0
 30
0.0
  3
*Model_Space
  1

  0
ENDBLK
  5
21
330
1F
100
AcDbEntity
  8
0
100
AcDbBlockEnd
  0
BLOCK
  5
57
330
55
100
AcDbEntity
 67
     1
  8
0
100
AcDbBlockBegin
  2
*Paper_Space
 70
     0
 10
0.0
 20
0.0
 30
0.0
  3
*Paper_Space
  1

  0
ENDBLK
  5
58
330
55
100
AcDbEntity
 67
     1
  8
0
100
AcDbBlockEnd
  0
BLOCK
  5
52
330
50
100
AcDbEntity
  8
0
100
AcDbBlockBegin
  2
*Paper_Space0
 70
     0
 10
0.0
 20
0.0
 30
0.0
  3
*Paper_Space0
  1

  0
VIEWPORT
  5
6B
330
50
100
AcDbEntity
  8
0
100
AcDbViewport
 10
133.3499908447265
 20
101.5999970436096
 30
0.0
 40
381.3957395593834
 41
218.2856291881582
 69
     0
 12
133.3499908447265
 22
101.5999970436096
 13
0.0
 23
0.0
 14
10.0
 24
10.0
 15
10.0
 25
10.0
 16
0.0
 26
0.0
 36
1.0
 17
0.0
 27
0.0
 37
0.0
 42
50.0
 43
0.0
 44
0.0
 45
218.2856291881582
 50
0.0
 51
0.0
 72
   100
 90
    32800
  1

281
     0
 71
     1
 74
     0
110
0.0
120
0.0
130
0.0
111
1.0
121
0.0
131
0.0
112
0.0
122
1.0
132
0.0
 79
     0
146
0.0
  0
VIEWPORT
  5
6D
330
50
100
AcDbEntity
  8
0
100
AcDbViewport
 10
133.349993944168
 20
101.599993944168
 30
0.0
 40
213.3599903106689
 41
162.5599903106689
 69
     0
 12
210.0
 22
148.5
 13
0.0
 23
0.0
 14
10.0
 24
10.0
 15
10.0
 25
10.0
 16
0.0
 26
0.0
 36
1.0
 17
0.0
 27
0.0
 37
0.0
 42
50.0
 43
0.0
 44
0.0
 45
324.0677920111345
 50
0.0
 51
0.0
 72
   100
 90
    32864
  1

281
     0
 71
     1
 74
     0
110
0.0
120
0.0
130
0.0
111
1.0
121
0.0
131
0.0
112
0.0
122
1.0
132
0.0
 79
     0
146
0.0
  0
ENDBLK
  5
53
330
50
100
AcDbEntity
  8
0
100
AcDbBlockEnd
  0
ENDSEC
  0
SECTION
  2
ENTITIES
  0
TEXT
  5
152
330
1F
100
AcDbEntity
  8
0
  6
Continuous
100
AcDbText
 10
464.6610560603027
 20
807.8935394476934
 30
0.0
 40
48.000002
  1
DAC2L10AD000 8A
 41
1.32095
100
AcDbText
  0
LINE
  5
153
330
1F
100
AcDbEntity
  8
0
100
AcDbLine
 10
782.769751475998
 20
109.3374540163184
 30
0.0
 11
782.769751475998
 21
124.1734654625487
 31
0.0
  0
LINE
  5
154
330
1F
100
AcDbEntity
  8
0
100
AcDbLine
 10
768.969824718185
 20
109.3374398492223
 30
0.0
 11
768.969824718185
 21
124.1734493200487
 31
0.0
  0
LINE
  5
155
330
1F
100
AcDbEntity
  8
0
100
AcDbLine
 10
758.8697270619348
 20
105.6613048075295
 30
0.0
 11
768.969824718185
 21
109.3374398492223
 31
0.0
  0
LINE
  5
156
330
1F
100
AcDbEntity
  8
0
100
AcDbLine
 10
792.869727061935
 20
102.8113232280975
 30
0.0
 11
758.8697270619348
 21
102.8113232280975
 31
0.0
  0
LINE
  5
157
330
1F
100
AcDbEntity
  8
0
100
AcDbLine
 10
758.8697270619348
 20
102.8113232280975
 30
0.0
 11
758.8697270619348
 21
105.6613048075295
 31
0.0
  0
LINE
  5
158
330
1F
100
AcDbEntity
  8
0
100
AcDbLine
 10
792.869727061935
 20
102.8113232280975
 30
0.0
 11
792.869727061935
 21
105.6613634045878
 31
0.0
  0
LINE
  5
159
330
1F
100
AcDbEntity
  8
0
100
AcDbLine
 10
768.969824718185
 20
109.3374398492223
 30
0.0
 11
782.769751475998
 21
109.3374540163184
 31
0.0
  0
LINE
  5
15A
330
1F
100
AcDbEntity
  8
0
100
AcDbLine
 10
792.869727061935
 20
105.6613634045878
 30
0.0
 11
782.769751475998
 21
109.3374540163184
 31
0.0
  0
LINE
  5
15B
330
1F
100
AcDbEntity
  8
0
100
AcDbLine
 10
737.869734691329
 20
209.3113232280969
 30
0.0
 11
737.8697346913286
 21
194.8113232280975
 31
0.0
  0
LINE
  5
15C
330
1F
100
AcDbEntity
  8
0
100
AcDbLine
 10
813.86971943254
 20
209.3113232280975
 30
0.0
 11
813.8697194325393
 21
194.8113232280975
 31
0.0
  0
LINE
  5
15D
330
1F
100
AcDbEntity
  8
0
100
AcDbLine
 10
730.1197423207238
 20
150.3113232280948
 30
0.0
 11
821.6197118031459
 21
150.3113232280989
 31
0.0
  0
LINE
  5
15E
330
1F
100
AcDbEntity
  8
0
100
AcDbLine
 10
730.1197423207238
 20
165.8113232280984
 30
0.0
 11
821.6197118031459
 21
165.8113232280984
 31
0.0
  0
LINE
  5
15F
330
1F
100
AcDbEntity
  8
0
100
AcDbLine
 10
747.559668468185
 20
128.5613232280973
 30
0.0
 11
804.1797856556851
 21
128.5613232280975
 31
0.0
  0
LINE
  5
160
330
1F
100
AcDbEntity
  8
0
100
AcDbLine
 10
737.8697346913286
 20
194.8113232280975
 30
0.0
 11
813.8697194325393
 21
194.8113232280975
 31
0.0
  0
LINE
  5
161
330
1F
100
AcDbEntity
  8
0
100
AcDbLine
 10
730.1197423207238
 20
165.8113232280984
 30
0.0
 11
730.1197423207238
 21
150.3113232280948
 31
0.0
  0
LINE
  5
162
330
1F
100
AcDbEntity
  8
0
100
AcDbLine
 10
768.969824718185
 20
124.1734493200487
 30
0.0
 11
762.0659472105691
 21
128.1594049290638
 31
0.0
  0
ARC
  5
163
330
1F
100
AcDbEntity
  8
0
100
AcDbCircle
 10
754.8697270619348
 20
139.8113232280975
 30
0.0
 40
11.0
100
AcDbArc
 50
179.9999974955312
 51
228.3521282187074
  0
LINE
  5
164
330
1F
100
AcDbEntity
  8
0
100
AcDbLine
 10
743.869727061935
 20
150.3113232280948
 30
0.0
 11
743.869727061935
 21
139.8113232280975
 31
0.0
  0
LINE
  5
165
330
1F
100
AcDbEntity
  8
0
100
AcDbLine
 10
747.559668468185
 20
131.5916490644858
 30
0.0
 11
747.559668468185
 21
128.5613232280973
 31
0.0
  0
LINE
  5
166
330
1F
100
AcDbEntity
  8
0
100
AcDbLine
 10
782.769751475998
 20
124.1734654625487
 30
0.0
 11
790.3697439259052
 21
128.5613232280975
 31
0.0
  0
LINE
  5
167
330
1F
100
AcDbEntity
  8
0
100
AcDbLine
 10
741.8697346913286
 20
167.0613239938551
 30
0.0
 11
741.8697346913286
 21
165.8113232280984
 31
0.0
  0
LINE
  5
168
330
1F
100
AcDbEntity
  8
0
100
AcDbLine
 10
821.6197118031459
 20
165.8113232280984
 30
0.0
 11
821.6197118031459
 21
150.3113232280989
 31
0.0
  0
LINE
  5
169
330
1F
100
AcDbEntity
  8
0
100
AcDbLine
 10
839.3436892349887
 20
146.7113171245819
 30
0.0
 11
807.869727061935
 21
146.7113171245819
 31
0.0
  0
LINE
  5
16A
330
1F
100
AcDbEntity
  8
0
100
AcDbLine
 10
839.343705443855
 20
132.9113293316131
 30
0.0
 11
805.4365283452892
 21
132.9113293316131
 31
0.0
  0
ARC
  5
16B
330
1F
100
AcDbEntity
  8
0
100
AcDbCircle
 10
796.869727061935
 20
139.8113232280975
 30
0.0
 40
11.0
100
AcDbArc
 50
311.6478717812924
 51
0.0000025044687019
  0
LINE
  5
16C
330
1F
100
AcDbEntity
  8
0
100
AcDbLine
 10
807.869727061935
 20
150.3113232280989
 30
0.0
 11
807.869727061935
 21
139.8113232280975
 31
0.0
  0
LINE
  5
16D
330
1F
100
AcDbEntity
  8
0
100
AcDbLine
 10
804.1797856556851
 20
131.5916490644858
 30
0.0
 11
804.1797856556851
 21
128.5613232280975
 31
0.0
  0
LINE
  5
16E
330
1F
100
AcDbEntity
  8
0
100
AcDbLine
 10
845.8697270619348
 20
156.8113232280975
 30
0.0
 11
843.0197909542108
 21
156.8113232280975
 31
0.0
  0
LINE
  5
16F
330
1F
100
AcDbEntity
  8
0
100
AcDbLine
 10
839.3436892349887
 20
146.7113171245819
 30
0.0
 11
839.343705443855
 21
132.9113293316131
 31
0.0
  0
LINE
  5
170
330
1F
100
AcDbEntity
  8
0
100
AcDbLine
 10
843.0197909542108
 20
156.8113232280975
 30
0.0
 11
839.3436892349887
 21
146.7113171245819
 31
0.0
  0
LINE
  5
171
330
1F
100
AcDbEntity
  8
0
100
AcDbLine
 10
845.8697270619348
 20
122.8113232280975
 30
0.0
 11
843.0198071630766
 21
122.8113232280975
 31
0.0
  0
LINE
  5
172
330
1F
100
AcDbEntity
  8
0
100
AcDbLine
 10
843.0198071630766
 20
122.8113232280975
 30
0.0
 11
839.343705443855
 21
132.9113293316131
 31
0.0
  0
LINE
  5
173
330
1F
100
AcDbEntity
  8
0
100
AcDbLine
 10
845.8697270619348
 20
156.8113232280975
 30
0.0
 11
845.8697270619348
 21
122.8113232280975
 31
0.0
  0
LINE
  5
174
330
1F
100
AcDbEntity
  8
0
100
AcDbLine
 10
737.869734691329
 20
209.3113232280969
 30
0.0
 11
813.86971943254
 21
209.3113232280975
 31
0.0
  0
LINE
  5
175
330
1F
100
AcDbEntity
  8
0
100
AcDbLine
 10
845.8697423207238
 20
638.2483258454493
 30
0.0
 11
845.8697423207238
 21
626.2483258454493
 31
0.0
  0
LINE
  5
176
330
1F
100
AcDbEntity
  8
0
100
AcDbLine
 10
845.8697423207238
 20
616.2483258454493
 30
0.0
 11
845.8697423207238
 21
604.2483258454494
 31
0.0
  0
LINE
  5
177
330
1F
100
AcDbEntity
  8
0
100
AcDbLine
 10
845.8697423207238
 20
604.2483258454494
 30
0.0
 11
843.0198224218655
 21
604.2483258454494
 31
0.0
  0
LINE
  5
178
330
1F
100
AcDbEntity
  8
0
100
AcDbLine
 10
843.0198224218655
 20
604.2483258454494
 30
0.0
 11
840.1080822816856
 21
612.2482658454493
 31
0.0
  0
LINE
  5
179
330
1F
100
AcDbEntity
  8
0
100
AcDbLine
 10
845.8697423207238
 20
638.2483258454493
 30
0.0
 11
843.0198062129997
 21
638.2483258454493
 31
0.0
  0
LINE
  5
17A
330
1F
100
AcDbEntity
  8
0
100
AcDbLine
 10
843.0198062129997
 20
638.2483258454493
 30
0.0
 11
840.1080660728194
 21
630.2483858454494
 31
0.0
  0
LINE
  5
17B
330
1F
100
AcDbEntity
  8
0
100
AcDbLine
 10
769.8697270619349
 20
320.0612032280972
 30
0.0
 11
781.8697270619349
 21
320.0612032280972
 31
0.0
  0
LINE
  5
17C
330
1F
100
AcDbEntity
  8
0
100
AcDbLine
 10
767.8697270619348
 20
296.0612032280972
 30
0.0
 11
783.8697270619348
 21
296.0612032280972
 31
0.0
  0
LINE
  5
17D
330
1F
100
AcDbEntity
  8
0
100
AcDbLine
 10
783.8697270619348
 20
296.0612032280972
 30
0.0
 11
783.8697270619348
 21
295.0612032280972
 31
0.0
  0
LINE
  5
17E
330
1F
100
AcDbEntity
  8
0
100
AcDbLine
 10
767.8697270619348
 20
296.0612032280972
 30
0.0
 11
767.8697270619348
 21
295.0612032280972
 31
0.0
  0
LINE
  5
17F
330
1F
100
AcDbEntity
  8
0
100
AcDbLine
 10
767.8697270619348
 20
296.0612032280972
 30
0.0
 11
768.3697270619348
 21
297.9272832280972
 31
0.0
  0
LINE
  5
180
330
1F
100
AcDbEntity
  8
0
100
AcDbLine
 10
783.3697270619349
 20
297.9272232280973
 30
0.0
 11
783.8697270619348
 21
296.0612632280973
 31
0.0
  0
LINE
  5
181
330
1F
100
AcDbEntity
  8
0
100
AcDbLine
 10
768.3697270619348
 20
318.5612032280972
 30
0.0
 11
768.3697270619348
 21
297.9272232280973
 31
0.0
  0
LINE
  5
182
330
1F
100
AcDbEntity
  8
0
100
AcDbLine
 10
783.3697270619349
 20
318.5612032280972
 30
0.0
 11
783.3697270619349
 21
297.9272232280973
 31
0.0
  0
LINE
  5
183
330
1F
100
AcDbEntity
  8
0
100
AcDbLine
 10
769.8697270619349
 20
320.0612032280972
 30
0.0
 11
768.3697270619348
 21
318.5612032280972
 31
0.0
  0
LINE
  5
184
330
1F
100
AcDbEntity
  8
0
100
AcDbLine
 10
781.869767061935
 20
320.0612032280972
 30
0.0
 11
783.3697270619349
 21
318.5612632280973
 31
0.0
  0
LINE
  5
185
330
1F
100
AcDbEntity
  8
0
100
AcDbLine
 10
768.3697270619348
 20
297.9272232280973
 30
0.0
 11
783.3697270619349
 21
297.9272232280973
 31
0.0
  0
LINE
  5
186
330
1F
100
AcDbEntity
  8
0
100
AcDbLine
 10
768.3697270619348
 20
318.5612032280972
 30
0.0
 11
783.3697270619349
 21
318.5612032280972
 31
0.0
  0
LINE
  5
187
330
1F
100
AcDbEntity
  8
0
100
AcDbLine
 10
775.8697270619348
 20
224.5613232280975
 30
0.0
 11
835.1302870619351
 21
224.5613232280975
 31
0.0
  0
LINE
  5
188
330
1F
100
AcDbEntity
  8
0
100
AcDbLine
 10
840.3697270619348
 20
243.0613232280975
 30
0.0
 11
835.1302870619351
 21
243.0613232280975
 31
0.0
  0
LINE
  5
189
330
1F
100
AcDbEntity
  8
0
100
AcDbLine
 10
817.2311070619349
 20
290.0613232280973
 30
0.0
 11
734.508347061935
 21
290.0613232280973
 31
0.0
  0
LINE
  5
18A
330
1F
100
AcDbEntity
  8
0
100
AcDbLine
 10
784.540147061935
 20
246.0636432280975
 30
0.0
 11
777.9692470619351
 21
243.0234832280973
 31
0.0
  0
LINE
  5
18B
330
1F
100
AcDbEntity
  8
0
100
AcDbLine
 10
799.8697270619349
 20
295.0613232280973
 30
0.0
 11
751.8697270619348
 21
295.0613232280973
 31
0.0
  0
LINE
  5
18C
330
1F
100
AcDbEntity
  8
0
100
AcDbLine
 10
841.3697270619348
 20
242.0613232280975
 30
0.0
 11
841.3697270619348
 21
226.0613232280975
 31
0.0
  0
LINE
  5
18D
330
1F
100
AcDbEntity
  8
0
100
AcDbLine
 10
835.1302870619351
 20
243.9885032280974
 30
0.0
 11
835.1302870619351
 21
224.5613232280975
 31
0.0
  0
LINE
  5
18E
330
1F
100
AcDbEntity
  8
0
100
AcDbLine
 10
750.8697270619348
 20
290.0613232280973
 30
0.0
 11
750.8697270619348
 21
294.0613232280973
 31
0.0
  0
LINE
  5
18F
330
1F
100
AcDbEntity
  8
0
100
AcDbLine
 10
790.8618870619349
 20
243.9885032280974
 30
0.0
 11
790.8618870619349
 21
216.5613832280973
 31
0.0
  0
LINE
  5
190
330
1F
100
AcDbEntity
  8
0
100
AcDbLine
 10
800.8697270619348
 20
290.0613232280973
 30
0.0
 11
800.8697270619348
 21
294.0613232280973
 31
0.0
  0
LINE
  5
191
330
1F
100
AcDbEntity
  8
0
100
AcDbLine
 10
767.199287061935
 20
246.0636432280975
 30
0.0
 11
773.7702070619349
 21
243.0234832280973
 31
0.0
  0
LINE
  5
192
330
1F
100
AcDbEntity
  8
0
100
AcDbLine
 10
833.934827061935
 20
246.0636432280975
 30
0.0
 11
833.7737470619348
 21
245.6696032280974
 31
0.0
  0
LINE
  5
193
330
1F
100
AcDbEntity
  8
0
100
AcDbLine
 10
821.4056470619349
 20
246.0636432280975
 30
0.0
 11
826.7663270619349
 21
243.1636232280975
 31
0.0
  0
LINE
  5
194
330
1F
100
AcDbEntity
  8
0
100
AcDbLine
 10
750.8697270619348
 20
290.0613232280973
 30
0.0
 11
750.8697270619348
 21
294.0613232280973
 31
0.0
  0
LINE
  5
195
330
1F
100
AcDbEntity
  8
0
100
AcDbLine
 10
760.8775470619349
 20
243.9885032280974
 30
0.0
 11
760.8775470619349
 21
216.5613832280973
 31
0.0
  0
LINE
  5
196
330
1F
100
AcDbEntity
  8
0
100
AcDbLine
 10
832.3697270619348
 20
279.5613232280973
 30
0.0
 11
832.3697270619348
 21
248.4589632280973
 31
0.0
  0
LINE
  5
197
330
1F
100
AcDbEntity
  8
0
100
AcDbLine
 10
726.7809270619348
 20
284.1318232280973
 30
0.0
 11
723.244127061935
 21
270.9323032280973
 31
0.0
  0
LINE
  5
198
330
1F
100
AcDbEntity
  8
0
100
AcDbLine
 10
825.5180470619349
 20
282.0436832280972
 30
0.0
 11
828.4953470619349
 21
270.9323032280973
 31
0.0
  0
LINE
  5
199
330
1F
100
AcDbEntity
  8
0
100
AcDbLine
 10
835.1302870619351
 20
225.0613232280975
 30
0.0
 11
840.3697270619348
 21
225.0613232280975
 31
0.0
  0
LINE
  5
19A
330
1F
100
AcDbEntity
  8
0
100
AcDbLine
 10
827.4498670619349
 20
280.5613232280973
 30
0.0
 11
831.3697270619348
 21
280.5613232280973
 31
0.0
  0
LINE
  5
19B
330
1F
100
AcDbEntity
  8
0
100
AcDbLine
 10
824.9585270619348
 20
284.1318232280973
 30
0.0
 11
825.5180470619349
 21
282.0436832280972
 31
0.0
  0
LINE
  5
19C
330
1F
100
AcDbEntity
  8
0
100
AcDbLine
 10
775.8697270619348
 20
224.5613232280975
 30
0.0
 11
716.609147061935
 21
224.5613232280975
 31
0.0
  0
LINE
  5
19D
330
1F
100
AcDbEntity
  8
0
100
AcDbLine
 10
830.130287061935
 20
248.9885032280973
 30
0.0
 11
820.9990670619347
 21
248.9885032280973
 31
0.0
  0
LINE
  5
19E
330
1F
100
AcDbEntity
  8
0
100
AcDbLine
 10
815.9990670619349
 20
243.9885032280974
 30
0.0
 11
815.9990670619349
 21
216.5613832280973
 31
0.0
  0
LINE
  5
19F
330
1F
100
AcDbEntity
  8
0
100
AcDbLine
 10
785.8618870619348
 20
248.9885032280973
 30
0.0
 11
765.8775470619349
 21
248.9885032280973
 31
0.0
  0
LINE
  5
1A0
330
1F
100
AcDbEntity
  8
0
100
AcDbLine
 10
735.7403870619349
 20
243.9885032280974
 30
0.0
 11
735.7403870619349
 21
216.5613832280973
 31
0.0
  0
LINE
  5
1A1
330
1F
100
AcDbEntity
  8
0
100
AcDbLine
 10
721.609147061935
 20
248.9885032280973
 30
0.0
 11
730.7403870619349
 21
248.9885032280973
 31
0.0
  0
LINE
  5
1A2
330
1F
100
AcDbEntity
  8
0
100
AcDbLine
 10
716.609147061935
 20
243.9885032280974
 30
0.0
 11
716.609147061935
 21
224.5613232280975
 31
0.0
  0
LINE
  5
1A3
330
1F
100
AcDbEntity
  8
0
100
AcDbLine
 10
717.804647061935
 20
246.0635832280972
 30
0.0
 11
717.9657070619349
 21
245.6696032280974
 31
0.0
  0
LINE
  5
1A4
330
1F
100
AcDbEntity
  8
0
100
AcDbLine
 10
730.3338070619348
 20
246.0636432280975
 30
0.0
 11
724.9731070619349
 21
243.1636232280975
 31
0.0
  0
LINE
  5
1A5
330
1F
100
AcDbEntity
  8
0
100
AcDbLine
 10
802.8696270619349
 20
211.0613832280973
 30
0.0
 11
802.869627061935
 21
209.3113232280974
 31
0.0
  0
LINE
  5
1A6
330
1F
100
AcDbEntity
  8
0
100
AcDbLine
 10
729.283947061935
 20
215.0613832280973
 30
0.0
 11
768.9943670619348
 21
215.0613832280973
 31
0.0
  0
LINE
  5
1A7
330
1F
100
AcDbEntity
  8
0
100
AcDbLine
 10
835.1302870619351
 20
224.5613232280975
 30
0.0
 11
835.1302870619351
 21
217.5613832280973
 31
0.0
  0
LINE
  5
1A8
330
1F
100
AcDbEntity
  8
0
100
AcDbLine
 10
717.609147061935
 20
216.5613832280973
 30
0.0
 11
834.1302870619351
 21
216.5613832280973
 31
0.0
  0
LINE
  5
1A9
330
1F
100
AcDbEntity
  8
0
100
AcDbLine
 10
835.1302870619351
 20
224.5613232280975
 30
0.0
 11
718.8697270619349
 21
224.5613232280975
 31
0.0
  0
LINE
  5
1AA
330
1F
100
AcDbEntity
  8
0
100
AcDbLine
 10
782.4986670619349
 20
215.0613832280973
 30
0.0
 11
822.455507061935
 21
215.0613832280973
 31
0.0
  0
LINE
  5
1AB
330
1F
100
AcDbEntity
  8
0
100
AcDbLine
 10
835.4336670619348
 20
276.3113232280973
 30
0.0
 11
832.3697270619348
 21
276.2155632280973
 31
0.0
  0
LINE
  5
1AC
330
1F
100
AcDbEntity
  8
0
100
AcDbLine
 10
835.4350870619349
 20
266.8112632280973
 30
0.0
 11
832.3697670619349
 21
266.9070832280972
 31
0.0
  0
LINE
  5
1AD
330
1F
100
AcDbEntity
  8
0
100
AcDbLine
 10
748.8698270619351
 20
211.0613832280973
 30
0.0
 11
748.8698270619351
 21
209.3113232280975
 31
0.0
  0
LINE
  5
1AE
330
1F
100
AcDbEntity
  8
0
100
AcDbLine
 10
834.3697270619349
 20
276.2781232280973
 30
0.0
 11
834.3697270619349
 21
266.8445232280972
 31
0.0
  0
LINE
  5
1AF
330
1F
100
AcDbEntity
  8
0
100
AcDbLine
 10
716.609147061935
 20
224.5613232280975
 30
0.0
 11
716.609147061935
 21
217.5613832280973
 31
0.0
  0
LINE
  5
1B0
330
1F
100
AcDbEntity
  8
0
100
AcDbLine
 10
837.4336870619348
 20
266.8112632280973
 30
0.0
 11
835.4336870619349
 21
266.8112632280973
 31
0.0
  0
LINE
  5
1B1
330
1F
100
AcDbEntity
  8
0
100
AcDbLine
 10
837.4336870619348
 20
276.3112632280973
 30
0.0
 11
835.4336870619349
 21
276.3112632280973
 31
0.0
  0
LINE
  5
1B2
330
1F
100
AcDbEntity
  8
0
100
AcDbLine
 10
837.4336870619348
 20
276.5612632280973
 30
0.0
 11
837.4336870619348
 21
266.5612632280973
 31
0.0
  0
LINE
  5
1B3
330
1F
100
AcDbEntity
  8
0
100
AcDbLine
 10
849.9336670619349
 20
276.5612632280973
 30
0.0
 11
837.4336870619348
 21
276.5612632280973
 31
0.0
  0
LINE
  5
1B4
330
1F
100
AcDbEntity
  8
0
100
AcDbLine
 10
849.9336670619349
 20
266.5612632280973
 30
0.0
 11
837.4336870619348
 21
266.5612632280973
 31
0.0
  0
LINE
  5
1B5
330
1F
100
AcDbEntity
  8
0
100
AcDbLine
 10
849.9336670619349
 20
276.5612632280973
 30
0.0
 11
849.9336670619349
 21
266.5612632280973
 31
0.0
  0
LINE
  5
1B6
330
1F
100
AcDbEntity
  8
0
100
AcDbLine
 10
719.7890270619349
 20
211.6613632280973
 30
0.0
 11
725.3990070619348
 21
211.6613632280973
 31
0.0
  0
LINE
  5
1B7
330
1F
100
AcDbEntity
  8
0
100
AcDbLine
 10
716.594007061935
 20
214.9614032280974
 30
0.0
 11
728.594007061935
 21
214.9614032280974
 31
0.0
  0
LINE
  5
1B8
330
1F
100
AcDbEntity
  8
0
100
AcDbLine
 10
728.594007061935
 20
216.5613832280973
 30
0.0
 11
728.594007061935
 21
214.9614032280974
 31
0.0
  0
LINE
  5
1B9
330
1F
100
AcDbEntity
  8
0
100
AcDbLine
 10
716.594007061935
 20
216.5613832280973
 30
0.0
 11
716.594007061935
 21
214.9614032280974
 31
0.0
  0
LINE
  5
1BA
330
1F
100
AcDbEntity
  8
0
100
AcDbLine
 10
778.674727061935
 20
211.6613632280973
 30
0.0
 11
773.0647270619351
 21
211.6613632280973
 31
0.0
  0
LINE
  5
1BB
330
1F
100
AcDbEntity
  8
0
100
AcDbLine
 10
781.8697270619349
 20
214.9614032280974
 30
0.0
 11
769.8697270619349
 21
214.9614032280974
 31
0.0
  0
LINE
  5
1BC
330
1F
100
AcDbEntity
  8
0
100
AcDbLine
 10
769.8697270619349
 20
216.5613832280973
 30
0.0
 11
769.8697270619349
 21
214.9614032280974
 31
0.0
  0
LINE
  5
1BD
330
1F
100
AcDbEntity
  8
0
100
AcDbLine
 10
781.8697270619349
 20
216.5613832280973
 30
0.0
 11
781.8697270619349
 21
214.9614032280974
 31
0.0
  0
LINE
  5
1BE
330
1F
100
AcDbEntity
  8
0
100
AcDbLine
 10
831.9504070619348
 20
211.6613632280973
 30
0.0
 11
826.340427061935
 21
211.6613632280973
 31
0.0
  0
LINE
  5
1BF
330
1F
100
AcDbEntity
  8
0
100
AcDbLine
 10
835.1454270619351
 20
214.9614032280974
 30
0.0
 11
823.145427061935
 21
214.9614032280974
 31
0.0
  0
LINE
  5
1C0
330
1F
100
AcDbEntity
  8
0
100
AcDbLine
 10
823.145427061935
 20
216.5613832280973
 30
0.0
 11
823.145427061935
 21
214.9614032280974
 31
0.0
  0
LINE
  5
1C1
330
1F
100
AcDbEntity
  8
0
100
AcDbLine
 10
835.1454270619351
 20
216.5613832280973
 30
0.0
 11
835.1454270619351
 21
214.9614032280974
 31
0.0
  0
ARC
  5
1C2
330
1F
100
AcDbEntity
  8
0
100
AcDbCircle
 10
830.130287061935
 20
243.9885032280974
 30
0.0
 40
5.0
100
AcDbArc
 50
0.0
 51
90.0
  0
ARC
  5
1C3
330
1F
100
AcDbEntity
  8
0
100
AcDbCircle
 10
820.9990670619347
 20
243.9885032280974
 30
0.0
 40
5.0
100
AcDbArc
 50
90.0
 51
180.0
  0
ARC
  5
1C4
330
1F
100
AcDbEntity
  8
0
100
AcDbCircle
 10
722.594007061935
 20
247.5613232280975
 30
0.0
 40
5.0
100
AcDbArc
 50
202.2312400000067
 51
298.4125379999988
  0
ARC
  5
1C5
330
1F
100
AcDbEntity
  8
0
100
AcDbCircle
 10
839.155247061935
 20
239.8740032280975
 30
0.0
 40
120.0
100
AcDbArc
 50
174.4255299999992
 51
175.8749800000029
  0
ARC
  5
1C6
330
1F
100
AcDbEntity
  8
0
100
AcDbCircle
 10
839.155247061935
 20
239.8740032280975
 30
0.0
 40
120.0
100
AcDbArc
 50
165.0000000000055
 51
174.4255299999992
  0
ARC
  5
1C7
330
1F
100
AcDbEntity
  8
0
100
AcDbCircle
 10
712.5842270619349
 20
239.8740032280975
 30
0.0
 40
120.0
100
AcDbArc
 50
4.12501900000419
 51
14.99999999999445
  0
ARC
  5
1C8
330
1F
100
AcDbEntity
  8
0
100
AcDbCircle
 10
840.3697270619348
 20
226.0613232280975
 30
0.0
 40
1.0
100
AcDbArc
 50
270.0
 51
0.0
  0
ARC
  5
1C9
330
1F
100
AcDbEntity
  8
0
100
AcDbCircle
 10
831.3697270619348
 20
279.5613232280973
 30
0.0
 40
1.0
100
AcDbArc
 50
0.0
 51
90.0
  0
ARC
  5
1CA
330
1F
100
AcDbEntity
  8
0
100
AcDbCircle
 10
840.3697270619348
 20
242.0613232280975
 30
0.0
 40
1.0
100
AcDbArc
 50
0.0
 51
90.0
  0
ARC
  5
1CB
330
1F
100
AcDbEntity
  8
0
100
AcDbCircle
 10
827.4498670619349
 20
282.5613232280973
 30
0.0
 40
2.0
100
AcDbArc
 50
195.0000100000021
 51
270.0
  0
ARC
  5
1CC
330
1F
100
AcDbEntity
  8
0
100
AcDbCircle
 10
817.2311070619349
 20
282.0613232280972
 30
0.0
 40
8.0
100
AcDbArc
 50
15.00001000000212
 51
90.0
  0
ARC
  5
1CD
330
1F
100
AcDbEntity
  8
0
100
AcDbCircle
 10
751.8697270619348
 20
294.0613232280973
 30
0.0
 40
1.0
100
AcDbArc
 50
90.0
 51
180.0
  0
ARC
  5
1CE
330
1F
100
AcDbEntity
  8
0
100
AcDbCircle
 10
751.8697270619348
 20
294.0613232280973
 30
0.0
 40
1.0
100
AcDbArc
 50
90.0
 51
180.0
  0
ARC
  5
1CF
330
1F
100
AcDbEntity
  8
0
100
AcDbCircle
 10
734.508347061935
 20
282.0613232280972
 30
0.0
 40
8.0
100
AcDbArc
 50
90.0
 51
164.9999599999991
  0
ARC
  5
1D0
330
1F
100
AcDbEntity
  8
0
100
AcDbCircle
 10
799.8697270619349
 20
294.0613232280973
 30
0.0
 40
1.0
100
AcDbArc
 50
0.0
 51
90.0
  0
ARC
  5
1D1
330
1F
100
AcDbEntity
  8
0
100
AcDbCircle
 10
775.8697270619348
 20
247.5613232280975
 30
0.0
 40
5.0
100
AcDbArc
 50
245.1714900000007
 51
294.8285079999942
  0
ARC
  5
1D2
330
1F
100
AcDbEntity
  8
0
100
AcDbCircle
 10
829.145427061935
 20
247.5613232280975
 30
0.0
 40
5.0
100
AcDbArc
 50
241.5873099999978
 51
337.7688219999974
  0
ARC
  5
1D3
330
1F
100
AcDbEntity
  8
0
100
AcDbCircle
 10
785.8618870619348
 20
243.9885032280974
 30
0.0
 40
5.0
100
AcDbArc
 50
0.0
 51
90.0
  0
ARC
  5
1D4
330
1F
100
AcDbEntity
  8
0
100
AcDbCircle
 10
765.8775470619349
 20
243.9885032280974
 30
0.0
 40
5.0
100
AcDbArc
 50
90.0
 51
180.0
  0
ARC
  5
1D5
330
1F
100
AcDbEntity
  8
0
100
AcDbCircle
 10
721.609147061935
 20
243.9885032280974
 30
0.0
 40
5.0
100
AcDbArc
 50
90.0
 51
180.0
  0
ARC
  5
1D6
330
1F
100
AcDbEntity
  8
0
100
AcDbCircle
 10
730.7403870619349
 20
243.9885032280974
 30
0.0
 40
5.0
100
AcDbArc
 50
0.0
 51
90.0
  0
ARC
  5
1D7
330
1F
100
AcDbEntity
  8
0
100
AcDbCircle
 10
717.609147061935
 20
217.5613832280973
 30
0.0
 40
1.0
100
AcDbArc
 50
180.0
 51
270.0
  0
ARC
  5
1D8
330
1F
100
AcDbEntity
  8
0
100
AcDbCircle
 10
729.283947061935
 20
216.0613832280974
 30
0.0
 40
1.0
100
AcDbArc
 50
249.7967700000033
 51
270.0
  0
ARC
  5
1D9
330
1F
100
AcDbEntity
  8
0
100
AcDbCircle
 10
822.455507061935
 20
216.0613832280974
 30
0.0
 40
1.0
100
AcDbArc
 50
270.0
 51
290.2449800000009
  0
ARC
  5
1DA
330
1F
100
AcDbEntity
  8
0
100
AcDbCircle
 10
834.1302870619351
 20
217.5613832280973
 30
0.0
 40
1.0
100
AcDbArc
 50
270.0
 51
0.0
  0
ARC
  5
1DB
330
1F
100
AcDbEntity
  8
0
100
AcDbCircle
 10
744.8698270619351
 20
211.0613832280973
 30
0.0
 40
4.0
100
AcDbArc
 50
0.0
 51
90.0
  0
ARC
  5
1DC
330
1F
100
AcDbEntity
  8
0
100
AcDbCircle
 10
806.869627061935
 20
211.0613832280973
 30
0.0
 40
4.0
100
AcDbArc
 50
90.0
 51
180.0
  0
ARC
  5
1DD
330
1F
100
AcDbEntity
  8
0
100
AcDbCircle
 10
722.594007061935
 20
216.2953832280972
 30
0.0
 40
5.4168334
100
AcDbArc
 50
301.1866320000015
 51
345.7432929999953
  0
ARC
  5
1DE
330
1F
100
AcDbEntity
  8
0
100
AcDbCircle
 10
722.594007061935
 20
216.2953832280972
 30
0.0
 40
5.4168334
100
AcDbArc
 50
194.2567100000043
 51
238.8133700000024
  0
ARC
  5
1DF
330
1F
100
AcDbEntity
  8
0
100
AcDbCircle
 10
775.8697270619348
 20
216.2953832280972
 30
0.0
 40
5.4168334
100
AcDbArc
 50
194.2567100000043
 51
238.8133700000024
  0
ARC
  5
1E0
330
1F
100
AcDbEntity
  8
0
100
AcDbCircle
 10
775.8697270619348
 20
216.2953832280972
 30
0.0
 40
5.4168334
100
AcDbArc
 50
301.1866320000015
 51
345.7432929999953
  0
ARC
  5
1E1
330
1F
100
AcDbEntity
  8
0
100
AcDbCircle
 10
829.145427061935
 20
216.2953832280972
 30
0.0
 40
5.4168334
100
AcDbArc
 50
194.2567100000043
 51
238.8133700000024
  0
ARC
  5
1E2
330
1F
100
AcDbEntity
  8
0
100
AcDbCircle
 10
829.145427061935
 20
216.2953832280972
 30
0.0
 40
5.4168334
100
AcDbArc
 50
301.1866320000015
 51
345.7432929999953
  0
LINE
  5
1E3
330
1F
100
AcDbEntity
  8
0
100
AcDbLine
 10
721.056204683382
 20
657.7939179759157
 30
0.0
 11
734.4864956638281
 21
661.3925716373491
 31
0.0
  0
LINE
  5
1E4
330
1F
100
AcDbEntity
  8
0
100
AcDbLine
 10
716.81355432418
 20
650.4454439568037
 30
0.0
 11
720.4122079856132
 21
637.0151529763576
 31
0.0
  0
LINE
  5
1E5
330
1F
100
AcDbEntity
  8
0
100
AcDbLine
 10
830.6832872785754
 20
657.7938906554075
 30
0.0
 11
817.2529862981294
 21
661.3925269963329
 31
0.0
  0
LINE
  5
1E6
330
1F
100
AcDbEntity
  8
0
100
AcDbLine
 10
830.6832699580676
 20
584.7027510354911
 30
0.0
 11
817.2529962981293
 21
581.1041073740579
 31
0.0
  0
LINE
  5
1E7
330
1F
100
AcDbEntity
  8
0
100
AcDbLine
 10
716.813588965196
 20
592.0511877340949
 30
0.0
 11
720.4122153061212
 21
605.4814713940327
 31
0.0
  0
LINE
  5
1E8
330
1F
100
AcDbEntity
  8
0
100
AcDbLine
 10
834.9259103172691
 20
650.4454093157876
 30
0.0
 11
831.3272766558359
 21
637.0151529763576
 31
0.0
  0
LINE
  5
1E9
330
1F
100
AcDbEntity
  8
0
100
AcDbLine
 10
834.9259203172691
 20
592.051225054603
 30
0.0
 11
831.3272766558359
 21
605.4814987145411
 31
0.0
  0
LINE
  5
1EA
330
1F
100
AcDbEntity
  8
0
100
AcDbLine
 10
721.0562393243981
 20
584.7027137149827
 30
0.0
 11
734.4865056638282
 21
581.1040973740574
 31
0.0
  0
ARC
  5
1EB
330
1F
100
AcDbEntity
  8
0
100
AcDbCircle
 10
722.6091511543529
 20
651.9983757867588
 30
0.0
 40
5.999999999999999
100
AcDbArc
 50
104.9999899999974
 51
194.999990000001
  0
ARC
  5
1EC
330
1F
100
AcDbEntity
  8
0
100
AcDbCircle
 10
722.6091511543529
 20
590.4982759041396
 30
0.0
 40
5.999999999999999
100
AcDbArc
 50
165.0000099999989
 51
255.0000499999994
  0
ARC
  5
1ED
330
1F
100
AcDbEntity
  8
0
100
AcDbCircle
 10
733.1924091388652
 20
576.2744564429241
 30
0.0
 40
4.999999999999999
100
AcDbArc
 50
46.50094799999265
 51
75.00001000000252
  0
ARC
  5
1EE
330
1F
100
AcDbEntity
  8
0
100
AcDbCircle
 10
733.1924091388653
 20
666.2221952479743
 30
0.0
 40
4.999999999999999
100
AcDbArc
 50
284.9999400000059
 51
313.4990099999974
  0
ARC
  5
1EF
330
1F
100
AcDbEntity
  8
0
100
AcDbCircle
 10
715.5826016954959
 20
635.7210764513951
 30
0.0
 40
4.999999999999999
100
AcDbArc
 50
346.500910000004
 51
14.9999399999988
  0
ARC
  5
1F0
330
1F
100
AcDbEntity
  8
0
100
AcDbCircle
 10
715.5826016954959
 20
606.7755752395034
 30
0.0
 40
4.999999999999999
100
AcDbArc
 50
345.0000560000003
 51
13.49921600000363
  0
ARC
  5
1F1
330
1F
100
AcDbEntity
  8
0
100
AcDbCircle
 10
836.1569349074773
 20
606.7756052395036
 30
0.0
 40
4.999999999999999
100
AcDbArc
 50
166.5009100000041
 51
194.9999399999988
  0
ARC
  5
1F2
330
1F
100
AcDbEntity
  8
0
100
AcDbCircle
 10
829.1303854486203
 20
590.4983059041398
 30
0.0
 40
5.999999999999999
100
AcDbArc
 50
284.9999500000039
 51
14.99999000000104
  0
ARC
  5
1F3
330
1F
100
AcDbEntity
  8
0
100
AcDbCircle
 10
818.5470928230918
 20
576.2744664429243
 30
0.0
 40
4.999999999999999
100
AcDbArc
 50
104.9999899999974
 51
133.4990499999992
  0
ARC
  5
1F4
330
1F
100
AcDbEntity
  8
0
100
AcDbCircle
 10
775.8697423207245
 20
621.2483258454494
 30
0.0
 40
56.99999999999999
100
AcDbArc
 50
9.084781364902381
 51
350.9152186350976
  0
ARC
  5
1F5
330
1F
100
AcDbEntity
  8
0
100
AcDbCircle
 10
836.1569349074775
 20
635.7210464513951
 30
0.0
 40
4.999999999999999
100
AcDbArc
 50
165.0000600000011
 51
193.499089999999
  0
ARC
  5
1F6
330
1F
100
AcDbEntity
  8
0
100
AcDbCircle
 10
829.1303854486201
 20
651.9983457867588
 30
0.0
 40
5.999999999999999
100
AcDbArc
 50
345.0000099999989
 51
75.00001000000252
  0
ARC
  5
1F7
330
1F
100
AcDbEntity
  8
0
100
AcDbCircle
 10
818.5470928230918
 20
666.2221852479744
 30
0.0
 40
4.999999999999999
100
AcDbArc
 50
226.5009900000025
 51
255.000059999994
  0
LINE
  5
1F8
330
1F
100
AcDbEntity
  8
0
100
AcDbLine
 10
771.6271272785754
 20
686.9910306554078
 30
0.0
 11
761.7954662981293
 21
677.159366996333
 31
0.0
  0
LINE
  5
1F9
330
1F
100
AcDbEntity
  8
0
100
AcDbLine
 10
771.627128965196
 20
555.5056277340948
 30
0.0
 11
761.7954753061212
 21
565.337271394033
 31
0.0
  0
LINE
  5
1FA
330
1F
100
AcDbEntity
  8
0
100
AcDbLine
 10
780.1124103172692
 20
686.9910093157876
 30
0.0
 11
789.9440366558359
 21
677.1593729763577
 31
0.0
  0
LINE
  5
1FB
330
1F
100
AcDbEntity
  8
0
100
AcDbLine
 10
780.1124193243979
 20
555.505633714983
 30
0.0
 11
789.9440456638281
 21
565.3372773740577
 31
0.0
  0
ARC
  5
1FC
330
1F
100
AcDbEntity
  8
0
100
AcDbCircle
 10
775.8697711543531
 20
559.7482759041397
 30
0.0
 40
5.999999999999999
100
AcDbArc
 50
225.0000099999994
 51
315.0000499999958
  0
ARC
  5
1FD
330
1F
100
AcDbEntity
  8
0
100
AcDbCircle
 10
793.4795891388653
 20
561.8017364429242
 30
0.0
 40
4.999999999999999
100
AcDbArc
 50
106.500947999995
 51
135.0000100000028
  0
ARC
  5
1FE
330
1F
100
AcDbEntity
  8
0
100
AcDbCircle
 10
758.2599416954959
 20
561.8017552395037
 30
0.0
 40
4.999999999999999
100
AcDbArc
 50
45.00005600000076
 51
73.499216
  0
ARC
  5
1FF
330
1F
100
AcDbEntity
  8
0
100
AcDbCircle
 10
793.4795949074773
 20
680.6949264513952
 30
0.0
 40
4.999999999999999
100
AcDbArc
 50
225.000059999998
 51
253.4990899999986
  0
ARC
  5
200
330
1F
100
AcDbEntity
  8
0
100
AcDbCircle
 10
775.8697654486202
 20
682.7484057867589
 30
0.0
 40
5.999999999999999
100
AcDbArc
 50
45.00000999999939
 51
135.0000100000028
  0
ARC
  5
201
330
1F
100
AcDbEntity
  8
0
100
AcDbCircle
 10
758.2599128230919
 20
680.6949252479745
 30
0.0
 40
4.999999999999999
100
AcDbArc
 50
286.5009899999993
 51
315.0000599999929
  0
CIRCLE
  5
202
330
1F
100
AcDbEntity
  8
0
100
AcDbCircle
 10
775.8697423207245
 20
621.2483258454494
 30
0.0
 40
25.00001525878963
  0
CIRCLE
  5
203
330
1F
100
AcDbEntity
  8
0
100
AcDbCircle
 10
775.8697423207245
 20
621.2483258454494
 30
0.0
 40
8.0
  0
CIRCLE
  5
204
330
1F
100
AcDbEntity
  8
0
100
AcDbCircle
 10
775.8697423207245
 20
621.2483258454494
 30
0.0
 40
7.50000000024
  0
LINE
  5
205
330
1F
100
AcDbEntity
  8
0
100
AcDbLine
 10
841.3697270619348
 20
630.2483858454493
 30
0.0
 11
825.9152461882361
 21
630.2483858454493
 31
0.0
  0
LINE
  5
206
330
1F
100
AcDbEntity
  8
0
100
AcDbLine
 10
841.3697270619348
 20
612.2482658454494
 30
0.0
 11
825.9152461882361
 21
612.2482658454494
 31
0.0
  0
LINE
  5
207
330
1F
100
AcDbEntity
  8
0
100
AcDbLine
 10
832.3697270619348
 20
612.2482658454494
 30
0.0
 11
832.3697270619348
 21
630.2483858454493
 31
0.0
  0
LINE
  5
208
330
1F
100
AcDbEntity
  8
0
100
AcDbLine
 10
825.9152461882361
 20
630.2483858454493
 30
0.0
 11
825.9152461882361
 21
612.2482658454494
 31
0.0
  0
LINE
  5
209
330
1F
100
AcDbEntity
  8
0
100
AcDbLine
 10
835.4336670619348
 20
625.9983858454493
 30
0.0
 11
832.3697270619348
 21
625.9026258454493
 31
0.0
  0
LINE
  5
20A
330
1F
100
AcDbEntity
  8
0
100
AcDbLine
 10
835.4350870619349
 20
616.4983258454493
 30
0.0
 11
832.3697670619349
 21
616.5941458454492
 31
0.0
  0
LINE
  5
20B
330
1F
100
AcDbEntity
  8
0
100
AcDbLine
 10
834.3697270619347
 20
625.9651858454494
 30
0.0
 11
834.3697270619347
 21
616.5315858454492
 31
0.0
  0
LINE
  5
20C
330
1F
100
AcDbEntity
  8
0
100
AcDbLine
 10
837.4336870619346
 20
616.4983258454493
 30
0.0
 11
835.4336870619347
 21
616.4983258454493
 31
0.0
  0
LINE
  5
20D
330
1F
100
AcDbEntity
  8
0
100
AcDbLine
 10
837.4336870619346
 20
625.9983258454493
 30
0.0
 11
835.4336870619347
 21
625.9983258454493
 31
0.0
  0
LINE
  5
20E
330
1F
100
AcDbEntity
  8
0
100
AcDbLine
 10
837.4336870619346
 20
626.2483258454493
 30
0.0
 11
837.4336870619346
 21
616.2483258454493
 31
0.0
  0
LINE
  5
20F
330
1F
100
AcDbEntity
  8
0
100
AcDbLine
 10
849.9336670619348
 20
626.2483258454493
 30
0.0
 11
837.4336870619346
 21
626.2483258454493
 31
0.0
  0
LINE
  5
210
330
1F
100
AcDbEntity
  8
0
100
AcDbLine
 10
849.9336670619348
 20
616.2483258454493
 30
0.0
 11
837.4336870619346
 21
616.2483258454493
 31
0.0
  0
LINE
  5
211
330
1F
100
AcDbEntity
  8
0
100
AcDbLine
 10
849.9336670619348
 20
626.2483258454493
 30
0.0
 11
849.9336670619348
 21
616.2483258454493
 31
0.0
  0
LINE
  5
212
330
1F
100
AcDbEntity
  8
0
100
AcDbLine
 10
841.3697270619348
 20
630.2483858454493
 30
0.0
 11
841.3697270619348
 21
626.2483258454493
 31
0.0
  0
LINE
  5
213
330
1F
100
AcDbEntity
  8
0
100
AcDbLine
 10
841.3697270619348
 20
616.2483258454492
 30
0.0
 11
841.3697270619348
 21
612.2482658454494
 31
0.0
  0
LINE
  5
214
330
1F
100
AcDbEntity
  8
0
100
AcDbLine
 10
748.3697270619349
 20
194.8113232280975
 30
0.0
 11
748.3697270619349
 21
173.5612966317716
 31
0.0
  0
LINE
  5
215
330
1F
100
AcDbEntity
  8
0
100
AcDbLine
 10
748.3697270619349
 20
173.5612966317716
 30
0.0
 11
741.869747061935
 21
167.0613898239748
 31
0.0
  0
LINE
  5
216
330
1F
100
AcDbEntity
  8
0
100
AcDbLine
 10
809.8697194325408
 20
167.0613239938573
 30
0.0
 11
809.869719432541
 21
165.8113232281005
 31
0.0
  0
LINE
  5
217
330
1F
100
AcDbEntity
  8
0
100
AcDbLine
 10
803.3697270619329
 20
194.8113232280992
 30
0.0
 11
803.3697270619342
 21
173.5612966317733
 31
0.0
  0
LINE
  5
218
330
1F
100
AcDbEntity
  8
0
100
AcDbLine
 10
803.3697270619342
 20
173.5612966317733
 30
0.0
 11
809.8697070619344
 21
167.061389823977
 31
0.0
  0
LINE
  5
26E
330
1F
100
AcDbEntity
  8
0
  6
CENTER
100
AcDbLine
 10
775.8697423207245
 20
549.3877437833361
 30
0.0
 11
775.8697423207245
 21
693.1089079075626
 31
0.0
  0
LINE
  5
26F
330
1F
100
AcDbEntity
  8
0
  6
CENTER
100
AcDbLine
 10
708.3976347534221
 20
621.2483258454494
 30
0.0
 11
865.2160134551911
 21
621.2483258454494
 31
0.0
  0
LINE
  5
270
330
1F
100
AcDbEntity
  8
0
  6
CENTER
100
AcDbLine
 10
775.8697270619348
 20
86.12280030506781
 30
0.0
 11
775.8697270619348
 21
329.3773139360328
 31
0.0
  0
LINE
  5
271
330
1F
100
AcDbEntity
  8
0
  6
CENTER
100
AcDbLine
 10
734.7782073662046
 20
139.8113232280975
 30
0.0
 11
866.7720763021065
 21
139.8113232280975
 31
0.0
  0
VIEWPORT
  5
71
330
55
100
AcDbEntity
 67
     1
  8
0
100
AcDbViewport
 10
133.3499908447265
 20
101.5999970436096
 30
0.0
 40
381.3957395593834
 41
218.2856291881582
 68
     1
 69
     1
 12
133.3499908447265
 22
101.5999970436096
 13
0.0
 23
0.0
 14
10.0
 24
10.0
 15
10.0
 25
10.0
 16
0.0
 26
0.0
 36
1.0
 17
0.0
 27
0.0
 37
0.0
 42
50.0
 43
0.0
 44
0.0
 45
218.2856291881582
 50
0.0
 51
0.0
 72
   100
 90
    32800
  1

281
     0
 71
     1
 74
     0
110
0.0
120
0.0
130
0.0
111
1.0
121
0.0
131
0.0
112
0.0
122
1.0
132
0.0
 79
     0
146
0.0
  0
VIEWPORT
  5
73
330
55
100
AcDbEntity
 67
     1
  8
0
100
AcDbViewport
 10
133.349993944168
 20
101.599993944168
 30
0.0
 40
213.3599903106689
 41
162.5599903106689
 68
     2
 69
     2
 12
210.0
 22
148.5
 13
0.0
 23
0.0
 14
10.0
 24
10.0
 15
10.0
 25
10.0
 16
0.0
 26
0.0
 36
1.0
 17
0.0
 27
0.0
 37
0.0
 42
50.0
 43
0.0
 44
0.0
 45
324.0677920111345
 50
0.0
 51
0.0
 72
   100
 90
    32864
  1

281
     0
 71
     1
 74
     0
110
0.0
120
0.0
130
0.0
111
1.0
121
0.0
131
0.0
112
0.0
122
1.0
132
0.0
 79
     0
146
0.0
  0
ENDSEC
  0
SECTION
  2
OBJECTS
  0
DICTIONARY
  5
C
330
0
100
AcDbDictionary
281
     1
  3
ACAD_GROUP
350
D
  3
ACAD_LAYOUT
350
1A
  3
ACAD_MLINESTYLE
350
17
  3
ACAD_PLOTSETTINGS
350
19
  3
ACAD_PLOTSTYLENAME
350
E
  3
AcDbVariableDictionary
350
5E
  0
DICTIONARY
  5
266
330
2
100
AcDbDictionary
280
     1
281
     1
  3
ACAD_LAYERSTATES
360
267
  0
DICTIONARY
  5
21E
330
1F
100
AcDbDictionary
280
     1
281
     1
  3
ACAD_LAYOUTSELFREF
360
255
  0
DICTIONARY
  5
220
330
55
100
AcDbDictionary
280
     1
281
     1
  3
ACAD_LAYOUTSELFREF
360
259
  0
DICTIONARY
  5
222
330
50
100
AcDbDictionary
280
     1
281
     1
  3
ACAD_LAYOUTSELFREF
360
258
  0
DICTIONARY
  5
D
102
{ACAD_REACTORS
330
C
102
}
330
C
100
AcDbDictionary
281
     1
  0
DICTIONARY
  5
1A
102
{ACAD_REACTORS
330
C
102
}
330
C
100
AcDbDictionary
281
     1
  3
Model
350
22
  3
ﾚｲｱｳﾄ1
350
51
  3
ﾚｲｱｳﾄ2
350
56
  0
DICTIONARY
  5
17
102
{ACAD_REACTORS
330
C
102
}
330
C
100
AcDbDictionary
281
     1
  3
Standard
350
18
  0
DICTIONARY
  5
19
102
{ACAD_REACTORS
330
C
102
}
330
C
100
AcDbDictionary
281
     1
  0
ACDBDICTIONARYWDFLT
  5
E
102
{ACAD_REACTORS
330
C
102
}
330
C
100
AcDbDictionary
281
     1
  3
Normal
350
F
100
AcDbDictionaryWithDefault
340
F
  0
DICTIONARY
  5
5E
102
{ACAD_REACTORS
330
C
102
}
330
C
100
AcDbDictionary
281
     1
  3
DIMASSOC
350
5F
  3
HIDETEXT
350
63
  0
DICTIONARY
  5
267
102
{ACAD_REACTORS
330
266
102
}
330
266
100
AcDbDictionary
281
     1
  0
XRECORD
  5
255
102
{ACAD_REACTORS
330
21E
102
}
330
21E
100
AcDbXrecord
280
     1
340
1F
  0
XRECORD
  5
259
102
{ACAD_REACTORS
330
220
102
}
330
220
100
AcDbXrecord
280
     1
340
55
  0
XRECORD
  5
258
102
{ACAD_REACTORS
330
222
102
}
330
222
100
AcDbXrecord
280
     1
340
50
  0
LAYOUT
  5
22
102
{ACAD_REACTORS
330
1A
102
}
330
1A
100
AcDbPlotSettings
  1

  2
none_device
  4
ANSI_A_(8.50_x_11.00_Inches)
  6

 40
6.349999904632568
 41
19.04999923706054
 42
6.350006103515625
 43
19.04998779296875
 44
215.8999938964843
 45
279.3999938964843
 46
0.0
 47
0.0
 48
0.0
 49
0.0
140
0.0
141
0.0
142
1.0
143
78.436453180766
 70
 11952
 72
     0
 73
     1
 74
     0
  7

 75
     0
147
0.0127491741332998
148
0.0
149
0.0
100
AcDbLayout
  1
Model
 70
     1
 71
     0
 10
0.0
 20
0.0
 11
12.0
 21
9.0
 12
0.0
 22
0.0
 32
0.0
 14
0.0
 24
0.0
 34
0.0
 15
0.0
 25
0.0
 35
0.0
146
0.0
 13
0.0
 23
0.0
 33
0.0
 16
1.0
 26
0.0
 36
0.0
 17
0.0
 27
1.0
 37
0.0
 76
     0
330
1F
  0
LAYOUT
  5
51
102
{ACAD_REACTORS
330
1A
102
}
330
1A
100
AcDbPlotSettings
  1

  2
none_device
  4
Letter_(8.50_x_11.00_Inches)
  6

 40
6.349999904632568
 41
6.349999904632568
 42
6.350006103515625
 43
6.350006103515625
 44
215.8999938964843
 45
279.3999938964843
 46
0.0
 47
0.0
 48
0.0
 49
0.0
140
0.0
141
0.0
142
1.0
143
1.0
 70
   688
 72
     1
 73
     1
 74
     5
  7

 75
    16
147
1.0
148
0.0
149
0.0
100
AcDbLayout
  1
ﾚｲｱｳﾄ1
 70
     1
 71
     1
 10
-6.350006103515625
 20
-6.349999904632568
 11
273.0499877929687
 21
209.5499939918517
 12
0.0
 22
0.0
 32
0.0
 14
26.66076962115562
 24
20.31135699206657
 34
-0.0015258207003583
 15
240.039213369355
 25
182.8886381005154
 35
0.0000000349246037
146
0.0
 13
0.0
 23
0.0
 33
0.0
 16
1.0
 26
0.0
 36
0.0
 17
0.0
 27
1.0
 37
0.0
 76
     0
330
50
331
6B
  0
LAYOUT
  5
56
102
{ACAD_REACTORS
330
1A
102
}
330
1A
100
AcDbPlotSettings
  1

  2
none_device
  4
Letter_(8.50_x_11.00_Inches)
  6

 40
6.349999904632568
 41
6.349999904632568
 42
6.350006103515625
 43
6.350006103515625
 44
215.8999938964843
 45
279.3999938964843
 46
0.0
 47
0.0
 48
0.0
 49
0.0
140
0.0
141
0.0
142
1.0
143
1.0
 70
   688
 72
     1
 73
     1
 74
     5
  7

 75
    16
147
1.0
148
0.0
149
0.0
100
AcDbLayout
  1
ﾚｲｱｳﾄ2
 70
     1
 71
     2
 10
-6.350006103515625
 20
-6.349999904632568
 11
273.0499877929687
 21
209.5499939918517
 12
0.0
 22
0.0
 32
0.0
 14
26.66076962115562
 24
20.31135699206657
 34
-0.0015258207003583
 15
240.039213369355
 25
182.8886381005154
 35
0.0000000349246037
146
0.0
 13
0.0
 23
0.0
 33
0.0
 16
1.0
 26
0.0
 36
0.0
 17
0.0
 27
1.0
 37
0.0
 76
     0
330
55
331
71
  0
MLINESTYLE
  5
18
102
{ACAD_REACTORS
330
17
102
}
330
17
100
AcDbMlineStyle
  2
STANDARD
 70
     0
  3

 62
   256
 51
90.0
 52
90.0
 71
     2
 49
0.5
 62
   256
  6
BYLAYER
 49
-0.5
 62
   256
  6
BYLAYER
  0
ACDBPLACEHOLDER
  5
F
102
{ACAD_REACTORS
330
E
102
}
330
E
  0
DICTIONARYVAR
  5
5F
102
{ACAD_REACTORS
330
5E
102
}
330
5E
100
DictionaryVariables
280
     0
  1
2
  0
DICTIONARYVAR
  5
63
102
{ACAD_REACTORS
330
5E
102
}
330
5E
100
DictionaryVariables
280
     0
  1
1
  0
ENDSEC
  0
EOF
