  0
SECTION
  2
HEADER
  9
$ACADVER
  1
AC1015
  9
$ACADMAINTVER
 70
    14
  9
$DWGCODEPAGE
  3
ANSI_932
  9
$INSBASE
 10
0.0
 20
0.0
 30
0.0
  9
$EXTMIN
 10
292.418051022332
 20
177.8152976412234
 30
-0.0000000000112498
  9
$EXTMAX
 10
858.1964412899026
 20
674.0106232625801
 30
0.0000000000002956
  9
$LIMMIN
 10
-44.912933
 20
-21.841471
  9
$LIMMAX
 10
153.5627299999999
 20
105.04179
  9
$ORTHOMODE
 70
     0
  9
$REGENMODE
 70
     1
  9
$FILLMODE
 70
     1
  9
$QTEXTMODE
 70
     0
  9
$MIRRTEXT
 70
     1
  9
$LTSCALE
 40
1.0
  9
$ATTMODE
 70
     1
  9
$TEXTSIZE
 40
0.2
  9
$TRACEWID
 40
0.05
  9
$TEXTSTYLE
  7
STANDARD
  9
$CLAYER
  8
0
  9
$CELTYPE
  6
CONTINUOUS
  9
$CECOLOR
 62
   256
  9
$CELTSCALE
 40
1.0
  9
$DISPSILH
 70
     0
  9
$DIMSCALE
 40
1.0
  9
$DIMASZ
 40
15.0
  9
$DIMEXO
 40
5.0
  9
$DIMDLI
 40
10.0
  9
$DIMRND
 40
0.0
  9
$DIMDLE
 40
0.0
  9
$DIMEXE
 40
10.0
  9
$DIMTP
 40
0.0
  9
$DIMTM
 40
0.0
  9
$DIMTXT
 40
20.0
  9
$DIMCEN
 40
0.09
  9
$DIMTSZ
 40
0.0
  9
$DIMTOL
 70
     0
  9
$DIMLIM
 70
     0
  9
$DIMTIH
 70
     0
  9
$DIMTOH
 70
     1
  9
$DIMSE1
 70
     0
  9
$DIMSE2
 70
     0
  9
$DIMTAD
 70
     1
  9
$DIMZIN
 70
     8
  9
$DIMBLK
  1

  9
$DIMASO
 70
     1
  9
$DIMSHO
 70
     0
  9
$DIMPOST
  1

  9
$DIMAPOST
  1

  9
$DIMALT
 70
     0
  9
$DIMALTD
 70
     2
  9
$DIMALTF
 40
25.4
  9
$DIMLFAC
 40
1.0
  9
$DIMTOFL
 70
     0
  9
$DIMTVP
 40
0.0
  9
$DIMTIX
 70
     0
  9
$DIMSOXD
 70
     0
  9
$DIMSAH
 70
     0
  9
$DIMBLK1
  1

  9
$DIMBLK2
  1

  9
$DIMSTYLE
  2
STANDARD
  9
$DIMCLRD
 70
     0
  9
$DIMCLRE
 70
     0
  9
$DIMCLRT
 70
     0
  9
$DIMTFAC
 40
1.0
  9
$DIMGAP
 40
5.0
  9
$DIMJUST
 70
     0
  9
$DIMSD1
 70
     0
  9
$DIMSD2
 70
     0
  9
$DIMTOLJ
 70
     1
  9
$DIMTZIN
 70
     0
  9
$DIMALTZ
 70
     0
  9
$DIMALTTZ
 70
     0
  9
$DIMUPT
 70
     0
  9
$DIMDEC
 70
     4
  9
$DIMTDEC
 70
     4
  9
$DIMALTU
 70
     2
  9
$DIMALTTD
 70
     2
  9
$DIMTXSTY
  7
STANDARD
  9
$DIMAUNIT
 70
     0
  9
$DIMADEC
 70
     0
  9
$DIMALTRND
 40
0.0
  9
$DIMAZIN
 70
     0
  9
$DIMDSEP
 70
    46
  9
$DIMATFIT
 70
     3
  9
$DIMFRAC
 70
     0
  9
$DIMLDRBLK
  1

  9
$DIMLUNIT
 70
     2
  9
$DIMLWD
 70
    -2
  9
$DIMLWE
 70
    -2
  9
$DIMTMOVE
 70
     0
  9
$LUNITS
 70
     2
  9
$LUPREC
 70
     4
  9
$SKETCHINC
 40
0.1
  9
$FILLETRAD
 40
0.0
  9
$AUNITS
 70
     0
  9
$AUPREC
 70
     0
  9
$MENU
  1
.
  9
$ELEVATION
 40
0.0
  9
$PELEVATION
 40
0.0
  9
$THICKNESS
 40
0.0
  9
$LIMCHECK
 70
     0
  9
$CHAMFERA
 40
0.0
  9
$CHAMFERB
 40
0.0
  9
$CHAMFERC
 40
0.0
  9
$CHAMFERD
 40
0.0
  9
$SKPOLY
 70
     0
  9
$TDCREATE
 40
2452488.423177615
  9
$TDUCREATE
 40
2452488.048177615
  9
$TDUPDATE
 40
2456899.667927129
  9
$TDUUPDATE
 40
2456899.292927129
  9
$TDINDWG
 40
0.0592810069
  9
$TDUSRTIMER
 40
0.0592810069
  9
$USRTIMER
 70
     1
  9
$ANGBASE
 50
0.0
  9
$ANGDIR
 70
     0
  9
$PDMODE
 70
     3
  9
$PDSIZE
 40
0.0
  9
$PLINEWID
 40
0.0
  9
$SPLFRAME
 70
     0
  9
$SPLINETYPE
 70
     6
  9
$SPLINESEGS
 70
     8
  9
$HANDSEED
  5
104B
  9
$SURFTAB1
 70
     6
  9
$SURFTAB2
 70
     6
  9
$SURFTYPE
 70
     6
  9
$SURFU
 70
     6
  9
$SURFV
 70
     6
  9
$UCSBASE
  2

  9
$UCSNAME
  2

  9
$UCSORG
 10
0.0
 20
0.0
 30
0.0
  9
$UCSXDIR
 10
1.0
 20
0.0
 30
0.0
  9
$UCSYDIR
 10
0.0
 20
1.0
 30
0.0
  9
$UCSORTHOREF
  2

  9
$UCSORTHOVIEW
 70
     0
  9
$UCSORGTOP
 10
0.0
 20
0.0
 30
0.0
  9
$UCSORGBOTTOM
 10
0.0
 20
0.0
 30
0.0
  9
$UCSORGLEFT
 10
0.0
 20
0.0
 30
0.0
  9
$UCSORGRIGHT
 10
0.0
 20
0.0
 30
0.0
  9
$UCSORGFRONT
 10
0.0
 20
0.0
 30
0.0
  9
$UCSORGBACK
 10
0.0
 20
0.0
 30
0.0
  9
$PUCSBASE
  2

  9
$PUCSNAME
  2

  9
$PUCSORG
 10
0.0
 20
0.0
 30
0.0
  9
$PUCSXDIR
 10
1.0
 20
0.0
 30
0.0
  9
$PUCSYDIR
 10
0.0
 20
1.0
 30
0.0
  9
$PUCSORTHOREF
  2

  9
$PUCSORTHOVIEW
 70
     0
  9
$PUCSORGTOP
 10
0.0
 20
0.0
 30
0.0
  9
$PUCSORGBOTTOM
 10
0.0
 20
0.0
 30
0.0
  9
$PUCSORGLEFT
 10
0.0
 20
0.0
 30
0.0
  9
$PUCSORGRIGHT
 10
0.0
 20
0.0
 30
0.0
  9
$PUCSORGFRONT
 10
0.0
 20
0.0
 30
0.0
  9
$PUCSORGBACK
 10
0.0
 20
0.0
 30
0.0
  9
$USERI1
 70
     0
  9
$USERI2
 70
     0
  9
$USERI3
 70
     0
  9
$USERI4
 70
     0
  9
$USERI5
 70
     0
  9
$USERR1
 40
0.0
  9
$USERR2
 40
0.0
  9
$USERR3
 40
0.0
  9
$USERR4
 40
0.0
  9
$USERR5
 40
0.0
  9
$WORLDVIEW
 70
     1
  9
$SHADEDGE
 70
     3
  9
$SHADEDIF
 70
    70
  9
$TILEMODE
 70
     1
  9
$MAXACTVP
 70
    48
  9
$PINSBASE
 10
0.0
 20
0.0
 30
0.0
  9
$PLIMCHECK
 70
     0
  9
$PEXTMIN
 10
-44.912933
 20
-21.841471
 30
0.0
  9
$PEXTMAX
 10
153.5627299999999
 20
105.04179
 30
0.0
  9
$PLIMMIN
 10
-44.912933
 20
-21.841471
  9
$PLIMMAX
 10
153.5627299999999
 20
105.04179
  9
$UNITMODE
 70
     0
  9
$VISRETAIN
 70
     1
  9
$PLINEGEN
 70
     0
  9
$PSLTSCALE
 70
     1
  9
$TREEDEPTH
 70
  3020
  9
$CMLSTYLE
  2
Standard
  9
$CMLJUST
 70
     0
  9
$CMLSCALE
 40
1.0
  9
$PROXYGRAPHICS
 70
     1
  9
$MEASUREMENT
 70
     0
  9
$CELWEIGHT
370
    -1
  9
$ENDCAPS
280
     0
  9
$JOINSTYLE
280
     0
  9
$LWDISPLAY
290
     0
  9
$INSUNITS
 70
     0
  9
$HYPERLINKBASE
  1

  9
$STYLESHEET
  1

  9
$XEDIT
290
     1
  9
$CEPSNTYPE
380
     0
  9
$PSTYLEMODE
290
     1
  9
$FINGERPRINTGUID
  2
{1B44500D-03D2-4245-B50A-DFC2D118A33E}
  9
$VERSIONGUID
  2
{FAF6E465-B695-4ECA-A582-0CF3B5FD3C03}
  9
$EXTNAMES
290
     1
  9
$PSVPSCALE
 40
0.0
  9
$OLESTARTUP
290
     0
  0
ENDSEC
  0
SECTION
  2
CLASSES
  0
CLASS
  1
ACDBDICTIONARYWDFLT
  2
AcDbDictionaryWithDefault
  3
AutoCAD 2000
 90
        0
280
     0
281
     0
  0
CLASS
  1
ACDBPLACEHOLDER
  2
AcDbPlaceHolder
  3
AutoCAD 2000
 90
        0
280
     0
281
     0
  0
CLASS
  1
LAYOUT
  2
AcDbLayout
  3
AutoCAD 2000
 90
        0
280
     0
281
     0
  0
CLASS
  1
DICTIONARYVAR
  2
AcDbDictionaryVar
  3
AutoCAD 2000
 90
        0
280
     0
281
     0
  0
CLASS
  1
LONG_TRANSACTION
  2
AcDbLongTransaction
  3
AutoCAD 2000
 90
    32768
280
     0
281
     0
  0
CLASS
  1
LWPOLYLINE
  2
AcDbPolyline
  3
AutoCAD 2000
 90
    32768
280
     0
281
     1
  0
CLASS
  1
HATCH
  2
AcDbHatch
  3
AutoCAD 2000
 90
    32768
280
     0
281
     1
  0
CLASS
  1
XRECORD
  2
AcDbXrecord
  3
AutoCAD 2000
 90
    32768
280
     0
281
     0
  0
ENDSEC
  0
SECTION
  2
TABLES
  0
TABLE
  2
VPORT
  5
FD2
330
0
100
AcDbSymbolTable
 70
     2
  0
VPORT
  5
104A
330
FD2
100
AcDbSymbolTableRecord
100
AcDbViewportTableRecord
  2
*Active
 70
     0
 10
0.0
 20
0.0
 11
1.0
 21
1.0
 12
575.3072461561173
 22
425.9129604519017
 13
0.0
 23
0.0
 14
1.0
 24
1.0
 15
0.0
 25
0.0
 16
0.0
 26
0.0
 36
1.0
 17
0.0
 27
0.0
 37
0.0
 40
499.3457721332383
 41
1.592161016949152
 42
50.0
 43
0.0
 44
0.0
 50
0.0
 51
0.0
 71
     0
 72
   100
 73
     1
 74
     3
 75
     0
 76
     0
 77
     0
 78
     0
281
     0
 65
     1
110
0.0
120
0.0
130
0.0
111
1.0
121
0.0
131
0.0
112
0.0
122
1.0
132
0.0
 79
     0
146
0.0
  0
ENDTAB
  0
TABLE
  2
LTYPE
  5
FCF
330
0
100
AcDbSymbolTable
 70
     2
  0
LTYPE
  5
FDD
330
FCF
100
AcDbSymbolTableRecord
100
AcDbLinetypeTableRecord
  2
ByBlock
 70
     0
  3

 72
    65
 73
     0
 40
0.0
  0
LTYPE
  5
FDE
330
FCF
100
AcDbSymbolTableRecord
100
AcDbLinetypeTableRecord
  2
ByLayer
 70
     0
  3

 72
    65
 73
     0
 40
0.0
  0
LTYPE
  5
FDF
330
FCF
100
AcDbSymbolTableRecord
100
AcDbLinetypeTableRecord
  2
CONTINUOUS
 70
     0
  3
Solid line
 72
    65
 73
     0
 40
0.0
  0
LTYPE
  5
1032
330
FCF
100
AcDbSymbolTableRecord
100
AcDbLinetypeTableRecord
  2
CENTER
 70
     0
  3
__ . __
 72
    65
 73
     4
 40
7.0
 49
4.0
 74
     0
 49
-1.0
 74
     0
 49
1.0
 74
     0
 49
-1.0
 74
     0
  0
ENDTAB
  0
TABLE
  2
LAYER
  5
FCC
102
{ACAD_XDICTIONARY
360
1033
102
}
330
0
100
AcDbSymbolTable
 70
     1
  0
LAYER
  5
FDA
330
FCC
100
AcDbSymbolTableRecord
100
AcDbLayerTableRecord
  2
0
 70
     0
 62
     7
  6
CONTINUOUS
370
    -3
390
FD9
  0
ENDTAB
  0
TABLE
  2
STYLE
  5
FCD
330
0
100
AcDbSymbolTable
 70
     1
  0
STYLE
  5
FDB
330
FCD
100
AcDbSymbolTableRecord
100
AcDbTextStyleTableRecord
  2
STANDARD
 70
     0
 40
0.0
 41
1.0
 50
0.0
 71
     0
 42
0.2
  3
txt
  4

  0
ENDTAB
  0
TABLE
  2
VIEW
  5
FD0
330
0
100
AcDbSymbolTable
 70
     0
  0
ENDTAB
  0
TABLE
  2
UCS
  5
FD1
330
0
100
AcDbSymbolTable
 70
     0
  0
ENDTAB
  0
TABLE
  2
APPID
  5
FD3
330
0
100
AcDbSymbolTable
 70
     4
  0
APPID
  5
FDC
330
FD3
100
AcDbSymbolTableRecord
100
AcDbRegAppTableRecord
  2
ACAD
 70
     0
  0
APPID
  5
FEE
330
FD3
100
AcDbSymbolTableRecord
100
AcDbRegAppTableRecord
  2
MCAD_NO_VIS
 70
     0
  0
APPID
  5
FEF
330
FD3
100
AcDbSymbolTableRecord
100
AcDbRegAppTableRecord
  2
ACAD_TEMP_GRAPHIC
 70
     0
  0
APPID
  5
FF0
330
FD3
100
AcDbSymbolTableRecord
100
AcDbRegAppTableRecord
  2
ACATTRIBSERVICES
 70
     0
  0
ENDTAB
  0
TABLE
  2
DIMSTYLE
  5
FD4
330
0
100
AcDbSymbolTable
 70
     1
100
AcDbDimStyleTable
 71
     0
  0
DIMSTYLE
105
FF1
330
FD4
100
AcDbSymbolTableRecord
100
AcDbDimStyleTableRecord
  2
STANDARD
 70
     0
 41
15.0
 42
5.0
 43
10.0
 44
10.0
 73
     0
 77
     1
 78
     8
140
20.0
147
5.0
279
     2
284
     8
285
     8
286
     8
340
FDB
  0
ENDTAB
  0
TABLE
  2
BLOCK_RECORD
  5
FCB
330
0
100
AcDbSymbolTable
 70
     0
  0
BLOCK_RECORD
  5
FE8
102
{ACAD_XDICTIONARY
360
FF9
102
}
330
FCB
100
AcDbSymbolTableRecord
100
AcDbBlockTableRecord
  2
*Model_Space
340
FEB
  0
BLOCK_RECORD
  5
FE4
102
{ACAD_XDICTIONARY
360
FFB
102
}
330
FCB
100
AcDbSymbolTableRecord
100
AcDbBlockTableRecord
  2
*Paper_Space
340
FE7
  0
ENDTAB
  0
ENDSEC
  0
SECTION
  2
BLOCKS
  0
BLOCK
  5
FE9
330
FE8
100
AcDbEntity
  8
0
100
AcDbBlockBegin
  2
*Model_Space
 70
     0
 10
0.0
 20
0.0
 30
0.0
  3
*Model_Space
  1

  0
ENDBLK
  5
FEA
330
FE8
100
AcDbEntity
  8
0
100
AcDbBlockEnd
  0
BLOCK
  5
FE5
330
FE4
100
AcDbEntity
 67
     1
  8
0
100
AcDbBlockBegin
  2
*Paper_Space
 70
     0
 10
0.0
 20
0.0
 30
0.0
  3
*Paper_Space
  1

  0
ENDBLK
  5
FE6
330
FE4
100
AcDbEntity
 67
     1
  8
0
100
AcDbBlockEnd
  0
ENDSEC
  0
SECTION
  2
ENTITIES
  0
LINE
  5
481
330
FE8
100
AcDbEntity
  8
0
  6
Continuous
 62
     7
100
AcDbLine
 10
518.4999276998587
 20
314.725306551888
 30
0.0
 11
576.2499276998587
 21
314.725306551888
 31
0.0
  0
LINE
  5
482
330
FE8
100
AcDbEntity
  8
0
  6
Continuous
 62
     7
100
AcDbLine
 10
518.4999296998588
 20
314.7253075518879
 30
0.0
 11
513.0739576998588
 21
294.4753055518877
 31
0.0
  0
LINE
  5
483
330
FE8
100
AcDbEntity
  8
0
  6
Continuous
 62
     7
100
AcDbLine
 10
518.4999296998588
 20
210.7253055518877
 30
0.0
 11
513.0739576998588
 21
230.9753075518877
 31
0.0
  0
LINE
  5
484
330
FE8
100
AcDbEntity
  8
0
  6
Continuous
 62
     7
100
AcDbLine
 10
518.4999276998587
 20
210.725306551888
 30
0.0
 11
576.2499276998587
 21
210.725306551888
 31
0.0
  0
LINE
  5
485
330
FE8
100
AcDbEntity
  8
0
  6
Continuous
 62
     7
100
AcDbLine
 10
594.7499276998587
 20
314.725306551888
 30
0.0
 11
607.4059276998585
 21
314.725306551888
 31
0.0
  0
LINE
  5
486
330
FE8
100
AcDbEntity
  8
0
  6
Continuous
 62
     7
100
AcDbLine
 10
594.7499276998587
 20
210.725306551888
 30
0.0
 11
630.4999276998587
 21
210.725306551888
 31
0.0
  0
LINE
  5
487
330
FE8
100
AcDbEntity
  8
0
  6
Continuous
 62
     7
100
AcDbLine
 10
607.4059176998588
 20
314.7253025518875
 30
0.0
 11
630.4999176998584
 21
274.7253235518878
 31
0.0
  0
LINE
  5
488
330
FE8
100
AcDbEntity
  8
0
  6
Continuous
 62
     7
100
AcDbLine
 10
630.4999276998587
 20
274.725325551888
 30
0.0
 11
630.4999276998587
 21
210.725306551888
 31
0.0
  0
LINE
  5
489
330
FE8
100
AcDbEntity
  8
0
  6
Continuous
 62
     7
100
AcDbLine
 10
576.2499276998587
 20
330.225306551888
 30
0.0
 11
576.2499276998587
 21
195.225306551888
 31
0.0
  0
LINE
  5
48A
330
FE8
100
AcDbEntity
  8
0
  6
Continuous
 62
     7
100
AcDbLine
 10
576.2499276998587
 20
195.225306551888
 30
0.0
 11
594.7499276998587
 21
195.225306551888
 31
0.0
  0
LINE
  5
48B
330
FE8
100
AcDbEntity
  8
0
  6
Continuous
 62
     7
100
AcDbLine
 10
594.7499276998587
 20
330.225306551888
 30
0.0
 11
594.7499276998587
 21
195.225306551888
 31
0.0
  0
LINE
  5
48C
330
FE8
100
AcDbEntity
  8
0
  6
Continuous
 62
     7
100
AcDbLine
 10
576.2499276998587
 20
330.225306551888
 30
0.0
 11
594.7499276998587
 21
330.225306551888
 31
0.0
  0
LINE
  5
48D
330
FE8
100
AcDbEntity
  8
0
  6
Continuous
 62
     7
100
AcDbLine
 10
513.0739576998588
 20
294.475306551888
 30
0.0
 11
513.0739576998588
 21
230.9753065518878
 31
0.0
  0
LINE
  5
48E
330
FE8
100
AcDbEntity
  8
0
  6
Continuous
 62
     7
100
AcDbLine
 10
518.4999276998587
 20
314.725306551888
 30
0.0
 11
518.4999276998587
 21
210.725306551888
 31
0.0
  0
LINE
  5
48F
330
FE8
100
AcDbEntity
  8
0
  6
Continuous
 62
     7
100
AcDbLine
 10
607.4059276998585
 20
314.7253075518879
 30
0.0
 11
630.4999276998587
 21
210.7253045518878
 31
0.0
  0
CIRCLE
  5
4AF
330
FE8
100
AcDbEntity
  8
0
  6
Continuous
 62
     7
100
AcDbCircle
 10
773.3162133599607
 20
242.9753065518879
 30
0.0
 40
31.75
  0
ARC
  5
4B0
330
FE8
100
AcDbEntity
  8
0
  6
Continuous
 62
     7
100
AcDbCircle
 10
773.3162133599607
 20
262.725306551888
 30
0.0
 40
52.0
100
AcDbArc
 50
309.1662676477996
 51
230.8337323522001
  0
CIRCLE
  5
4B1
330
FE8
100
AcDbEntity
  8
0
  6
Continuous
 62
     7
100
AcDbCircle
 10
773.3162133599607
 20
262.725306551888
 30
0.0
 40
67.5
  0
LINE
  5
4B4
330
FE8
100
AcDbEntity
  8
0
  6
Continuous
 62
     7
100
AcDbLine
 10
518.4999276998587
 20
480.3197504695352
 30
0.0
 11
576.2499276998587
 21
480.3197504695352
 31
0.0
  0
LINE
  5
4B5
330
FE8
100
AcDbEntity
  8
0
  6
Continuous
 62
     7
100
AcDbLine
 10
518.4999296998588
 20
480.3197514695352
 30
0.0
 11
513.0739576998588
 21
460.0697494695355
 31
0.0
  0
LINE
  5
4B6
330
FE8
100
AcDbEntity
  8
0
  6
Continuous
 62
     7
100
AcDbLine
 10
518.4999336998588
 20
376.3197504695352
 30
0.0
 11
513.0739616998588
 21
396.5697524695356
 31
0.0
  0
LINE
  5
4B7
330
FE8
100
AcDbEntity
  8
0
  6
Continuous
 62
     7
100
AcDbLine
 10
518.4999316998587
 20
376.3197504695352
 30
0.0
 11
576.2499276998587
 21
376.3197504695352
 31
0.0
  0
LINE
  5
4B8
330
FE8
100
AcDbEntity
  8
0
  6
Continuous
 62
     7
100
AcDbLine
 10
594.7499276998587
 20
480.3197504695352
 30
0.0
 11
617.4999476998585
 21
480.3197504695352
 31
0.0
  0
LINE
  5
4B9
330
FE8
100
AcDbEntity
  8
0
  6
Continuous
 62
     7
100
AcDbLine
 10
617.4999276998587
 20
480.3197464695352
 30
0.0
 11
629.1912676998586
 21
460.0697484695351
 31
0.0
  0
LINE
  5
4BA
330
FE8
100
AcDbEntity
  8
0
  6
Continuous
 62
     7
100
AcDbLine
 10
594.7499276998587
 20
376.3197504695352
 30
0.0
 11
617.4999076998588
 21
376.3197504695352
 31
0.0
  0
LINE
  5
4BB
330
FE8
100
AcDbEntity
  8
0
  6
Continuous
 62
     7
100
AcDbLine
 10
617.4999176998584
 20
376.3197554695356
 30
0.0
 11
629.1912576998587
 21
396.5697534695355
 31
0.0
  0
LINE
  5
4BC
330
FE8
100
AcDbEntity
  8
0
  6
Continuous
 62
     7
100
AcDbLine
 10
576.2499276998587
 20
495.8197504695354
 30
0.0
 11
576.2499276998587
 21
360.8197504695354
 31
0.0
  0
LINE
  5
4BD
330
FE8
100
AcDbEntity
  8
0
  6
Continuous
 62
     7
100
AcDbLine
 10
576.2499276998587
 20
360.8197504695354
 30
0.0
 11
594.7499276998587
 21
360.8197504695354
 31
0.0
  0
LINE
  5
4BE
330
FE8
100
AcDbEntity
  8
0
  6
Continuous
 62
     7
100
AcDbLine
 10
594.7499276998587
 20
495.8197504695354
 30
0.0
 11
594.7499276998587
 21
360.8197504695354
 31
0.0
  0
LINE
  5
4BF
330
FE8
100
AcDbEntity
  8
0
  6
Continuous
 62
     7
100
AcDbLine
 10
576.2499276998587
 20
495.8197504695354
 30
0.0
 11
594.7499276998587
 21
495.8197504695354
 31
0.0
  0
LINE
  5
4C0
330
FE8
100
AcDbEntity
  8
0
  6
Continuous
 62
     7
100
AcDbLine
 10
513.0739576998588
 20
460.0697504695354
 30
0.0
 11
513.0739576998588
 21
396.5697544695352
 31
0.0
  0
LINE
  5
4C1
330
FE8
100
AcDbEntity
  8
0
  6
Continuous
 62
     7
100
AcDbLine
 10
518.4999276998587
 20
480.3197504695352
 30
0.0
 11
518.4999276998587
 21
376.3197544695354
 31
0.0
  0
LINE
  5
4C2
330
FE8
100
AcDbEntity
  8
0
  6
Continuous
 62
     7
100
AcDbLine
 10
617.4999476998585
 20
480.3197504695352
 30
0.0
 11
617.4999476998585
 21
376.3197774695352
 31
0.0
  0
LINE
  5
4C3
330
FE8
100
AcDbEntity
  8
0
  6
Continuous
 62
     7
100
AcDbLine
 10
629.1912776998588
 20
460.0697504695354
 30
0.0
 11
629.1912776998588
 21
396.5697794695356
 31
0.0
  0
LINE
  5
4C4
330
FE8
100
AcDbEntity
  8
0
  6
Continuous
 62
     7
100
AcDbLine
 10
582.4999276998587
 20
408.3197504695354
 30
0.0
 11
582.4999276998587
 21
418.3197504695352
 31
0.0
  0
LINE
  5
4C5
330
FE8
100
AcDbEntity
  8
0
  6
Continuous
 62
     7
100
AcDbLine
 10
602.4999076998588
 20
428.3197774435183
 30
0.0
 11
582.4999056998583
 21
408.3197744695352
 31
0.0
  0
LINE
  5
4C6
330
FE8
100
AcDbEntity
  8
0
  6
Continuous
 62
     7
100
AcDbLine
 10
582.4999276998587
 20
438.3197504695352
 30
0.0
 11
582.4999276998587
 21
448.3197504695352
 31
0.0
  0
LINE
  5
4C7
330
FE8
100
AcDbEntity
  8
0
  6
Continuous
 62
     7
100
AcDbLine
 10
582.4999276998587
 20
438.3197504695352
 30
0.0
 11
546.0062526998583
 21
438.3197504695352
 31
0.0
  0
LINE
  5
4C8
330
FE8
100
AcDbEntity
  8
0
  6
Continuous
 62
     7
100
AcDbLine
 10
582.4999276998587
 20
418.3197504695352
 30
0.0
 11
546.0062526998583
 21
418.3197504695352
 31
0.0
  0
LINE
  5
4C9
330
FE8
100
AcDbEntity
  8
0
  6
Continuous
 62
     7
100
AcDbLine
 10
582.4999166998584
 20
448.3197374695349
 30
0.0
 11
602.4999176998584
 21
428.3197342851452
 31
0.0
  0
LINE
  5
4CA
330
FE8
100
AcDbEntity
  8
0
  6
Continuous
 62
     7
100
AcDbLine
 10
546.0062526998583
 20
418.3197504695352
 30
0.0
 11
546.0062526998583
 21
438.3197504695352
 31
0.0
  0
CIRCLE
  5
505
330
FE8
100
AcDbEntity
  8
0
  6
Continuous
 62
     7
100
AcDbCircle
 10
377.3189802107852
 20
262.725306551888
 30
0.0
 40
52.0
  0
CIRCLE
  5
506
330
FE8
100
AcDbEntity
  8
0
  6
Continuous
 62
     7
100
AcDbCircle
 10
377.3189802107852
 20
262.725306551888
 30
0.0
 40
67.5
  0
CIRCLE
  5
507
330
FE8
100
AcDbEntity
  8
0
  6
Continuous
 62
     7
100
AcDbCircle
 10
377.3189802107852
 20
262.725306551888
 30
0.0
 40
31.75
  0
LINE
  5
7CF
330
FE8
100
AcDbEntity
  8
0
  6
Continuous
 62
     7
100
AcDbLine
 10
655.4999276998587
 20
204.225306551888
 30
0.0
 11
652.6499284998585
 21
204.225306551888
 31
0.0
  0
LINE
  5
7D0
330
FE8
100
AcDbEntity
  8
0
  6
Continuous
 62
     7
100
AcDbLine
 10
652.6499284998585
 20
204.225306551888
 30
0.0
 11
650.1021370998587
 21
211.2253055518876
 31
0.0
  0
LINE
  5
7D1
330
FE8
100
AcDbEntity
  8
0
  6
Continuous
 62
     7
100
AcDbLine
 10
650.1021367998587
 20
211.225306551888
 30
0.0
 11
630.4999276998587
 21
211.225306551888
 31
0.0
  0
LINE
  5
7D2
330
FE8
100
AcDbEntity
  8
0
  6
Continuous
 62
     7
100
AcDbLine
 10
655.4999276998587
 20
281.725306551888
 30
0.0
 11
655.4999276998587
 21
204.225306551888
 31
0.0
  0
LINE
  5
7D3
330
FE8
100
AcDbEntity
  8
0
  6
Continuous
 62
     7
100
AcDbLine
 10
650.1021367998587
 20
274.725306551888
 30
0.0
 11
630.4999276998587
 21
274.725306551888
 31
0.0
  0
LINE
  5
7D4
330
FE8
100
AcDbEntity
  8
0
  6
Continuous
 62
     7
100
AcDbLine
 10
652.6499284998585
 20
281.725306551888
 30
0.0
 11
650.1021370998587
 21
274.7253075518879
 31
0.0
  0
LINE
  5
7D5
330
FE8
100
AcDbEntity
  8
0
  6
Continuous
 62
     7
100
AcDbLine
 10
655.4999276998587
 20
281.725306551888
 30
0.0
 11
652.6499284998585
 21
281.725306551888
 31
0.0
  0
LINE
  5
7D7
330
FE8
100
AcDbEntity
  8
0
  6
Continuous
 62
     7
100
AcDbLine
 10
650.1021367998587
 20
211.225306551888
 30
0.0
 11
650.1021367998587
 21
274.725306551888
 31
0.0
  0
LINE
  5
7DA
330
FE8
100
AcDbEntity
  8
0
  6
Continuous
 62
     7
100
AcDbLine
 10
485.4999276998586
 20
301.475306551888
 30
0.0
 11
488.3499268998589
 21
301.475306551888
 31
0.0
  0
LINE
  5
7DB
330
FE8
100
AcDbEntity
  8
0
  6
Continuous
 62
     7
100
AcDbLine
 10
488.3499268998589
 20
301.475306551888
 30
0.0
 11
490.8977182998587
 21
294.4753075518879
 31
0.0
  0
LINE
  5
7DC
330
FE8
100
AcDbEntity
  8
0
  6
Continuous
 62
     7
100
AcDbLine
 10
490.8977185998587
 20
294.475306551888
 30
0.0
 11
513.0739576998588
 21
294.475306551888
 31
0.0
  0
LINE
  5
7DD
330
FE8
100
AcDbEntity
  8
0
  6
Continuous
 62
     7
100
AcDbLine
 10
485.4999276998586
 20
223.9753065518879
 30
0.0
 11
485.4999276998586
 21
301.475306551888
 31
0.0
  0
LINE
  5
7DE
330
FE8
100
AcDbEntity
  8
0
  6
Continuous
 62
     7
100
AcDbLine
 10
490.8977185998587
 20
230.9753065518878
 30
0.0
 11
513.0739576998588
 21
230.9753065518878
 31
0.0
  0
LINE
  5
7DF
330
FE8
100
AcDbEntity
  8
0
  6
Continuous
 62
     7
100
AcDbLine
 10
488.3499268998589
 20
223.9753065518879
 30
0.0
 11
490.8977182998587
 21
230.9753055518874
 31
0.0
  0
LINE
  5
7E0
330
FE8
100
AcDbEntity
  8
0
  6
Continuous
 62
     7
100
AcDbLine
 10
485.4999276998586
 20
223.9753065518879
 30
0.0
 11
488.3499268998589
 21
223.9753065518879
 31
0.0
  0
LINE
  5
7E2
330
FE8
100
AcDbEntity
  8
0
  6
Continuous
 62
     7
100
AcDbLine
 10
490.8977185998587
 20
294.475306551888
 30
0.0
 11
490.8977185998587
 21
230.9753065518878
 31
0.0
  0
LINE
  5
853
330
FE8
100
AcDbEntity
  8
0
  6
Continuous
 62
     7
100
AcDbLine
 10
655.4999276998587
 20
389.5697504695354
 30
0.0
 11
652.6499284998585
 21
389.5697504695354
 31
0.0
  0
LINE
  5
854
330
FE8
100
AcDbEntity
  8
0
  6
Continuous
 62
     7
100
AcDbLine
 10
652.6499284998585
 20
389.5697504695354
 30
0.0
 11
650.1021370998587
 21
396.5697494695355
 31
0.0
  0
LINE
  5
855
330
FE8
100
AcDbEntity
  8
0
  6
Continuous
 62
     7
100
AcDbLine
 10
650.1021367998587
 20
396.5697504695354
 30
0.0
 11
629.1912776998588
 21
396.5697504695354
 31
0.0
  0
LINE
  5
856
330
FE8
100
AcDbEntity
  8
0
  6
Continuous
 62
     7
100
AcDbLine
 10
655.4999276998587
 20
467.0697504695352
 30
0.0
 11
655.4999276998587
 21
389.5697504695354
 31
0.0
  0
LINE
  5
857
330
FE8
100
AcDbEntity
  8
0
  6
Continuous
 62
     7
100
AcDbLine
 10
650.1021367998587
 20
460.0697504695354
 30
0.0
 11
629.1912776998588
 21
460.0697504695354
 31
0.0
  0
LINE
  5
858
330
FE8
100
AcDbEntity
  8
0
  6
Continuous
 62
     7
100
AcDbLine
 10
652.6499284998585
 20
467.0697504695352
 30
0.0
 11
650.1021370998587
 21
460.0697514695352
 31
0.0
  0
LINE
  5
859
330
FE8
100
AcDbEntity
  8
0
  6
Continuous
 62
     7
100
AcDbLine
 10
655.4999276998587
 20
467.0697504695352
 30
0.0
 11
652.6499284998585
 21
467.0697504695352
 31
0.0
  0
LINE
  5
85B
330
FE8
100
AcDbEntity
  8
0
  6
Continuous
 62
     7
100
AcDbLine
 10
650.1021367998587
 20
396.5697504695354
 30
0.0
 11
650.1021367998587
 21
460.0697504695354
 31
0.0
  0
LINE
  5
86A
330
FE8
100
AcDbEntity
  8
0
  6
Continuous
 62
     7
100
AcDbLine
 10
485.4999276998586
 20
467.0697504695352
 30
0.0
 11
488.3499268998589
 21
467.0697504695352
 31
0.0
  0
LINE
  5
86B
330
FE8
100
AcDbEntity
  8
0
  6
Continuous
 62
     7
100
AcDbLine
 10
488.3499268998589
 20
467.0697504695352
 30
0.0
 11
490.8977182998587
 21
460.0697514695352
 31
0.0
  0
LINE
  5
86C
330
FE8
100
AcDbEntity
  8
0
  6
Continuous
 62
     7
100
AcDbLine
 10
490.8977185998587
 20
460.0697504695354
 30
0.0
 11
513.0739576998588
 21
460.0697504695354
 31
0.0
  0
LINE
  5
86D
330
FE8
100
AcDbEntity
  8
0
  6
Continuous
 62
     7
100
AcDbLine
 10
485.4999276998586
 20
389.5697504695354
 30
0.0
 11
485.4999276998586
 21
467.0697504695352
 31
0.0
  0
LINE
  5
86E
330
FE8
100
AcDbEntity
  8
0
  6
Continuous
 62
     7
100
AcDbLine
 10
490.8977185998587
 20
396.5697504695354
 30
0.0
 11
513.0739622357578
 21
396.5697504695354
 31
0.0
  0
LINE
  5
86F
330
FE8
100
AcDbEntity
  8
0
  6
Continuous
 62
     7
100
AcDbLine
 10
488.3499268998589
 20
389.5697504695354
 30
0.0
 11
490.8977182998587
 21
396.5697494695355
 31
0.0
  0
LINE
  5
870
330
FE8
100
AcDbEntity
  8
0
  6
Continuous
 62
     7
100
AcDbLine
 10
485.4999276998586
 20
389.5697504695354
 30
0.0
 11
488.3499268998589
 21
389.5697504695354
 31
0.0
  0
LINE
  5
872
330
FE8
100
AcDbEntity
  8
0
  6
Continuous
 62
     7
100
AcDbLine
 10
490.8977185998587
 20
460.0697504695354
 30
0.0
 11
490.8977185998587
 21
396.5697504695354
 31
0.0
  0
LINE
  5
93D
330
FE8
100
AcDbEntity
  8
0
  6
Continuous
 62
     7
100
AcDbLine
 10
582.4999276998587
 20
408.5816414695352
 30
0.0
 11
602.3689576998584
 21
428.4507132295352
 31
0.0
  0
LINE
  5
93E
330
FE8
100
AcDbEntity
  8
0
  6
Continuous
 62
     7
100
AcDbLine
 10
582.4999276998587
 20
413.0717734695352
 30
0.0
 11
600.1238976998587
 21
430.6957774695352
 31
0.0
  0
LINE
  5
93F
330
FE8
100
AcDbEntity
  8
0
  6
Continuous
 62
     7
100
AcDbLine
 10
582.4999276998587
 20
417.5619064695352
 30
0.0
 11
597.8788276998589
 21
432.9408417695352
 31
0.0
  0
LINE
  5
940
330
FE8
100
AcDbEntity
  8
0
  6
Continuous
 62
     7
100
AcDbLine
 10
578.7676466998584
 20
418.3197504695352
 30
0.0
 11
595.6337676998588
 21
435.1859060695355
 31
0.0
  0
LINE
  5
941
330
FE8
100
AcDbEntity
  8
0
  6
Continuous
 62
     7
100
AcDbLine
 10
574.2775236998586
 20
418.3197504695352
 30
0.0
 11
593.388707699859
 21
437.4309703695351
 31
0.0
  0
LINE
  5
942
330
FE8
100
AcDbEntity
  8
0
  6
Continuous
 62
     7
100
AcDbLine
 10
569.7873996998587
 20
418.3197504695352
 30
0.0
 11
591.1436376998584
 21
439.6760344695352
 31
0.0
  0
LINE
  5
943
330
FE8
100
AcDbEntity
  8
0
  6
Continuous
 62
     7
100
AcDbLine
 10
565.2972766998584
 20
418.3197504695352
 30
0.0
 11
588.8985776998588
 21
441.9210984695348
 31
0.0
  0
LINE
  5
944
330
FE8
100
AcDbEntity
  8
0
  6
Continuous
 62
     7
100
AcDbLine
 10
560.8071526998586
 20
418.3197504695352
 30
0.0
 11
580.8071126998587
 21
438.3197504695352
 31
0.0
  0
LINE
  5
945
330
FE8
100
AcDbEntity
  8
0
  6
Continuous
 62
     7
100
AcDbLine
 10
582.4999276998587
 20
440.0125684695352
 30
0.0
 11
586.6535176998585
 21
444.1661634695351
 31
0.0
  0
LINE
  5
946
330
FE8
100
AcDbEntity
  8
0
  6
Continuous
 62
     7
100
AcDbLine
 10
556.3170296998588
 20
418.3197504695352
 30
0.0
 11
576.3169896998588
 21
438.3197504695352
 31
0.0
  0
LINE
  5
947
330
FE8
100
AcDbEntity
  8
0
  6
Continuous
 62
     7
100
AcDbLine
 10
582.4999276998587
 20
444.5027014695356
 30
0.0
 11
584.4084506998588
 21
446.4112274695351
 31
0.0
  0
LINE
  5
948
330
FE8
100
AcDbEntity
  8
0
  6
Continuous
 62
     7
100
AcDbLine
 10
551.8269056998588
 20
418.3197504695352
 30
0.0
 11
571.8268656998588
 21
438.3197504695352
 31
0.0
  0
LINE
  5
949
330
FE8
100
AcDbEntity
  8
0
  6
Continuous
 62
     7
100
AcDbLine
 10
547.3367826998586
 20
418.3197504695352
 30
0.0
 11
567.3367426998587
 21
438.3197504695352
 31
0.0
  0
LINE
  5
94A
330
FE8
100
AcDbEntity
  8
0
  6
Continuous
 62
     7
100
AcDbLine
 10
546.0062526998583
 20
421.4793503695354
 30
0.0
 11
562.8466186998588
 21
438.3197504695352
 31
0.0
  0
LINE
  5
94B
330
FE8
100
AcDbEntity
  8
0
  6
Continuous
 62
     7
100
AcDbLine
 10
546.0062526998583
 20
425.9694828695351
 30
0.0
 11
558.3564956998587
 21
438.3197504695352
 31
0.0
  0
LINE
  5
94C
330
FE8
100
AcDbEntity
  8
0
  6
Continuous
 62
     7
100
AcDbLine
 10
546.0062526998583
 20
430.4596153695351
 30
0.0
 11
553.8663716998585
 21
438.3197504695352
 31
0.0
  0
LINE
  5
94D
330
FE8
100
AcDbEntity
  8
0
  6
Continuous
 62
     7
100
AcDbLine
 10
546.0062526998583
 20
434.9497478695352
 30
0.0
 11
549.3762486998588
 21
438.3197504695352
 31
0.0
  0
CIRCLE
  5
AE6
330
FE8
100
AcDbEntity
  8
0
  6
Continuous
 62
     7
100
AcDbCircle
 10
377.3189802107852
 20
262.725306551888
 30
0.0
 40
38.75
  0
CIRCLE
  5
AE7
330
FE8
100
AcDbEntity
  8
0
  6
Continuous
 62
     7
100
AcDbCircle
 10
773.3162133599607
 20
242.9753065518879
 30
0.0
 40
38.75
  0
LINE
  5
AEB
330
FE8
100
AcDbEntity
  8
0
  6
Continuous
 62
     7
100
AcDbLine
 10
582.4999216998584
 20
272.7253130159896
 30
0.0
 11
546.0062466998583
 21
272.7253130159896
 31
0.0
  0
LINE
  5
AEC
330
FE8
100
AcDbEntity
  8
0
  6
Continuous
 62
     7
100
AcDbLine
 10
546.0062466998583
 20
269.3553104159894
 30
0.0
 11
549.3762426998585
 21
272.7253130159896
 31
0.0
  0
LINE
  5
AED
330
FE8
100
AcDbEntity
  8
0
  6
Continuous
 62
     7
100
AcDbLine
 10
582.4999216998584
 20
252.7253130159897
 30
0.0
 11
546.0062466998583
 21
252.7253130159897
 31
0.0
  0
LINE
  5
AEE
330
FE8
100
AcDbEntity
  8
0
  6
Continuous
 62
     7
100
AcDbLine
 10
546.0062466998583
 20
255.8849129159896
 30
0.0
 11
562.8466126998587
 21
272.7253130159896
 31
0.0
  0
LINE
  5
AEF
330
FE8
100
AcDbEntity
  8
0
  6
Continuous
 62
     7
100
AcDbLine
 10
546.0062466998583
 20
260.3750454159893
 30
0.0
 11
558.3564896998585
 21
272.7253130159896
 31
0.0
  0
LINE
  5
AF0
330
FE8
100
AcDbEntity
  8
0
  6
Continuous
 62
     7
100
AcDbLine
 10
546.0062466998583
 20
264.8651779159894
 30
0.0
 11
553.8663656998583
 21
272.7253130159896
 31
0.0
  0
LINE
  5
AF1
330
FE8
100
AcDbEntity
  8
0
  6
Continuous
 62
     7
100
AcDbLine
 10
547.3367766998584
 20
252.7253130159897
 30
0.0
 11
567.3367366998586
 21
272.7253130159896
 31
0.0
  0
LINE
  5
AF2
330
FE8
100
AcDbEntity
  8
0
  6
Continuous
 62
     7
100
AcDbLine
 10
546.0062466998583
 20
252.7253130159897
 30
0.0
 11
546.0062466998583
 21
272.7253130159896
 31
0.0
  0
LINE
  5
AF3
330
FE8
100
AcDbEntity
  8
0
  6
Continuous
 62
     7
100
AcDbLine
 10
582.4999216998584
 20
242.7253130159896
 30
0.0
 11
582.4999216998584
 21
252.7253130159897
 31
0.0
  0
LINE
  5
AF4
330
FE8
100
AcDbEntity
  8
0
  6
Continuous
 62
     7
100
AcDbLine
 10
602.4999016998584
 20
262.7253399899728
 30
0.0
 11
582.4998996998584
 21
242.7253370159895
 31
0.0
  0
LINE
  5
AF5
330
FE8
100
AcDbEntity
  8
0
  6
Continuous
 62
     7
100
AcDbLine
 10
582.4999216998584
 20
242.9872040159897
 30
0.0
 11
602.3689516998581
 21
262.8562757759896
 31
0.0
  0
LINE
  5
AF6
330
FE8
100
AcDbEntity
  8
0
  6
Continuous
 62
     7
100
AcDbLine
 10
582.4999216998584
 20
247.4773360159896
 30
0.0
 11
600.1238916998585
 21
265.1013400159894
 31
0.0
  0
LINE
  5
AF7
330
FE8
100
AcDbEntity
  8
0
  6
Continuous
 62
     7
100
AcDbLine
 10
582.4999216998584
 20
274.4181310159896
 30
0.0
 11
586.6535116998582
 21
278.5717260159894
 31
0.0
  0
LINE
  5
AF8
330
FE8
100
AcDbEntity
  8
0
  6
Continuous
 62
     7
100
AcDbLine
 10
578.7676406998583
 20
252.7253130159897
 30
0.0
 11
595.6337616998585
 21
269.5914686159899
 31
0.0
  0
LINE
  5
AF9
330
FE8
100
AcDbEntity
  8
0
  6
Continuous
 62
     7
100
AcDbLine
 10
574.2775176998584
 20
252.7253130159897
 30
0.0
 11
593.3887016998585
 21
271.8365329159896
 31
0.0
  0
LINE
  5
AFA
330
FE8
100
AcDbEntity
  8
0
  6
Continuous
 62
     7
100
AcDbLine
 10
582.4999216998584
 20
251.9674690159895
 30
0.0
 11
597.8788216998585
 21
267.3464043159896
 31
0.0
  0
LINE
  5
AFB
330
FE8
100
AcDbEntity
  8
0
  6
Continuous
 62
     7
100
AcDbLine
 10
569.7873936998584
 20
252.7253130159897
 30
0.0
 11
591.1436316998583
 21
274.0815970159894
 31
0.0
  0
LINE
  5
AFC
330
FE8
100
AcDbEntity
  8
0
  6
Continuous
 62
     7
100
AcDbLine
 10
565.2972706998585
 20
252.7253130159897
 30
0.0
 11
588.8985716998584
 21
276.3266610159893
 31
0.0
  0
LINE
  5
AFD
330
FE8
100
AcDbEntity
  8
0
  6
Continuous
 62
     7
100
AcDbLine
 10
582.4999106998584
 20
282.7253000159892
 30
0.0
 11
602.4999116998582
 21
262.7252968315995
 31
0.0
  0
LINE
  5
AFE
330
FE8
100
AcDbEntity
  8
0
  6
Continuous
 62
     7
100
AcDbLine
 10
582.4999216998584
 20
272.7253130159896
 30
0.0
 11
582.4999216998584
 21
282.7253130159896
 31
0.0
  0
LINE
  5
AFF
330
FE8
100
AcDbEntity
  8
0
  6
Continuous
 62
     7
100
AcDbLine
 10
582.4999216998584
 20
278.9082640159899
 30
0.0
 11
584.4084446998585
 21
280.8167900159896
 31
0.0
  0
LINE
  5
B00
330
FE8
100
AcDbEntity
  8
0
  6
Continuous
 62
     7
100
AcDbLine
 10
560.8071466998584
 20
252.7253130159897
 30
0.0
 11
580.8071066998586
 21
272.7253130159896
 31
0.0
  0
LINE
  5
B01
330
FE8
100
AcDbEntity
  8
0
  6
Continuous
 62
     7
100
AcDbLine
 10
556.3170236998585
 20
252.7253130159897
 30
0.0
 11
576.3169836998584
 21
272.7253130159896
 31
0.0
  0
LINE
  5
B02
330
FE8
100
AcDbEntity
  8
0
  6
Continuous
 62
     7
100
AcDbLine
 10
551.8268996998584
 20
252.7253130159897
 30
0.0
 11
571.8268596998584
 21
272.7253130159896
 31
0.0
  0
TEXT
  5
CFD
330
FE8
100
AcDbEntity
  8
0
  6
Continuous
 62
     7
100
AcDbText
 10
376.1195061922792
 20
626.0
 30
0.0
 40
48.000002
  1
CVES 2.5S
 41
1.02862
100
AcDbText
  0
LINE
  5
103A
330
FE8
100
AcDbEntity
  8
0
  6
CENTER
100
AcDbLine
 10
724.6107707238067
 20
242.9753065518879
 30
0.0
 11
822.0216559961148
 21
242.9753065518879
 31
0.0
  0
LINE
  5
103B
330
FE8
100
AcDbEntity
  8
0
  6
CENTER
100
AcDbLine
 10
688.4445045129194
 20
262.725306551888
 30
0.0
 11
858.1879222070021
 21
262.725306551888
 31
0.0
  0
LINE
  5
103C
330
FE8
100
AcDbEntity
  8
0
  6
CENTER
100
AcDbLine
 10
773.3162133599607
 20
177.8535977048466
 30
0.0
 11
773.3162133599607
 21
347.5970153989293
 31
0.0
  0
LINE
  5
103D
330
FE8
100
AcDbEntity
  8
0
  6
CENTER
100
AcDbLine
 10
292.447271363744
 20
262.725306551888
 30
0.0
 11
462.1906890578267
 21
262.725306551888
 31
0.0
  0
LINE
  5
103E
330
FE8
100
AcDbEntity
  8
0
  6
CENTER
100
AcDbLine
 10
377.3189802107852
 20
177.8535977048466
 30
0.0
 11
377.3189802107852
 21
347.5970153989293
 31
0.0
  0
LINE
  5
103F
330
FE8
100
AcDbEntity
  8
0
  6
CENTER
100
AcDbLine
 10
565.2304279528173
 20
242.975306551888
 30
0.0
 11
675.4561607209425
 21
242.975306551888
 31
0.0
  0
LINE
  5
1040
330
FE8
100
AcDbEntity
  8
0
  6
CENTER
100
AcDbLine
 10
473.8965150046069
 20
262.7253065518879
 30
0.0
 11
563.6359711480626
 21
262.7253065518879
 31
0.0
  0
LINE
  5
1041
330
FE8
100
AcDbEntity
  8
0
  6
CENTER
100
AcDbLine
 10
473.8965150046069
 20
428.3197504695352
 30
0.0
 11
673.491209628155
 21
428.3197504695352
 31
0.0
  0
ENDSEC
  0
SECTION
  2
OBJECTS
  0
DICTIONARY
  5
FD6
330
0
100
AcDbDictionary
281
     1
  3
ACAD_GROUP
350
FD7
  3
ACAD_LAYOUT
350
FE3
  3
ACAD_MLINESTYLE
350
FE0
  3
ACAD_PLOTSETTINGS
350
FE2
  3
ACAD_PLOTSTYLENAME
350
FD8
  3
AcDbVariableDictionary
350
102D
  0
DICTIONARY
  5
1033
330
FCC
100
AcDbDictionary
280
     1
281
     1
  3
ACAD_LAYERSTATES
360
1034
  0
DICTIONARY
  5
FF9
330
FE8
100
AcDbDictionary
280
     1
281
     1
  3
ACAD_LAYOUTSELFREF
360
1028
  0
DICTIONARY
  5
FFB
330
FE4
100
AcDbDictionary
280
     1
281
     1
  3
ACAD_LAYOUTSELFREF
360
1027
  0
DICTIONARY
  5
FD7
102
{ACAD_REACTORS
330
FD6
102
}
330
FD6
100
AcDbDictionary
281
     1
  0
DICTIONARY
  5
FE3
102
{ACAD_REACTORS
330
FD6
102
}
330
FD6
100
AcDbDictionary
281
     1
  3
Model
350
FEB
  3
ﾚｲｱｳﾄ1
350
FE7
  0
DICTIONARY
  5
FE0
102
{ACAD_REACTORS
330
FD6
102
}
330
FD6
100
AcDbDictionary
281
     1
  3
Standard
350
FE1
  0
DICTIONARY
  5
FE2
102
{ACAD_REACTORS
330
FD6
102
}
330
FD6
100
AcDbDictionary
281
     1
  0
ACDBDICTIONARYWDFLT
  5
FD8
102
{ACAD_REACTORS
330
FD6
102
}
330
FD6
100
AcDbDictionary
281
     1
  3
Normal
350
FD9
100
AcDbDictionaryWithDefault
340
FD9
  0
DICTIONARY
  5
102D
102
{ACAD_REACTORS
330
FD6
102
}
330
FD6
100
AcDbDictionary
281
     1
  3
DIMASSOC
350
102E
  0
DICTIONARY
  5
1034
102
{ACAD_REACTORS
330
1033
102
}
330
1033
100
AcDbDictionary
281
     1
  0
XRECORD
  5
1028
102
{ACAD_REACTORS
330
FF9
102
}
330
FF9
100
AcDbXrecord
280
     1
340
FE8
  0
XRECORD
  5
1027
102
{ACAD_REACTORS
330
FFB
102
}
330
FFB
100
AcDbXrecord
280
     1
340
FE4
  0
LAYOUT
  5
FEB
102
{ACAD_REACTORS
330
FE3
102
}
330
FE3
100
AcDbPlotSettings
  1

  2
SII LP-2150 (D-SCAN C2)
  4

  6

 40
0.0
 41
0.0
 42
0.0
 43
0.0
 44
0.0
 45
0.0
 46
0.0
 47
0.0
 48
0.0
 49
0.0
140
0.0
141
0.0
142
1.0
143
1.0
 70
  1712
 72
     0
 73
     0
 74
     0
  7

 75
     0
147
1.0
148
0.0
149
0.0
100
AcDbLayout
  1
Model
 70
     1
 71
     0
 10
0.0
 20
0.0
 11
12.0
 21
9.0
 12
0.0
 22
0.0
 32
0.0
 14
0.0
 24
0.0
 34
0.0
 15
0.0
 25
0.0
 35
0.0
146
0.0
 13
0.0
 23
0.0
 33
0.0
 16
1.0
 26
0.0
 36
0.0
 17
0.0
 27
1.0
 37
0.0
 76
     0
330
FE8
  0
LAYOUT
  5
FE7
102
{ACAD_REACTORS
330
FE3
102
}
330
FE3
100
AcDbPlotSettings
  1

  2
SII LP-2150 (D-SCAN C2)
  4

  6

 40
0.0
 41
0.0
 42
0.0
 43
0.0
 44
0.0
 45
0.0
 46
0.0
 47
0.0
 48
0.0
 49
0.0
140
0.0
141
0.0
142
1.0
143
1.0
 70
   688
 72
     0
 73
     0
 74
     5
  7

 75
    16
147
1.0
148
0.0
149
0.0
100
AcDbLayout
  1
ﾚｲｱｳﾄ1
 70
     1
 71
     1
 10
-44.912933
 20
-21.841471
 11
153.5627299999999
 21
105.04179
 12
0.0
 22
0.0
 32
0.0
 14
-44.912933
 24
-21.841471
 34
0.0
 15
153.5627299999999
 25
105.04179
 35
0.0
146
0.0
 13
0.0
 23
0.0
 33
0.0
 16
1.0
 26
0.0
 36
0.0
 17
0.0
 27
1.0
 37
0.0
 76
     0
330
FE4
  0
MLINESTYLE
  5
FE1
102
{ACAD_REACTORS
330
FE0
102
}
330
FE0
100
AcDbMlineStyle
  2
STANDARD
 70
     0
  3

 62
   256
 51
90.0
 52
90.0
 71
     2
 49
0.5
 62
   256
  6
BYLAYER
 49
-0.5
 62
   256
  6
BYLAYER
  0
ACDBPLACEHOLDER
  5
FD9
102
{ACAD_REACTORS
330
FD8
102
}
330
FD8
  0
DICTIONARYVAR
  5
102E
102
{ACAD_REACTORS
330
102D
102
}
330
102D
100
DictionaryVariables
280
     0
  1
1
  0
ENDSEC
  0
EOF
