  0
SECTION
  2
HEADER
  9
$ACADVER
  1
AC1015
  9
$ACADMAINTVER
 70
    14
  9
$DWGCODEPAGE
  3
ANSI_932
  9
$INSBASE
 10
0.0
 20
0.0
 30
0.0
  9
$EXTMIN
 10
43.78021776114997
 20
95.64562979466428
 30
-0.0000000000112498
  9
$EXTMAX
 10
781.5235989910381
 20
754.0611861547851
 30
0.0000000000002956
  9
$LIMMIN
 10
-44.912933
 20
-21.841471
  9
$LIMMAX
 10
153.5627299999999
 20
105.04179
  9
$ORTHOMODE
 70
     0
  9
$REGENMODE
 70
     1
  9
$FILLMODE
 70
     1
  9
$QTEXTMODE
 70
     0
  9
$MIRRTEXT
 70
     1
  9
$LTSCALE
 40
1.0
  9
$ATTMODE
 70
     1
  9
$TEXTSIZE
 40
0.2
  9
$TRACEWID
 40
0.05
  9
$TEXTSTYLE
  7
STANDARD
  9
$CLAYER
  8
0
  9
$CELTYPE
  6
CONTINUOUS
  9
$CECOLOR
 62
   256
  9
$CELTSCALE
 40
1.0
  9
$DISPSILH
 70
     0
  9
$DIMSCALE
 40
1.0
  9
$DIMASZ
 40
15.0
  9
$DIMEXO
 40
5.0
  9
$DIMDLI
 40
10.0
  9
$DIMRND
 40
0.0
  9
$DIMDLE
 40
0.0
  9
$DIMEXE
 40
10.0
  9
$DIMTP
 40
0.0
  9
$DIMTM
 40
0.0
  9
$DIMTXT
 40
20.0
  9
$DIMCEN
 40
0.09
  9
$DIMTSZ
 40
0.0
  9
$DIMTOL
 70
     0
  9
$DIMLIM
 70
     0
  9
$DIMTIH
 70
     0
  9
$DIMTOH
 70
     1
  9
$DIMSE1
 70
     0
  9
$DIMSE2
 70
     0
  9
$DIMTAD
 70
     1
  9
$DIMZIN
 70
     8
  9
$DIMBLK
  1

  9
$DIMASO
 70
     1
  9
$DIMSHO
 70
     0
  9
$DIMPOST
  1

  9
$DIMAPOST
  1

  9
$DIMALT
 70
     0
  9
$DIMALTD
 70
     2
  9
$DIMALTF
 40
25.4
  9
$DIMLFAC
 40
1.0
  9
$DIMTOFL
 70
     0
  9
$DIMTVP
 40
0.0
  9
$DIMTIX
 70
     0
  9
$DIMSOXD
 70
     0
  9
$DIMSAH
 70
     0
  9
$DIMBLK1
  1

  9
$DIMBLK2
  1

  9
$DIMSTYLE
  2
STANDARD
  9
$DIMCLRD
 70
     0
  9
$DIMCLRE
 70
     0
  9
$DIMCLRT
 70
     0
  9
$DIMTFAC
 40
1.0
  9
$DIMGAP
 40
5.0
  9
$DIMJUST
 70
     0
  9
$DIMSD1
 70
     0
  9
$DIMSD2
 70
     0
  9
$DIMTOLJ
 70
     1
  9
$DIMTZIN
 70
     8
  9
$DIMALTZ
 70
     8
  9
$DIMALTTZ
 70
     8
  9
$DIMUPT
 70
     0
  9
$DIMDEC
 70
     4
  9
$DIMTDEC
 70
     4
  9
$DIMALTU
 70
     2
  9
$DIMALTTD
 70
     2
  9
$DIMTXSTY
  7
STANDARD
  9
$DIMAUNIT
 70
     0
  9
$DIMADEC
 70
     0
  9
$DIMALTRND
 40
0.0
  9
$DIMAZIN
 70
     0
  9
$DIMDSEP
 70
    46
  9
$DIMATFIT
 70
     3
  9
$DIMFRAC
 70
     0
  9
$DIMLDRBLK
  1

  9
$DIMLUNIT
 70
     2
  9
$DIMLWD
 70
    -2
  9
$DIMLWE
 70
    -2
  9
$DIMTMOVE
 70
     2
  9
$LUNITS
 70
     2
  9
$LUPREC
 70
     4
  9
$SKETCHINC
 40
0.1
  9
$FILLETRAD
 40
0.0
  9
$AUNITS
 70
     0
  9
$AUPREC
 70
     0
  9
$MENU
  1
.
  9
$ELEVATION
 40
0.0
  9
$PELEVATION
 40
0.0
  9
$THICKNESS
 40
0.0
  9
$LIMCHECK
 70
     0
  9
$CHAMFERA
 40
0.0
  9
$CHAMFERB
 40
0.0
  9
$CHAMFERC
 40
0.0
  9
$CHAMFERD
 40
0.0
  9
$SKPOLY
 70
     0
  9
$TDCREATE
 40
2452488.423177615
  9
$TDUCREATE
 40
2452488.048177615
  9
$TDUPDATE
 40
2456899.667711782
  9
$TDUUPDATE
 40
2456899.292711782
  9
$TDINDWG
 40
0.0586907986
  9
$TDUSRTIMER
 40
0.0586907986
  9
$USRTIMER
 70
     1
  9
$ANGBASE
 50
0.0
  9
$ANGDIR
 70
     0
  9
$PDMODE
 70
     3
  9
$PDSIZE
 40
0.0
  9
$PLINEWID
 40
0.0
  9
$SPLFRAME
 70
     0
  9
$SPLINETYPE
 70
     6
  9
$SPLINESEGS
 70
     8
  9
$HANDSEED
  5
FAF
  9
$SURFTAB1
 70
     6
  9
$SURFTAB2
 70
     6
  9
$SURFTYPE
 70
     6
  9
$SURFU
 70
     6
  9
$SURFV
 70
     6
  9
$UCSBASE
  2

  9
$UCSNAME
  2

  9
$UCSORG
 10
0.0
 20
0.0
 30
0.0
  9
$UCSXDIR
 10
1.0
 20
0.0
 30
0.0
  9
$UCSYDIR
 10
0.0
 20
1.0
 30
0.0
  9
$UCSORTHOREF
  2

  9
$UCSORTHOVIEW
 70
     0
  9
$UCSORGTOP
 10
0.0
 20
0.0
 30
0.0
  9
$UCSORGBOTTOM
 10
0.0
 20
0.0
 30
0.0
  9
$UCSORGLEFT
 10
0.0
 20
0.0
 30
0.0
  9
$UCSORGRIGHT
 10
0.0
 20
0.0
 30
0.0
  9
$UCSORGFRONT
 10
0.0
 20
0.0
 30
0.0
  9
$UCSORGBACK
 10
0.0
 20
0.0
 30
0.0
  9
$PUCSBASE
  2

  9
$PUCSNAME
  2

  9
$PUCSORG
 10
0.0
 20
0.0
 30
0.0
  9
$PUCSXDIR
 10
1.0
 20
0.0
 30
0.0
  9
$PUCSYDIR
 10
0.0
 20
1.0
 30
0.0
  9
$PUCSORTHOREF
  2

  9
$PUCSORTHOVIEW
 70
     0
  9
$PUCSORGTOP
 10
0.0
 20
0.0
 30
0.0
  9
$PUCSORGBOTTOM
 10
0.0
 20
0.0
 30
0.0
  9
$PUCSORGLEFT
 10
0.0
 20
0.0
 30
0.0
  9
$PUCSORGRIGHT
 10
0.0
 20
0.0
 30
0.0
  9
$PUCSORGFRONT
 10
0.0
 20
0.0
 30
0.0
  9
$PUCSORGBACK
 10
0.0
 20
0.0
 30
0.0
  9
$USERI1
 70
     0
  9
$USERI2
 70
     0
  9
$USERI3
 70
     0
  9
$USERI4
 70
     0
  9
$USERI5
 70
     0
  9
$USERR1
 40
0.0
  9
$USERR2
 40
0.0
  9
$USERR3
 40
0.0
  9
$USERR4
 40
0.0
  9
$USERR5
 40
0.0
  9
$WORLDVIEW
 70
     1
  9
$SHADEDGE
 70
     3
  9
$SHADEDIF
 70
    70
  9
$TILEMODE
 70
     1
  9
$MAXACTVP
 70
    48
  9
$PINSBASE
 10
0.0
 20
0.0
 30
0.0
  9
$PLIMCHECK
 70
     0
  9
$PEXTMIN
 10
-44.912933
 20
-21.841471
 30
0.0
  9
$PEXTMAX
 10
153.5627299999999
 20
105.04179
 30
0.0
  9
$PLIMMIN
 10
-44.912933
 20
-21.841471
  9
$PLIMMAX
 10
153.5627299999999
 20
105.04179
  9
$UNITMODE
 70
     0
  9
$VISRETAIN
 70
     1
  9
$PLINEGEN
 70
     0
  9
$PSLTSCALE
 70
     1
  9
$TREEDEPTH
 70
  3020
  9
$CMLSTYLE
  2
Standard
  9
$CMLJUST
 70
     0
  9
$CMLSCALE
 40
1.0
  9
$PROXYGRAPHICS
 70
     1
  9
$MEASUREMENT
 70
     0
  9
$CELWEIGHT
370
    -1
  9
$ENDCAPS
280
     0
  9
$JOINSTYLE
280
     0
  9
$LWDISPLAY
290
     0
  9
$INSUNITS
 70
     0
  9
$HYPERLINKBASE
  1

  9
$STYLESHEET
  1

  9
$XEDIT
290
     1
  9
$CEPSNTYPE
380
     0
  9
$PSTYLEMODE
290
     1
  9
$FINGERPRINTGUID
  2
{93530EE3-5A0A-472E-B21F-BDB91E79BA30}
  9
$VERSIONGUID
  2
{CB50D776-24D3-4793-A480-6D54C6F1B156}
  9
$EXTNAMES
290
     1
  9
$PSVPSCALE
 40
0.0
  9
$OLESTARTUP
290
     0
  0
ENDSEC
  0
SECTION
  2
CLASSES
  0
CLASS
  1
ACDBDICTIONARYWDFLT
  2
AcDbDictionaryWithDefault
  3
AutoCAD 2000
 90
        0
280
     0
281
     0
  0
CLASS
  1
ACDBPLACEHOLDER
  2
AcDbPlaceHolder
  3
AutoCAD 2000
 90
        0
280
     0
281
     0
  0
CLASS
  1
LAYOUT
  2
AcDbLayout
  3
AutoCAD 2000
 90
        0
280
     0
281
     0
  0
CLASS
  1
DICTIONARYVAR
  2
AcDbDictionaryVar
  3
AutoCAD 2000
 90
        0
280
     0
281
     0
  0
CLASS
  1
LONG_TRANSACTION
  2
AcDbLongTransaction
  3
AutoCAD 2000
 90
    32768
280
     0
281
     0
  0
CLASS
  1
LWPOLYLINE
  2
AcDbPolyline
  3
AutoCAD 2000
 90
    32768
280
     0
281
     1
  0
CLASS
  1
HATCH
  2
AcDbHatch
  3
AutoCAD 2000
 90
    32768
280
     0
281
     1
  0
CLASS
  1
XRECORD
  2
AcDbXrecord
  3
AutoCAD 2000
 90
    32768
280
     0
281
     0
  0
ENDSEC
  0
SECTION
  2
TABLES
  0
TABLE
  2
VPORT
  5
F37
330
0
100
AcDbSymbolTable
 70
     2
  0
VPORT
  5
FAE
330
F37
100
AcDbSymbolTableRecord
100
AcDbViewportTableRecord
  2
*Active
 70
     0
 10
0.0
 20
0.0
 11
1.0
 21
1.0
 12
412.651908376094
 22
424.8534079747247
 13
0.0
 23
0.0
 14
1.0
 24
1.0
 15
0.0
 25
0.0
 16
0.0
 26
0.0
 36
1.0
 17
0.0
 27
0.0
 37
0.0
 40
662.5959725909788
 41
1.592161016949152
 42
50.0
 43
0.0
 44
0.0
 50
0.0
 51
0.0
 71
     0
 72
   100
 73
     1
 74
     3
 75
     0
 76
     0
 77
     0
 78
     0
281
     0
 65
     1
110
0.0
120
0.0
130
0.0
111
1.0
121
0.0
131
0.0
112
0.0
122
1.0
132
0.0
 79
     0
146
0.0
  0
ENDTAB
  0
TABLE
  2
LTYPE
  5
F34
330
0
100
AcDbSymbolTable
 70
     2
  0
LTYPE
  5
F42
330
F34
100
AcDbSymbolTableRecord
100
AcDbLinetypeTableRecord
  2
ByBlock
 70
     0
  3

 72
    65
 73
     0
 40
0.0
  0
LTYPE
  5
F43
330
F34
100
AcDbSymbolTableRecord
100
AcDbLinetypeTableRecord
  2
ByLayer
 70
     0
  3

 72
    65
 73
     0
 40
0.0
  0
LTYPE
  5
F44
330
F34
100
AcDbSymbolTableRecord
100
AcDbLinetypeTableRecord
  2
CONTINUOUS
 70
     0
  3
Solid line
 72
    65
 73
     0
 40
0.0
  0
LTYPE
  5
F97
330
F34
100
AcDbSymbolTableRecord
100
AcDbLinetypeTableRecord
  2
CENTER
 70
     0
  3
__ . __
 72
    65
 73
     4
 40
7.0
 49
4.0
 74
     0
 49
-1.0
 74
     0
 49
1.0
 74
     0
 49
-1.0
 74
     0
  0
ENDTAB
  0
TABLE
  2
LAYER
  5
F31
102
{ACAD_XDICTIONARY
360
F98
102
}
330
0
100
AcDbSymbolTable
 70
     1
  0
LAYER
  5
F3F
330
F31
100
AcDbSymbolTableRecord
100
AcDbLayerTableRecord
  2
0
 70
     0
 62
     7
  6
CONTINUOUS
370
    -3
390
F3E
  0
ENDTAB
  0
TABLE
  2
STYLE
  5
F32
330
0
100
AcDbSymbolTable
 70
     1
  0
STYLE
  5
F40
330
F32
100
AcDbSymbolTableRecord
100
AcDbTextStyleTableRecord
  2
STANDARD
 70
     0
 40
0.0
 41
1.0
 50
0.0
 71
     0
 42
0.2
  3
txt
  4

  0
ENDTAB
  0
TABLE
  2
VIEW
  5
F35
330
0
100
AcDbSymbolTable
 70
     0
  0
ENDTAB
  0
TABLE
  2
UCS
  5
F36
330
0
100
AcDbSymbolTable
 70
     0
  0
ENDTAB
  0
TABLE
  2
APPID
  5
F38
330
0
100
AcDbSymbolTable
 70
     4
  0
APPID
  5
F41
330
F38
100
AcDbSymbolTableRecord
100
AcDbRegAppTableRecord
  2
ACAD
 70
     0
  0
APPID
  5
F53
330
F38
100
AcDbSymbolTableRecord
100
AcDbRegAppTableRecord
  2
MCAD_NO_VIS
 70
     0
  0
APPID
  5
F54
330
F38
100
AcDbSymbolTableRecord
100
AcDbRegAppTableRecord
  2
ACAD_TEMP_GRAPHIC
 70
     0
  0
APPID
  5
F55
330
F38
100
AcDbSymbolTableRecord
100
AcDbRegAppTableRecord
  2
ACATTRIBSERVICES
 70
     0
  0
ENDTAB
  0
TABLE
  2
DIMSTYLE
  5
F39
330
0
100
AcDbSymbolTable
 70
     1
100
AcDbDimStyleTable
 71
     1
340
F56
  0
DIMSTYLE
105
F56
330
F39
100
AcDbSymbolTableRecord
100
AcDbDimStyleTableRecord
  2
STANDARD
 70
     0
 41
15.0
 42
5.0
 43
10.0
 44
10.0
 73
     0
 77
     1
 78
     8
140
20.0
147
5.0
279
     2
284
     8
285
     8
286
     8
340
F40
  0
ENDTAB
  0
TABLE
  2
BLOCK_RECORD
  5
F30
330
0
100
AcDbSymbolTable
 70
     0
  0
BLOCK_RECORD
  5
F4D
102
{ACAD_XDICTIONARY
360
F5E
102
}
330
F30
100
AcDbSymbolTableRecord
100
AcDbBlockTableRecord
  2
*Model_Space
340
F50
  0
BLOCK_RECORD
  5
F49
102
{ACAD_XDICTIONARY
360
F60
102
}
330
F30
100
AcDbSymbolTableRecord
100
AcDbBlockTableRecord
  2
*Paper_Space
340
F4C
  0
ENDTAB
  0
ENDSEC
  0
SECTION
  2
BLOCKS
  0
BLOCK
  5
F4E
330
F4D
100
AcDbEntity
  8
0
100
AcDbBlockBegin
  2
*Model_Space
 70
     0
 10
0.0
 20
0.0
 30
0.0
  3
*Model_Space
  1

  0
ENDBLK
  5
F4F
330
F4D
100
AcDbEntity
  8
0
100
AcDbBlockEnd
  0
BLOCK
  5
F4A
330
F49
100
AcDbEntity
 67
     1
  8
0
100
AcDbBlockBegin
  2
*Paper_Space
 70
     0
 10
0.0
 20
0.0
 30
0.0
  3
*Paper_Space
  1

  0
ENDBLK
  5
F4B
330
F49
100
AcDbEntity
 67
     1
  8
0
100
AcDbBlockEnd
  0
ENDSEC
  0
SECTION
  2
ENTITIES
  0
LINE
  5
B84
330
F4D
100
AcDbEntity
  8
0
  6
Continuous
 62
     7
100
AcDbLine
 10
509.2920602674304
 20
455.7789103091604
 30
0.0
 11
483.3011907674303
 21
455.7789103091604
 31
0.0
  0
LINE
  5
B85
330
F4D
100
AcDbEntity
  8
0
  6
Continuous
 62
     7
100
AcDbLine
 10
509.2920602674304
 20
557.3789083091606
 30
0.0
 11
483.3011907674303
 21
557.3789083091606
 31
0.0
  0
LINE
  5
B86
330
F4D
100
AcDbEntity
  8
0
  6
Continuous
 62
     7
100
AcDbLine
 10
417.5586007674302
 20
407.8789583091602
 30
0.0
 11
417.5586007674302
 21
605.2788603091603
 31
0.0
  0
LINE
  5
B87
330
F4D
100
AcDbEntity
  8
0
  6
Continuous
 62
     7
100
AcDbLine
 10
443.0586007674303
 20
407.8789583091602
 30
0.0
 11
443.0586007674303
 21
605.2788603091603
 31
0.0
  0
LINE
  5
B88
330
F4D
100
AcDbEntity
  8
0
  6
Continuous
 62
     7
100
AcDbLine
 10
417.5586007674302
 20
407.8789583091602
 30
0.0
 11
443.0586007674303
 21
407.8789583091602
 31
0.0
  0
LINE
  5
B89
330
F4D
100
AcDbEntity
  8
0
  6
Continuous
 62
     7
100
AcDbLine
 10
410.3208507674303
 20
585.0789093091601
 30
0.0
 11
354.2966757674303
 21
585.0789093091601
 31
0.0
  0
LINE
  5
B8A
330
F4D
100
AcDbEntity
  8
0
  6
Continuous
 62
     7
100
AcDbLine
 10
410.3208507674303
 20
428.0789093091602
 30
0.0
 11
354.2966757674303
 21
428.0789093091602
 31
0.0
  0
LINE
  5
B8B
330
F4D
100
AcDbEntity
  8
0
  6
Continuous
 62
     7
100
AcDbLine
 10
346.8744877674303
 20
455.7789213091601
 30
0.0
 11
346.8744877674303
 21
557.3788973091601
 31
0.0
  0
LINE
  5
B8C
330
F4D
100
AcDbEntity
  8
0
  6
Continuous
 62
     7
100
AcDbLine
 10
310.3086007674302
 20
447.0789093091601
 30
0.0
 11
310.3086007674302
 21
566.0789093091603
 31
0.0
  0
LINE
  5
B8D
330
F4D
100
AcDbEntity
  8
0
  6
Continuous
 62
     7
100
AcDbLine
 10
316.3251412674302
 20
557.3789083091603
 30
0.0
 11
316.3251412674302
 21
455.7789103091601
 31
0.0
  0
LINE
  5
B8E
330
F4D
100
AcDbEntity
  8
0
  6
Continuous
 62
     7
100
AcDbLine
 10
354.2966687674303
 20
428.0789093091602
 30
0.0
 11
354.2966687674303
 21
585.0789093091601
 31
0.0
  0
LINE
  5
B8F
330
F4D
100
AcDbEntity
  8
0
  6
Continuous
 62
     7
100
AcDbLine
 10
316.3251412674302
 20
455.7789103091601
 30
0.0
 11
346.8744797674302
 21
455.7789103091601
 31
0.0
  0
LINE
  5
B90
330
F4D
100
AcDbEntity
  8
0
  6
Continuous
 62
     7
100
AcDbLine
 10
313.1585994674303
 20
447.0789083091601
 30
0.0
 11
316.3251405674301
 21
455.7789083091601
 31
0.0
  0
LINE
  5
B91
330
F4D
100
AcDbEntity
  8
0
  6
Continuous
 62
     7
100
AcDbLine
 10
310.3086007674302
 20
447.0789093091601
 30
0.0
 11
313.1585997674303
 21
447.0789093091601
 31
0.0
  0
LINE
  5
B92
330
F4D
100
AcDbEntity
  8
0
  6
Continuous
 62
     7
100
AcDbLine
 10
346.8744797674302
 20
455.7789213091601
 30
0.0
 11
354.2966757674303
 21
428.0789093091602
 31
0.0
  0
LINE
  5
B93
330
F4D
100
AcDbEntity
  8
0
  6
Continuous
 62
     7
100
AcDbLine
 10
346.8744797674302
 20
557.3788973091601
 30
0.0
 11
354.2966757674303
 21
585.0789093091601
 31
0.0
  0
LINE
  5
B94
330
F4D
100
AcDbEntity
  8
0
  6
Continuous
 62
     7
100
AcDbLine
 10
316.3251412674302
 20
557.3789083091603
 30
0.0
 11
346.8744797674302
 21
557.3789083091603
 31
0.0
  0
LINE
  5
B95
330
F4D
100
AcDbEntity
  8
0
  6
Continuous
 62
     7
100
AcDbLine
 10
310.3086007674302
 20
566.0789093091603
 30
0.0
 11
313.1585997674303
 21
566.0789093091603
 31
0.0
  0
LINE
  5
B96
330
F4D
100
AcDbEntity
  8
0
  6
Continuous
 62
     7
100
AcDbLine
 10
313.1585994674303
 20
566.0789103091601
 30
0.0
 11
316.3251405674301
 21
557.3789103091603
 31
0.0
  0
LINE
  5
B97
330
F4D
100
AcDbEntity
  8
0
  6
Continuous
 62
     7
100
AcDbLine
 10
438.8024407674303
 20
516.5789093091603
 30
0.0
 11
438.8024407674303
 21
526.5789093091601
 31
0.0
  0
LINE
  5
B98
330
F4D
100
AcDbEntity
  8
0
  6
Continuous
 62
     7
100
AcDbLine
 10
438.8024407674303
 20
518.3346983091603
 30
0.0
 11
442.9245407674302
 21
522.4568083091603
 31
0.0
  0
LINE
  5
B99
330
F4D
100
AcDbEntity
  8
0
  6
Continuous
 62
     7
100
AcDbLine
 10
438.8024407674303
 20
526.5789093091601
 30
0.0
 11
458.8024407674303
 21
506.5789093091601
 31
0.0
  0
LINE
  5
B9A
330
F4D
100
AcDbEntity
  8
0
  6
Continuous
 62
     7
100
AcDbLine
 10
421.5368107674303
 20
496.5789093091601
 30
0.0
 11
445.1696007674303
 21
520.2117443091601
 31
0.0
  0
LINE
  5
B9B
330
F4D
100
AcDbEntity
  8
0
  6
Continuous
 62
     7
100
AcDbLine
 10
483.3011807674303
 20
455.7789213091601
 30
0.0
 11
483.3011807674303
 21
557.3788973091601
 31
0.0
  0
LINE
  5
B9C
330
F4D
100
AcDbEntity
  8
0
  6
Continuous
 62
     7
100
AcDbLine
 10
410.3208507674303
 20
428.0789323091602
 30
0.0
 11
410.3208507674303
 21
585.0789093091601
 31
0.0
  0
LINE
  5
B9D
330
F4D
100
AcDbEntity
  8
0
  6
Continuous
 62
     7
100
AcDbLine
 10
450.2963007674302
 20
428.0789093091602
 30
0.0
 11
450.2963007674302
 21
585.0789093091601
 31
0.0
  0
LINE
  5
B9E
330
F4D
100
AcDbEntity
  8
0
  6
Continuous
 62
     7
100
AcDbLine
 10
467.3085807674303
 20
428.0789093091602
 30
0.0
 11
467.3085807674303
 21
585.0789093091601
 31
0.0
  0
LINE
  5
B9F
330
F4D
100
AcDbEntity
  8
0
  6
Continuous
 62
     7
100
AcDbLine
 10
438.8024407674303
 20
516.5789093091603
 30
0.0
 11
382.3087607674303
 21
516.5789093091603
 31
0.0
  0
LINE
  5
BA0
330
F4D
100
AcDbEntity
  8
0
  6
Continuous
 62
     7
100
AcDbLine
 10
438.8024407674303
 20
496.5789093091601
 30
0.0
 11
382.3087607674303
 21
496.5789093091601
 31
0.0
  0
LINE
  5
BA1
330
F4D
100
AcDbEntity
  8
0
  6
Continuous
 62
     7
100
AcDbLine
 10
412.5565707674302
 20
496.5789093091601
 30
0.0
 11
432.5565307674303
 21
516.5789093091603
 31
0.0
  0
LINE
  5
BA2
330
F4D
100
AcDbEntity
  8
0
  6
Continuous
 62
     7
100
AcDbLine
 10
426.0269407674301
 20
496.5789093091601
 30
0.0
 11
447.4146607674303
 21
517.9666803091602
 31
0.0
  0
LINE
  5
BA3
330
F4D
100
AcDbEntity
  8
0
  6
Continuous
 62
     7
100
AcDbLine
 10
417.0466907674303
 20
496.5789093091601
 30
0.0
 11
437.0466507674303
 21
516.5789093091603
 31
0.0
  0
LINE
  5
BA4
330
F4D
100
AcDbEntity
  8
0
  6
Continuous
 62
     7
100
AcDbLine
 10
417.5585907674303
 20
423.9002183091601
 30
0.0
 11
410.3208907674305
 21
428.0789103091601
 31
0.0
  0
LINE
  5
BA5
330
F4D
100
AcDbEntity
  8
0
  6
Continuous
 62
     7
100
AcDbLine
 10
390.1059497674302
 20
496.5789093091601
 30
0.0
 11
410.1059097674303
 21
516.5789093091603
 31
0.0
  0
LINE
  5
BA6
330
F4D
100
AcDbEntity
  8
0
  6
Continuous
 62
     7
100
AcDbLine
 10
385.6158257674303
 20
496.5789093091601
 30
0.0
 11
405.6157857674303
 21
516.5789093091603
 31
0.0
  0
LINE
  5
BA7
330
F4D
100
AcDbEntity
  8
0
  6
Continuous
 62
     7
100
AcDbLine
 10
382.3087607674303
 20
497.7619702091604
 30
0.0
 11
401.1256627674304
 21
516.5789093091603
 31
0.0
  0
LINE
  5
BA8
330
F4D
100
AcDbEntity
  8
0
  6
Continuous
 62
     7
100
AcDbLine
 10
382.3087607674303
 20
502.2521027091602
 30
0.0
 11
396.6355387674302
 21
516.5789093091603
 31
0.0
  0
LINE
  5
BA9
330
F4D
100
AcDbEntity
  8
0
  6
Continuous
 62
     7
100
AcDbLine
 10
382.3087607674303
 20
506.7422351891601
 30
0.0
 11
392.1454157674303
 21
516.5789093091603
 31
0.0
  0
LINE
  5
BAA
330
F4D
100
AcDbEntity
  8
0
  6
Continuous
 62
     7
100
AcDbLine
 10
382.3087607674303
 20
515.7225001091602
 30
0.0
 11
383.1651687674302
 21
516.5789093091603
 31
0.0
  0
LINE
  5
BAB
330
F4D
100
AcDbEntity
  8
0
  6
Continuous
 62
     7
100
AcDbLine
 10
382.3087607674303
 20
496.5789093091601
 30
0.0
 11
382.3087607674303
 21
516.5789093091603
 31
0.0
  0
LINE
  5
BAC
330
F4D
100
AcDbEntity
  8
0
  6
Continuous
 62
     7
100
AcDbLine
 10
382.3087607674303
 20
511.2323677091604
 30
0.0
 11
387.6552917674302
 21
516.5789093091603
 31
0.0
  0
LINE
  5
BAD
330
F4D
100
AcDbEntity
  8
0
  6
Continuous
 62
     7
100
AcDbLine
 10
403.5763197674302
 20
496.5789093091601
 30
0.0
 11
423.5762807674302
 21
516.5789093091603
 31
0.0
  0
LINE
  5
BAE
330
F4D
100
AcDbEntity
  8
0
  6
Continuous
 62
     7
100
AcDbLine
 10
399.0861967674301
 20
496.5789093091601
 30
0.0
 11
419.0861607674303
 21
516.5789093091603
 31
0.0
  0
LINE
  5
BAF
330
F4D
100
AcDbEntity
  8
0
  6
Continuous
 62
     7
100
AcDbLine
 10
408.0664437674303
 20
496.5789093091601
 30
0.0
 11
428.0664007674303
 21
516.5789093091603
 31
0.0
  0
LINE
  5
BB0
330
F4D
100
AcDbEntity
  8
0
  6
Continuous
 62
     7
100
AcDbLine
 10
394.5960727674303
 20
496.5789093091601
 30
0.0
 11
414.5960307674303
 21
516.5789093091603
 31
0.0
  0
LINE
  5
BB1
330
F4D
100
AcDbEntity
  8
0
  6
Continuous
 62
     7
100
AcDbLine
 10
467.3085807674303
 20
428.0789073091602
 30
0.0
 11
483.3011907674303
 21
455.77892030916
 31
0.0
  0
LINE
  5
BB2
330
F4D
100
AcDbEntity
  8
0
  6
Continuous
 62
     7
100
AcDbLine
 10
450.2963007674302
 20
428.0789093091602
 30
0.0
 11
467.3085807674303
 21
428.0789093091602
 31
0.0
  0
LINE
  5
BB3
330
F4D
100
AcDbEntity
  8
0
  6
Continuous
 62
     7
100
AcDbLine
 10
443.0586007674303
 20
423.9002103091602
 30
0.0
 11
450.2963107674303
 21
428.07890630916
 31
0.0
  0
LINE
  5
BB4
330
F4D
100
AcDbEntity
  8
0
  6
Continuous
 62
     7
100
AcDbLine
 10
435.0071807674303
 20
496.5789093091601
 30
0.0
 11
451.9047907674304
 21
513.4765521091602
 31
0.0
  0
LINE
  5
BB5
330
F4D
100
AcDbEntity
  8
0
  6
Continuous
 62
     7
100
AcDbLine
 10
430.5170607674303
 20
496.5789093091601
 30
0.0
 11
449.6597307674303
 21
515.7216161091603
 31
0.0
  0
LINE
  5
BB6
330
F4D
100
AcDbEntity
  8
0
  6
Continuous
 62
     7
100
AcDbLine
 10
458.8024407674303
 20
506.5789093091601
 30
0.0
 11
438.8024407674303
 21
486.5789093091602
 31
0.0
  0
LINE
  5
BB7
330
F4D
100
AcDbEntity
  8
0
  6
Continuous
 62
     7
100
AcDbLine
 10
438.8024407674303
 20
486.9037713091601
 30
0.0
 11
458.6399807674303
 21
506.7413600891601
 31
0.0
  0
LINE
  5
BB8
330
F4D
100
AcDbEntity
  8
0
  6
Continuous
 62
     7
100
AcDbLine
 10
438.8024407674303
 20
491.3939033091602
 30
0.0
 11
456.3949207674302
 21
508.9864241091602
 31
0.0
  0
LINE
  5
BB9
330
F4D
100
AcDbEntity
  8
0
  6
Continuous
 62
     7
100
AcDbLine
 10
438.8024407674303
 20
495.8840363091603
 30
0.0
 11
454.1498607674301
 21
511.2314881091601
 31
0.0
  0
LINE
  5
BBA
330
F4D
100
AcDbEntity
  8
0
  6
Continuous
 62
     7
100
AcDbLine
 10
438.8024407674303
 20
486.5789093091602
 30
0.0
 11
438.8024407674303
 21
496.5789093091601
 31
0.0
  0
LINE
  5
BBB
330
F4D
100
AcDbEntity
  8
0
  6
Continuous
 62
     7
100
AcDbLine
 10
417.5586007674302
 20
605.2788603091603
 30
0.0
 11
443.0586007674303
 21
605.2788603091603
 31
0.0
  0
LINE
  5
BBC
330
F4D
100
AcDbEntity
  8
0
  6
Continuous
 62
     7
100
AcDbLine
 10
417.5585907674303
 20
589.2576003091603
 30
0.0
 11
410.3208907674305
 21
585.0789083091604
 31
0.0
  0
LINE
  5
BBD
330
F4D
100
AcDbEntity
  8
0
  6
Continuous
 62
     7
100
AcDbLine
 10
467.3085807674303
 20
585.0789113091601
 30
0.0
 11
483.3011907674303
 21
557.3788983091604
 31
0.0
  0
LINE
  5
BBE
330
F4D
100
AcDbEntity
  8
0
  6
Continuous
 62
     7
100
AcDbLine
 10
438.8024407674303
 20
522.8248313091603
 30
0.0
 11
440.6794707674301
 21
524.7018723091603
 31
0.0
  0
LINE
  5
BBF
330
F4D
100
AcDbEntity
  8
0
  6
Continuous
 62
     7
100
AcDbLine
 10
450.2963007674302
 20
585.0789093091601
 30
0.0
 11
467.3085807674303
 21
585.0789093091601
 31
0.0
  0
LINE
  5
BC0
330
F4D
100
AcDbEntity
  8
0
  6
Continuous
 62
     7
100
AcDbLine
 10
443.0586007674303
 20
589.2576083091603
 30
0.0
 11
450.2963107674303
 21
585.0789123091604
 31
0.0
  0
LINE
  5
BC1
330
F4D
100
AcDbEntity
  8
0
  6
Continuous
 62
     7
100
AcDbLine
 10
515.3086007674303
 20
566.0789093091604
 30
0.0
 11
515.3086007674303
 21
447.0789093091605
 31
0.0
  0
LINE
  5
BC2
330
F4D
100
AcDbEntity
  8
0
  6
Continuous
 62
     7
100
AcDbLine
 10
509.2920602674304
 20
455.7789103091604
 30
0.0
 11
509.2920602674304
 21
557.3789083091606
 31
0.0
  0
LINE
  5
BC3
330
F4D
100
AcDbEntity
  8
0
  6
Continuous
 62
     7
100
AcDbLine
 10
515.3086007674303
 20
447.0789093091605
 30
0.0
 11
512.4586017674301
 21
447.0789093091605
 31
0.0
  0
LINE
  5
BC4
330
F4D
100
AcDbEntity
  8
0
  6
Continuous
 62
     7
100
AcDbLine
 10
512.4586020674303
 20
447.0789083091601
 30
0.0
 11
509.2920609674303
 21
455.7789083091604
 31
0.0
  0
LINE
  5
BC5
330
F4D
100
AcDbEntity
  8
0
  6
Continuous
 62
     7
100
AcDbLine
 10
515.3086007674303
 20
566.0789093091604
 30
0.0
 11
512.4586017674301
 21
566.0789093091604
 31
0.0
  0
LINE
  5
BC6
330
F4D
100
AcDbEntity
  8
0
  6
Continuous
 62
     7
100
AcDbLine
 10
512.4586020674303
 20
566.0789103091606
 30
0.0
 11
509.2920609674303
 21
557.3789103091606
 31
0.0
  0
CIRCLE
  5
BC7
330
F4D
100
AcDbEntity
  8
0
  6
Continuous
 62
     7
100
AcDbCircle
 10
166.1010002798184
 20
217.9608299153241
 30
0.0
 40
78.5
  0
CIRCLE
  5
BC8
330
F4D
100
AcDbEntity
  8
0
  6
Continuous
 62
     7
100
AcDbCircle
 10
166.1010002798184
 20
217.9608299153241
 30
0.0
 40
67.5
  0
CIRCLE
  5
BC9
330
F4D
100
AcDbEntity
  8
0
  6
Continuous
 62
     7
100
AcDbCircle
 10
166.1010002798184
 20
217.9608299153241
 30
0.0
 40
50.799988
  0
CIRCLE
  5
BCA
330
F4D
100
AcDbEntity
  8
0
  6
Continuous
 62
     7
100
AcDbCircle
 10
166.1010002798184
 20
217.9608299153241
 30
0.0
 40
98.69995100000002
  0
CIRCLE
  5
C2E
330
F4D
100
AcDbEntity
  8
0
  6
Continuous
 62
     7
100
AcDbCircle
 10
659.2297217076292
 20
217.9608299153241
 30
0.0
 40
98.69995100000002
  0
CIRCLE
  5
C2F
330
F4D
100
AcDbEntity
  8
0
  6
Continuous
 62
     7
100
AcDbCircle
 10
659.2297217076292
 20
217.9608299153241
 30
0.0
 40
50.799988
  0
CIRCLE
  5
C30
330
F4D
100
AcDbEntity
  8
0
  6
Continuous
 62
     7
100
AcDbCircle
 10
659.2297217076292
 20
217.9608299153241
 30
0.0
 40
67.5
  0
CIRCLE
  5
C31
330
F4D
100
AcDbEntity
  8
0
  6
Continuous
 62
     7
100
AcDbCircle
 10
659.2297217076292
 20
217.9608299153241
 30
0.0
 40
78.5
  0
LINE
  5
C71
330
F4D
100
AcDbEntity
  8
0
  6
Continuous
 62
     7
100
AcDbLine
 10
509.2920602674304
 20
268.7608289153244
 30
0.0
 11
483.3011907674303
 21
268.7608289153244
 31
0.0
  0
LINE
  5
C72
330
F4D
100
AcDbEntity
  8
0
  6
Continuous
 62
     7
100
AcDbLine
 10
509.2920602674304
 20
167.1608309153243
 30
0.0
 11
483.3011907674303
 21
167.1608309153243
 31
0.0
  0
LINE
  5
C73
330
F4D
100
AcDbEntity
  8
0
  6
Continuous
 62
     7
100
AcDbLine
 10
467.3085807674303
 20
139.4608299153242
 30
0.0
 11
467.3085807674303
 21
296.4608299153241
 31
0.0
  0
LINE
  5
C74
330
F4D
100
AcDbEntity
  8
0
  6
Continuous
 62
     7
100
AcDbLine
 10
450.2963007674302
 20
139.4608299153242
 30
0.0
 11
450.2963007674302
 21
296.4608299153241
 31
0.0
  0
LINE
  5
C75
330
F4D
100
AcDbEntity
  8
0
  6
Continuous
 62
     7
100
AcDbLine
 10
410.3208507674303
 20
139.4608529153242
 30
0.0
 11
410.3208507674303
 21
296.4608299153241
 31
0.0
  0
LINE
  5
C76
330
F4D
100
AcDbEntity
  8
0
  6
Continuous
 62
     7
100
AcDbLine
 10
483.3011807674303
 20
167.1608419153242
 30
0.0
 11
483.3011807674303
 21
268.7608179153242
 31
0.0
  0
LINE
  5
C77
330
F4D
100
AcDbEntity
  8
0
  6
Continuous
 62
     7
100
AcDbLine
 10
354.2966687674303
 20
139.4608299153242
 30
0.0
 11
354.2966687674303
 21
296.4608299153241
 31
0.0
  0
LINE
  5
C78
330
F4D
100
AcDbEntity
  8
0
  6
Continuous
 62
     7
100
AcDbLine
 10
316.3251412674302
 20
268.7608289153242
 30
0.0
 11
316.3251412674302
 21
167.1608309153241
 31
0.0
  0
LINE
  5
C79
330
F4D
100
AcDbEntity
  8
0
  6
Continuous
 62
     7
100
AcDbLine
 10
310.3086007674302
 20
158.4608299153241
 30
0.0
 11
310.3086007674302
 21
277.4608299153241
 31
0.0
  0
LINE
  5
C7A
330
F4D
100
AcDbEntity
  8
0
  6
Continuous
 62
     7
100
AcDbLine
 10
346.8744877674303
 20
167.1608419153242
 30
0.0
 11
346.8744877674303
 21
268.7608179153242
 31
0.0
  0
LINE
  5
C7B
330
F4D
100
AcDbEntity
  8
0
  6
Continuous
 62
     7
100
AcDbLine
 10
443.0586007674303
 20
119.2608789153241
 30
0.0
 11
443.0586007674303
 21
316.6607809153241
 31
0.0
  0
LINE
  5
C7C
330
F4D
100
AcDbEntity
  8
0
  6
Continuous
 62
     7
100
AcDbLine
 10
417.5586007674302
 20
119.2608789153241
 30
0.0
 11
417.5586007674302
 21
316.6607809153241
 31
0.0
  0
LINE
  5
C7D
330
F4D
100
AcDbEntity
  8
0
  6
Continuous
 62
     7
100
AcDbLine
 10
410.3208507674303
 20
139.4608299153242
 30
0.0
 11
354.2966757674303
 21
139.4608299153242
 31
0.0
  0
LINE
  5
C7E
330
F4D
100
AcDbEntity
  8
0
  6
Continuous
 62
     7
100
AcDbLine
 10
346.8744797674302
 20
167.1608419153242
 30
0.0
 11
354.2966757674303
 21
139.4608299153242
 31
0.0
  0
LINE
  5
C7F
330
F4D
100
AcDbEntity
  8
0
  6
Continuous
 62
     7
100
AcDbLine
 10
316.3251412674302
 20
167.1608309153241
 30
0.0
 11
346.8744797674302
 21
167.1608309153241
 31
0.0
  0
LINE
  5
C80
330
F4D
100
AcDbEntity
  8
0
  6
Continuous
 62
     7
100
AcDbLine
 10
310.3086007674302
 20
158.4608299153241
 30
0.0
 11
313.1585997674303
 21
158.4608299153241
 31
0.0
  0
LINE
  5
C81
330
F4D
100
AcDbEntity
  8
0
  6
Continuous
 62
     7
100
AcDbLine
 10
313.1585994674303
 20
158.4608289153242
 30
0.0
 11
316.3251405674301
 21
167.160828915324
 31
0.0
  0
LINE
  5
C82
330
F4D
100
AcDbEntity
  8
0
  6
Continuous
 62
     7
100
AcDbLine
 10
417.5586007674302
 20
119.2608789153241
 30
0.0
 11
443.0586007674303
 21
119.2608789153241
 31
0.0
  0
LINE
  5
C83
330
F4D
100
AcDbEntity
  8
0
  6
Continuous
 62
     7
100
AcDbLine
 10
417.5585907674303
 20
135.2821389153241
 30
0.0
 11
410.3208907674305
 21
139.4608309153241
 31
0.0
  0
LINE
  5
C84
330
F4D
100
AcDbEntity
  8
0
  6
Continuous
 62
     7
100
AcDbLine
 10
467.3085807674303
 20
139.4608279153242
 30
0.0
 11
483.3011907674303
 21
167.160840915324
 31
0.0
  0
LINE
  5
C85
330
F4D
100
AcDbEntity
  8
0
  6
Continuous
 62
     7
100
AcDbLine
 10
443.0586007674303
 20
135.2821309153241
 30
0.0
 11
450.2963107674303
 21
139.4608269153241
 31
0.0
  0
LINE
  5
C86
330
F4D
100
AcDbEntity
  8
0
  6
Continuous
 62
     7
100
AcDbLine
 10
450.2963007674302
 20
139.4608299153242
 30
0.0
 11
467.3085807674303
 21
139.4608299153242
 31
0.0
  0
LINE
  5
C87
330
F4D
100
AcDbEntity
  8
0
  6
Continuous
 62
     7
100
AcDbLine
 10
410.3208507674303
 20
296.4608299153241
 30
0.0
 11
354.2966757674303
 21
296.4608299153241
 31
0.0
  0
LINE
  5
C88
330
F4D
100
AcDbEntity
  8
0
  6
Continuous
 62
     7
100
AcDbLine
 10
316.3251412674302
 20
268.7608289153242
 30
0.0
 11
346.8744797674302
 21
268.7608289153242
 31
0.0
  0
LINE
  5
C89
330
F4D
100
AcDbEntity
  8
0
  6
Continuous
 62
     7
100
AcDbLine
 10
313.1585994674303
 20
277.460830915324
 30
0.0
 11
316.3251405674301
 21
268.7608309153243
 31
0.0
  0
LINE
  5
C8A
330
F4D
100
AcDbEntity
  8
0
  6
Continuous
 62
     7
100
AcDbLine
 10
310.3086007674302
 20
277.4608299153241
 30
0.0
 11
313.1585997674303
 21
277.4608299153241
 31
0.0
  0
LINE
  5
C8B
330
F4D
100
AcDbEntity
  8
0
  6
Continuous
 62
     7
100
AcDbLine
 10
346.8744797674302
 20
268.7608179153242
 30
0.0
 11
354.2966757674303
 21
296.4608299153241
 31
0.0
  0
LINE
  5
C8C
330
F4D
100
AcDbEntity
  8
0
  6
Continuous
 62
     7
100
AcDbLine
 10
443.0586007674303
 20
300.6395289153241
 30
0.0
 11
450.2963107674303
 21
296.4608329153243
 31
0.0
  0
LINE
  5
C8D
330
F4D
100
AcDbEntity
  8
0
  6
Continuous
 62
     7
100
AcDbLine
 10
417.5585907674303
 20
300.6395209153242
 30
0.0
 11
410.3208907674305
 21
296.4608289153243
 31
0.0
  0
LINE
  5
C8E
330
F4D
100
AcDbEntity
  8
0
  6
Continuous
 62
     7
100
AcDbLine
 10
417.0466907674303
 20
207.9608299153242
 30
0.0
 11
437.0466507674303
 21
227.9608299153241
 31
0.0
  0
LINE
  5
C8F
330
F4D
100
AcDbEntity
  8
0
  6
Continuous
 62
     7
100
AcDbLine
 10
426.0269407674301
 20
207.9608299153242
 30
0.0
 11
447.4146607674303
 21
229.348600915324
 31
0.0
  0
LINE
  5
C90
330
F4D
100
AcDbEntity
  8
0
  6
Continuous
 62
     7
100
AcDbLine
 10
412.5565707674302
 20
207.9608299153242
 30
0.0
 11
432.5565307674303
 21
227.9608299153241
 31
0.0
  0
LINE
  5
C91
330
F4D
100
AcDbEntity
  8
0
  6
Continuous
 62
     7
100
AcDbLine
 10
438.8024407674303
 20
207.9608299153242
 30
0.0
 11
382.3087607674303
 21
207.9608299153242
 31
0.0
  0
LINE
  5
C92
330
F4D
100
AcDbEntity
  8
0
  6
Continuous
 62
     7
100
AcDbLine
 10
438.8024407674303
 20
227.9608299153241
 30
0.0
 11
382.3087607674303
 21
227.9608299153241
 31
0.0
  0
LINE
  5
C93
330
F4D
100
AcDbEntity
  8
0
  6
Continuous
 62
     7
100
AcDbLine
 10
421.5368107674303
 20
207.9608299153242
 30
0.0
 11
445.1696007674303
 21
231.5936649153241
 31
0.0
  0
LINE
  5
C94
330
F4D
100
AcDbEntity
  8
0
  6
Continuous
 62
     7
100
AcDbLine
 10
382.3087607674303
 20
213.634023315324
 30
0.0
 11
396.6355387674302
 21
227.9608299153241
 31
0.0
  0
LINE
  5
C95
330
F4D
100
AcDbEntity
  8
0
  6
Continuous
 62
     7
100
AcDbLine
 10
382.3087607674303
 20
209.1438908153241
 30
0.0
 11
401.1256627674304
 21
227.9608299153241
 31
0.0
  0
LINE
  5
C96
330
F4D
100
AcDbEntity
  8
0
  6
Continuous
 62
     7
100
AcDbLine
 10
385.6158257674303
 20
207.9608299153242
 30
0.0
 11
405.6157857674303
 21
227.9608299153241
 31
0.0
  0
LINE
  5
C97
330
F4D
100
AcDbEntity
  8
0
  6
Continuous
 62
     7
100
AcDbLine
 10
390.1059497674302
 20
207.9608299153242
 30
0.0
 11
410.1059097674303
 21
227.9608299153241
 31
0.0
  0
LINE
  5
C98
330
F4D
100
AcDbEntity
  8
0
  6
Continuous
 62
     7
100
AcDbLine
 10
382.3087607674303
 20
222.6142883153243
 30
0.0
 11
387.6552917674302
 21
227.9608299153241
 31
0.0
  0
LINE
  5
C99
330
F4D
100
AcDbEntity
  8
0
  6
Continuous
 62
     7
100
AcDbLine
 10
382.3087607674303
 20
207.9608299153242
 30
0.0
 11
382.3087607674303
 21
227.9608299153241
 31
0.0
  0
LINE
  5
C9A
330
F4D
100
AcDbEntity
  8
0
  6
Continuous
 62
     7
100
AcDbLine
 10
382.3087607674303
 20
227.1044207153241
 30
0.0
 11
383.1651687674302
 21
227.9608299153241
 31
0.0
  0
LINE
  5
C9B
330
F4D
100
AcDbEntity
  8
0
  6
Continuous
 62
     7
100
AcDbLine
 10
382.3087607674303
 20
218.1241557953241
 30
0.0
 11
392.1454157674303
 21
227.9608299153241
 31
0.0
  0
LINE
  5
C9C
330
F4D
100
AcDbEntity
  8
0
  6
Continuous
 62
     7
100
AcDbLine
 10
394.5960727674303
 20
207.9608299153242
 30
0.0
 11
414.5960307674303
 21
227.9608299153241
 31
0.0
  0
LINE
  5
C9D
330
F4D
100
AcDbEntity
  8
0
  6
Continuous
 62
     7
100
AcDbLine
 10
408.0664437674303
 20
207.9608299153242
 30
0.0
 11
428.0664007674303
 21
227.9608299153241
 31
0.0
  0
LINE
  5
C9E
330
F4D
100
AcDbEntity
  8
0
  6
Continuous
 62
     7
100
AcDbLine
 10
399.0861967674301
 20
207.9608299153242
 30
0.0
 11
419.0861607674303
 21
227.9608299153241
 31
0.0
  0
LINE
  5
C9F
330
F4D
100
AcDbEntity
  8
0
  6
Continuous
 62
     7
100
AcDbLine
 10
403.5763197674302
 20
207.9608299153242
 30
0.0
 11
423.5762807674302
 21
227.9608299153241
 31
0.0
  0
LINE
  5
CA0
330
F4D
100
AcDbEntity
  8
0
  6
Continuous
 62
     7
100
AcDbLine
 10
438.8024407674303
 20
234.2067519153241
 30
0.0
 11
440.6794707674301
 21
236.0837929153241
 31
0.0
  0
LINE
  5
CA1
330
F4D
100
AcDbEntity
  8
0
  6
Continuous
 62
     7
100
AcDbLine
 10
438.8024407674303
 20
197.9608299153241
 30
0.0
 11
438.8024407674303
 21
207.9608299153242
 31
0.0
  0
LINE
  5
CA2
330
F4D
100
AcDbEntity
  8
0
  6
Continuous
 62
     7
100
AcDbLine
 10
438.8024407674303
 20
207.2659569153243
 30
0.0
 11
454.1498607674301
 21
222.613408715324
 31
0.0
  0
LINE
  5
CA3
330
F4D
100
AcDbEntity
  8
0
  6
Continuous
 62
     7
100
AcDbLine
 10
438.8024407674303
 20
202.7758239153241
 30
0.0
 11
456.3949207674302
 21
220.368344715324
 31
0.0
  0
LINE
  5
CA4
330
F4D
100
AcDbEntity
  8
0
  6
Continuous
 62
     7
100
AcDbLine
 10
438.8024407674303
 20
198.285691915324
 30
0.0
 11
458.6399807674303
 21
218.1232806953242
 31
0.0
  0
LINE
  5
CA5
330
F4D
100
AcDbEntity
  8
0
  6
Continuous
 62
     7
100
AcDbLine
 10
458.8024407674303
 20
217.9608299153241
 30
0.0
 11
438.8024407674303
 21
197.9608299153241
 31
0.0
  0
LINE
  5
CA6
330
F4D
100
AcDbEntity
  8
0
  6
Continuous
 62
     7
100
AcDbLine
 10
430.5170607674303
 20
207.9608299153242
 30
0.0
 11
449.6597307674303
 21
227.1035367153241
 31
0.0
  0
LINE
  5
CA7
330
F4D
100
AcDbEntity
  8
0
  6
Continuous
 62
     7
100
AcDbLine
 10
435.0071807674303
 20
207.9608299153242
 30
0.0
 11
451.9047907674304
 21
224.8584727153243
 31
0.0
  0
LINE
  5
CA8
330
F4D
100
AcDbEntity
  8
0
  6
Continuous
 62
     7
100
AcDbLine
 10
438.8024407674303
 20
237.9608299153241
 30
0.0
 11
458.8024407674303
 21
217.9608299153241
 31
0.0
  0
LINE
  5
CA9
330
F4D
100
AcDbEntity
  8
0
  6
Continuous
 62
     7
100
AcDbLine
 10
438.8024407674303
 20
229.7166189153241
 30
0.0
 11
442.9245407674302
 21
233.8387289153241
 31
0.0
  0
LINE
  5
CAA
330
F4D
100
AcDbEntity
  8
0
  6
Continuous
 62
     7
100
AcDbLine
 10
438.8024407674303
 20
227.9608299153241
 30
0.0
 11
438.8024407674303
 21
237.9608299153241
 31
0.0
  0
LINE
  5
CAB
330
F4D
100
AcDbEntity
  8
0
  6
Continuous
 62
     7
100
AcDbLine
 10
467.3085807674303
 20
296.4608319153241
 30
0.0
 11
483.3011907674303
 21
268.7608189153243
 31
0.0
  0
LINE
  5
CAC
330
F4D
100
AcDbEntity
  8
0
  6
Continuous
 62
     7
100
AcDbLine
 10
450.2963007674302
 20
296.4608299153241
 30
0.0
 11
467.3085807674303
 21
296.4608299153241
 31
0.0
  0
LINE
  5
CAD
330
F4D
100
AcDbEntity
  8
0
  6
Continuous
 62
     7
100
AcDbLine
 10
417.5586007674302
 20
316.6607809153241
 30
0.0
 11
443.0586007674303
 21
316.6607809153241
 31
0.0
  0
LINE
  5
CAE
330
F4D
100
AcDbEntity
  8
0
  6
Continuous
 62
     7
100
AcDbLine
 10
509.2920602674304
 20
167.1608309153243
 30
0.0
 11
509.2920602674304
 21
268.7608289153244
 31
0.0
  0
LINE
  5
CAF
330
F4D
100
AcDbEntity
  8
0
  6
Continuous
 62
     7
100
AcDbLine
 10
515.3086007674303
 20
277.4608299153243
 30
0.0
 11
515.3086007674303
 21
158.4608299153244
 31
0.0
  0
LINE
  5
CB0
330
F4D
100
AcDbEntity
  8
0
  6
Continuous
 62
     7
100
AcDbLine
 10
512.4586020674303
 20
158.4608289153242
 30
0.0
 11
509.2920609674303
 21
167.1608289153242
 31
0.0
  0
LINE
  5
CB1
330
F4D
100
AcDbEntity
  8
0
  6
Continuous
 62
     7
100
AcDbLine
 10
515.3086007674303
 20
158.4608299153244
 30
0.0
 11
512.4586017674301
 21
158.4608299153244
 31
0.0
  0
LINE
  5
CB2
330
F4D
100
AcDbEntity
  8
0
  6
Continuous
 62
     7
100
AcDbLine
 10
512.4586020674303
 20
277.4608309153244
 30
0.0
 11
509.2920609674303
 21
268.7608309153245
 31
0.0
  0
LINE
  5
CB3
330
F4D
100
AcDbEntity
  8
0
  6
Continuous
 62
     7
100
AcDbLine
 10
515.3086007674303
 20
277.4608299153243
 30
0.0
 11
512.4586017674301
 21
277.4608299153243
 31
0.0
  0
TEXT
  5
D08
330
F4D
100
AcDbEntity
  8
0
  6
Continuous
 62
     7
100
AcDbText
 10
219.767160336556
 20
706.0493410261568
 30
0.0
 40
48.000002
  1
CVCS 4S
 41
1.1021
100
AcDbText
  0
LINE
  5
FA0
330
F4D
100
AcDbEntity
  8
0
  6
CENTER
100
AcDbLine
 10
293.7893390268109
 20
217.9608299153243
 30
0.0
 11
530.6688058012114
 21
217.9608299153243
 31
0.0
  0
LINE
  5
FA1
330
F4D
100
AcDbEntity
  8
0
  6
CENTER
100
AcDbLine
 10
536.9437720625885
 20
217.9608299153241
 30
0.0
 11
781.5156713526699
 21
217.9608299153241
 31
0.0
  0
LINE
  5
FA2
330
F4D
100
AcDbEntity
  8
0
  6
CENTER
100
AcDbLine
 10
659.2297217076293
 20
95.67488027028346
 30
0.0
 11
659.2297217076293
 21
340.2467795603648
 31
0.0
  0
LINE
  5
FA3
330
F4D
100
AcDbEntity
  8
0
  6
CENTER
100
AcDbLine
 10
43.81505063477766
 20
217.9608299153241
 30
0.0
 11
288.3869499248591
 21
217.9608299153241
 31
0.0
  0
LINE
  5
FA4
330
F4D
100
AcDbEntity
  8
0
  6
CENTER
100
AcDbLine
 10
166.1010002798184
 20
95.67488027028346
 30
0.0
 11
166.1010002798184
 21
340.2467795603648
 31
0.0
  0
LINE
  5
FA5
330
F4D
100
AcDbEntity
  8
0
  6
CENTER
100
AcDbLine
 10
293.7893390268109
 20
506.5789093091602
 30
0.0
 11
530.6688058012114
 21
506.5789093091602
 31
0.0
  0
ENDSEC
  0
SECTION
  2
OBJECTS
  0
DICTIONARY
  5
F3B
330
0
100
AcDbDictionary
281
     1
  3
ACAD_GROUP
350
F3C
  3
ACAD_LAYOUT
350
F48
  3
ACAD_MLINESTYLE
350
F45
  3
ACAD_PLOTSETTINGS
350
F47
  3
ACAD_PLOTSTYLENAME
350
F3D
  3
AcDbVariableDictionary
350
F92
  0
DICTIONARY
  5
F98
330
F31
100
AcDbDictionary
280
     1
281
     1
  3
ACAD_LAYERSTATES
360
F99
  0
DICTIONARY
  5
F5E
330
F4D
100
AcDbDictionary
280
     1
281
     1
  3
ACAD_LAYOUTSELFREF
360
F8D
  0
DICTIONARY
  5
F60
330
F49
100
AcDbDictionary
280
     1
281
     1
  3
ACAD_LAYOUTSELFREF
360
F8C
  0
DICTIONARY
  5
F3C
102
{ACAD_REACTORS
330
F3B
102
}
330
F3B
100
AcDbDictionary
281
     1
  0
DICTIONARY
  5
F48
102
{ACAD_REACTORS
330
F3B
102
}
330
F3B
100
AcDbDictionary
281
     1
  3
Model
350
F50
  3
ﾚｲｱｳﾄ1
350
F4C
  0
DICTIONARY
  5
F45
102
{ACAD_REACTORS
330
F3B
102
}
330
F3B
100
AcDbDictionary
281
     1
  3
Standard
350
F46
  0
DICTIONARY
  5
F47
102
{ACAD_REACTORS
330
F3B
102
}
330
F3B
100
AcDbDictionary
281
     1
  0
ACDBDICTIONARYWDFLT
  5
F3D
102
{ACAD_REACTORS
330
F3B
102
}
330
F3B
100
AcDbDictionary
281
     1
  3
Normal
350
F3E
100
AcDbDictionaryWithDefault
340
F3E
  0
DICTIONARY
  5
F92
102
{ACAD_REACTORS
330
F3B
102
}
330
F3B
100
AcDbDictionary
281
     1
  3
DIMASSOC
350
F93
  0
DICTIONARY
  5
F99
102
{ACAD_REACTORS
330
F98
102
}
330
F98
100
AcDbDictionary
281
     1
  0
XRECORD
  5
F8D
102
{ACAD_REACTORS
330
F5E
102
}
330
F5E
100
AcDbXrecord
280
     1
340
F4D
  0
XRECORD
  5
F8C
102
{ACAD_REACTORS
330
F60
102
}
330
F60
100
AcDbXrecord
280
     1
340
F49
  0
LAYOUT
  5
F50
102
{ACAD_REACTORS
330
F48
102
}
330
F48
100
AcDbPlotSettings
  1

  2
SII LP-2150 (D-SCAN C2)
  4

  6

 40
0.0
 41
0.0
 42
0.0
 43
0.0
 44
0.0
 45
0.0
 46
0.0
 47
0.0
 48
0.0
 49
0.0
140
0.0
141
0.0
142
1.0
143
1.0
 70
  1712
 72
     0
 73
     0
 74
     0
  7

 75
     0
147
1.0
148
0.0
149
0.0
100
AcDbLayout
  1
Model
 70
     1
 71
     0
 10
0.0
 20
0.0
 11
12.0
 21
9.0
 12
0.0
 22
0.0
 32
0.0
 14
0.0
 24
0.0
 34
0.0
 15
0.0
 25
0.0
 35
0.0
146
0.0
 13
0.0
 23
0.0
 33
0.0
 16
1.0
 26
0.0
 36
0.0
 17
0.0
 27
1.0
 37
0.0
 76
     0
330
F4D
  0
LAYOUT
  5
F4C
102
{ACAD_REACTORS
330
F48
102
}
330
F48
100
AcDbPlotSettings
  1

  2
SII LP-2150 (D-SCAN C2)
  4

  6

 40
0.0
 41
0.0
 42
0.0
 43
0.0
 44
0.0
 45
0.0
 46
0.0
 47
0.0
 48
0.0
 49
0.0
140
0.0
141
0.0
142
1.0
143
1.0
 70
   688
 72
     0
 73
     0
 74
     5
  7

 75
    16
147
1.0
148
0.0
149
0.0
100
AcDbLayout
  1
ﾚｲｱｳﾄ1
 70
     1
 71
     1
 10
-44.912933
 20
-21.841471
 11
153.5627299999999
 21
105.04179
 12
0.0
 22
0.0
 32
0.0
 14
-44.912933
 24
-21.841471
 34
0.0
 15
153.5627299999999
 25
105.04179
 35
0.0
146
0.0
 13
0.0
 23
0.0
 33
0.0
 16
1.0
 26
0.0
 36
0.0
 17
0.0
 27
1.0
 37
0.0
 76
     0
330
F49
  0
MLINESTYLE
  5
F46
102
{ACAD_REACTORS
330
F45
102
}
330
F45
100
AcDbMlineStyle
  2
STANDARD
 70
     0
  3

 62
   256
 51
90.0
 52
90.0
 71
     2
 49
0.5
 62
   256
  6
BYLAYER
 49
-0.5
 62
   256
  6
BYLAYER
  0
ACDBPLACEHOLDER
  5
F3E
102
{ACAD_REACTORS
330
F3D
102
}
330
F3D
  0
DICTIONARYVAR
  5
F93
102
{ACAD_REACTORS
330
F92
102
}
330
F92
100
DictionaryVariables
280
     0
  1
1
  0
ENDSEC
  0
EOF
