  0
SECTION
  2
HEADER
  9
$ACADVER
  1
AC1015
  9
$ACADMAINTVER
 70
    14
  9
$DWGCODEPAGE
  3
ANSI_932
  9
$INSBASE
 10
0.0
 20
0.0
 30
0.0
  9
$EXTMIN
 10
53.69811531308187
 20
137.2988024339106
 30
-0.0000000000112498
  9
$EXTMAX
 10
752.664602501113
 20
728.5499116870966
 30
0.0000000000002956
  9
$LIMMIN
 10
-44.912933
 20
-21.841471
  9
$LIMMAX
 10
153.5627299999999
 20
105.04179
  9
$ORTHOMODE
 70
     0
  9
$REGENMODE
 70
     1
  9
$FILLMODE
 70
     1
  9
$QTEXTMODE
 70
     0
  9
$MIRRTEXT
 70
     1
  9
$LTSCALE
 40
1.0
  9
$ATTMODE
 70
     1
  9
$TEXTSIZE
 40
0.2
  9
$TRACEWID
 40
0.05
  9
$TEXTSTYLE
  7
STANDARD
  9
$CLAYER
  8
0
  9
$CELTYPE
  6
CONTINUOUS
  9
$CECOLOR
 62
   256
  9
$CELTSCALE
 40
1.0
  9
$DISPSILH
 70
     0
  9
$DIMSCALE
 40
1.0
  9
$DIMASZ
 40
15.0
  9
$DIMEXO
 40
5.0
  9
$DIMDLI
 40
10.0
  9
$DIMRND
 40
0.0
  9
$DIMDLE
 40
0.0
  9
$DIMEXE
 40
10.0
  9
$DIMTP
 40
0.0
  9
$DIMTM
 40
0.0
  9
$DIMTXT
 40
20.0
  9
$DIMCEN
 40
0.09
  9
$DIMTSZ
 40
0.0
  9
$DIMTOL
 70
     0
  9
$DIMLIM
 70
     0
  9
$DIMTIH
 70
     0
  9
$DIMTOH
 70
     1
  9
$DIMSE1
 70
     0
  9
$DIMSE2
 70
     0
  9
$DIMTAD
 70
     1
  9
$DIMZIN
 70
     8
  9
$DIMBLK
  1

  9
$DIMASO
 70
     1
  9
$DIMSHO
 70
     0
  9
$DIMPOST
  1

  9
$DIMAPOST
  1

  9
$DIMALT
 70
     0
  9
$DIMALTD
 70
     2
  9
$DIMALTF
 40
25.4
  9
$DIMLFAC
 40
1.0
  9
$DIMTOFL
 70
     0
  9
$DIMTVP
 40
0.0
  9
$DIMTIX
 70
     0
  9
$DIMSOXD
 70
     0
  9
$DIMSAH
 70
     0
  9
$DIMBLK1
  1

  9
$DIMBLK2
  1

  9
$DIMSTYLE
  2
STANDARD
  9
$DIMCLRD
 70
     0
  9
$DIMCLRE
 70
     0
  9
$DIMCLRT
 70
     0
  9
$DIMTFAC
 40
1.0
  9
$DIMGAP
 40
5.0
  9
$DIMJUST
 70
     0
  9
$DIMSD1
 70
     0
  9
$DIMSD2
 70
     0
  9
$DIMTOLJ
 70
     1
  9
$DIMTZIN
 70
     0
  9
$DIMALTZ
 70
     0
  9
$DIMALTTZ
 70
     0
  9
$DIMUPT
 70
     0
  9
$DIMDEC
 70
     4
  9
$DIMTDEC
 70
     4
  9
$DIMALTU
 70
     2
  9
$DIMALTTD
 70
     2
  9
$DIMTXSTY
  7
STANDARD
  9
$DIMAUNIT
 70
     0
  9
$DIMADEC
 70
     0
  9
$DIMALTRND
 40
0.0
  9
$DIMAZIN
 70
     0
  9
$DIMDSEP
 70
    46
  9
$DIMATFIT
 70
     3
  9
$DIMFRAC
 70
     0
  9
$DIMLDRBLK
  1

  9
$DIMLUNIT
 70
     2
  9
$DIMLWD
 70
    -2
  9
$DIMLWE
 70
    -2
  9
$DIMTMOVE
 70
     0
  9
$LUNITS
 70
     2
  9
$LUPREC
 70
     4
  9
$SKETCHINC
 40
0.1
  9
$FILLETRAD
 40
0.0
  9
$AUNITS
 70
     0
  9
$AUPREC
 70
     0
  9
$MENU
  1
.
  9
$ELEVATION
 40
0.0
  9
$PELEVATION
 40
0.0
  9
$THICKNESS
 40
0.0
  9
$LIMCHECK
 70
     0
  9
$CHAMFERA
 40
0.0
  9
$CHAMFERB
 40
0.0
  9
$CHAMFERC
 40
0.0
  9
$CHAMFERD
 40
0.0
  9
$SKPOLY
 70
     0
  9
$TDCREATE
 40
2452488.423177615
  9
$TDUCREATE
 40
2452488.048177615
  9
$TDUPDATE
 40
2456899.667728530
  9
$TDUUPDATE
 40
2456899.292728530
  9
$TDINDWG
 40
0.0573495949
  9
$TDUSRTIMER
 40
0.0573495949
  9
$USRTIMER
 70
     1
  9
$ANGBASE
 50
0.0
  9
$ANGDIR
 70
     0
  9
$PDMODE
 70
     3
  9
$PDSIZE
 40
0.0
  9
$PLINEWID
 40
0.0
  9
$SPLFRAME
 70
     0
  9
$SPLINETYPE
 70
     6
  9
$SPLINESEGS
 70
     8
  9
$HANDSEED
  5
FB3
  9
$SURFTAB1
 70
     6
  9
$SURFTAB2
 70
     6
  9
$SURFTYPE
 70
     6
  9
$SURFU
 70
     6
  9
$SURFV
 70
     6
  9
$UCSBASE
  2

  9
$UCSNAME
  2

  9
$UCSORG
 10
0.0
 20
0.0
 30
0.0
  9
$UCSXDIR
 10
1.0
 20
0.0
 30
0.0
  9
$UCSYDIR
 10
0.0
 20
1.0
 30
0.0
  9
$UCSORTHOREF
  2

  9
$UCSORTHOVIEW
 70
     0
  9
$UCSORGTOP
 10
0.0
 20
0.0
 30
0.0
  9
$UCSORGBOTTOM
 10
0.0
 20
0.0
 30
0.0
  9
$UCSORGLEFT
 10
0.0
 20
0.0
 30
0.0
  9
$UCSORGRIGHT
 10
0.0
 20
0.0
 30
0.0
  9
$UCSORGFRONT
 10
0.0
 20
0.0
 30
0.0
  9
$UCSORGBACK
 10
0.0
 20
0.0
 30
0.0
  9
$PUCSBASE
  2

  9
$PUCSNAME
  2

  9
$PUCSORG
 10
0.0
 20
0.0
 30
0.0
  9
$PUCSXDIR
 10
1.0
 20
0.0
 30
0.0
  9
$PUCSYDIR
 10
0.0
 20
1.0
 30
0.0
  9
$PUCSORTHOREF
  2

  9
$PUCSORTHOVIEW
 70
     0
  9
$PUCSORGTOP
 10
0.0
 20
0.0
 30
0.0
  9
$PUCSORGBOTTOM
 10
0.0
 20
0.0
 30
0.0
  9
$PUCSORGLEFT
 10
0.0
 20
0.0
 30
0.0
  9
$PUCSORGRIGHT
 10
0.0
 20
0.0
 30
0.0
  9
$PUCSORGFRONT
 10
0.0
 20
0.0
 30
0.0
  9
$PUCSORGBACK
 10
0.0
 20
0.0
 30
0.0
  9
$USERI1
 70
     0
  9
$USERI2
 70
     0
  9
$USERI3
 70
     0
  9
$USERI4
 70
     0
  9
$USERI5
 70
     0
  9
$USERR1
 40
0.0
  9
$USERR2
 40
0.0
  9
$USERR3
 40
0.0
  9
$USERR4
 40
0.0
  9
$USERR5
 40
0.0
  9
$WORLDVIEW
 70
     1
  9
$SHADEDGE
 70
     3
  9
$SHADEDIF
 70
    70
  9
$TILEMODE
 70
     1
  9
$MAXACTVP
 70
    48
  9
$PINSBASE
 10
0.0
 20
0.0
 30
0.0
  9
$PLIMCHECK
 70
     0
  9
$PEXTMIN
 10
-44.912933
 20
-21.841471
 30
0.0
  9
$PEXTMAX
 10
153.5627299999999
 20
105.04179
 30
0.0
  9
$PLIMMIN
 10
-44.912933
 20
-21.841471
  9
$PLIMMAX
 10
153.5627299999999
 20
105.04179
  9
$UNITMODE
 70
     0
  9
$VISRETAIN
 70
     1
  9
$PLINEGEN
 70
     0
  9
$PSLTSCALE
 70
     1
  9
$TREEDEPTH
 70
  3020
  9
$CMLSTYLE
  2
Standard
  9
$CMLJUST
 70
     0
  9
$CMLSCALE
 40
1.0
  9
$PROXYGRAPHICS
 70
     1
  9
$MEASUREMENT
 70
     0
  9
$CELWEIGHT
370
    -1
  9
$ENDCAPS
280
     0
  9
$JOINSTYLE
280
     0
  9
$LWDISPLAY
290
     0
  9
$INSUNITS
 70
     0
  9
$HYPERLINKBASE
  1

  9
$STYLESHEET
  1

  9
$XEDIT
290
     1
  9
$CEPSNTYPE
380
     0
  9
$PSTYLEMODE
290
     1
  9
$FINGERPRINTGUID
  2
{A98418AB-F405-41CC-91C3-95A94CFDD353}
  9
$VERSIONGUID
  2
{4B1E2DCF-97C9-4D29-8DE2-AE5CA5969D10}
  9
$EXTNAMES
290
     1
  9
$PSVPSCALE
 40
0.0
  9
$OLESTARTUP
290
     0
  0
ENDSEC
  0
SECTION
  2
CLASSES
  0
CLASS
  1
ACDBDICTIONARYWDFLT
  2
AcDbDictionaryWithDefault
  3
AutoCAD 2000
 90
        0
280
     0
281
     0
  0
CLASS
  1
ACDBPLACEHOLDER
  2
AcDbPlaceHolder
  3
AutoCAD 2000
 90
        0
280
     0
281
     0
  0
CLASS
  1
LAYOUT
  2
AcDbLayout
  3
AutoCAD 2000
 90
        0
280
     0
281
     0
  0
CLASS
  1
DICTIONARYVAR
  2
AcDbDictionaryVar
  3
AutoCAD 2000
 90
        0
280
     0
281
     0
  0
CLASS
  1
LONG_TRANSACTION
  2
AcDbLongTransaction
  3
AutoCAD 2000
 90
    32768
280
     0
281
     0
  0
CLASS
  1
LWPOLYLINE
  2
AcDbPolyline
  3
AutoCAD 2000
 90
    32768
280
     0
281
     1
  0
CLASS
  1
HATCH
  2
AcDbHatch
  3
AutoCAD 2000
 90
    32768
280
     0
281
     1
  0
CLASS
  1
XRECORD
  2
AcDbXrecord
  3
AutoCAD 2000
 90
    32768
280
     0
281
     0
  0
ENDSEC
  0
SECTION
  2
TABLES
  0
TABLE
  2
VPORT
  5
F3B
330
0
100
AcDbSymbolTable
 70
     2
  0
VPORT
  5
FB2
330
F3B
100
AcDbSymbolTableRecord
100
AcDbViewportTableRecord
  2
*Active
 70
     0
 10
0.0
 20
0.0
 11
1.0
 21
1.0
 12
403.1813589070974
 22
432.9243570605036
 13
0.0
 23
0.0
 14
1.0
 24
1.0
 15
0.0
 25
0.0
 16
0.0
 26
0.0
 36
1.0
 17
0.0
 27
0.0
 37
0.0
 40
595.0050845500318
 41
1.592161016949152
 42
50.0
 43
0.0
 44
0.0
 50
0.0
 51
0.0
 71
     0
 72
   100
 73
     1
 74
     3
 75
     0
 76
     0
 77
     0
 78
     0
281
     0
 65
     1
110
0.0
120
0.0
130
0.0
111
1.0
121
0.0
131
0.0
112
0.0
122
1.0
132
0.0
 79
     0
146
0.0
  0
ENDTAB
  0
TABLE
  2
LTYPE
  5
F38
330
0
100
AcDbSymbolTable
 70
     2
  0
LTYPE
  5
F46
330
F38
100
AcDbSymbolTableRecord
100
AcDbLinetypeTableRecord
  2
ByBlock
 70
     0
  3

 72
    65
 73
     0
 40
0.0
  0
LTYPE
  5
F47
330
F38
100
AcDbSymbolTableRecord
100
AcDbLinetypeTableRecord
  2
ByLayer
 70
     0
  3

 72
    65
 73
     0
 40
0.0
  0
LTYPE
  5
F48
330
F38
100
AcDbSymbolTableRecord
100
AcDbLinetypeTableRecord
  2
CONTINUOUS
 70
     0
  3
Solid line
 72
    65
 73
     0
 40
0.0
  0
LTYPE
  5
F9B
330
F38
100
AcDbSymbolTableRecord
100
AcDbLinetypeTableRecord
  2
CENTER
 70
     0
  3
__ . __
 72
    65
 73
     4
 40
7.0
 49
4.0
 74
     0
 49
-1.0
 74
     0
 49
1.0
 74
     0
 49
-1.0
 74
     0
  0
ENDTAB
  0
TABLE
  2
LAYER
  5
F35
102
{ACAD_XDICTIONARY
360
F9C
102
}
330
0
100
AcDbSymbolTable
 70
     1
  0
LAYER
  5
F43
330
F35
100
AcDbSymbolTableRecord
100
AcDbLayerTableRecord
  2
0
 70
     0
 62
     7
  6
CONTINUOUS
370
    -3
390
F42
  0
ENDTAB
  0
TABLE
  2
STYLE
  5
F36
330
0
100
AcDbSymbolTable
 70
     1
  0
STYLE
  5
F44
330
F36
100
AcDbSymbolTableRecord
100
AcDbTextStyleTableRecord
  2
STANDARD
 70
     0
 40
0.0
 41
1.0
 50
0.0
 71
     0
 42
0.2
  3
txt
  4

  0
ENDTAB
  0
TABLE
  2
VIEW
  5
F39
330
0
100
AcDbSymbolTable
 70
     0
  0
ENDTAB
  0
TABLE
  2
UCS
  5
F3A
330
0
100
AcDbSymbolTable
 70
     0
  0
ENDTAB
  0
TABLE
  2
APPID
  5
F3C
330
0
100
AcDbSymbolTable
 70
     4
  0
APPID
  5
F45
330
F3C
100
AcDbSymbolTableRecord
100
AcDbRegAppTableRecord
  2
ACAD
 70
     0
  0
APPID
  5
F57
330
F3C
100
AcDbSymbolTableRecord
100
AcDbRegAppTableRecord
  2
MCAD_NO_VIS
 70
     0
  0
APPID
  5
F58
330
F3C
100
AcDbSymbolTableRecord
100
AcDbRegAppTableRecord
  2
ACAD_TEMP_GRAPHIC
 70
     0
  0
APPID
  5
F59
330
F3C
100
AcDbSymbolTableRecord
100
AcDbRegAppTableRecord
  2
ACATTRIBSERVICES
 70
     0
  0
ENDTAB
  0
TABLE
  2
DIMSTYLE
  5
F3D
330
0
100
AcDbSymbolTable
 70
     1
100
AcDbDimStyleTable
 71
     0
  0
DIMSTYLE
105
F5A
330
F3D
100
AcDbSymbolTableRecord
100
AcDbDimStyleTableRecord
  2
STANDARD
 70
     0
 41
15.0
 42
5.0
 43
10.0
 44
10.0
 73
     0
 77
     1
 78
     8
140
20.0
147
5.0
279
     2
284
     8
285
     8
286
     8
340
F44
  0
ENDTAB
  0
TABLE
  2
BLOCK_RECORD
  5
F34
330
0
100
AcDbSymbolTable
 70
     0
  0
BLOCK_RECORD
  5
F51
102
{ACAD_XDICTIONARY
360
F62
102
}
330
F34
100
AcDbSymbolTableRecord
100
AcDbBlockTableRecord
  2
*Model_Space
340
F54
  0
BLOCK_RECORD
  5
F4D
102
{ACAD_XDICTIONARY
360
F64
102
}
330
F34
100
AcDbSymbolTableRecord
100
AcDbBlockTableRecord
  2
*Paper_Space
340
F50
  0
ENDTAB
  0
ENDSEC
  0
SECTION
  2
BLOCKS
  0
BLOCK
  5
F52
330
F51
100
AcDbEntity
  8
0
100
AcDbBlockBegin
  2
*Model_Space
 70
     0
 10
0.0
 20
0.0
 30
0.0
  3
*Model_Space
  1

  0
ENDBLK
  5
F53
330
F51
100
AcDbEntity
  8
0
100
AcDbBlockEnd
  0
BLOCK
  5
F4E
330
F4D
100
AcDbEntity
 67
     1
  8
0
100
AcDbBlockBegin
  2
*Paper_Space
 70
     0
 10
0.0
 20
0.0
 30
0.0
  3
*Paper_Space
  1

  0
ENDBLK
  5
F4F
330
F4D
100
AcDbEntity
 67
     1
  8
0
100
AcDbBlockEnd
  0
ENDSEC
  0
SECTION
  2
ENTITIES
  0
LINE
  5
BCB
330
F51
100
AcDbEntity
  8
0
  6
Continuous
 62
     7
100
AcDbLine
 10
400.4193198704471
 20
559.6142623988559
 30
0.0
 11
418.9193198704471
 21
559.6142623988559
 31
0.0
  0
LINE
  5
BCC
330
F51
100
AcDbEntity
  8
0
  6
Continuous
 62
     7
100
AcDbLine
 10
397.9370388704471
 20
470.8642623988559
 30
0.0
 11
417.9369998704471
 21
490.8642623988559
 31
0.0
  0
LINE
  5
BCD
330
F51
100
AcDbEntity
  8
0
  6
Continuous
 62
     7
100
AcDbLine
 10
418.1631598704471
 20
470.8642623988559
 30
0.0
 11
361.6694798704471
 21
470.8642623988559
 31
0.0
  0
LINE
  5
BCE
330
F51
100
AcDbEntity
  8
0
  6
Continuous
 62
     7
100
AcDbLine
 10
418.1631598704471
 20
490.8642623988559
 30
0.0
 11
361.6694798704471
 21
490.8642623988559
 31
0.0
  0
LINE
  5
BCF
330
F51
100
AcDbEntity
  8
0
  6
Continuous
 62
     7
100
AcDbLine
 10
400.4193198704471
 20
402.1142623988559
 30
0.0
 11
418.9193198704471
 21
402.1142623988559
 31
0.0
  0
LINE
  5
BD0
330
F51
100
AcDbEntity
  8
0
  6
Continuous
 62
     7
100
AcDbLine
 10
406.9172898704471
 20
470.8642623988559
 30
0.0
 11
427.5401998704471
 21
491.487217398856
 31
0.0
  0
LINE
  5
BD1
330
F51
100
AcDbEntity
  8
0
  6
Continuous
 62
     7
100
AcDbLine
 10
402.4271628704471
 20
470.8642623988559
 30
0.0
 11
425.2951398704471
 21
493.7322813988559
 31
0.0
  0
LINE
  5
BD2
330
F51
100
AcDbEntity
  8
0
  6
Continuous
 62
     7
100
AcDbLine
 10
411.4074098704471
 20
470.8642623988559
 30
0.0
 11
429.7852598704471
 21
489.2421536988559
 31
0.0
  0
LINE
  5
BD3
330
F51
100
AcDbEntity
  8
0
  6
Continuous
 62
     7
100
AcDbLine
 10
400.4193198704471
 20
559.6142623988559
 30
0.0
 11
400.4193198704471
 21
402.1142623988559
 31
0.0
  0
LINE
  5
BD4
330
F51
100
AcDbEntity
  8
0
  6
Continuous
 62
     7
100
AcDbLine
 10
334.6806638704471
 20
519.014261398856
 30
0.0
 11
340.6693278704472
 21
541.364258398856
 31
0.0
  0
LINE
  5
BD5
330
F51
100
AcDbEntity
  8
0
  6
Continuous
 62
     7
100
AcDbLine
 10
307.519318470447
 20
526.364263398856
 30
0.0
 11
310.1944991704472
 21
519.014264398856
 31
0.0
  0
LINE
  5
BD6
330
F51
100
AcDbEntity
  8
0
  6
Continuous
 62
     7
100
AcDbLine
 10
340.6693198704472
 20
541.3642623988559
 30
0.0
 11
340.6693198704472
 21
420.3642663988559
 31
0.0
  0
LINE
  5
BD7
330
F51
100
AcDbEntity
  8
0
  6
Continuous
 62
     7
100
AcDbLine
 10
304.6693198704472
 20
435.364262398856
 30
0.0
 11
304.6693198704472
 21
526.364262398856
 31
0.0
  0
LINE
  5
BD8
330
F51
100
AcDbEntity
  8
0
  6
Continuous
 62
     7
100
AcDbLine
 10
400.4193198704471
 20
420.3642623988559
 30
0.0
 11
340.6693198704472
 21
420.3642623988559
 31
0.0
  0
LINE
  5
BD9
330
F51
100
AcDbEntity
  8
0
  6
Continuous
 62
     7
100
AcDbLine
 10
334.6806568704471
 20
519.014264398856
 30
0.0
 11
334.6806568704471
 21
442.7142603988559
 31
0.0
  0
LINE
  5
BDA
330
F51
100
AcDbEntity
  8
0
  6
Continuous
 62
     7
100
AcDbLine
 10
310.1944992704471
 20
519.014264398856
 30
0.0
 11
310.1944992704471
 21
442.7142603988559
 31
0.0
  0
LINE
  5
BDB
330
F51
100
AcDbEntity
  8
0
  6
Continuous
 62
     7
100
AcDbLine
 10
304.6693198704472
 20
435.364262398856
 30
0.0
 11
307.5193185704471
 21
435.364262398856
 31
0.0
  0
LINE
  5
BDC
330
F51
100
AcDbEntity
  8
0
  6
Continuous
 62
     7
100
AcDbLine
 10
310.1944992704471
 20
442.7142603988559
 30
0.0
 11
334.680654870447
 21
442.7142603988559
 31
0.0
  0
LINE
  5
BDD
330
F51
100
AcDbEntity
  8
0
  6
Continuous
 62
     7
100
AcDbLine
 10
334.680654870447
 20
442.7142613988559
 30
0.0
 11
340.6693168704471
 21
420.364271398856
 31
0.0
  0
LINE
  5
BDE
330
F51
100
AcDbEntity
  8
0
  6
Continuous
 62
     7
100
AcDbLine
 10
307.519318470447
 20
435.3642613988559
 30
0.0
 11
310.1944991704472
 21
442.7142603988559
 31
0.0
  0
LINE
  5
BDF
330
F51
100
AcDbEntity
  8
0
  6
Continuous
 62
     7
100
AcDbLine
 10
310.1944992704471
 20
519.014264398856
 30
0.0
 11
334.6806568704471
 21
519.014264398856
 31
0.0
  0
LINE
  5
BE0
330
F51
100
AcDbEntity
  8
0
  6
Continuous
 62
     7
100
AcDbLine
 10
362.0160508704471
 20
470.8642623988559
 30
0.0
 11
382.0160108704471
 21
490.8642623988559
 31
0.0
  0
LINE
  5
BE1
330
F51
100
AcDbEntity
  8
0
  6
Continuous
 62
     7
100
AcDbLine
 10
375.4864218704471
 20
470.8642623988559
 30
0.0
 11
395.4863818704471
 21
490.8642623988559
 31
0.0
  0
LINE
  5
BE2
330
F51
100
AcDbEntity
  8
0
  6
Continuous
 62
     7
100
AcDbLine
 10
370.9962978704472
 20
470.8642623988559
 30
0.0
 11
390.9962578704471
 21
490.8642623988559
 31
0.0
  0
LINE
  5
BE3
330
F51
100
AcDbEntity
  8
0
  6
Continuous
 62
     7
100
AcDbLine
 10
366.5061748704471
 20
470.8642623988559
 30
0.0
 11
386.5061348704471
 21
490.8642623988559
 31
0.0
  0
LINE
  5
BE4
330
F51
100
AcDbEntity
  8
0
  6
Continuous
 62
     7
100
AcDbLine
 10
361.6694798704471
 20
470.8642623988559
 30
0.0
 11
361.6694798704471
 21
490.8642623988559
 31
0.0
  0
LINE
  5
BE5
330
F51
100
AcDbEntity
  8
0
  6
Continuous
 62
     7
100
AcDbLine
 10
361.6694798704471
 20
475.007823198856
 30
0.0
 11
377.5258878704471
 21
490.8642623988559
 31
0.0
  0
LINE
  5
BE6
330
F51
100
AcDbEntity
  8
0
  6
Continuous
 62
     7
100
AcDbLine
 10
361.6694798704471
 20
479.4979556988559
 30
0.0
 11
373.0357638704471
 21
490.8642623988559
 31
0.0
  0
LINE
  5
BE7
330
F51
100
AcDbEntity
  8
0
  6
Continuous
 62
     7
100
AcDbLine
 10
361.6694798704471
 20
483.9880881988561
 30
0.0
 11
368.5456408704471
 21
490.8642623988559
 31
0.0
  0
LINE
  5
BE8
330
F51
100
AcDbEntity
  8
0
  6
Continuous
 62
     7
100
AcDbLine
 10
361.6694798704471
 20
488.478220698856
 30
0.0
 11
364.0555168704471
 21
490.8642623988559
 31
0.0
  0
LINE
  5
BE9
330
F51
100
AcDbEntity
  8
0
  6
Continuous
 62
     7
100
AcDbLine
 10
393.4469158704471
 20
470.8642623988559
 30
0.0
 11
413.4468798704471
 21
490.8642623988559
 31
0.0
  0
LINE
  5
BEA
330
F51
100
AcDbEntity
  8
0
  6
Continuous
 62
     7
100
AcDbLine
 10
388.9567918704471
 20
470.8642623988559
 30
0.0
 11
408.9567498704471
 21
490.8642623988559
 31
0.0
  0
LINE
  5
BEB
330
F51
100
AcDbEntity
  8
0
  6
Continuous
 62
     7
100
AcDbLine
 10
379.9765448704472
 20
470.8642623988559
 30
0.0
 11
399.9765048704471
 21
490.8642623988559
 31
0.0
  0
LINE
  5
BEC
330
F51
100
AcDbEntity
  8
0
  6
Continuous
 62
     7
100
AcDbLine
 10
384.4666688704471
 20
470.8642623988559
 30
0.0
 11
404.4666288704472
 21
490.8642623988559
 31
0.0
  0
LINE
  5
BED
330
F51
100
AcDbEntity
  8
0
  6
Continuous
 62
     7
100
AcDbLine
 10
400.4193198704471
 20
541.3642623988559
 30
0.0
 11
340.6693198704472
 21
541.3642623988559
 31
0.0
  0
LINE
  5
BEE
330
F51
100
AcDbEntity
  8
0
  6
Continuous
 62
     7
100
AcDbLine
 10
304.6693198704472
 20
526.364262398856
 30
0.0
 11
307.5193185704471
 21
526.364262398856
 31
0.0
  0
LINE
  5
BEF
330
F51
100
AcDbEntity
  8
0
  6
Continuous
 62
     7
100
AcDbLine
 10
418.9193198704471
 20
559.6142623988559
 30
0.0
 11
418.9193198704471
 21
402.1142623988559
 31
0.0
  0
LINE
  5
BF0
330
F51
100
AcDbEntity
  8
0
  6
Continuous
 62
     7
100
AcDbLine
 10
481.819321270447
 20
526.364263398856
 30
0.0
 11
479.1441405704471
 21
519.014264398856
 31
0.0
  0
LINE
  5
BF1
330
F51
100
AcDbEntity
  8
0
  6
Continuous
 62
     7
100
AcDbLine
 10
441.6692998704472
 20
541.364252398856
 30
0.0
 11
454.5730798704473
 21
519.0142533988559
 31
0.0
  0
LINE
  5
BF2
330
F51
100
AcDbEntity
  8
0
  6
Continuous
 62
     7
100
AcDbLine
 10
484.6693198704469
 20
526.364262398856
 30
0.0
 11
484.6693198704469
 21
435.364262398856
 31
0.0
  0
LINE
  5
BF3
330
F51
100
AcDbEntity
  8
0
  6
Continuous
 62
     7
100
AcDbLine
 10
441.6693198704471
 20
541.3642623988559
 30
0.0
 11
441.6693198704471
 21
420.3642623988559
 31
0.0
  0
LINE
  5
BF4
330
F51
100
AcDbEntity
  8
0
  6
Continuous
 62
     7
100
AcDbLine
 10
418.1631598704471
 20
464.149624398856
 30
0.0
 11
436.5204598704472
 21
482.5069616988559
 31
0.0
  0
LINE
  5
BF5
330
F51
100
AcDbEntity
  8
0
  6
Continuous
 62
     7
100
AcDbLine
 10
479.1441404704471
 20
442.7142603988559
 30
0.0
 11
479.1441404704471
 21
519.014264398856
 31
0.0
  0
LINE
  5
BF6
330
F51
100
AcDbEntity
  8
0
  6
Continuous
 62
     7
100
AcDbLine
 10
454.5730998704471
 20
519.014264398856
 30
0.0
 11
454.5730998704471
 21
442.7142603988559
 31
0.0
  0
LINE
  5
BF7
330
F51
100
AcDbEntity
  8
0
  6
Continuous
 62
     7
100
AcDbLine
 10
418.1631598704471
 20
460.864262398856
 30
0.0
 11
418.1631598704471
 21
470.8642623988559
 31
0.0
  0
LINE
  5
BF8
330
F51
100
AcDbEntity
  8
0
  6
Continuous
 62
     7
100
AcDbLine
 10
438.1631498704471
 20
480.864262398856
 30
0.0
 11
418.1631498704471
 21
460.864262398856
 31
0.0
  0
LINE
  5
BF9
330
F51
100
AcDbEntity
  8
0
  6
Continuous
 62
     7
100
AcDbLine
 10
441.6693198704471
 20
420.3642623988559
 30
0.0
 11
454.5730898704471
 21
442.7142603988559
 31
0.0
  0
LINE
  5
BFA
330
F51
100
AcDbEntity
  8
0
  6
Continuous
 62
     7
100
AcDbLine
 10
418.9193198704471
 20
420.3642623988559
 30
0.0
 11
441.6693198704471
 21
420.3642623988559
 31
0.0
  0
LINE
  5
BFB
330
F51
100
AcDbEntity
  8
0
  6
Continuous
 62
     7
100
AcDbLine
 10
479.1441404704471
 20
442.7142603988559
 30
0.0
 11
454.5730998704471
 21
442.7142603988559
 31
0.0
  0
LINE
  5
BFC
330
F51
100
AcDbEntity
  8
0
  6
Continuous
 62
     7
100
AcDbLine
 10
484.6693198704469
 20
435.364262398856
 30
0.0
 11
481.8193211704469
 21
435.364262398856
 31
0.0
  0
LINE
  5
BFD
330
F51
100
AcDbEntity
  8
0
  6
Continuous
 62
     7
100
AcDbLine
 10
481.819321270447
 20
435.3642613988559
 30
0.0
 11
479.1441405704471
 21
442.7142603988559
 31
0.0
  0
LINE
  5
BFE
330
F51
100
AcDbEntity
  8
0
  6
Continuous
 62
     7
100
AcDbLine
 10
418.1631498704471
 20
500.864262398856
 30
0.0
 11
438.1631498704471
 21
480.864262398856
 31
0.0
  0
LINE
  5
BFF
330
F51
100
AcDbEntity
  8
0
  6
Continuous
 62
     7
100
AcDbLine
 10
418.1631598704471
 20
490.8642623988559
 30
0.0
 11
418.1631598704471
 21
500.864262398856
 31
0.0
  0
LINE
  5
C00
330
F51
100
AcDbEntity
  8
0
  6
Continuous
 62
     7
100
AcDbLine
 10
418.1631598704471
 20
495.5805513988559
 30
0.0
 11
420.8050098704472
 21
498.2224093988559
 31
0.0
  0
LINE
  5
C01
330
F51
100
AcDbEntity
  8
0
  6
Continuous
 62
     7
100
AcDbLine
 10
415.8975298704471
 20
470.8642623988559
 30
0.0
 11
432.0303298704471
 21
486.997089698856
 31
0.0
  0
LINE
  5
C02
330
F51
100
AcDbEntity
  8
0
  6
Continuous
 62
     7
100
AcDbLine
 10
418.1631598704471
 20
468.639756398856
 30
0.0
 11
434.2753898704471
 21
484.7520256988558
 31
0.0
  0
LINE
  5
C03
330
F51
100
AcDbEntity
  8
0
  6
Continuous
 62
     7
100
AcDbLine
 10
418.1631598704471
 20
491.0904193988559
 30
0.0
 11
423.0500698704473
 21
495.9773453988558
 31
0.0
  0
LINE
  5
C04
330
F51
100
AcDbEntity
  8
0
  6
Continuous
 62
     7
100
AcDbLine
 10
418.1631598704471
 20
500.070684398856
 30
0.0
 11
418.5599398704471
 21
500.4674733988561
 31
0.0
  0
LINE
  5
C05
330
F51
100
AcDbEntity
  8
0
  6
Continuous
 62
     7
100
AcDbLine
 10
479.1441404704471
 20
519.014264398856
 30
0.0
 11
454.5730998704471
 21
519.014264398856
 31
0.0
  0
LINE
  5
C06
330
F51
100
AcDbEntity
  8
0
  6
Continuous
 62
     7
100
AcDbLine
 10
418.9193198704471
 20
541.3642623988559
 30
0.0
 11
441.6693198704471
 21
541.3642623988559
 31
0.0
  0
LINE
  5
C07
330
F51
100
AcDbEntity
  8
0
  6
Continuous
 62
     7
100
AcDbLine
 10
484.6693198704469
 20
526.364262398856
 30
0.0
 11
481.8193211704469
 21
526.364262398856
 31
0.0
  0
CIRCLE
  5
C08
330
F51
100
AcDbEntity
  8
0
  6
Continuous
 62
     7
100
AcDbCircle
 10
151.406102679165
 20
234.9893552479823
 30
0.0
 40
60.5
  0
CIRCLE
  5
C09
330
F51
100
AcDbEntity
  8
0
  6
Continuous
 62
     7
100
AcDbCircle
 10
151.406102679165
 20
234.9893552479823
 30
0.0
 40
38.150002
  0
CIRCLE
  5
C0A
330
F51
100
AcDbEntity
  8
0
  6
Continuous
100
AcDbCircle
 10
151.406102679165
 20
234.9893552479823
 30
0.0
 40
45.5223090709105
  0
CIRCLE
  5
C0B
330
F51
100
AcDbEntity
  8
0
  6
Continuous
 62
     7
100
AcDbCircle
 10
151.406102679165
 20
234.9893552479823
 30
0.0
 40
78.75
  0
CIRCLE
  5
C2A
330
F51
100
AcDbEntity
  8
0
  6
Continuous
 62
     7
100
AcDbCircle
 10
654.9518155231328
 20
234.9893552479824
 30
0.0
 40
78.75
  0
CIRCLE
  5
C2B
330
F51
100
AcDbEntity
  8
0
  6
Continuous
100
AcDbCircle
 10
654.9518155231328
 20
234.9893552479824
 30
0.0
 40
45.5223090709105
  0
CIRCLE
  5
C2C
330
F51
100
AcDbEntity
  8
0
  6
Continuous
 62
     7
100
AcDbCircle
 10
654.9518155231328
 20
234.9893552479824
 30
0.0
 40
38.150002
  0
CIRCLE
  5
C2D
330
F51
100
AcDbEntity
  8
0
  6
Continuous
 62
     7
100
AcDbCircle
 10
654.9518155231328
 20
234.9893552479824
 30
0.0
 40
60.5
  0
LINE
  5
C34
330
F51
100
AcDbEntity
  8
0
  6
Continuous
 62
     7
100
AcDbLine
 10
419.8928258306759
 20
222.7648492479821
 30
0.0
 11
436.005055830676
 21
238.8771185479821
 31
0.0
  0
LINE
  5
C35
330
F51
100
AcDbEntity
  8
0
  6
Continuous
 62
     7
100
AcDbLine
 10
417.627195830676
 20
224.9893552479821
 30
0.0
 11
433.759995830676
 21
241.1221825479821
 31
0.0
  0
LINE
  5
C36
330
F51
100
AcDbEntity
  8
0
  6
Continuous
 62
     7
100
AcDbLine
 10
419.8928158306759
 20
254.9893552479823
 30
0.0
 11
439.8928158306759
 21
234.9893552479823
 31
0.0
  0
LINE
  5
C37
330
F51
100
AcDbEntity
  8
0
  6
Continuous
 62
     7
100
AcDbLine
 10
456.302765830676
 20
273.1393572479822
 30
0.0
 11
456.302765830676
 21
196.8393532479821
 31
0.0
  0
LINE
  5
C38
330
F51
100
AcDbEntity
  8
0
  6
Continuous
 62
     7
100
AcDbLine
 10
480.8738064306758
 20
196.8393532479821
 30
0.0
 11
480.8738064306758
 21
273.1393572479822
 31
0.0
  0
LINE
  5
C39
330
F51
100
AcDbEntity
  8
0
  6
Continuous
 62
     7
100
AcDbLine
 10
443.3989858306759
 20
295.4893552479822
 30
0.0
 11
443.3989858306759
 21
174.4893552479823
 31
0.0
  0
LINE
  5
C3A
330
F51
100
AcDbEntity
  8
0
  6
Continuous
 62
     7
100
AcDbLine
 10
486.3989858306759
 20
280.4893552479823
 30
0.0
 11
486.3989858306759
 21
189.4893552479823
 31
0.0
  0
LINE
  5
C3B
330
F51
100
AcDbEntity
  8
0
  6
Continuous
 62
     7
100
AcDbLine
 10
420.6489858306759
 20
313.7393552479823
 30
0.0
 11
420.6489858306759
 21
156.2393552479823
 31
0.0
  0
LINE
  5
C3C
330
F51
100
AcDbEntity
  8
0
  6
Continuous
 62
     7
100
AcDbLine
 10
386.1963348306759
 20
224.9893552479821
 30
0.0
 11
406.1962948306759
 21
244.9893552479823
 31
0.0
  0
LINE
  5
C3D
330
F51
100
AcDbEntity
  8
0
  6
Continuous
 62
     7
100
AcDbLine
 10
381.7062108306759
 20
224.9893552479821
 30
0.0
 11
401.7061708306759
 21
244.9893552479823
 31
0.0
  0
LINE
  5
C3E
330
F51
100
AcDbEntity
  8
0
  6
Continuous
 62
     7
100
AcDbLine
 10
390.6864578306759
 20
224.9893552479821
 30
0.0
 11
410.6864158306759
 21
244.9893552479823
 31
0.0
  0
LINE
  5
C3F
330
F51
100
AcDbEntity
  8
0
  6
Continuous
 62
     7
100
AcDbLine
 10
395.1765818306759
 20
224.9893552479821
 30
0.0
 11
415.1765458306759
 21
244.9893552479823
 31
0.0
  0
LINE
  5
C40
330
F51
100
AcDbEntity
  8
0
  6
Continuous
 62
     7
100
AcDbLine
 10
363.399145830676
 20
233.6230485479823
 30
0.0
 11
374.7654298306759
 21
244.9893552479823
 31
0.0
  0
LINE
  5
C41
330
F51
100
AcDbEntity
  8
0
  6
Continuous
 62
     7
100
AcDbLine
 10
363.399145830676
 20
229.1329160479822
 30
0.0
 11
379.2555538306759
 21
244.9893552479823
 31
0.0
  0
LINE
  5
C42
330
F51
100
AcDbEntity
  8
0
  6
Continuous
 62
     7
100
AcDbLine
 10
363.399145830676
 20
224.9893552479821
 30
0.0
 11
363.399145830676
 21
244.9893552479823
 31
0.0
  0
LINE
  5
C43
330
F51
100
AcDbEntity
  8
0
  6
Continuous
 62
     7
100
AcDbLine
 10
368.2358408306759
 20
224.9893552479821
 30
0.0
 11
388.2358008306759
 21
244.9893552479823
 31
0.0
  0
LINE
  5
C44
330
F51
100
AcDbEntity
  8
0
  6
Continuous
 62
     7
100
AcDbLine
 10
372.7259638306759
 20
224.9893552479821
 30
0.0
 11
392.725923830676
 21
244.9893552479823
 31
0.0
  0
LINE
  5
C45
330
F51
100
AcDbEntity
  8
0
  6
Continuous
 62
     7
100
AcDbLine
 10
377.2160878306759
 20
224.9893552479821
 30
0.0
 11
397.2160478306759
 21
244.9893552479823
 31
0.0
  0
LINE
  5
C46
330
F51
100
AcDbEntity
  8
0
  6
Continuous
 62
     7
100
AcDbLine
 10
363.745716830676
 20
224.9893552479821
 30
0.0
 11
383.7456768306759
 21
244.9893552479823
 31
0.0
  0
LINE
  5
C47
330
F51
100
AcDbEntity
  8
0
  6
Continuous
 62
     7
100
AcDbLine
 10
311.924165230676
 20
273.1393572479822
 30
0.0
 11
311.924165230676
 21
196.8393532479821
 31
0.0
  0
LINE
  5
C48
330
F51
100
AcDbEntity
  8
0
  6
Continuous
 62
     7
100
AcDbLine
 10
336.410322830676
 20
273.1393572479822
 30
0.0
 11
336.410322830676
 21
196.8393532479821
 31
0.0
  0
LINE
  5
C49
330
F51
100
AcDbEntity
  8
0
  6
Continuous
 62
     7
100
AcDbLine
 10
306.398985830676
 20
189.4893552479823
 30
0.0
 11
306.398985830676
 21
280.4893552479823
 31
0.0
  0
LINE
  5
C4A
330
F51
100
AcDbEntity
  8
0
  6
Continuous
 62
     7
100
AcDbLine
 10
342.398985830676
 20
295.4893552479822
 30
0.0
 11
342.398985830676
 21
174.4893592479821
 31
0.0
  0
LINE
  5
C4B
330
F51
100
AcDbEntity
  8
0
  6
Continuous
 62
     7
100
AcDbLine
 10
402.1489858306759
 20
313.7393552479823
 30
0.0
 11
402.1489858306759
 21
156.2393552479823
 31
0.0
  0
LINE
  5
C4C
330
F51
100
AcDbEntity
  8
0
  6
Continuous
 62
     7
100
AcDbLine
 10
413.1370758306759
 20
224.9893552479821
 30
0.0
 11
431.5149258306759
 21
243.3672465479824
 31
0.0
  0
LINE
  5
C4D
330
F51
100
AcDbEntity
  8
0
  6
Continuous
 62
     7
100
AcDbLine
 10
404.1568288306759
 20
224.9893552479821
 30
0.0
 11
427.0248058306759
 21
247.8573742479823
 31
0.0
  0
LINE
  5
C4E
330
F51
100
AcDbEntity
  8
0
  6
Continuous
 62
     7
100
AcDbLine
 10
408.6469558306759
 20
224.9893552479821
 30
0.0
 11
429.2698658306759
 21
245.6123102479823
 31
0.0
  0
LINE
  5
C4F
330
F51
100
AcDbEntity
  8
0
  6
Continuous
 62
     7
100
AcDbLine
 10
399.6667048306759
 20
224.9893552479821
 30
0.0
 11
419.6666658306758
 21
244.9893552479823
 31
0.0
  0
LINE
  5
C50
330
F51
100
AcDbEntity
  8
0
  6
Continuous
 62
     7
100
AcDbLine
 10
402.1489858306759
 20
156.2393552479823
 30
0.0
 11
420.6489858306759
 21
156.2393552479823
 31
0.0
  0
LINE
  5
C51
330
F51
100
AcDbEntity
  8
0
  6
Continuous
 62
     7
100
AcDbLine
 10
419.8928258306759
 20
224.9893552479821
 30
0.0
 11
363.399145830676
 21
224.9893552479821
 31
0.0
  0
LINE
  5
C52
330
F51
100
AcDbEntity
  8
0
  6
Continuous
 62
     7
100
AcDbLine
 10
402.1489858306759
 20
174.4893552479823
 30
0.0
 11
342.398985830676
 21
174.4893552479823
 31
0.0
  0
LINE
  5
C53
330
F51
100
AcDbEntity
  8
0
  6
Continuous
 62
     7
100
AcDbLine
 10
336.4103208306759
 20
196.8393542479823
 30
0.0
 11
342.398982830676
 21
174.4893642479824
 31
0.0
  0
LINE
  5
C54
330
F51
100
AcDbEntity
  8
0
  6
Continuous
 62
     7
100
AcDbLine
 10
306.398985830676
 20
189.4893552479823
 30
0.0
 11
309.248984530676
 21
189.4893552479823
 31
0.0
  0
LINE
  5
C55
330
F51
100
AcDbEntity
  8
0
  6
Continuous
 62
     7
100
AcDbLine
 10
309.2489844306758
 20
189.489354247982
 30
0.0
 11
311.9241651306758
 21
196.8393532479821
 31
0.0
  0
LINE
  5
C56
330
F51
100
AcDbEntity
  8
0
  6
Continuous
 62
     7
100
AcDbLine
 10
311.924165230676
 20
196.8393532479821
 30
0.0
 11
336.4103208306759
 21
196.8393532479821
 31
0.0
  0
LINE
  5
C57
330
F51
100
AcDbEntity
  8
0
  6
Continuous
 62
     7
100
AcDbLine
 10
443.3989858306759
 20
174.4893552479823
 30
0.0
 11
456.3027558306759
 21
196.8393532479821
 31
0.0
  0
LINE
  5
C58
330
F51
100
AcDbEntity
  8
0
  6
Continuous
 62
     7
100
AcDbLine
 10
420.6489858306759
 20
174.4893552479823
 30
0.0
 11
443.3989858306759
 21
174.4893552479823
 31
0.0
  0
LINE
  5
C59
330
F51
100
AcDbEntity
  8
0
  6
Continuous
 62
     7
100
AcDbLine
 10
439.8928158306759
 20
234.9893552479823
 30
0.0
 11
419.8928158306759
 21
214.9893552479823
 31
0.0
  0
LINE
  5
C5A
330
F51
100
AcDbEntity
  8
0
  6
Continuous
 62
     7
100
AcDbLine
 10
419.8928258306759
 20
214.9893552479823
 30
0.0
 11
419.8928258306759
 21
224.9893552479821
 31
0.0
  0
LINE
  5
C5B
330
F51
100
AcDbEntity
  8
0
  6
Continuous
 62
     7
100
AcDbLine
 10
419.8928258306759
 20
218.2747172479823
 30
0.0
 11
438.2501258306759
 21
236.6320545479823
 31
0.0
  0
LINE
  5
C5C
330
F51
100
AcDbEntity
  8
0
  6
Continuous
 62
     7
100
AcDbLine
 10
483.5489872306757
 20
189.489354247982
 30
0.0
 11
480.8738065306759
 21
196.8393532479821
 31
0.0
  0
LINE
  5
C5D
330
F51
100
AcDbEntity
  8
0
  6
Continuous
 62
     7
100
AcDbLine
 10
486.3989858306759
 20
189.4893552479823
 30
0.0
 11
483.548987130676
 21
189.4893552479823
 31
0.0
  0
LINE
  5
C5E
330
F51
100
AcDbEntity
  8
0
  6
Continuous
 62
     7
100
AcDbLine
 10
480.8738064306758
 20
196.8393532479821
 30
0.0
 11
456.302765830676
 21
196.8393532479821
 31
0.0
  0
LINE
  5
C5F
330
F51
100
AcDbEntity
  8
0
  6
Continuous
 62
     7
100
AcDbLine
 10
419.8928258306759
 20
244.9893552479823
 30
0.0
 11
363.399145830676
 21
244.9893552479823
 31
0.0
  0
LINE
  5
C60
330
F51
100
AcDbEntity
  8
0
  6
Continuous
 62
     7
100
AcDbLine
 10
402.1489858306759
 20
313.7393552479823
 30
0.0
 11
420.6489858306759
 21
313.7393552479823
 31
0.0
  0
LINE
  5
C61
330
F51
100
AcDbEntity
  8
0
  6
Continuous
 62
     7
100
AcDbLine
 10
402.1489858306759
 20
295.4893552479822
 30
0.0
 11
342.398985830676
 21
295.4893552479822
 31
0.0
  0
LINE
  5
C62
330
F51
100
AcDbEntity
  8
0
  6
Continuous
 62
     7
100
AcDbLine
 10
336.410329830676
 20
273.1393542479823
 30
0.0
 11
342.398993830676
 21
295.4893512479823
 31
0.0
  0
LINE
  5
C63
330
F51
100
AcDbEntity
  8
0
  6
Continuous
 62
     7
100
AcDbLine
 10
306.398985830676
 20
280.4893552479823
 30
0.0
 11
309.248984530676
 21
280.4893552479823
 31
0.0
  0
LINE
  5
C64
330
F51
100
AcDbEntity
  8
0
  6
Continuous
 62
     7
100
AcDbLine
 10
311.924165230676
 20
273.1393572479822
 30
0.0
 11
336.410322830676
 21
273.1393572479822
 31
0.0
  0
LINE
  5
C65
330
F51
100
AcDbEntity
  8
0
  6
Continuous
 62
     7
100
AcDbLine
 10
309.2489844306758
 20
280.4893562479824
 30
0.0
 11
311.9241651306758
 21
273.1393572479822
 31
0.0
  0
LINE
  5
C66
330
F51
100
AcDbEntity
  8
0
  6
Continuous
 62
     7
100
AcDbLine
 10
363.399145830676
 20
242.6033135479821
 30
0.0
 11
365.785182830676
 21
244.9893552479823
 31
0.0
  0
LINE
  5
C67
330
F51
100
AcDbEntity
  8
0
  6
Continuous
 62
     7
100
AcDbLine
 10
363.399145830676
 20
238.1131810479824
 30
0.0
 11
370.2753068306758
 21
244.9893552479823
 31
0.0
  0
LINE
  5
C68
330
F51
100
AcDbEntity
  8
0
  6
Continuous
 62
     7
100
AcDbLine
 10
443.3989658306759
 20
295.4893452479824
 30
0.0
 11
456.3027458306759
 21
273.1393462479823
 31
0.0
  0
LINE
  5
C69
330
F51
100
AcDbEntity
  8
0
  6
Continuous
 62
     7
100
AcDbLine
 10
419.8928258306759
 20
254.1957772479821
 30
0.0
 11
420.2896058306759
 21
254.5925662479822
 31
0.0
  0
LINE
  5
C6A
330
F51
100
AcDbEntity
  8
0
  6
Continuous
 62
     7
100
AcDbLine
 10
419.8928258306759
 20
245.2155122479823
 30
0.0
 11
424.7797358306759
 21
250.1024382479821
 31
0.0
  0
LINE
  5
C6B
330
F51
100
AcDbEntity
  8
0
  6
Continuous
 62
     7
100
AcDbLine
 10
419.8928258306759
 20
249.7056442479821
 30
0.0
 11
422.5346758306759
 21
252.3475022479821
 31
0.0
  0
LINE
  5
C6C
330
F51
100
AcDbEntity
  8
0
  6
Continuous
 62
     7
100
AcDbLine
 10
419.8928258306759
 20
244.9893552479823
 30
0.0
 11
419.8928258306759
 21
254.9893552479823
 31
0.0
  0
LINE
  5
C6D
330
F51
100
AcDbEntity
  8
0
  6
Continuous
 62
     7
100
AcDbLine
 10
486.3989858306759
 20
280.4893552479823
 30
0.0
 11
483.548987130676
 21
280.4893552479823
 31
0.0
  0
LINE
  5
C6E
330
F51
100
AcDbEntity
  8
0
  6
Continuous
 62
     7
100
AcDbLine
 10
480.8738064306758
 20
273.1393572479822
 30
0.0
 11
456.302765830676
 21
273.1393572479822
 31
0.0
  0
LINE
  5
C6F
330
F51
100
AcDbEntity
  8
0
  6
Continuous
 62
     7
100
AcDbLine
 10
483.5489872306757
 20
280.4893562479824
 30
0.0
 11
480.8738065306759
 21
273.1393572479822
 31
0.0
  0
LINE
  5
C70
330
F51
100
AcDbEntity
  8
0
  6
Continuous
 62
     7
100
AcDbLine
 10
420.6489858306759
 20
295.4893552479822
 30
0.0
 11
443.3989858306759
 21
295.4893552479822
 31
0.0
  0
TEXT
  5
D07
330
F51
100
AcDbEntity
  8
0
  6
Continuous
 62
     7
100
AcDbText
 10
200.5850352296664
 20
680.5384559543581
 30
0.0
 40
48.000002
  1
CVCS 3S
 41
1.1021
100
AcDbText
  0
LINE
  5
FA4
330
F51
100
AcDbEntity
  8
0
  6
CENTER
100
AcDbLine
 10
281.7686208079599
 20
234.9893572479822
 30
0.0
 11
506.8320622668911
 21
234.9893572479822
 31
0.0
  0
LINE
  5
FA5
330
F51
100
AcDbEntity
  8
0
  6
CENTER
100
AcDbLine
 10
557.2997874351237
 20
234.9893552479824
 30
0.0
 11
752.6038436111418
 21
234.9893552479824
 31
0.0
  0
LINE
  5
FA6
330
F51
100
AcDbEntity
  8
0
  6
CENTER
100
AcDbLine
 10
654.9518155231328
 20
332.6413833359914
 30
0.0
 11
654.9518155231328
 21
137.3373271599733
 31
0.0
  0
LINE
  5
FA7
330
F51
100
AcDbEntity
  8
0
  6
CENTER
100
AcDbLine
 10
53.75407459115592
 20
234.9893552479823
 30
0.0
 11
249.058130767174
 21
234.9893552479823
 31
0.0
  0
LINE
  5
FA8
330
F51
100
AcDbEntity
  8
0
  6
CENTER
100
AcDbLine
 10
151.4061026791649
 20
332.6413833359913
 30
0.0
 11
151.4061026791649
 21
137.3373271599732
 31
0.0
  0
LINE
  5
FA9
330
F51
100
AcDbEntity
  8
0
  6
CENTER
100
AcDbLine
 10
280.0389548477311
 20
480.8642643988559
 30
0.0
 11
505.1023963066624
 21
480.8642643988559
 31
0.0
  0
ENDSEC
  0
SECTION
  2
OBJECTS
  0
DICTIONARY
  5
F3F
330
0
100
AcDbDictionary
281
     1
  3
ACAD_GROUP
350
F40
  3
ACAD_LAYOUT
350
F4C
  3
ACAD_MLINESTYLE
350
F49
  3
ACAD_PLOTSETTINGS
350
F4B
  3
ACAD_PLOTSTYLENAME
350
F41
  3
AcDbVariableDictionary
350
F96
  0
DICTIONARY
  5
F9C
330
F35
100
AcDbDictionary
280
     1
281
     1
  3
ACAD_LAYERSTATES
360
F9D
  0
DICTIONARY
  5
F62
330
F51
100
AcDbDictionary
280
     1
281
     1
  3
ACAD_LAYOUTSELFREF
360
F91
  0
DICTIONARY
  5
F64
330
F4D
100
AcDbDictionary
280
     1
281
     1
  3
ACAD_LAYOUTSELFREF
360
F90
  0
DICTIONARY
  5
F40
102
{ACAD_REACTORS
330
F3F
102
}
330
F3F
100
AcDbDictionary
281
     1
  0
DICTIONARY
  5
F4C
102
{ACAD_REACTORS
330
F3F
102
}
330
F3F
100
AcDbDictionary
281
     1
  3
Model
350
F54
  3
ﾚｲｱｳﾄ1
350
F50
  0
DICTIONARY
  5
F49
102
{ACAD_REACTORS
330
F3F
102
}
330
F3F
100
AcDbDictionary
281
     1
  3
Standard
350
F4A
  0
DICTIONARY
  5
F4B
102
{ACAD_REACTORS
330
F3F
102
}
330
F3F
100
AcDbDictionary
281
     1
  0
ACDBDICTIONARYWDFLT
  5
F41
102
{ACAD_REACTORS
330
F3F
102
}
330
F3F
100
AcDbDictionary
281
     1
  3
Normal
350
F42
100
AcDbDictionaryWithDefault
340
F42
  0
DICTIONARY
  5
F96
102
{ACAD_REACTORS
330
F3F
102
}
330
F3F
100
AcDbDictionary
281
     1
  3
DIMASSOC
350
F97
  0
DICTIONARY
  5
F9D
102
{ACAD_REACTORS
330
F9C
102
}
330
F9C
100
AcDbDictionary
281
     1
  0
XRECORD
  5
F91
102
{ACAD_REACTORS
330
F62
102
}
330
F62
100
AcDbXrecord
280
     1
340
F51
  0
XRECORD
  5
F90
102
{ACAD_REACTORS
330
F64
102
}
330
F64
100
AcDbXrecord
280
     1
340
F4D
  0
LAYOUT
  5
F54
102
{ACAD_REACTORS
330
F4C
102
}
330
F4C
100
AcDbPlotSettings
  1

  2
SII LP-2150 (D-SCAN C2)
  4

  6

 40
0.0
 41
0.0
 42
0.0
 43
0.0
 44
0.0
 45
0.0
 46
0.0
 47
0.0
 48
0.0
 49
0.0
140
0.0
141
0.0
142
1.0
143
1.0
 70
  1712
 72
     0
 73
     0
 74
     0
  7

 75
     0
147
1.0
148
0.0
149
0.0
100
AcDbLayout
  1
Model
 70
     1
 71
     0
 10
0.0
 20
0.0
 11
12.0
 21
9.0
 12
0.0
 22
0.0
 32
0.0
 14
0.0
 24
0.0
 34
0.0
 15
0.0
 25
0.0
 35
0.0
146
0.0
 13
0.0
 23
0.0
 33
0.0
 16
1.0
 26
0.0
 36
0.0
 17
0.0
 27
1.0
 37
0.0
 76
     0
330
F51
  0
LAYOUT
  5
F50
102
{ACAD_REACTORS
330
F4C
102
}
330
F4C
100
AcDbPlotSettings
  1

  2
SII LP-2150 (D-SCAN C2)
  4

  6

 40
0.0
 41
0.0
 42
0.0
 43
0.0
 44
0.0
 45
0.0
 46
0.0
 47
0.0
 48
0.0
 49
0.0
140
0.0
141
0.0
142
1.0
143
1.0
 70
   688
 72
     0
 73
     0
 74
     5
  7

 75
    16
147
1.0
148
0.0
149
0.0
100
AcDbLayout
  1
ﾚｲｱｳﾄ1
 70
     1
 71
     1
 10
-44.912933
 20
-21.841471
 11
153.5627299999999
 21
105.04179
 12
0.0
 22
0.0
 32
0.0
 14
-44.912933
 24
-21.841471
 34
0.0
 15
153.5627299999999
 25
105.04179
 35
0.0
146
0.0
 13
0.0
 23
0.0
 33
0.0
 16
1.0
 26
0.0
 36
0.0
 17
0.0
 27
1.0
 37
0.0
 76
     0
330
F4D
  0
MLINESTYLE
  5
F4A
102
{ACAD_REACTORS
330
F49
102
}
330
F49
100
AcDbMlineStyle
  2
STANDARD
 70
     0
  3

 62
   256
 51
90.0
 52
90.0
 71
     2
 49
0.5
 62
   256
  6
BYLAYER
 49
-0.5
 62
   256
  6
BYLAYER
  0
ACDBPLACEHOLDER
  5
F42
102
{ACAD_REACTORS
330
F41
102
}
330
F41
  0
DICTIONARYVAR
  5
F97
102
{ACAD_REACTORS
330
F96
102
}
330
F96
100
DictionaryVariables
280
     0
  1
1
  0
ENDSEC
  0
EOF
