  0
SECTION
  2
HEADER
  9
$ACADVER
  1
AC1015
  9
$ACADMAINTVER
 70
    14
  9
$DWGCODEPAGE
  3
ANSI_932
  9
$INSBASE
 10
0.0
 20
0.0
 30
0.0
  9
$EXTMIN
 10
131.6815793774003
 20
181.2131684834676
 30
-0.0000000000112498
  9
$EXTMAX
 10
694.7120064686439
 20
674.0106232625801
 30
0.0000000000002956
  9
$LIMMIN
 10
-44.912933
 20
-21.841471
  9
$LIMMAX
 10
153.5627299999999
 20
105.04179
  9
$ORTHOMODE
 70
     0
  9
$REGENMODE
 70
     1
  9
$FILLMODE
 70
     1
  9
$QTEXTMODE
 70
     0
  9
$MIRRTEXT
 70
     1
  9
$LTSCALE
 40
1.0
  9
$ATTMODE
 70
     1
  9
$TEXTSIZE
 40
0.2
  9
$TRACEWID
 40
0.05
  9
$TEXTSTYLE
  7
STANDARD
  9
$CLAYER
  8
0
  9
$CELTYPE
  6
CONTINUOUS
  9
$CECOLOR
 62
   256
  9
$CELTSCALE
 40
1.0
  9
$DISPSILH
 70
     0
  9
$DIMSCALE
 40
1.0
  9
$DIMASZ
 40
15.0
  9
$DIMEXO
 40
5.0
  9
$DIMDLI
 40
10.0
  9
$DIMRND
 40
0.0
  9
$DIMDLE
 40
0.0
  9
$DIMEXE
 40
10.0
  9
$DIMTP
 40
0.0
  9
$DIMTM
 40
0.0
  9
$DIMTXT
 40
20.0
  9
$DIMCEN
 40
0.09
  9
$DIMTSZ
 40
0.0
  9
$DIMTOL
 70
     0
  9
$DIMLIM
 70
     0
  9
$DIMTIH
 70
     0
  9
$DIMTOH
 70
     1
  9
$DIMSE1
 70
     0
  9
$DIMSE2
 70
     0
  9
$DIMTAD
 70
     1
  9
$DIMZIN
 70
     8
  9
$DIMBLK
  1

  9
$DIMASO
 70
     1
  9
$DIMSHO
 70
     0
  9
$DIMPOST
  1

  9
$DIMAPOST
  1

  9
$DIMALT
 70
     0
  9
$DIMALTD
 70
     2
  9
$DIMALTF
 40
25.4
  9
$DIMLFAC
 40
1.0
  9
$DIMTOFL
 70
     0
  9
$DIMTVP
 40
0.0
  9
$DIMTIX
 70
     0
  9
$DIMSOXD
 70
     0
  9
$DIMSAH
 70
     0
  9
$DIMBLK1
  1

  9
$DIMBLK2
  1

  9
$DIMSTYLE
  2
STANDARD
  9
$DIMCLRD
 70
     0
  9
$DIMCLRE
 70
     0
  9
$DIMCLRT
 70
     0
  9
$DIMTFAC
 40
1.0
  9
$DIMGAP
 40
5.0
  9
$DIMJUST
 70
     0
  9
$DIMSD1
 70
     0
  9
$DIMSD2
 70
     0
  9
$DIMTOLJ
 70
     1
  9
$DIMTZIN
 70
     0
  9
$DIMALTZ
 70
     0
  9
$DIMALTTZ
 70
     0
  9
$DIMUPT
 70
     0
  9
$DIMDEC
 70
     4
  9
$DIMTDEC
 70
     4
  9
$DIMALTU
 70
     2
  9
$DIMALTTD
 70
     2
  9
$DIMTXSTY
  7
STANDARD
  9
$DIMAUNIT
 70
     0
  9
$DIMADEC
 70
     0
  9
$DIMALTRND
 40
0.0
  9
$DIMAZIN
 70
     0
  9
$DIMDSEP
 70
    46
  9
$DIMATFIT
 70
     3
  9
$DIMFRAC
 70
     0
  9
$DIMLDRBLK
  1

  9
$DIMLUNIT
 70
     2
  9
$DIMLWD
 70
    -2
  9
$DIMLWE
 70
    -2
  9
$DIMTMOVE
 70
     0
  9
$LUNITS
 70
     2
  9
$LUPREC
 70
     4
  9
$SKETCHINC
 40
0.1
  9
$FILLETRAD
 40
0.0
  9
$AUNITS
 70
     0
  9
$AUPREC
 70
     0
  9
$MENU
  1
.
  9
$ELEVATION
 40
0.0
  9
$PELEVATION
 40
0.0
  9
$THICKNESS
 40
0.0
  9
$LIMCHECK
 70
     0
  9
$CHAMFERA
 40
0.0
  9
$CHAMFERB
 40
0.0
  9
$CHAMFERC
 40
0.0
  9
$CHAMFERD
 40
0.0
  9
$SKPOLY
 70
     0
  9
$TDCREATE
 40
2452488.423177615
  9
$TDUCREATE
 40
2452488.048177615
  9
$TDUPDATE
 40
2456899.667749618
  9
$TDUUPDATE
 40
2456899.292749618
  9
$TDINDWG
 40
0.0598112384
  9
$TDUSRTIMER
 40
0.0598112384
  9
$USRTIMER
 70
     1
  9
$ANGBASE
 50
0.0
  9
$ANGDIR
 70
     0
  9
$PDMODE
 70
     3
  9
$PDSIZE
 40
0.0
  9
$PLINEWID
 40
0.0
  9
$SPLFRAME
 70
     0
  9
$SPLINETYPE
 70
     6
  9
$SPLINESEGS
 70
     8
  9
$HANDSEED
  5
FB2
  9
$SURFTAB1
 70
     6
  9
$SURFTAB2
 70
     6
  9
$SURFTYPE
 70
     6
  9
$SURFU
 70
     6
  9
$SURFV
 70
     6
  9
$UCSBASE
  2

  9
$UCSNAME
  2

  9
$UCSORG
 10
0.0
 20
0.0
 30
0.0
  9
$UCSXDIR
 10
1.0
 20
0.0
 30
0.0
  9
$UCSYDIR
 10
0.0
 20
1.0
 30
0.0
  9
$UCSORTHOREF
  2

  9
$UCSORTHOVIEW
 70
     0
  9
$UCSORGTOP
 10
0.0
 20
0.0
 30
0.0
  9
$UCSORGBOTTOM
 10
0.0
 20
0.0
 30
0.0
  9
$UCSORGLEFT
 10
0.0
 20
0.0
 30
0.0
  9
$UCSORGRIGHT
 10
0.0
 20
0.0
 30
0.0
  9
$UCSORGFRONT
 10
0.0
 20
0.0
 30
0.0
  9
$UCSORGBACK
 10
0.0
 20
0.0
 30
0.0
  9
$PUCSBASE
  2

  9
$PUCSNAME
  2

  9
$PUCSORG
 10
0.0
 20
0.0
 30
0.0
  9
$PUCSXDIR
 10
1.0
 20
0.0
 30
0.0
  9
$PUCSYDIR
 10
0.0
 20
1.0
 30
0.0
  9
$PUCSORTHOREF
  2

  9
$PUCSORTHOVIEW
 70
     0
  9
$PUCSORGTOP
 10
0.0
 20
0.0
 30
0.0
  9
$PUCSORGBOTTOM
 10
0.0
 20
0.0
 30
0.0
  9
$PUCSORGLEFT
 10
0.0
 20
0.0
 30
0.0
  9
$PUCSORGRIGHT
 10
0.0
 20
0.0
 30
0.0
  9
$PUCSORGFRONT
 10
0.0
 20
0.0
 30
0.0
  9
$PUCSORGBACK
 10
0.0
 20
0.0
 30
0.0
  9
$USERI1
 70
     0
  9
$USERI2
 70
     0
  9
$USERI3
 70
     0
  9
$USERI4
 70
     0
  9
$USERI5
 70
     0
  9
$USERR1
 40
0.0
  9
$USERR2
 40
0.0
  9
$USERR3
 40
0.0
  9
$USERR4
 40
0.0
  9
$USERR5
 40
0.0
  9
$WORLDVIEW
 70
     1
  9
$SHADEDGE
 70
     3
  9
$SHADEDIF
 70
    70
  9
$TILEMODE
 70
     1
  9
$MAXACTVP
 70
    48
  9
$PINSBASE
 10
0.0
 20
0.0
 30
0.0
  9
$PLIMCHECK
 70
     0
  9
$PEXTMIN
 10
-44.912933
 20
-21.841471
 30
0.0
  9
$PEXTMAX
 10
153.5627299999999
 20
105.04179
 30
0.0
  9
$PLIMMIN
 10
-44.912933
 20
-21.841471
  9
$PLIMMAX
 10
153.5627299999999
 20
105.04179
  9
$UNITMODE
 70
     0
  9
$VISRETAIN
 70
     1
  9
$PLINEGEN
 70
     0
  9
$PSLTSCALE
 70
     1
  9
$TREEDEPTH
 70
  3020
  9
$CMLSTYLE
  2
Standard
  9
$CMLJUST
 70
     0
  9
$CMLSCALE
 40
1.0
  9
$PROXYGRAPHICS
 70
     1
  9
$MEASUREMENT
 70
     0
  9
$CELWEIGHT
370
    -1
  9
$ENDCAPS
280
     0
  9
$JOINSTYLE
280
     0
  9
$LWDISPLAY
290
     0
  9
$INSUNITS
 70
     0
  9
$HYPERLINKBASE
  1

  9
$STYLESHEET
  1

  9
$XEDIT
290
     1
  9
$CEPSNTYPE
380
     0
  9
$PSTYLEMODE
290
     1
  9
$FINGERPRINTGUID
  2
{D6CFA60A-DC64-43F1-95F8-5BD35C18A186}
  9
$VERSIONGUID
  2
{5F083674-1843-4CE5-86B1-71AB609DD14D}
  9
$EXTNAMES
290
     1
  9
$PSVPSCALE
 40
0.0
  9
$OLESTARTUP
290
     0
  0
ENDSEC
  0
SECTION
  2
CLASSES
  0
CLASS
  1
ACDBDICTIONARYWDFLT
  2
AcDbDictionaryWithDefault
  3
AutoCAD 2000
 90
        0
280
     0
281
     0
  0
CLASS
  1
ACDBPLACEHOLDER
  2
AcDbPlaceHolder
  3
AutoCAD 2000
 90
        0
280
     0
281
     0
  0
CLASS
  1
LAYOUT
  2
AcDbLayout
  3
AutoCAD 2000
 90
        0
280
     0
281
     0
  0
CLASS
  1
DICTIONARYVAR
  2
AcDbDictionaryVar
  3
AutoCAD 2000
 90
        0
280
     0
281
     0
  0
CLASS
  1
LONG_TRANSACTION
  2
AcDbLongTransaction
  3
AutoCAD 2000
 90
    32768
280
     0
281
     0
  0
CLASS
  1
LWPOLYLINE
  2
AcDbPolyline
  3
AutoCAD 2000
 90
    32768
280
     0
281
     1
  0
CLASS
  1
HATCH
  2
AcDbHatch
  3
AutoCAD 2000
 90
    32768
280
     0
281
     1
  0
CLASS
  1
XRECORD
  2
AcDbXrecord
  3
AutoCAD 2000
 90
    32768
280
     0
281
     0
  0
ENDSEC
  0
SECTION
  2
TABLES
  0
TABLE
  2
VPORT
  5
F37
330
0
100
AcDbSymbolTable
 70
     2
  0
VPORT
  5
FB1
330
F37
100
AcDbSymbolTableRecord
100
AcDbViewportTableRecord
  2
*Active
 70
     0
 10
0.0
 20
0.0
 11
1.0
 21
1.0
 12
413.1967929230222
 22
427.6118958730238
 13
0.0
 23
0.0
 14
1.0
 24
1.0
 15
0.0
 25
0.0
 16
0.0
 26
0.0
 36
1.0
 17
0.0
 27
0.0
 37
0.0
 40
495.9263275078687
 41
1.592161016949152
 42
50.0
 43
0.0
 44
0.0
 50
0.0
 51
0.0
 71
     0
 72
   100
 73
     1
 74
     3
 75
     0
 76
     0
 77
     0
 78
     0
281
     0
 65
     1
110
0.0
120
0.0
130
0.0
111
1.0
121
0.0
131
0.0
112
0.0
122
1.0
132
0.0
 79
     0
146
0.0
  0
ENDTAB
  0
TABLE
  2
LTYPE
  5
F34
330
0
100
AcDbSymbolTable
 70
     2
  0
LTYPE
  5
F42
330
F34
100
AcDbSymbolTableRecord
100
AcDbLinetypeTableRecord
  2
ByBlock
 70
     0
  3

 72
    65
 73
     0
 40
0.0
  0
LTYPE
  5
F43
330
F34
100
AcDbSymbolTableRecord
100
AcDbLinetypeTableRecord
  2
ByLayer
 70
     0
  3

 72
    65
 73
     0
 40
0.0
  0
LTYPE
  5
F44
330
F34
100
AcDbSymbolTableRecord
100
AcDbLinetypeTableRecord
  2
CONTINUOUS
 70
     0
  3
Solid line
 72
    65
 73
     0
 40
0.0
  0
LTYPE
  5
F97
330
F34
100
AcDbSymbolTableRecord
100
AcDbLinetypeTableRecord
  2
CENTER
 70
     0
  3
__ . __
 72
    65
 73
     4
 40
7.0
 49
4.0
 74
     0
 49
-1.0
 74
     0
 49
1.0
 74
     0
 49
-1.0
 74
     0
  0
ENDTAB
  0
TABLE
  2
LAYER
  5
F31
102
{ACAD_XDICTIONARY
360
F98
102
}
330
0
100
AcDbSymbolTable
 70
     1
  0
LAYER
  5
F3F
330
F31
100
AcDbSymbolTableRecord
100
AcDbLayerTableRecord
  2
0
 70
     0
 62
     7
  6
CONTINUOUS
370
    -3
390
F3E
  0
ENDTAB
  0
TABLE
  2
STYLE
  5
F32
330
0
100
AcDbSymbolTable
 70
     1
  0
STYLE
  5
F40
330
F32
100
AcDbSymbolTableRecord
100
AcDbTextStyleTableRecord
  2
STANDARD
 70
     0
 40
0.0
 41
1.0
 50
0.0
 71
     0
 42
0.2
  3
txt
  4

  0
ENDTAB
  0
TABLE
  2
VIEW
  5
F35
330
0
100
AcDbSymbolTable
 70
     0
  0
ENDTAB
  0
TABLE
  2
UCS
  5
F36
330
0
100
AcDbSymbolTable
 70
     0
  0
ENDTAB
  0
TABLE
  2
APPID
  5
F38
330
0
100
AcDbSymbolTable
 70
     4
  0
APPID
  5
F41
330
F38
100
AcDbSymbolTableRecord
100
AcDbRegAppTableRecord
  2
ACAD
 70
     0
  0
APPID
  5
F53
330
F38
100
AcDbSymbolTableRecord
100
AcDbRegAppTableRecord
  2
MCAD_NO_VIS
 70
     0
  0
APPID
  5
F54
330
F38
100
AcDbSymbolTableRecord
100
AcDbRegAppTableRecord
  2
ACAD_TEMP_GRAPHIC
 70
     0
  0
APPID
  5
F55
330
F38
100
AcDbSymbolTableRecord
100
AcDbRegAppTableRecord
  2
ACATTRIBSERVICES
 70
     0
  0
ENDTAB
  0
TABLE
  2
DIMSTYLE
  5
F39
330
0
100
AcDbSymbolTable
 70
     1
100
AcDbDimStyleTable
 71
     0
  0
DIMSTYLE
105
F56
330
F39
100
AcDbSymbolTableRecord
100
AcDbDimStyleTableRecord
  2
STANDARD
 70
     0
 41
15.0
 42
5.0
 43
10.0
 44
10.0
 73
     0
 77
     1
 78
     8
140
20.0
147
5.0
279
     2
284
     8
285
     8
286
     8
340
F40
  0
ENDTAB
  0
TABLE
  2
BLOCK_RECORD
  5
F30
330
0
100
AcDbSymbolTable
 70
     0
  0
BLOCK_RECORD
  5
F4D
102
{ACAD_XDICTIONARY
360
F5E
102
}
330
F30
100
AcDbSymbolTableRecord
100
AcDbBlockTableRecord
  2
*Model_Space
340
F50
  0
BLOCK_RECORD
  5
F49
102
{ACAD_XDICTIONARY
360
F60
102
}
330
F30
100
AcDbSymbolTableRecord
100
AcDbBlockTableRecord
  2
*Paper_Space
340
F4C
  0
ENDTAB
  0
ENDSEC
  0
SECTION
  2
BLOCKS
  0
BLOCK
  5
F4E
330
F4D
100
AcDbEntity
  8
0
100
AcDbBlockBegin
  2
*Model_Space
 70
     0
 10
0.0
 20
0.0
 30
0.0
  3
*Model_Space
  1

  0
ENDBLK
  5
F4F
330
F4D
100
AcDbEntity
  8
0
100
AcDbBlockEnd
  0
BLOCK
  5
F4A
330
F49
100
AcDbEntity
 67
     1
  8
0
100
AcDbBlockBegin
  2
*Paper_Space
 70
     0
 10
0.0
 20
0.0
 30
0.0
  3
*Paper_Space
  1

  0
ENDBLK
  5
F4B
330
F49
100
AcDbEntity
 67
     1
  8
0
100
AcDbBlockEnd
  0
ENDSEC
  0
SECTION
  2
ENTITIES
  0
TEXT
  5
4CC
330
F4D
100
AcDbEntity
  8
0
  6
Continuous
 62
     7
100
AcDbText
 10
192.4459120432346
 20
626.0
 30
0.0
 40
48.000002
  1
CVCS 2.5S
 41
1.02862
100
AcDbText
  0
LINE
  5
B03
330
F4D
100
AcDbEntity
  8
0
  6
Continuous
 62
     7
100
AcDbLine
 10
356.375
 20
482.3183904965079
 30
0.0
 11
414.125
 21
482.3183904965079
 31
0.0
  0
LINE
  5
B04
330
F4D
100
AcDbEntity
  8
0
  6
Continuous
 62
     7
100
AcDbLine
 10
385.211855
 20
420.3183904965079
 30
0.0
 11
405.211815
 21
440.318390496508
 31
0.0
  0
LINE
  5
B05
330
F4D
100
AcDbEntity
  8
0
  6
Continuous
 62
     7
100
AcDbLine
 10
383.8813249999997
 20
432.4582553965078
 30
0.0
 11
391.7414439999997
 21
440.318390496508
 31
0.0
  0
LINE
  5
B06
330
F4D
100
AcDbEntity
  8
0
  6
Continuous
 62
     7
100
AcDbLine
 10
383.8813249999997
 20
427.9681228965077
 30
0.0
 11
396.2315680000001
 21
440.318390496508
 31
0.0
  0
LINE
  5
B07
330
F4D
100
AcDbEntity
  8
0
  6
Continuous
 62
     7
100
AcDbLine
 10
383.8813249999997
 20
423.477990396508
 30
0.0
 11
400.7216910000001
 21
440.318390496508
 31
0.0
  0
LINE
  5
B08
330
F4D
100
AcDbEntity
  8
0
  6
Continuous
 62
     7
100
AcDbLine
 10
356.3750039999998
 20
378.318390496508
 30
0.0
 11
414.125
 21
378.318390496508
 31
0.0
  0
LINE
  5
B09
330
F4D
100
AcDbEntity
  8
0
  6
Continuous
 62
     7
100
AcDbLine
 10
420.375
 20
420.3183904965079
 30
0.0
 11
383.8813249999997
 21
420.3183904965079
 31
0.0
  0
LINE
  5
B0A
330
F4D
100
AcDbEntity
  8
0
  6
Continuous
 62
     7
100
AcDbLine
 10
383.8813249999997
 20
436.9483878965079
 30
0.0
 11
387.2513210000001
 21
440.318390496508
 31
0.0
  0
LINE
  5
B0B
330
F4D
100
AcDbEntity
  8
0
  6
Continuous
 62
     7
100
AcDbLine
 10
420.375
 20
440.318390496508
 30
0.0
 11
383.8813249999997
 21
440.318390496508
 31
0.0
  0
LINE
  5
B0C
330
F4D
100
AcDbEntity
  8
0
  6
Continuous
 62
     7
100
AcDbLine
 10
350.9490300000002
 20
462.068390496508
 30
0.0
 11
350.9490300000002
 21
398.568394496508
 31
0.0
  0
LINE
  5
B0D
330
F4D
100
AcDbEntity
  8
0
  6
Continuous
 62
     7
100
AcDbLine
 10
328.7727909
 20
462.068390496508
 30
0.0
 11
328.7727909
 21
398.568390496508
 31
0.0
  0
LINE
  5
B0E
330
F4D
100
AcDbEntity
  8
0
  6
Continuous
 62
     7
100
AcDbLine
 10
323.375
 20
391.568390496508
 30
0.0
 11
323.375
 21
469.068390496508
 31
0.0
  0
LINE
  5
B0F
330
F4D
100
AcDbEntity
  8
0
  6
Continuous
 62
     7
100
AcDbLine
 10
356.375
 20
482.3183904965079
 30
0.0
 11
356.375
 21
378.318394496508
 31
0.0
  0
LINE
  5
B10
330
F4D
100
AcDbEntity
  8
0
  6
Continuous
 62
     7
100
AcDbLine
 10
328.7727909
 20
398.568390496508
 30
0.0
 11
350.9490345358989
 21
398.568390496508
 31
0.0
  0
LINE
  5
B11
330
F4D
100
AcDbEntity
  8
0
  6
Continuous
 62
     7
100
AcDbLine
 10
323.375
 20
391.568390496508
 30
0.0
 11
326.2249992000001
 21
391.568390496508
 31
0.0
  0
LINE
  5
B12
330
F4D
100
AcDbEntity
  8
0
  6
Continuous
 62
     7
100
AcDbLine
 10
326.2249992000001
 20
391.568390496508
 30
0.0
 11
328.7727906
 21
398.568389496508
 31
0.0
  0
LINE
  5
B13
330
F4D
100
AcDbEntity
  8
0
  6
Continuous
 62
     7
100
AcDbLine
 10
356.3750060000001
 20
378.318390496508
 30
0.0
 11
350.9490340000001
 21
398.5683924965083
 31
0.0
  0
LINE
  5
B14
330
F4D
100
AcDbEntity
  8
0
  6
Continuous
 62
     7
100
AcDbLine
 10
326.2249992000001
 20
469.068390496508
 30
0.0
 11
328.7727906
 21
462.0683914965079
 31
0.0
  0
LINE
  5
B15
330
F4D
100
AcDbEntity
  8
0
  6
Continuous
 62
     7
100
AcDbLine
 10
356.3750020000002
 20
482.3183914965079
 30
0.0
 11
350.9490300000002
 21
462.0683894965082
 31
0.0
  0
LINE
  5
B16
330
F4D
100
AcDbEntity
  8
0
  6
Continuous
 62
     7
100
AcDbLine
 10
328.7727909
 20
462.068390496508
 30
0.0
 11
350.9490300000002
 21
462.068390496508
 31
0.0
  0
LINE
  5
B17
330
F4D
100
AcDbEntity
  8
0
  6
Continuous
 62
     7
100
AcDbLine
 10
383.8813249999997
 20
420.3183904965079
 30
0.0
 11
383.8813249999997
 21
440.318390496508
 31
0.0
  0
LINE
  5
B18
330
F4D
100
AcDbEntity
  8
0
  6
Continuous
 62
     7
100
AcDbLine
 10
323.375
 20
469.068390496508
 30
0.0
 11
326.2249992000001
 21
469.068390496508
 31
0.0
  0
LINE
  5
B19
330
F4D
100
AcDbEntity
  8
0
  6
Continuous
 62
     7
100
AcDbLine
 10
487.9772090999999
 20
398.568390496508
 30
0.0
 11
487.9772090999999
 21
462.068390496508
 31
0.0
  0
LINE
  5
B1A
330
F4D
100
AcDbEntity
  8
0
  6
Continuous
 62
     7
100
AcDbLine
 10
467.0663499999999
 20
462.068390496508
 30
0.0
 11
467.0663499999999
 21
398.5684194965082
 31
0.0
  0
LINE
  5
B1B
330
F4D
100
AcDbEntity
  8
0
  6
Continuous
 62
     7
100
AcDbLine
 10
420.375
 20
415.070413496508
 30
0.0
 11
437.9989700000002
 21
432.6944174965078
 31
0.0
  0
LINE
  5
B1C
330
F4D
100
AcDbEntity
  8
0
  6
Continuous
 62
     7
100
AcDbLine
 10
420.375
 20
410.580281496508
 30
0.0
 11
440.2440299999997
 21
430.4493532565079
 31
0.0
  0
LINE
  5
B1D
330
F4D
100
AcDbEntity
  8
0
  6
Continuous
 62
     7
100
AcDbLine
 10
440.3749799999999
 20
430.318417470491
 30
0.0
 11
420.3749779999998
 21
410.318414496508
 31
0.0
  0
LINE
  5
B1E
330
F4D
100
AcDbEntity
  8
0
  6
Continuous
 62
     7
100
AcDbLine
 10
420.375
 20
410.318390496508
 30
0.0
 11
420.375
 21
420.3183904965079
 31
0.0
  0
LINE
  5
B1F
330
F4D
100
AcDbEntity
  8
0
  6
Continuous
 62
     7
100
AcDbLine
 10
414.125
 20
497.818390496508
 30
0.0
 11
414.125
 21
362.818390496508
 31
0.0
  0
LINE
  5
B20
330
F4D
100
AcDbEntity
  8
0
  6
Continuous
 62
     7
100
AcDbLine
 10
493.3749999999999
 20
469.068390496508
 30
0.0
 11
493.3749999999999
 21
391.568390496508
 31
0.0
  0
LINE
  5
B21
330
F4D
100
AcDbEntity
  8
0
  6
Continuous
 62
     7
100
AcDbLine
 10
455.3750199999999
 20
482.3183904965079
 30
0.0
 11
455.3750199999999
 21
378.318417496508
 31
0.0
  0
LINE
  5
B22
330
F4D
100
AcDbEntity
  8
0
  6
Continuous
 62
     7
100
AcDbLine
 10
432.6249999999999
 20
497.818390496508
 30
0.0
 11
432.6249999999999
 21
362.818390496508
 31
0.0
  0
LINE
  5
B23
330
F4D
100
AcDbEntity
  8
0
  6
Continuous
 62
     7
100
AcDbLine
 10
455.3749899999997
 20
378.3183954965084
 30
0.0
 11
467.06633
 21
398.568393496508
 31
0.0
  0
LINE
  5
B24
330
F4D
100
AcDbEntity
  8
0
  6
Continuous
 62
     7
100
AcDbLine
 10
432.6249999999999
 20
378.318390496508
 30
0.0
 11
455.37498
 21
378.318390496508
 31
0.0
  0
LINE
  5
B25
330
F4D
100
AcDbEntity
  8
0
  6
Continuous
 62
     7
100
AcDbLine
 10
493.3749999999999
 20
391.568390496508
 30
0.0
 11
490.5250007999998
 21
391.568390496508
 31
0.0
  0
LINE
  5
B26
330
F4D
100
AcDbEntity
  8
0
  6
Continuous
 62
     7
100
AcDbLine
 10
490.5250007999998
 20
391.568390496508
 30
0.0
 11
487.9772093999999
 21
398.568389496508
 31
0.0
  0
LINE
  5
B27
330
F4D
100
AcDbEntity
  8
0
  6
Continuous
 62
     7
100
AcDbLine
 10
487.9772090999999
 20
398.568390496508
 30
0.0
 11
467.0663499999999
 21
398.568390496508
 31
0.0
  0
LINE
  5
B28
330
F4D
100
AcDbEntity
  8
0
  6
Continuous
 62
     7
100
AcDbLine
 10
455.3749999999999
 20
482.318386496508
 30
0.0
 11
467.0663399999998
 21
462.0683884965077
 31
0.0
  0
LINE
  5
B29
330
F4D
100
AcDbEntity
  8
0
  6
Continuous
 62
     7
100
AcDbLine
 10
420.3749889999999
 20
450.3183774965076
 30
0.0
 11
440.3749899999998
 21
430.318374312118
 31
0.0
  0
LINE
  5
B2A
330
F4D
100
AcDbEntity
  8
0
  6
Continuous
 62
     7
100
AcDbLine
 10
403.1723489999999
 20
420.3183904965079
 30
0.0
 11
426.7736499999999
 21
443.9197384965076
 31
0.0
  0
LINE
  5
B2B
330
F4D
100
AcDbEntity
  8
0
  6
Continuous
 62
     7
100
AcDbLine
 10
407.6624719999998
 20
420.3183904965079
 30
0.0
 11
429.0187099999998
 21
441.674674496508
 31
0.0
  0
LINE
  5
B2C
330
F4D
100
AcDbEntity
  8
0
  6
Continuous
 62
     7
100
AcDbLine
 10
420.375
 20
419.5605464965078
 30
0.0
 11
435.7539000000001
 21
434.9394817965079
 31
0.0
  0
LINE
  5
B2D
330
F4D
100
AcDbEntity
  8
0
  6
Continuous
 62
     7
100
AcDbLine
 10
412.1525959999997
 20
420.3183904965079
 30
0.0
 11
431.2637800000001
 21
439.4296103965079
 31
0.0
  0
LINE
  5
B2E
330
F4D
100
AcDbEntity
  8
0
  6
Continuous
 62
     7
100
AcDbLine
 10
416.6427189999999
 20
420.3183904965079
 30
0.0
 11
433.50884
 21
437.1845460965082
 31
0.0
  0
LINE
  5
B2F
330
F4D
100
AcDbEntity
  8
0
  6
Continuous
 62
     7
100
AcDbLine
 10
420.375
 20
442.0112084965079
 30
0.0
 11
424.5285899999998
 21
446.1648034965077
 31
0.0
  0
LINE
  5
B30
330
F4D
100
AcDbEntity
  8
0
  6
Continuous
 62
     7
100
AcDbLine
 10
389.7019779999999
 20
420.3183904965079
 30
0.0
 11
409.7019380000001
 21
440.318390496508
 31
0.0
  0
LINE
  5
B31
330
F4D
100
AcDbEntity
  8
0
  6
Continuous
 62
     7
100
AcDbLine
 10
394.1921019999999
 20
420.3183904965079
 30
0.0
 11
414.192062
 21
440.318390496508
 31
0.0
  0
LINE
  5
B32
330
F4D
100
AcDbEntity
  8
0
  6
Continuous
 62
     7
100
AcDbLine
 10
398.682225
 20
420.3183904965079
 30
0.0
 11
418.682185
 21
440.318390496508
 31
0.0
  0
LINE
  5
B33
330
F4D
100
AcDbEntity
  8
0
  6
Continuous
 62
     7
100
AcDbLine
 10
420.375
 20
446.5013414965083
 30
0.0
 11
422.283523
 21
448.409867496508
 31
0.0
  0
LINE
  5
B34
330
F4D
100
AcDbEntity
  8
0
  6
Continuous
 62
     7
100
AcDbLine
 10
420.375
 20
440.318390496508
 30
0.0
 11
420.375
 21
450.318390496508
 31
0.0
  0
LINE
  5
B35
330
F4D
100
AcDbEntity
  8
0
  6
Continuous
 62
     7
100
AcDbLine
 10
414.125
 20
497.818390496508
 30
0.0
 11
432.6249999999999
 21
497.818390496508
 31
0.0
  0
LINE
  5
B36
330
F4D
100
AcDbEntity
  8
0
  6
Continuous
 62
     7
100
AcDbLine
 10
432.6249999999999
 20
482.3183904965079
 30
0.0
 11
455.3750199999999
 21
482.3183904965079
 31
0.0
  0
LINE
  5
B37
330
F4D
100
AcDbEntity
  8
0
  6
Continuous
 62
     7
100
AcDbLine
 10
490.5250007999998
 20
469.068390496508
 30
0.0
 11
487.9772093999999
 21
462.0683914965079
 31
0.0
  0
LINE
  5
B38
330
F4D
100
AcDbEntity
  8
0
  6
Continuous
 62
     7
100
AcDbLine
 10
487.9772090999999
 20
462.068390496508
 30
0.0
 11
467.0663499999999
 21
462.068390496508
 31
0.0
  0
LINE
  5
B39
330
F4D
100
AcDbEntity
  8
0
  6
Continuous
 62
     7
100
AcDbLine
 10
493.3749999999999
 20
469.068390496508
 30
0.0
 11
490.5250007999998
 21
469.068390496508
 31
0.0
  0
LINE
  5
B3A
330
F4D
100
AcDbEntity
  8
0
  6
Continuous
 62
     7
100
AcDbLine
 10
414.125
 20
362.818390496508
 30
0.0
 11
432.6249999999999
 21
362.818390496508
 31
0.0
  0
CIRCLE
  5
B3B
330
F4D
100
AcDbEntity
  8
0
  6
Continuous
 62
     7
100
AcDbCircle
 10
215.1940525109266
 20
264.7239465788607
 30
0.0
 40
52.0
  0
CIRCLE
  5
B3C
330
F4D
100
AcDbEntity
  8
0
  6
Continuous
 62
     7
100
AcDbCircle
 10
215.1940525109266
 20
264.7239465788607
 30
0.0
 40
67.5
  0
CIRCLE
  5
B3D
330
F4D
100
AcDbEntity
  8
0
  6
Continuous
100
AcDbCircle
 10
215.1940525109266
 20
264.7239465788607
 30
0.0
 40
38.75
  0
CIRCLE
  5
B3E
330
F4D
100
AcDbEntity
  8
0
  6
Continuous
 62
     7
100
AcDbCircle
 10
215.1940525109266
 20
264.7239465788607
 30
0.0
 40
31.75
  0
CIRCLE
  5
B3F
330
F4D
100
AcDbEntity
  8
0
  6
Continuous
 62
     7
100
AcDbCircle
 10
611.1912856601021
 20
264.7239465788607
 30
0.0
 40
31.75
  0
CIRCLE
  5
B40
330
F4D
100
AcDbEntity
  8
0
  6
Continuous
100
AcDbCircle
 10
611.1912856601021
 20
264.7239465788607
 30
0.0
 40
38.75
  0
CIRCLE
  5
B41
330
F4D
100
AcDbEntity
  8
0
  6
Continuous
 62
     7
100
AcDbCircle
 10
611.1912856601021
 20
264.7239465788607
 30
0.0
 40
67.5
  0
CIRCLE
  5
B42
330
F4D
100
AcDbEntity
  8
0
  6
Continuous
 62
     7
100
AcDbCircle
 10
611.1912856601021
 20
264.7239465788607
 30
0.0
 40
52.0
  0
LINE
  5
B43
330
F4D
100
AcDbEntity
  8
0
  6
Continuous
 62
     7
100
AcDbLine
 10
420.375
 20
274.7239465788607
 30
0.0
 11
383.8813249999997
 21
274.7239465788607
 31
0.0
  0
LINE
  5
B44
330
F4D
100
AcDbEntity
  8
0
  6
Continuous
 62
     7
100
AcDbLine
 10
383.8813249999997
 20
271.3539439788604
 30
0.0
 11
387.2513210000001
 21
274.7239465788607
 31
0.0
  0
LINE
  5
B45
330
F4D
100
AcDbEntity
  8
0
  6
Continuous
 62
     7
100
AcDbLine
 10
420.375
 20
254.7239465788607
 30
0.0
 11
383.8813249999997
 21
254.7239465788607
 31
0.0
  0
LINE
  5
B46
330
F4D
100
AcDbEntity
  8
0
  6
Continuous
 62
     7
100
AcDbLine
 10
356.3750039999998
 20
212.7239465788607
 30
0.0
 11
414.125
 21
212.7239465788607
 31
0.0
  0
LINE
  5
B47
330
F4D
100
AcDbEntity
  8
0
  6
Continuous
 62
     7
100
AcDbLine
 10
383.8813249999997
 20
257.8835464788608
 30
0.0
 11
400.7216910000001
 21
274.7239465788607
 31
0.0
  0
LINE
  5
B48
330
F4D
100
AcDbEntity
  8
0
  6
Continuous
 62
     7
100
AcDbLine
 10
383.8813249999997
 20
262.3736789788604
 30
0.0
 11
396.2315680000001
 21
274.7239465788607
 31
0.0
  0
LINE
  5
B49
330
F4D
100
AcDbEntity
  8
0
  6
Continuous
 62
     7
100
AcDbLine
 10
383.8813249999997
 20
266.8638114788604
 30
0.0
 11
391.7414439999997
 21
274.7239465788607
 31
0.0
  0
LINE
  5
B4A
330
F4D
100
AcDbEntity
  8
0
  6
Continuous
 62
     7
100
AcDbLine
 10
385.211855
 20
254.7239465788607
 30
0.0
 11
405.211815
 21
274.7239465788607
 31
0.0
  0
LINE
  5
B4B
330
F4D
100
AcDbEntity
  8
0
  6
Continuous
 62
     7
100
AcDbLine
 10
356.375
 20
316.7239465788607
 30
0.0
 11
414.125
 21
316.7239465788607
 31
0.0
  0
LINE
  5
B4C
330
F4D
100
AcDbEntity
  8
0
  6
Continuous
 62
     7
100
AcDbLine
 10
356.3750020000002
 20
316.7239475788605
 30
0.0
 11
350.9490300000002
 21
296.4739455788608
 31
0.0
  0
LINE
  5
B4D
330
F4D
100
AcDbEntity
  8
0
  6
Continuous
 62
     7
100
AcDbLine
 10
356.375
 20
316.7239465788607
 30
0.0
 11
356.375
 21
212.7239505788605
 31
0.0
  0
LINE
  5
B4E
330
F4D
100
AcDbEntity
  8
0
  6
Continuous
 62
     7
100
AcDbLine
 10
383.8813249999997
 20
254.7239465788607
 30
0.0
 11
383.8813249999997
 21
274.7239465788607
 31
0.0
  0
LINE
  5
B4F
330
F4D
100
AcDbEntity
  8
0
  6
Continuous
 62
     7
100
AcDbLine
 10
323.375
 20
225.9739465788605
 30
0.0
 11
323.375
 21
303.4739465788607
 31
0.0
  0
LINE
  5
B50
330
F4D
100
AcDbEntity
  8
0
  6
Continuous
 62
     7
100
AcDbLine
 10
328.7727909
 20
296.4739465788607
 30
0.0
 11
328.7727909
 21
232.9739465788607
 31
0.0
  0
LINE
  5
B51
330
F4D
100
AcDbEntity
  8
0
  6
Continuous
 62
     7
100
AcDbLine
 10
350.9490300000002
 20
296.4739465788607
 30
0.0
 11
350.9490300000002
 21
232.9739505788607
 31
0.0
  0
LINE
  5
B52
330
F4D
100
AcDbEntity
  8
0
  6
Continuous
 62
     7
100
AcDbLine
 10
328.7727909
 20
232.9739465788607
 30
0.0
 11
350.9490345358989
 21
232.9739465788607
 31
0.0
  0
LINE
  5
B53
330
F4D
100
AcDbEntity
  8
0
  6
Continuous
 62
     7
100
AcDbLine
 10
326.2249992000001
 20
225.9739465788605
 30
0.0
 11
328.7727906
 21
232.9739455788608
 31
0.0
  0
LINE
  5
B54
330
F4D
100
AcDbEntity
  8
0
  6
Continuous
 62
     7
100
AcDbLine
 10
323.375
 20
225.9739465788605
 30
0.0
 11
326.2249992000001
 21
225.9739465788605
 31
0.0
  0
LINE
  5
B55
330
F4D
100
AcDbEntity
  8
0
  6
Continuous
 62
     7
100
AcDbLine
 10
356.3750060000001
 20
212.7239465788607
 30
0.0
 11
350.9490340000001
 21
232.9739485788608
 31
0.0
  0
LINE
  5
B56
330
F4D
100
AcDbEntity
  8
0
  6
Continuous
 62
     7
100
AcDbLine
 10
328.7727909
 20
296.4739465788607
 30
0.0
 11
350.9490300000002
 21
296.4739465788607
 31
0.0
  0
LINE
  5
B57
330
F4D
100
AcDbEntity
  8
0
  6
Continuous
 62
     7
100
AcDbLine
 10
323.375
 20
303.4739465788607
 30
0.0
 11
326.2249992000001
 21
303.4739465788607
 31
0.0
  0
LINE
  5
B58
330
F4D
100
AcDbEntity
  8
0
  6
Continuous
 62
     7
100
AcDbLine
 10
326.2249992000001
 20
303.4739465788607
 30
0.0
 11
328.7727906
 21
296.4739475788605
 31
0.0
  0
LINE
  5
B59
330
F4D
100
AcDbEntity
  8
0
  6
Continuous
 62
     7
100
AcDbLine
 10
432.6249999999999
 20
332.2239465788605
 30
0.0
 11
432.6249999999999
 21
197.2239465788607
 31
0.0
  0
LINE
  5
B5A
330
F4D
100
AcDbEntity
  8
0
  6
Continuous
 62
     7
100
AcDbLine
 10
414.125
 20
332.2239465788605
 30
0.0
 11
414.125
 21
197.2239465788607
 31
0.0
  0
LINE
  5
B5B
330
F4D
100
AcDbEntity
  8
0
  6
Continuous
 62
     7
100
AcDbLine
 10
414.125
 20
197.2239465788607
 30
0.0
 11
432.6249999999999
 21
197.2239465788607
 31
0.0
  0
LINE
  5
B5C
330
F4D
100
AcDbEntity
  8
0
  6
Continuous
 62
     7
100
AcDbLine
 10
455.3749999999999
 20
316.7239425788607
 30
0.0
 11
467.0663399999998
 21
296.4739445788604
 31
0.0
  0
LINE
  5
B5D
330
F4D
100
AcDbEntity
  8
0
  6
Continuous
 62
     7
100
AcDbLine
 10
455.3750199999999
 20
316.7239465788607
 30
0.0
 11
455.3750199999999
 21
212.7239735788606
 31
0.0
  0
LINE
  5
B5E
330
F4D
100
AcDbEntity
  8
0
  6
Continuous
 62
     7
100
AcDbLine
 10
455.3749899999997
 20
212.7239515788609
 30
0.0
 11
467.06633
 21
232.9739495788607
 31
0.0
  0
LINE
  5
B5F
330
F4D
100
AcDbEntity
  8
0
  6
Continuous
 62
     7
100
AcDbLine
 10
398.682225
 20
254.7239465788607
 30
0.0
 11
418.682185
 21
274.7239465788607
 31
0.0
  0
LINE
  5
B60
330
F4D
100
AcDbEntity
  8
0
  6
Continuous
 62
     7
100
AcDbLine
 10
394.1921019999999
 20
254.7239465788607
 30
0.0
 11
414.192062
 21
274.7239465788607
 31
0.0
  0
LINE
  5
B61
330
F4D
100
AcDbEntity
  8
0
  6
Continuous
 62
     7
100
AcDbLine
 10
389.7019779999999
 20
254.7239465788607
 30
0.0
 11
409.7019380000001
 21
274.7239465788607
 31
0.0
  0
LINE
  5
B62
330
F4D
100
AcDbEntity
  8
0
  6
Continuous
 62
     7
100
AcDbLine
 10
416.6427189999999
 20
254.7239465788607
 30
0.0
 11
433.50884
 21
271.5901021788608
 31
0.0
  0
LINE
  5
B63
330
F4D
100
AcDbEntity
  8
0
  6
Continuous
 62
     7
100
AcDbLine
 10
412.1525959999997
 20
254.7239465788607
 30
0.0
 11
431.2637800000001
 21
273.8351664788605
 31
0.0
  0
LINE
  5
B64
330
F4D
100
AcDbEntity
  8
0
  6
Continuous
 62
     7
100
AcDbLine
 10
420.375
 20
253.9661025788605
 30
0.0
 11
435.7539000000001
 21
269.3450378788607
 31
0.0
  0
LINE
  5
B65
330
F4D
100
AcDbEntity
  8
0
  6
Continuous
 62
     7
100
AcDbLine
 10
407.6624719999998
 20
254.7239465788607
 30
0.0
 11
429.0187099999998
 21
276.0802305788605
 31
0.0
  0
LINE
  5
B66
330
F4D
100
AcDbEntity
  8
0
  6
Continuous
 62
     7
100
AcDbLine
 10
403.1723489999999
 20
254.7239465788607
 30
0.0
 11
426.7736499999999
 21
278.3252945788603
 31
0.0
  0
LINE
  5
B67
330
F4D
100
AcDbEntity
  8
0
  6
Continuous
 62
     7
100
AcDbLine
 10
440.3749799999999
 20
264.7239735528436
 30
0.0
 11
420.3749779999998
 21
244.7239705788605
 31
0.0
  0
LINE
  5
B68
330
F4D
100
AcDbEntity
  8
0
  6
Continuous
 62
     7
100
AcDbLine
 10
420.375
 20
244.9858375788608
 30
0.0
 11
440.2440299999997
 21
264.8549093388604
 31
0.0
  0
LINE
  5
B69
330
F4D
100
AcDbEntity
  8
0
  6
Continuous
 62
     7
100
AcDbLine
 10
420.375
 20
249.4759695788607
 30
0.0
 11
437.9989700000002
 21
267.0999735788603
 31
0.0
  0
LINE
  5
B6A
330
F4D
100
AcDbEntity
  8
0
  6
Continuous
 62
     7
100
AcDbLine
 10
420.375
 20
244.7239465788605
 30
0.0
 11
420.375
 21
254.7239465788607
 31
0.0
  0
LINE
  5
B6B
330
F4D
100
AcDbEntity
  8
0
  6
Continuous
 62
     7
100
AcDbLine
 10
432.6249999999999
 20
212.7239465788607
 30
0.0
 11
455.37498
 21
212.7239465788607
 31
0.0
  0
LINE
  5
B6C
330
F4D
100
AcDbEntity
  8
0
  6
Continuous
 62
     7
100
AcDbLine
 10
420.375
 20
276.4167645788607
 30
0.0
 11
424.5285899999998
 21
280.5703595788603
 31
0.0
  0
LINE
  5
B6D
330
F4D
100
AcDbEntity
  8
0
  6
Continuous
 62
     7
100
AcDbLine
 10
420.3749889999999
 20
284.7239335788603
 30
0.0
 11
440.3749899999998
 21
264.7239303944707
 31
0.0
  0
LINE
  5
B6E
330
F4D
100
AcDbEntity
  8
0
  6
Continuous
 62
     7
100
AcDbLine
 10
420.375
 20
274.7239465788607
 30
0.0
 11
420.375
 21
284.7239465788607
 31
0.0
  0
LINE
  5
B6F
330
F4D
100
AcDbEntity
  8
0
  6
Continuous
 62
     7
100
AcDbLine
 10
420.375
 20
280.9068975788608
 30
0.0
 11
422.283523
 21
282.8154235788605
 31
0.0
  0
LINE
  5
B70
330
F4D
100
AcDbEntity
  8
0
  6
Continuous
 62
     7
100
AcDbLine
 10
493.3749999999999
 20
303.4739465788607
 30
0.0
 11
493.3749999999999
 21
225.9739465788605
 31
0.0
  0
LINE
  5
B71
330
F4D
100
AcDbEntity
  8
0
  6
Continuous
 62
     7
100
AcDbLine
 10
467.0663499999999
 20
296.4739465788607
 30
0.0
 11
467.0663499999999
 21
232.9739755788609
 31
0.0
  0
LINE
  5
B72
330
F4D
100
AcDbEntity
  8
0
  6
Continuous
 62
     7
100
AcDbLine
 10
487.9772090999999
 20
232.9739465788607
 30
0.0
 11
487.9772090999999
 21
296.4739465788607
 31
0.0
  0
LINE
  5
B73
330
F4D
100
AcDbEntity
  8
0
  6
Continuous
 62
     7
100
AcDbLine
 10
487.9772090999999
 20
232.9739465788607
 30
0.0
 11
467.0663499999999
 21
232.9739465788607
 31
0.0
  0
LINE
  5
B74
330
F4D
100
AcDbEntity
  8
0
  6
Continuous
 62
     7
100
AcDbLine
 10
490.5250007999998
 20
225.9739465788605
 30
0.0
 11
487.9772093999999
 21
232.9739455788608
 31
0.0
  0
LINE
  5
B75
330
F4D
100
AcDbEntity
  8
0
  6
Continuous
 62
     7
100
AcDbLine
 10
493.3749999999999
 20
225.9739465788605
 30
0.0
 11
490.5250007999998
 21
225.9739465788605
 31
0.0
  0
LINE
  5
B76
330
F4D
100
AcDbEntity
  8
0
  6
Continuous
 62
     7
100
AcDbLine
 10
493.3749999999999
 20
303.4739465788607
 30
0.0
 11
490.5250007999998
 21
303.4739465788607
 31
0.0
  0
LINE
  5
B77
330
F4D
100
AcDbEntity
  8
0
  6
Continuous
 62
     7
100
AcDbLine
 10
487.9772090999999
 20
296.4739465788607
 30
0.0
 11
467.0663499999999
 21
296.4739465788607
 31
0.0
  0
LINE
  5
B78
330
F4D
100
AcDbEntity
  8
0
  6
Continuous
 62
     7
100
AcDbLine
 10
490.5250007999998
 20
303.4739465788607
 30
0.0
 11
487.9772093999999
 21
296.4739475788605
 31
0.0
  0
LINE
  5
B79
330
F4D
100
AcDbEntity
  8
0
  6
Continuous
 62
     7
100
AcDbLine
 10
414.125
 20
332.2239465788605
 30
0.0
 11
432.6249999999999
 21
332.2239465788605
 31
0.0
  0
LINE
  5
B7A
330
F4D
100
AcDbEntity
  8
0
  6
Continuous
 62
     7
100
AcDbLine
 10
432.6249999999999
 20
316.7239465788607
 30
0.0
 11
455.3750199999999
 21
316.7239465788607
 31
0.0
  0
LINE
  5
FA1
330
F4D
100
AcDbEntity
  8
0
  6
CENTER
100
AcDbLine
 10
527.693992672417
 20
264.7239465788607
 30
0.0
 11
694.6885786477873
 21
264.7239465788607
 31
0.0
  0
LINE
  5
FA3
330
F4D
100
AcDbEntity
  8
0
  6
CENTER
100
AcDbLine
 10
304.4034177181515
 20
264.7239465788607
 30
0.0
 11
513.6386182083015
 21
264.7239465788607
 31
0.0
  0
LINE
  5
FA4
330
F4D
100
AcDbEntity
  8
0
  6
CENTER
100
AcDbLine
 10
611.1912856601021
 20
348.2212395665458
 30
0.0
 11
611.1912856601021
 21
181.2266535911756
 31
0.0
  0
LINE
  5
FA5
330
F4D
100
AcDbEntity
  8
0
  6
CENTER
100
AcDbLine
 10
304.4034177181515
 20
430.318390496508
 30
0.0
 11
513.6386182083015
 21
430.318390496508
 31
0.0
  0
LINE
  5
FA6
330
F4D
100
AcDbEntity
  8
0
  6
CENTER
100
AcDbLine
 10
215.1940525109265
 20
348.2212395665458
 30
0.0
 11
215.1940525109265
 21
181.2266535911756
 31
0.0
  0
LINE
  5
FA7
330
F4D
100
AcDbEntity
  8
0
  6
CENTER
100
AcDbLine
 10
131.6967595232414
 20
264.7239465788607
 30
0.0
 11
298.6913454986116
 21
264.7239465788607
 31
0.0
  0
ENDSEC
  0
SECTION
  2
OBJECTS
  0
DICTIONARY
  5
F3B
330
0
100
AcDbDictionary
281
     1
  3
ACAD_GROUP
350
F3C
  3
ACAD_LAYOUT
350
F48
  3
ACAD_MLINESTYLE
350
F45
  3
ACAD_PLOTSETTINGS
350
F47
  3
ACAD_PLOTSTYLENAME
350
F3D
  3
AcDbVariableDictionary
350
F92
  0
DICTIONARY
  5
F98
330
F31
100
AcDbDictionary
280
     1
281
     1
  3
ACAD_LAYERSTATES
360
F99
  0
DICTIONARY
  5
F5E
330
F4D
100
AcDbDictionary
280
     1
281
     1
  3
ACAD_LAYOUTSELFREF
360
F8D
  0
DICTIONARY
  5
F60
330
F49
100
AcDbDictionary
280
     1
281
     1
  3
ACAD_LAYOUTSELFREF
360
F8C
  0
DICTIONARY
  5
F3C
102
{ACAD_REACTORS
330
F3B
102
}
330
F3B
100
AcDbDictionary
281
     1
  0
DICTIONARY
  5
F48
102
{ACAD_REACTORS
330
F3B
102
}
330
F3B
100
AcDbDictionary
281
     1
  3
Model
350
F50
  3
ﾚｲｱｳﾄ1
350
F4C
  0
DICTIONARY
  5
F45
102
{ACAD_REACTORS
330
F3B
102
}
330
F3B
100
AcDbDictionary
281
     1
  3
Standard
350
F46
  0
DICTIONARY
  5
F47
102
{ACAD_REACTORS
330
F3B
102
}
330
F3B
100
AcDbDictionary
281
     1
  0
ACDBDICTIONARYWDFLT
  5
F3D
102
{ACAD_REACTORS
330
F3B
102
}
330
F3B
100
AcDbDictionary
281
     1
  3
Normal
350
F3E
100
AcDbDictionaryWithDefault
340
F3E
  0
DICTIONARY
  5
F92
102
{ACAD_REACTORS
330
F3B
102
}
330
F3B
100
AcDbDictionary
281
     1
  3
DIMASSOC
350
F93
  0
DICTIONARY
  5
F99
102
{ACAD_REACTORS
330
F98
102
}
330
F98
100
AcDbDictionary
281
     1
  0
XRECORD
  5
F8D
102
{ACAD_REACTORS
330
F5E
102
}
330
F5E
100
AcDbXrecord
280
     1
340
F4D
  0
XRECORD
  5
F8C
102
{ACAD_REACTORS
330
F60
102
}
330
F60
100
AcDbXrecord
280
     1
340
F49
  0
LAYOUT
  5
F50
102
{ACAD_REACTORS
330
F48
102
}
330
F48
100
AcDbPlotSettings
  1

  2
SII LP-2150 (D-SCAN C2)
  4

  6

 40
0.0
 41
0.0
 42
0.0
 43
0.0
 44
0.0
 45
0.0
 46
0.0
 47
0.0
 48
0.0
 49
0.0
140
0.0
141
0.0
142
1.0
143
1.0
 70
  1712
 72
     0
 73
     0
 74
     0
  7

 75
     0
147
1.0
148
0.0
149
0.0
100
AcDbLayout
  1
Model
 70
     1
 71
     0
 10
0.0
 20
0.0
 11
12.0
 21
9.0
 12
0.0
 22
0.0
 32
0.0
 14
0.0
 24
0.0
 34
0.0
 15
0.0
 25
0.0
 35
0.0
146
0.0
 13
0.0
 23
0.0
 33
0.0
 16
1.0
 26
0.0
 36
0.0
 17
0.0
 27
1.0
 37
0.0
 76
     0
330
F4D
  0
LAYOUT
  5
F4C
102
{ACAD_REACTORS
330
F48
102
}
330
F48
100
AcDbPlotSettings
  1

  2
SII LP-2150 (D-SCAN C2)
  4

  6

 40
0.0
 41
0.0
 42
0.0
 43
0.0
 44
0.0
 45
0.0
 46
0.0
 47
0.0
 48
0.0
 49
0.0
140
0.0
141
0.0
142
1.0
143
1.0
 70
   688
 72
     0
 73
     0
 74
     5
  7

 75
    16
147
1.0
148
0.0
149
0.0
100
AcDbLayout
  1
ﾚｲｱｳﾄ1
 70
     1
 71
     1
 10
-44.912933
 20
-21.841471
 11
153.5627299999999
 21
105.04179
 12
0.0
 22
0.0
 32
0.0
 14
-44.912933
 24
-21.841471
 34
0.0
 15
153.5627299999999
 25
105.04179
 35
0.0
146
0.0
 13
0.0
 23
0.0
 33
0.0
 16
1.0
 26
0.0
 36
0.0
 17
0.0
 27
1.0
 37
0.0
 76
     0
330
F49
  0
MLINESTYLE
  5
F46
102
{ACAD_REACTORS
330
F45
102
}
330
F45
100
AcDbMlineStyle
  2
STANDARD
 70
     0
  3

 62
   256
 51
90.0
 52
90.0
 71
     2
 49
0.5
 62
   256
  6
BYLAYER
 49
-0.5
 62
   256
  6
BYLAYER
  0
ACDBPLACEHOLDER
  5
F3E
102
{ACAD_REACTORS
330
F3D
102
}
330
F3D
  0
DICTIONARYVAR
  5
F93
102
{ACAD_REACTORS
330
F92
102
}
330
F92
100
DictionaryVariables
280
     0
  1
1
  0
ENDSEC
  0
EOF
