  0
SECTION
  2
HEADER
  9
$ACADVER
  1
AC1015
  9
$ACADMAINTVER
 70
    14
  9
$DWGCODEPAGE
  3
ANSI_932
  9
$INSBASE
 10
0.0
 20
0.0
 30
0.0
  9
$EXTMIN
 10
137.7335167324654
 20
182.9466867904095
 30
-0.0000000000112498
  9
$EXTMAX
 10
662.4251824978379
 20
741.2005032820132
 30
0.0000000000002956
  9
$LIMMIN
 10
-44.912933
 20
-21.841471
  9
$LIMMAX
 10
153.5627299999999
 20
105.04179
  9
$ORTHOMODE
 70
     0
  9
$REGENMODE
 70
     1
  9
$FILLMODE
 70
     1
  9
$QTEXTMODE
 70
     0
  9
$MIRRTEXT
 70
     1
  9
$LTSCALE
 40
1.0
  9
$ATTMODE
 70
     1
  9
$TEXTSIZE
 40
0.2
  9
$TRACEWID
 40
0.05
  9
$TEXTSTYLE
  7
STANDARD
  9
$CLAYER
  8
0
  9
$CELTYPE
  6
CONTINUOUS
  9
$CECOLOR
 62
   256
  9
$CELTSCALE
 40
1.0
  9
$DISPSILH
 70
     0
  9
$DIMSCALE
 40
1.0
  9
$DIMASZ
 40
15.0
  9
$DIMEXO
 40
5.0
  9
$DIMDLI
 40
10.0
  9
$DIMRND
 40
0.0
  9
$DIMDLE
 40
0.0
  9
$DIMEXE
 40
10.0
  9
$DIMTP
 40
0.0
  9
$DIMTM
 40
0.0
  9
$DIMTXT
 40
20.0
  9
$DIMCEN
 40
0.09
  9
$DIMTSZ
 40
0.0
  9
$DIMTOL
 70
     0
  9
$DIMLIM
 70
     0
  9
$DIMTIH
 70
     0
  9
$DIMTOH
 70
     1
  9
$DIMSE1
 70
     0
  9
$DIMSE2
 70
     0
  9
$DIMTAD
 70
     1
  9
$DIMZIN
 70
     8
  9
$DIMBLK
  1

  9
$DIMASO
 70
     1
  9
$DIMSHO
 70
     0
  9
$DIMPOST
  1

  9
$DIMAPOST
  1

  9
$DIMALT
 70
     0
  9
$DIMALTD
 70
     2
  9
$DIMALTF
 40
25.4
  9
$DIMLFAC
 40
1.0
  9
$DIMTOFL
 70
     0
  9
$DIMTVP
 40
0.0
  9
$DIMTIX
 70
     0
  9
$DIMSOXD
 70
     0
  9
$DIMSAH
 70
     0
  9
$DIMBLK1
  1

  9
$DIMBLK2
  1

  9
$DIMSTYLE
  2
STANDARD
  9
$DIMCLRD
 70
     0
  9
$DIMCLRE
 70
     0
  9
$DIMCLRT
 70
     0
  9
$DIMTFAC
 40
1.0
  9
$DIMGAP
 40
5.0
  9
$DIMJUST
 70
     0
  9
$DIMSD1
 70
     0
  9
$DIMSD2
 70
     0
  9
$DIMTOLJ
 70
     1
  9
$DIMTZIN
 70
     0
  9
$DIMALTZ
 70
     0
  9
$DIMALTTZ
 70
     0
  9
$DIMUPT
 70
     0
  9
$DIMDEC
 70
     4
  9
$DIMTDEC
 70
     4
  9
$DIMALTU
 70
     2
  9
$DIMALTTD
 70
     2
  9
$DIMTXSTY
  7
STANDARD
  9
$DIMAUNIT
 70
     0
  9
$DIMADEC
 70
     0
  9
$DIMALTRND
 40
0.0
  9
$DIMAZIN
 70
     0
  9
$DIMDSEP
 70
    46
  9
$DIMATFIT
 70
     3
  9
$DIMFRAC
 70
     0
  9
$DIMLDRBLK
  1

  9
$DIMLUNIT
 70
     2
  9
$DIMLWD
 70
    -2
  9
$DIMLWE
 70
    -2
  9
$DIMTMOVE
 70
     0
  9
$LUNITS
 70
     2
  9
$LUPREC
 70
     4
  9
$SKETCHINC
 40
0.1
  9
$FILLETRAD
 40
0.0
  9
$AUNITS
 70
     0
  9
$AUPREC
 70
     0
  9
$MENU
  1
.
  9
$ELEVATION
 40
0.0
  9
$PELEVATION
 40
0.0
  9
$THICKNESS
 40
0.0
  9
$LIMCHECK
 70
     0
  9
$CHAMFERA
 40
0.0
  9
$CHAMFERB
 40
0.0
  9
$CHAMFERC
 40
0.0
  9
$CHAMFERD
 40
0.0
  9
$SKPOLY
 70
     0
  9
$TDCREATE
 40
2452488.423177615
  9
$TDUCREATE
 40
2452488.048177615
  9
$TDUPDATE
 40
2456899.667760706
  9
$TDUUPDATE
 40
2456899.292760706
  9
$TDINDWG
 40
0.0603095255
  9
$TDUSRTIMER
 40
0.0603095255
  9
$USRTIMER
 70
     1
  9
$ANGBASE
 50
0.0
  9
$ANGDIR
 70
     0
  9
$PDMODE
 70
     3
  9
$PDSIZE
 40
0.0
  9
$PLINEWID
 40
0.0
  9
$SPLFRAME
 70
     0
  9
$SPLINETYPE
 70
     6
  9
$SPLINESEGS
 70
     8
  9
$HANDSEED
  5
FB4
  9
$SURFTAB1
 70
     6
  9
$SURFTAB2
 70
     6
  9
$SURFTYPE
 70
     6
  9
$SURFU
 70
     6
  9
$SURFV
 70
     6
  9
$UCSBASE
  2

  9
$UCSNAME
  2

  9
$UCSORG
 10
0.0
 20
0.0
 30
0.0
  9
$UCSXDIR
 10
1.0
 20
0.0
 30
0.0
  9
$UCSYDIR
 10
0.0
 20
1.0
 30
0.0
  9
$UCSORTHOREF
  2

  9
$UCSORTHOVIEW
 70
     0
  9
$UCSORGTOP
 10
0.0
 20
0.0
 30
0.0
  9
$UCSORGBOTTOM
 10
0.0
 20
0.0
 30
0.0
  9
$UCSORGLEFT
 10
0.0
 20
0.0
 30
0.0
  9
$UCSORGRIGHT
 10
0.0
 20
0.0
 30
0.0
  9
$UCSORGFRONT
 10
0.0
 20
0.0
 30
0.0
  9
$UCSORGBACK
 10
0.0
 20
0.0
 30
0.0
  9
$PUCSBASE
  2

  9
$PUCSNAME
  2

  9
$PUCSORG
 10
0.0
 20
0.0
 30
0.0
  9
$PUCSXDIR
 10
1.0
 20
0.0
 30
0.0
  9
$PUCSYDIR
 10
0.0
 20
1.0
 30
0.0
  9
$PUCSORTHOREF
  2

  9
$PUCSORTHOVIEW
 70
     0
  9
$PUCSORGTOP
 10
0.0
 20
0.0
 30
0.0
  9
$PUCSORGBOTTOM
 10
0.0
 20
0.0
 30
0.0
  9
$PUCSORGLEFT
 10
0.0
 20
0.0
 30
0.0
  9
$PUCSORGRIGHT
 10
0.0
 20
0.0
 30
0.0
  9
$PUCSORGFRONT
 10
0.0
 20
0.0
 30
0.0
  9
$PUCSORGBACK
 10
0.0
 20
0.0
 30
0.0
  9
$USERI1
 70
     0
  9
$USERI2
 70
     0
  9
$USERI3
 70
     0
  9
$USERI4
 70
     0
  9
$USERI5
 70
     0
  9
$USERR1
 40
0.0
  9
$USERR2
 40
0.0
  9
$USERR3
 40
0.0
  9
$USERR4
 40
0.0
  9
$USERR5
 40
0.0
  9
$WORLDVIEW
 70
     1
  9
$SHADEDGE
 70
     3
  9
$SHADEDIF
 70
    70
  9
$TILEMODE
 70
     1
  9
$MAXACTVP
 70
    48
  9
$PINSBASE
 10
0.0
 20
0.0
 30
0.0
  9
$PLIMCHECK
 70
     0
  9
$PEXTMIN
 10
-44.912933
 20
-21.841471
 30
0.0
  9
$PEXTMAX
 10
153.5627299999999
 20
105.04179
 30
0.0
  9
$PLIMMIN
 10
-44.912933
 20
-21.841471
  9
$PLIMMAX
 10
153.5627299999999
 20
105.04179
  9
$UNITMODE
 70
     0
  9
$VISRETAIN
 70
     1
  9
$PLINEGEN
 70
     0
  9
$PSLTSCALE
 70
     1
  9
$TREEDEPTH
 70
  3020
  9
$CMLSTYLE
  2
Standard
  9
$CMLJUST
 70
     0
  9
$CMLSCALE
 40
1.0
  9
$PROXYGRAPHICS
 70
     1
  9
$MEASUREMENT
 70
     0
  9
$CELWEIGHT
370
    -1
  9
$ENDCAPS
280
     0
  9
$JOINSTYLE
280
     0
  9
$LWDISPLAY
290
     0
  9
$INSUNITS
 70
     0
  9
$HYPERLINKBASE
  1

  9
$STYLESHEET
  1

  9
$XEDIT
290
     1
  9
$CEPSNTYPE
380
     0
  9
$PSTYLEMODE
290
     1
  9
$FINGERPRINTGUID
  2
{309C8000-F897-4840-8F34-5D0139A5E047}
  9
$VERSIONGUID
  2
{2980BA50-CC26-4A9D-9815-F6F5CB91CD76}
  9
$EXTNAMES
290
     1
  9
$PSVPSCALE
 40
0.0
  9
$OLESTARTUP
290
     0
  0
ENDSEC
  0
SECTION
  2
CLASSES
  0
CLASS
  1
ACDBDICTIONARYWDFLT
  2
AcDbDictionaryWithDefault
  3
AutoCAD 2000
 90
        0
280
     0
281
     0
  0
CLASS
  1
ACDBPLACEHOLDER
  2
AcDbPlaceHolder
  3
AutoCAD 2000
 90
        0
280
     0
281
     0
  0
CLASS
  1
LAYOUT
  2
AcDbLayout
  3
AutoCAD 2000
 90
        0
280
     0
281
     0
  0
CLASS
  1
DICTIONARYVAR
  2
AcDbDictionaryVar
  3
AutoCAD 2000
 90
        0
280
     0
281
     0
  0
CLASS
  1
LONG_TRANSACTION
  2
AcDbLongTransaction
  3
AutoCAD 2000
 90
    32768
280
     0
281
     0
  0
CLASS
  1
LWPOLYLINE
  2
AcDbPolyline
  3
AutoCAD 2000
 90
    32768
280
     0
281
     1
  0
CLASS
  1
HATCH
  2
AcDbHatch
  3
AutoCAD 2000
 90
    32768
280
     0
281
     1
  0
CLASS
  1
XRECORD
  2
AcDbXrecord
  3
AutoCAD 2000
 90
    32768
280
     0
281
     0
  0
ENDSEC
  0
SECTION
  2
TABLES
  0
TABLE
  2
VPORT
  5
F39
330
0
100
AcDbSymbolTable
 70
     2
  0
VPORT
  5
FB3
330
F39
100
AcDbSymbolTableRecord
100
AcDbViewportTableRecord
  2
*Active
 70
     0
 10
0.0
 20
0.0
 11
1.0
 21
1.0
 12
400.0793496151517
 22
462.0735950362113
 13
0.0
 23
0.0
 14
1.0
 24
1.0
 15
0.0
 25
0.0
 16
0.0
 26
0.0
 36
1.0
 17
0.0
 27
0.0
 37
0.0
 40
561.7982851677407
 41
1.592161016949152
 42
50.0
 43
0.0
 44
0.0
 50
0.0
 51
0.0
 71
     0
 72
   100
 73
     1
 74
     3
 75
     0
 76
     0
 77
     0
 78
     0
281
     0
 65
     1
110
0.0
120
0.0
130
0.0
111
1.0
121
0.0
131
0.0
112
0.0
122
1.0
132
0.0
 79
     0
146
0.0
  0
ENDTAB
  0
TABLE
  2
LTYPE
  5
F36
330
0
100
AcDbSymbolTable
 70
     2
  0
LTYPE
  5
F44
330
F36
100
AcDbSymbolTableRecord
100
AcDbLinetypeTableRecord
  2
ByBlock
 70
     0
  3

 72
    65
 73
     0
 40
0.0
  0
LTYPE
  5
F45
330
F36
100
AcDbSymbolTableRecord
100
AcDbLinetypeTableRecord
  2
ByLayer
 70
     0
  3

 72
    65
 73
     0
 40
0.0
  0
LTYPE
  5
F46
330
F36
100
AcDbSymbolTableRecord
100
AcDbLinetypeTableRecord
  2
CONTINUOUS
 70
     0
  3
Solid line
 72
    65
 73
     0
 40
0.0
  0
LTYPE
  5
F99
330
F36
100
AcDbSymbolTableRecord
100
AcDbLinetypeTableRecord
  2
CENTER
 70
     0
  3
__ . __
 72
    65
 73
     4
 40
7.0
 49
4.0
 74
     0
 49
-1.0
 74
     0
 49
1.0
 74
     0
 49
-1.0
 74
     0
  0
ENDTAB
  0
TABLE
  2
LAYER
  5
F33
102
{ACAD_XDICTIONARY
360
F9A
102
}
330
0
100
AcDbSymbolTable
 70
     1
  0
LAYER
  5
F41
330
F33
100
AcDbSymbolTableRecord
100
AcDbLayerTableRecord
  2
0
 70
     0
 62
     7
  6
CONTINUOUS
370
    -3
390
F40
  0
ENDTAB
  0
TABLE
  2
STYLE
  5
F34
330
0
100
AcDbSymbolTable
 70
     1
  0
STYLE
  5
F42
330
F34
100
AcDbSymbolTableRecord
100
AcDbTextStyleTableRecord
  2
STANDARD
 70
     0
 40
0.0
 41
1.0
 50
0.0
 71
     0
 42
0.2
  3
txt
  4

  0
ENDTAB
  0
TABLE
  2
VIEW
  5
F37
330
0
100
AcDbSymbolTable
 70
     0
  0
ENDTAB
  0
TABLE
  2
UCS
  5
F38
330
0
100
AcDbSymbolTable
 70
     0
  0
ENDTAB
  0
TABLE
  2
APPID
  5
F3A
330
0
100
AcDbSymbolTable
 70
     4
  0
APPID
  5
F43
330
F3A
100
AcDbSymbolTableRecord
100
AcDbRegAppTableRecord
  2
ACAD
 70
     0
  0
APPID
  5
F55
330
F3A
100
AcDbSymbolTableRecord
100
AcDbRegAppTableRecord
  2
MCAD_NO_VIS
 70
     0
  0
APPID
  5
F56
330
F3A
100
AcDbSymbolTableRecord
100
AcDbRegAppTableRecord
  2
ACAD_TEMP_GRAPHIC
 70
     0
  0
APPID
  5
F57
330
F3A
100
AcDbSymbolTableRecord
100
AcDbRegAppTableRecord
  2
ACATTRIBSERVICES
 70
     0
  0
ENDTAB
  0
TABLE
  2
DIMSTYLE
  5
F3B
330
0
100
AcDbSymbolTable
 70
     1
100
AcDbDimStyleTable
 71
     0
  0
DIMSTYLE
105
F58
330
F3B
100
AcDbSymbolTableRecord
100
AcDbDimStyleTableRecord
  2
STANDARD
 70
     0
 41
15.0
 42
5.0
 43
10.0
 44
10.0
 73
     0
 77
     1
 78
     8
140
20.0
147
5.0
279
     2
284
     8
285
     8
286
     8
340
F42
  0
ENDTAB
  0
TABLE
  2
BLOCK_RECORD
  5
F32
330
0
100
AcDbSymbolTable
 70
     0
  0
BLOCK_RECORD
  5
F4F
102
{ACAD_XDICTIONARY
360
F60
102
}
330
F32
100
AcDbSymbolTableRecord
100
AcDbBlockTableRecord
  2
*Model_Space
340
F52
  0
BLOCK_RECORD
  5
F4B
102
{ACAD_XDICTIONARY
360
F62
102
}
330
F32
100
AcDbSymbolTableRecord
100
AcDbBlockTableRecord
  2
*Paper_Space
340
F4E
  0
ENDTAB
  0
ENDSEC
  0
SECTION
  2
BLOCKS
  0
BLOCK
  5
F50
330
F4F
100
AcDbEntity
  8
0
100
AcDbBlockBegin
  2
*Model_Space
 70
     0
 10
0.0
 20
0.0
 30
0.0
  3
*Model_Space
  1

  0
ENDBLK
  5
F51
330
F4F
100
AcDbEntity
  8
0
100
AcDbBlockEnd
  0
BLOCK
  5
F4C
330
F4B
100
AcDbEntity
 67
     1
  8
0
100
AcDbBlockBegin
  2
*Paper_Space
 70
     0
 10
0.0
 20
0.0
 30
0.0
  3
*Paper_Space
  1

  0
ENDBLK
  5
F4D
330
F4B
100
AcDbEntity
 67
     1
  8
0
100
AcDbBlockEnd
  0
ENDSEC
  0
SECTION
  2
ENTITIES
  0
TEXT
  5
4CD
330
F4F
100
AcDbEntity
  8
0
  6
Continuous
 62
     7
100
AcDbText
 10
195.1577599725524
 20
693.1888544547127
 30
0.0
 40
48.000002
  1
CVCS 2S
 41
1.1021
100
AcDbText
  0
LINE
  5
A6C
330
F4F
100
AcDbEntity
  8
0
  6
Continuous
 62
     7
100
AcDbLine
 10
458.9662648378225
 20
460.2858718982266
 30
0.0
 11
436.2458583378228
 21
460.2858718982266
 31
0.0
  0
LINE
  5
A6D
330
F4F
100
AcDbEntity
  8
0
  6
Continuous
 62
     7
100
AcDbLine
 10
458.9662648378225
 20
409.4858718982264
 30
0.0
 11
436.2458583378228
 21
409.4858718982264
 31
0.0
  0
LINE
  5
A6E
330
F4F
100
AcDbEntity
  8
0
  6
Continuous
 62
     7
100
AcDbLine
 10
390.4684683378226
 20
495.3858718982258
 30
0.0
 11
390.4684683378226
 21
374.385871898226
 31
0.0
  0
LINE
  5
A6F
330
F4F
100
AcDbEntity
  8
0
  6
Continuous
 62
     7
100
AcDbLine
 10
407.9684683378226
 20
495.3858718982258
 30
0.0
 11
407.9684683378226
 21
374.385871898226
 31
0.0
  0
LINE
  5
A70
330
F4F
100
AcDbEntity
  8
0
  6
Continuous
 62
     7
100
AcDbLine
 10
357.2184723378228
 20
479.385879898226
 30
0.0
 11
357.2184723378228
 21
390.385871898226
 31
0.0
  0
LINE
  5
A71
330
F4F
100
AcDbEntity
  8
0
  6
Continuous
 62
     7
100
AcDbLine
 10
324.2184683378228
 20
402.885871898226
 30
0.0
 11
324.2184683378228
 21
466.885871898226
 31
0.0
  0
LINE
  5
A72
330
F4F
100
AcDbEntity
  8
0
  6
Continuous
 62
     7
100
AcDbLine
 10
425.2184683378226
 20
479.385879898226
 30
0.0
 11
425.2184683378226
 21
390.3858798982257
 31
0.0
  0
LINE
  5
A73
330
F4F
100
AcDbEntity
  8
0
  6
Continuous
 62
     7
100
AcDbLine
 10
352.1006423378229
 20
460.2858738982263
 30
0.0
 11
352.1006423378229
 21
409.4858878982263
 31
0.0
  0
LINE
  5
A74
330
F4F
100
AcDbEntity
  8
0
  6
Continuous
 62
     7
100
AcDbLine
 10
329.4706718378228
 20
460.2858718982266
 30
0.0
 11
329.4706718378228
 21
409.4858718982264
 31
0.0
  0
LINE
  5
A75
330
F4F
100
AcDbEntity
  8
0
  6
Continuous
 62
     7
100
AcDbLine
 10
436.2458583378228
 20
460.2858738982263
 30
0.0
 11
436.2458583378228
 21
409.4858858982266
 31
0.0
  0
LINE
  5
A76
330
F4F
100
AcDbEntity
  8
0
  6
Continuous
 62
     7
100
AcDbLine
 10
357.2184763378229
 20
390.385871898226
 30
0.0
 11
390.4684683378226
 21
390.385871898226
 31
0.0
  0
LINE
  5
A77
330
F4F
100
AcDbEntity
  8
0
  6
Continuous
 62
     7
100
AcDbLine
 10
329.4706718378228
 20
409.4858718982264
 30
0.0
 11
352.1006423378229
 21
409.4858718982264
 31
0.0
  0
LINE
  5
A78
330
F4F
100
AcDbEntity
  8
0
  6
Continuous
 62
     7
100
AcDbLine
 10
327.0684681378229
 20
402.8858728982262
 30
0.0
 11
329.4706716378228
 21
409.4858718982264
 31
0.0
  0
LINE
  5
A79
330
F4F
100
AcDbEntity
  8
0
  6
Continuous
 62
     7
100
AcDbLine
 10
324.2184683378228
 20
402.885871898226
 30
0.0
 11
327.0684677378227
 21
402.885871898226
 31
0.0
  0
LINE
  5
A7A
330
F4F
100
AcDbEntity
  8
0
  6
Continuous
 62
     7
100
AcDbLine
 10
357.2184783378228
 20
390.385871898226
 30
0.0
 11
352.1006463378229
 21
409.485878898226
 31
0.0
  0
LINE
  5
A7B
330
F4F
100
AcDbEntity
  8
0
  6
Continuous
 62
     7
100
AcDbLine
 10
407.9684683378226
 20
390.385871898226
 30
0.0
 11
425.2184583378229
 21
390.385871898226
 31
0.0
  0
LINE
  5
A7C
330
F4F
100
AcDbEntity
  8
0
  6
Continuous
 62
     7
100
AcDbLine
 10
390.4684683378226
 20
374.385871898226
 30
0.0
 11
407.9684683378226
 21
374.385871898226
 31
0.0
  0
LINE
  5
A7D
330
F4F
100
AcDbEntity
  8
0
  6
Continuous
 62
     7
100
AcDbLine
 10
425.2184583378229
 20
390.3858758982264
 30
0.0
 11
436.245848337823
 21
409.4858828982264
 31
0.0
  0
LINE
  5
A7E
330
F4F
100
AcDbEntity
  8
0
  6
Continuous
 62
     7
100
AcDbLine
 10
357.2184723378228
 20
479.385879898226
 30
0.0
 11
390.4684683378226
 21
479.385879898226
 31
0.0
  0
LINE
  5
A7F
330
F4F
100
AcDbEntity
  8
0
  6
Continuous
 62
     7
100
AcDbLine
 10
364.7247933378229
 20
434.9862267182261
 30
0.0
 11
374.6244183378229
 21
444.8858718982258
 31
0.0
  0
LINE
  5
A80
330
F4F
100
AcDbEntity
  8
0
  6
Continuous
 62
     7
100
AcDbLine
 10
368.094829337823
 20
424.885871898226
 30
0.0
 11
388.0947893378228
 21
444.8858718982258
 31
0.0
  0
LINE
  5
A81
330
F4F
100
AcDbEntity
  8
0
  6
Continuous
 62
     7
100
AcDbLine
 10
364.7247933378229
 20
426.0059617982264
 30
0.0
 11
383.604665337823
 21
444.8858718982258
 31
0.0
  0
LINE
  5
A82
330
F4F
100
AcDbEntity
  8
0
  6
Continuous
 62
     7
100
AcDbLine
 10
364.7247933378229
 20
430.4960941982263
 30
0.0
 11
379.1145423378228
 21
444.8858718982258
 31
0.0
  0
LINE
  5
A83
330
F4F
100
AcDbEntity
  8
0
  6
Continuous
 62
     7
100
AcDbLine
 10
372.5849523378228
 20
424.885871898226
 30
0.0
 11
392.5849123378228
 21
444.8858718982258
 31
0.0
  0
LINE
  5
A84
330
F4F
100
AcDbEntity
  8
0
  6
Continuous
 62
     7
100
AcDbLine
 10
401.2184683378226
 20
424.885871898226
 30
0.0
 11
364.7247933378229
 21
424.885871898226
 31
0.0
  0
LINE
  5
A85
330
F4F
100
AcDbEntity
  8
0
  6
Continuous
 62
     7
100
AcDbLine
 10
401.2184683378226
 20
444.8858718982258
 30
0.0
 11
364.7247933378229
 21
444.8858718982258
 31
0.0
  0
LINE
  5
A86
330
F4F
100
AcDbEntity
  8
0
  6
Continuous
 62
     7
100
AcDbLine
 10
357.2184723378228
 20
479.3858778982261
 30
0.0
 11
352.1006413378228
 21
460.2858718982266
 31
0.0
  0
LINE
  5
A87
330
F4F
100
AcDbEntity
  8
0
  6
Continuous
 62
     7
100
AcDbLine
 10
327.0684681378229
 20
466.885870898226
 30
0.0
 11
329.4706716378228
 21
460.2858718982266
 31
0.0
  0
LINE
  5
A88
330
F4F
100
AcDbEntity
  8
0
  6
Continuous
 62
     7
100
AcDbLine
 10
329.4706718378228
 20
460.2858718982266
 30
0.0
 11
352.1006413378228
 21
460.2858718982266
 31
0.0
  0
LINE
  5
A89
330
F4F
100
AcDbEntity
  8
0
  6
Continuous
 62
     7
100
AcDbLine
 10
364.7247933378229
 20
424.885871898226
 30
0.0
 11
364.7247933378229
 21
444.8858718982258
 31
0.0
  0
LINE
  5
A8A
330
F4F
100
AcDbEntity
  8
0
  6
Continuous
 62
     7
100
AcDbLine
 10
364.7247933378229
 20
439.4763591982259
 30
0.0
 11
370.134295337823
 21
444.8858718982258
 31
0.0
  0
LINE
  5
A8B
330
F4F
100
AcDbEntity
  8
0
  6
Continuous
 62
     7
100
AcDbLine
 10
364.7247933378229
 20
443.966491698226
 30
0.0
 11
365.644171337823
 21
444.8858718982258
 31
0.0
  0
LINE
  5
A8C
330
F4F
100
AcDbEntity
  8
0
  6
Continuous
 62
     7
100
AcDbLine
 10
324.2184683378228
 20
466.885871898226
 30
0.0
 11
327.0684677378227
 21
466.885871898226
 31
0.0
  0
LINE
  5
A8D
330
F4F
100
AcDbEntity
  8
0
  6
Continuous
 62
     7
100
AcDbLine
 10
425.2184683378226
 20
479.3858788982264
 30
0.0
 11
436.2458583378228
 21
460.2858718982266
 31
0.0
  0
LINE
  5
A8E
330
F4F
100
AcDbEntity
  8
0
  6
Continuous
 62
     7
100
AcDbLine
 10
395.0355703378227
 20
424.885871898226
 30
0.0
 11
413.1269993378228
 21
442.9773375982263
 31
0.0
  0
LINE
  5
A8F
330
F4F
100
AcDbEntity
  8
0
  6
Continuous
 62
     7
100
AcDbLine
 10
390.5454463378226
 20
424.885871898226
 30
0.0
 11
410.8819363378229
 21
445.2224018982263
 31
0.0
  0
LINE
  5
A90
330
F4F
100
AcDbEntity
  8
0
  6
Continuous
 62
     7
100
AcDbLine
 10
399.5256933378227
 20
424.885871898226
 30
0.0
 11
415.3720633378228
 21
440.7322733982259
 31
0.0
  0
LINE
  5
A91
330
F4F
100
AcDbEntity
  8
0
  6
Continuous
 62
     7
100
AcDbLine
 10
421.2184493378225
 20
434.8858988722089
 30
0.0
 11
401.218446337823
 21
414.8858958982258
 31
0.0
  0
LINE
  5
A92
330
F4F
100
AcDbEntity
  8
0
  6
Continuous
 62
     7
100
AcDbLine
 10
401.2184683378226
 20
417.5983848982264
 30
0.0
 11
419.8621903378229
 21
436.2421447982264
 31
0.0
  0
LINE
  5
A93
330
F4F
100
AcDbEntity
  8
0
  6
Continuous
 62
     7
100
AcDbLine
 10
401.2184683378226
 20
422.0885178982261
 30
0.0
 11
417.6171273378231
 21
438.4872090982262
 31
0.0
  0
LINE
  5
A94
330
F4F
100
AcDbEntity
  8
0
  6
Continuous
 62
     7
100
AcDbLine
 10
401.2184573378226
 20
454.8858588982262
 30
0.0
 11
421.2184593378228
 21
434.885855713836
 31
0.0
  0
LINE
  5
A95
330
F4F
100
AcDbEntity
  8
0
  6
Continuous
 62
     7
100
AcDbLine
 10
401.2184683378226
 20
449.029312898226
 30
0.0
 11
404.1467443378228
 21
451.957594898226
 31
0.0
  0
LINE
  5
A96
330
F4F
100
AcDbEntity
  8
0
  6
Continuous
 62
     7
100
AcDbLine
 10
401.2184683378226
 20
453.5194448982259
 30
0.0
 11
401.9016813378229
 21
454.2026588982261
 31
0.0
  0
LINE
  5
A97
330
F4F
100
AcDbEntity
  8
0
  6
Continuous
 62
     7
100
AcDbLine
 10
401.2184683378226
 20
414.885871898226
 30
0.0
 11
401.2184683378226
 21
424.885871898226
 31
0.0
  0
LINE
  5
A98
330
F4F
100
AcDbEntity
  8
0
  6
Continuous
 62
     7
100
AcDbLine
 10
377.075076337823
 20
424.885871898226
 30
0.0
 11
397.0750363378229
 21
444.8858718982258
 31
0.0
  0
LINE
  5
A99
330
F4F
100
AcDbEntity
  8
0
  6
Continuous
 62
     7
100
AcDbLine
 10
386.0553233378231
 20
424.885871898226
 30
0.0
 11
408.6368723378226
 21
447.4674658982261
 31
0.0
  0
LINE
  5
A9A
330
F4F
100
AcDbEntity
  8
0
  6
Continuous
 62
     7
100
AcDbLine
 10
381.565199337823
 20
424.885871898226
 30
0.0
 11
406.391808337823
 21
449.7125308982263
 31
0.0
  0
LINE
  5
A9B
330
F4F
100
AcDbEntity
  8
0
  6
Continuous
 62
     7
100
AcDbLine
 10
401.2184683378226
 20
444.8858718982258
 30
0.0
 11
401.2184683378226
 21
454.885871898226
 31
0.0
  0
LINE
  5
A9C
330
F4F
100
AcDbEntity
  8
0
  6
Continuous
 62
     7
100
AcDbLine
 10
407.9684683378226
 20
479.385879898226
 30
0.0
 11
425.2184683378226
 21
479.385879898226
 31
0.0
  0
LINE
  5
A9E
330
F4F
100
AcDbEntity
  8
0
  6
Continuous
 62
     7
100
AcDbLine
 10
464.2184683378226
 20
466.8858718982265
 30
0.0
 11
464.2184683378226
 21
402.8858718982264
 31
0.0
  0
LINE
  5
A9F
330
F4F
100
AcDbEntity
  8
0
  6
Continuous
 62
     7
100
AcDbLine
 10
458.9662648378225
 20
409.4858718982264
 30
0.0
 11
458.9662648378225
 21
460.2858718982266
 31
0.0
  0
LINE
  5
AA0
330
F4F
100
AcDbEntity
  8
0
  6
Continuous
 62
     7
100
AcDbLine
 10
461.3684685378224
 20
402.8858728982262
 30
0.0
 11
458.9662650378227
 21
409.4858718982264
 31
0.0
  0
LINE
  5
AA1
330
F4F
100
AcDbEntity
  8
0
  6
Continuous
 62
     7
100
AcDbLine
 10
464.2184683378226
 20
402.8858718982264
 30
0.0
 11
461.3684689378228
 21
402.8858718982264
 31
0.0
  0
LINE
  5
AA2
330
F4F
100
AcDbEntity
  8
0
  6
Continuous
 62
     7
100
AcDbLine
 10
461.3684685378224
 20
466.8858708982265
 30
0.0
 11
458.9662650378227
 21
460.2858718982266
 31
0.0
  0
LINE
  5
AA3
330
F4F
100
AcDbEntity
  8
0
  6
Continuous
 62
     7
100
AcDbLine
 10
464.2184683378226
 20
466.8858718982265
 30
0.0
 11
461.3684689378228
 21
466.8858718982265
 31
0.0
  0
CIRCLE
  5
AA4
330
F4F
100
AcDbEntity
  8
0
  6
Continuous
 62
     7
100
AcDbCircle
 10
207.3609312536837
 20
252.5513147348164
 30
0.0
 40
60.5
  0
CIRCLE
  5
AA5
330
F4F
100
AcDbEntity
  8
0
  6
Continuous
 62
     7
100
AcDbCircle
 10
207.3609312536837
 20
252.5513147348164
 30
0.0
 40
44.5
  0
CIRCLE
  5
AA6
330
F4F
100
AcDbEntity
  8
0
  6
Continuous
100
AcDbCircle
 10
207.3609312536837
 20
252.5513147348164
 30
0.0
 40
32.0
  0
CIRCLE
  5
AA7
330
F4F
100
AcDbEntity
  8
0
  6
Continuous
 62
     7
100
AcDbCircle
 10
207.3609312536837
 20
252.5513147348164
 30
0.0
 40
25.4
  0
LINE
  5
AA8
330
F4F
100
AcDbEntity
  8
0
  6
Continuous
 62
     7
100
AcDbLine
 10
407.9684683378226
 20
313.0513147348159
 30
0.0
 11
407.9684683378226
 21
192.051314734816
 31
0.0
  0
LINE
  5
AA9
330
F4F
100
AcDbEntity
  8
0
  6
Continuous
 62
     7
100
AcDbLine
 10
390.4684683378226
 20
313.0513147348159
 30
0.0
 11
390.4684683378226
 21
192.051314734816
 31
0.0
  0
LINE
  5
AAB
330
F4F
100
AcDbEntity
  8
0
  6
Continuous
 62
     7
100
AcDbLine
 10
458.9662648378225
 20
227.1513147348164
 30
0.0
 11
436.2458583378228
 21
227.1513147348164
 31
0.0
  0
LINE
  5
AAC
330
F4F
100
AcDbEntity
  8
0
  6
Continuous
 62
     7
100
AcDbLine
 10
458.9662648378225
 20
277.9513147348166
 30
0.0
 11
436.2458583378228
 21
277.9513147348166
 31
0.0
  0
LINE
  5
AAD
330
F4F
100
AcDbEntity
  8
0
  6
Continuous
 62
     7
100
AcDbLine
 10
401.2184683378226
 20
262.551314734816
 30
0.0
 11
364.7247933378229
 21
262.551314734816
 31
0.0
  0
LINE
  5
AAE
330
F4F
100
AcDbEntity
  8
0
  6
Continuous
 62
     7
100
AcDbLine
 10
401.2184683378226
 20
242.5513147348159
 30
0.0
 11
364.7247933378229
 21
242.5513147348159
 31
0.0
  0
LINE
  5
AAF
330
F4F
100
AcDbEntity
  8
0
  6
Continuous
 62
     7
100
AcDbLine
 10
372.5849523378228
 20
242.5513147348159
 30
0.0
 11
392.5849123378228
 21
262.551314734816
 31
0.0
  0
LINE
  5
AB0
330
F4F
100
AcDbEntity
  8
0
  6
Continuous
 62
     7
100
AcDbLine
 10
364.7247933378229
 20
248.1615370348162
 30
0.0
 11
379.1145423378228
 21
262.551314734816
 31
0.0
  0
LINE
  5
AB1
330
F4F
100
AcDbEntity
  8
0
  6
Continuous
 62
     7
100
AcDbLine
 10
364.7247933378229
 20
243.6714046348165
 30
0.0
 11
383.604665337823
 21
262.551314734816
 31
0.0
  0
LINE
  5
AB2
330
F4F
100
AcDbEntity
  8
0
  6
Continuous
 62
     7
100
AcDbLine
 10
368.094829337823
 20
242.5513147348159
 30
0.0
 11
388.0947893378228
 21
262.551314734816
 31
0.0
  0
LINE
  5
AB3
330
F4F
100
AcDbEntity
  8
0
  6
Continuous
 62
     7
100
AcDbLine
 10
364.7247933378229
 20
252.651669554816
 30
0.0
 11
374.6244183378229
 21
262.551314734816
 31
0.0
  0
LINE
  5
AB4
330
F4F
100
AcDbEntity
  8
0
  6
Continuous
 62
     7
100
AcDbLine
 10
357.2184723378228
 20
297.051322734816
 30
0.0
 11
390.4684683378226
 21
297.051322734816
 31
0.0
  0
LINE
  5
AB5
330
F4F
100
AcDbEntity
  8
0
  6
Continuous
 62
     7
100
AcDbLine
 10
357.2184763378229
 20
208.051314734816
 30
0.0
 11
390.4684683378226
 21
208.051314734816
 31
0.0
  0
LINE
  5
AB6
330
F4F
100
AcDbEntity
  8
0
  6
Continuous
 62
     7
100
AcDbLine
 10
364.7247933378229
 20
242.5513147348159
 30
0.0
 11
364.7247933378229
 21
262.551314734816
 31
0.0
  0
LINE
  5
AB7
330
F4F
100
AcDbEntity
  8
0
  6
Continuous
 62
     7
100
AcDbLine
 10
329.4706718378228
 20
277.9513147348166
 30
0.0
 11
329.4706718378228
 21
227.1513147348164
 31
0.0
  0
LINE
  5
AB8
330
F4F
100
AcDbEntity
  8
0
  6
Continuous
 62
     7
100
AcDbLine
 10
352.1006423378229
 20
277.9513167348163
 30
0.0
 11
352.1006423378229
 21
227.1513307348163
 31
0.0
  0
LINE
  5
AB9
330
F4F
100
AcDbEntity
  8
0
  6
Continuous
 62
     7
100
AcDbLine
 10
324.2184683378228
 20
220.551314734816
 30
0.0
 11
324.2184683378228
 21
284.551314734816
 31
0.0
  0
LINE
  5
ABA
330
F4F
100
AcDbEntity
  8
0
  6
Continuous
 62
     7
100
AcDbLine
 10
357.2184723378228
 20
297.051322734816
 30
0.0
 11
357.2184723378228
 21
208.051314734816
 31
0.0
  0
LINE
  5
ABB
330
F4F
100
AcDbEntity
  8
0
  6
Continuous
 62
     7
100
AcDbLine
 10
329.4706718378228
 20
227.1513147348164
 30
0.0
 11
352.1006423378229
 21
227.1513147348164
 31
0.0
  0
LINE
  5
ABC
330
F4F
100
AcDbEntity
  8
0
  6
Continuous
 62
     7
100
AcDbLine
 10
324.2184683378228
 20
220.551314734816
 30
0.0
 11
327.0684677378227
 21
220.551314734816
 31
0.0
  0
LINE
  5
ABD
330
F4F
100
AcDbEntity
  8
0
  6
Continuous
 62
     7
100
AcDbLine
 10
327.0684681378229
 20
220.5513157348164
 30
0.0
 11
329.4706716378228
 21
227.1513147348164
 31
0.0
  0
LINE
  5
ABE
330
F4F
100
AcDbEntity
  8
0
  6
Continuous
 62
     7
100
AcDbLine
 10
357.2184783378228
 20
208.051314734816
 30
0.0
 11
352.1006463378229
 21
227.151321734816
 31
0.0
  0
LINE
  5
ABF
330
F4F
100
AcDbEntity
  8
0
  6
Continuous
 62
     7
100
AcDbLine
 10
329.4706718378228
 20
277.9513147348166
 30
0.0
 11
352.1006413378228
 21
277.9513147348166
 31
0.0
  0
LINE
  5
AC0
330
F4F
100
AcDbEntity
  8
0
  6
Continuous
 62
     7
100
AcDbLine
 10
324.2184683378228
 20
284.551314734816
 30
0.0
 11
327.0684677378227
 21
284.551314734816
 31
0.0
  0
LINE
  5
AC1
330
F4F
100
AcDbEntity
  8
0
  6
Continuous
 62
     7
100
AcDbLine
 10
327.0684681378229
 20
284.551313734816
 30
0.0
 11
329.4706716378228
 21
277.9513147348166
 31
0.0
  0
LINE
  5
AC2
330
F4F
100
AcDbEntity
  8
0
  6
Continuous
 62
     7
100
AcDbLine
 10
364.7247933378229
 20
261.6319345348161
 30
0.0
 11
365.644171337823
 21
262.551314734816
 31
0.0
  0
LINE
  5
AC3
330
F4F
100
AcDbEntity
  8
0
  6
Continuous
 62
     7
100
AcDbLine
 10
364.7247933378229
 20
257.141802034816
 30
0.0
 11
370.134295337823
 21
262.551314734816
 31
0.0
  0
LINE
  5
AC4
330
F4F
100
AcDbEntity
  8
0
  6
Continuous
 62
     7
100
AcDbLine
 10
357.2184723378228
 20
297.0513207348162
 30
0.0
 11
352.1006413378228
 21
277.9513147348166
 31
0.0
  0
LINE
  5
AC5
330
F4F
100
AcDbEntity
  8
0
  6
Continuous
 62
     7
100
AcDbLine
 10
381.565199337823
 20
242.5513147348159
 30
0.0
 11
406.391808337823
 21
267.3779737348163
 31
0.0
  0
LINE
  5
AC6
330
F4F
100
AcDbEntity
  8
0
  6
Continuous
 62
     7
100
AcDbLine
 10
386.0553233378231
 20
242.5513147348159
 30
0.0
 11
408.6368723378226
 21
265.1329087348162
 31
0.0
  0
LINE
  5
AC7
330
F4F
100
AcDbEntity
  8
0
  6
Continuous
 62
     7
100
AcDbLine
 10
377.075076337823
 20
242.5513147348159
 30
0.0
 11
397.0750363378229
 21
262.551314734816
 31
0.0
  0
LINE
  5
AC8
330
F4F
100
AcDbEntity
  8
0
  6
Continuous
 62
     7
100
AcDbLine
 10
401.2184683378226
 20
239.7539607348161
 30
0.0
 11
417.6171273378231
 21
256.1526519348162
 31
0.0
  0
LINE
  5
AC9
330
F4F
100
AcDbEntity
  8
0
  6
Continuous
 62
     7
100
AcDbLine
 10
401.2184683378226
 20
235.2638277348164
 30
0.0
 11
419.8621903378229
 21
253.9075876348164
 31
0.0
  0
LINE
  5
ACA
330
F4F
100
AcDbEntity
  8
0
  6
Continuous
 62
     7
100
AcDbLine
 10
421.2184493378225
 20
252.551341708799
 30
0.0
 11
401.218446337823
 21
232.551338734816
 31
0.0
  0
LINE
  5
ACB
330
F4F
100
AcDbEntity
  8
0
  6
Continuous
 62
     7
100
AcDbLine
 10
399.5256933378227
 20
242.5513147348159
 30
0.0
 11
415.3720633378228
 21
258.397716234816
 31
0.0
  0
LINE
  5
ACC
330
F4F
100
AcDbEntity
  8
0
  6
Continuous
 62
     7
100
AcDbLine
 10
390.5454463378226
 20
242.5513147348159
 30
0.0
 11
410.8819363378229
 21
262.8878447348165
 31
0.0
  0
LINE
  5
ACD
330
F4F
100
AcDbEntity
  8
0
  6
Continuous
 62
     7
100
AcDbLine
 10
395.0355703378227
 20
242.5513147348159
 30
0.0
 11
413.1269993378228
 21
260.6427804348163
 31
0.0
  0
LINE
  5
ACE
330
F4F
100
AcDbEntity
  8
0
  6
Continuous
 62
     7
100
AcDbLine
 10
436.2458583378228
 20
277.9513167348163
 30
0.0
 11
436.2458583378228
 21
227.1513287348165
 31
0.0
  0
LINE
  5
ACF
330
F4F
100
AcDbEntity
  8
0
  6
Continuous
 62
     7
100
AcDbLine
 10
425.2184683378226
 20
297.051322734816
 30
0.0
 11
425.2184683378226
 21
208.051322734816
 31
0.0
  0
LINE
  5
AD0
330
F4F
100
AcDbEntity
  8
0
  6
Continuous
 62
     7
100
AcDbLine
 10
407.9684683378226
 20
208.051314734816
 30
0.0
 11
425.2184583378229
 21
208.051314734816
 31
0.0
  0
LINE
  5
AD1
330
F4F
100
AcDbEntity
  8
0
  6
Continuous
 62
     7
100
AcDbLine
 10
401.2184683378226
 20
232.551314734816
 30
0.0
 11
401.2184683378226
 21
242.5513147348159
 31
0.0
  0
LINE
  5
AD2
330
F4F
100
AcDbEntity
  8
0
  6
Continuous
 62
     7
100
AcDbLine
 10
425.2184583378229
 20
208.0513187348165
 30
0.0
 11
436.245848337823
 21
227.1513257348164
 31
0.0
  0
LINE
  5
AD3
330
F4F
100
AcDbEntity
  8
0
  6
Continuous
 62
     7
100
AcDbLine
 10
407.9684683378226
 20
297.051322734816
 30
0.0
 11
425.2184683378226
 21
297.051322734816
 31
0.0
  0
LINE
  5
AD4
330
F4F
100
AcDbEntity
  8
0
  6
Continuous
 62
     7
100
AcDbLine
 10
401.2184573378226
 20
272.5513017348161
 30
0.0
 11
421.2184593378228
 21
252.5512985504259
 31
0.0
  0
LINE
  5
AD5
330
F4F
100
AcDbEntity
  8
0
  6
Continuous
 62
     7
100
AcDbLine
 10
401.2184683378226
 20
262.551314734816
 30
0.0
 11
401.2184683378226
 21
272.551314734816
 31
0.0
  0
LINE
  5
AD6
330
F4F
100
AcDbEntity
  8
0
  6
Continuous
 62
     7
100
AcDbLine
 10
401.2184683378226
 20
271.184887734816
 30
0.0
 11
401.9016813378229
 21
271.8681017348161
 31
0.0
  0
LINE
  5
AD7
330
F4F
100
AcDbEntity
  8
0
  6
Continuous
 62
     7
100
AcDbLine
 10
401.2184683378226
 20
266.6947557348162
 30
0.0
 11
404.1467443378228
 21
269.6230377348161
 31
0.0
  0
LINE
  5
AD8
330
F4F
100
AcDbEntity
  8
0
  6
Continuous
 62
     7
100
AcDbLine
 10
425.2184683378226
 20
297.0513217348166
 30
0.0
 11
436.2458583378228
 21
277.9513147348166
 31
0.0
  0
LINE
  5
AD9
330
F4F
100
AcDbEntity
  8
0
  6
Continuous
 62
     7
100
AcDbLine
 10
390.4684683378226
 20
313.0513147348159
 30
0.0
 11
407.9684683378226
 21
313.0513147348159
 31
0.0
  0
LINE
  5
ADA
330
F4F
100
AcDbEntity
  8
0
  6
Continuous
 62
     7
100
AcDbLine
 10
458.9662648378225
 20
227.1513147348164
 30
0.0
 11
458.9662648378225
 21
277.9513147348166
 31
0.0
  0
LINE
  5
ADB
330
F4F
100
AcDbEntity
  8
0
  6
Continuous
 62
     7
100
AcDbLine
 10
464.2184683378226
 20
284.5513147348165
 30
0.0
 11
464.2184683378226
 21
220.5513147348165
 31
0.0
  0
LINE
  5
ADC
330
F4F
100
AcDbEntity
  8
0
  6
Continuous
 62
     7
100
AcDbLine
 10
464.2184683378226
 20
220.5513147348165
 30
0.0
 11
461.3684689378228
 21
220.5513147348165
 31
0.0
  0
LINE
  5
ADD
330
F4F
100
AcDbEntity
  8
0
  6
Continuous
 62
     7
100
AcDbLine
 10
461.3684685378224
 20
220.5513157348164
 30
0.0
 11
458.9662650378227
 21
227.1513147348164
 31
0.0
  0
LINE
  5
ADE
330
F4F
100
AcDbEntity
  8
0
  6
Continuous
 62
     7
100
AcDbLine
 10
464.2184683378226
 20
284.5513147348165
 30
0.0
 11
461.3684689378228
 21
284.5513147348165
 31
0.0
  0
LINE
  5
ADF
330
F4F
100
AcDbEntity
  8
0
  6
Continuous
 62
     7
100
AcDbLine
 10
461.3684685378224
 20
284.5513137348165
 30
0.0
 11
458.9662650378227
 21
277.9513147348166
 31
0.0
  0
CIRCLE
  5
AE1
330
F4F
100
AcDbEntity
  8
0
  6
Continuous
 62
     7
100
AcDbCircle
 10
592.8055211718701
 20
252.5513147348164
 30
0.0
 40
60.5
  0
CIRCLE
  5
AE2
330
F4F
100
AcDbEntity
  8
0
  6
Continuous
 62
     7
100
AcDbCircle
 10
592.8055211718701
 20
252.5513147348164
 30
0.0
 40
44.5
  0
CIRCLE
  5
AE3
330
F4F
100
AcDbEntity
  8
0
  6
Continuous
100
AcDbCircle
 10
592.8055211718701
 20
252.5513147348164
 30
0.0
 40
32.0
  0
CIRCLE
  5
AE4
330
F4F
100
AcDbEntity
  8
0
  6
Continuous
 62
     7
100
AcDbCircle
 10
592.8055211718701
 20
252.5513147348164
 30
0.0
 40
25.4
  0
LINE
  5
E4C
330
F4F
100
AcDbEntity
  8
0
  6
Continuous
 62
     7
100
AcDbLine
 10
390.4684683378226
 20
495.3858718982258
 30
0.0
 11
407.9684683378226
 21
495.3858718982258
 31
0.0
  0
LINE
  5
E4D
330
F4F
100
AcDbEntity
  8
0
  6
Continuous
 62
     7
100
AcDbLine
 10
390.4684683378226
 20
192.051314734816
 30
0.0
 11
407.9684683378226
 21
192.051314734816
 31
0.0
  0
LINE
  5
FA4
330
F4F
100
AcDbEntity
  8
0
  6
CENTER
100
AcDbLine
 10
523.2119425912727
 20
252.5513147348164
 30
0.0
 11
662.3990997524677
 21
252.5513147348164
 31
0.0
  0
LINE
  5
FA5
330
F4F
100
AcDbEntity
  8
0
  6
CENTER
100
AcDbLine
 10
300.493688121397
 20
252.5513147348164
 30
0.0
 11
482.3483107985693
 21
252.5513147348164
 31
0.0
  0
LINE
  5
FA6
330
F4F
100
AcDbEntity
  8
0
  6
CENTER
100
AcDbLine
 10
592.8055211718701
 20
322.1448933154139
 30
0.0
 11
592.8055211718701
 21
182.957736154219
 31
0.0
  0
LINE
  5
FA7
330
F4F
100
AcDbEntity
  8
0
  6
CENTER
100
AcDbLine
 10
137.7673526730862
 20
252.5513147348165
 30
0.0
 11
276.9545098342812
 21
252.5513147348164
 31
0.0
  0
LINE
  5
FA8
330
F4F
100
AcDbEntity
  8
0
  6
CENTER
100
AcDbLine
 10
207.3609312536837
 20
322.1448933154139
 30
0.0
 11
207.3609312536837
 21
182.957736154219
 31
0.0
  0
LINE
  5
FA9
330
F4F
100
AcDbEntity
  8
0
  6
CENTER
100
AcDbLine
 10
300.493688121397
 20
434.885871898226
 30
0.0
 11
482.3483107985693
 21
434.885871898226
 31
0.0
  0
ENDSEC
  0
SECTION
  2
OBJECTS
  0
DICTIONARY
  5
F3D
330
0
100
AcDbDictionary
281
     1
  3
ACAD_GROUP
350
F3E
  3
ACAD_LAYOUT
350
F4A
  3
ACAD_MLINESTYLE
350
F47
  3
ACAD_PLOTSETTINGS
350
F49
  3
ACAD_PLOTSTYLENAME
350
F3F
  3
AcDbVariableDictionary
350
F94
  0
DICTIONARY
  5
F9A
330
F33
100
AcDbDictionary
280
     1
281
     1
  3
ACAD_LAYERSTATES
360
F9B
  0
DICTIONARY
  5
F60
330
F4F
100
AcDbDictionary
280
     1
281
     1
  3
ACAD_LAYOUTSELFREF
360
F8F
  0
DICTIONARY
  5
F62
330
F4B
100
AcDbDictionary
280
     1
281
     1
  3
ACAD_LAYOUTSELFREF
360
F8E
  0
DICTIONARY
  5
F3E
102
{ACAD_REACTORS
330
F3D
102
}
330
F3D
100
AcDbDictionary
281
     1
  0
DICTIONARY
  5
F4A
102
{ACAD_REACTORS
330
F3D
102
}
330
F3D
100
AcDbDictionary
281
     1
  3
Model
350
F52
  3
ﾚｲｱｳﾄ1
350
F4E
  0
DICTIONARY
  5
F47
102
{ACAD_REACTORS
330
F3D
102
}
330
F3D
100
AcDbDictionary
281
     1
  3
Standard
350
F48
  0
DICTIONARY
  5
F49
102
{ACAD_REACTORS
330
F3D
102
}
330
F3D
100
AcDbDictionary
281
     1
  0
ACDBDICTIONARYWDFLT
  5
F3F
102
{ACAD_REACTORS
330
F3D
102
}
330
F3D
100
AcDbDictionary
281
     1
  3
Normal
350
F40
100
AcDbDictionaryWithDefault
340
F40
  0
DICTIONARY
  5
F94
102
{ACAD_REACTORS
330
F3D
102
}
330
F3D
100
AcDbDictionary
281
     1
  3
DIMASSOC
350
F95
  0
DICTIONARY
  5
F9B
102
{ACAD_REACTORS
330
F9A
102
}
330
F9A
100
AcDbDictionary
281
     1
  0
XRECORD
  5
F8F
102
{ACAD_REACTORS
330
F60
102
}
330
F60
100
AcDbXrecord
280
     1
340
F4F
  0
XRECORD
  5
F8E
102
{ACAD_REACTORS
330
F62
102
}
330
F62
100
AcDbXrecord
280
     1
340
F4B
  0
LAYOUT
  5
F52
102
{ACAD_REACTORS
330
F4A
102
}
330
F4A
100
AcDbPlotSettings
  1

  2
SII LP-2150 (D-SCAN C2)
  4

  6

 40
0.0
 41
0.0
 42
0.0
 43
0.0
 44
0.0
 45
0.0
 46
0.0
 47
0.0
 48
0.0
 49
0.0
140
0.0
141
0.0
142
1.0
143
1.0
 70
  1712
 72
     0
 73
     0
 74
     0
  7

 75
     0
147
1.0
148
0.0
149
0.0
100
AcDbLayout
  1
Model
 70
     1
 71
     0
 10
0.0
 20
0.0
 11
12.0
 21
9.0
 12
0.0
 22
0.0
 32
0.0
 14
0.0
 24
0.0
 34
0.0
 15
0.0
 25
0.0
 35
0.0
146
0.0
 13
0.0
 23
0.0
 33
0.0
 16
1.0
 26
0.0
 36
0.0
 17
0.0
 27
1.0
 37
0.0
 76
     0
330
F4F
  0
LAYOUT
  5
F4E
102
{ACAD_REACTORS
330
F4A
102
}
330
F4A
100
AcDbPlotSettings
  1

  2
SII LP-2150 (D-SCAN C2)
  4

  6

 40
0.0
 41
0.0
 42
0.0
 43
0.0
 44
0.0
 45
0.0
 46
0.0
 47
0.0
 48
0.0
 49
0.0
140
0.0
141
0.0
142
1.0
143
1.0
 70
   688
 72
     0
 73
     0
 74
     5
  7

 75
    16
147
1.0
148
0.0
149
0.0
100
AcDbLayout
  1
ﾚｲｱｳﾄ1
 70
     1
 71
     1
 10
-44.912933
 20
-21.841471
 11
153.5627299999999
 21
105.04179
 12
0.0
 22
0.0
 32
0.0
 14
-44.912933
 24
-21.841471
 34
0.0
 15
153.5627299999999
 25
105.04179
 35
0.0
146
0.0
 13
0.0
 23
0.0
 33
0.0
 16
1.0
 26
0.0
 36
0.0
 17
0.0
 27
1.0
 37
0.0
 76
     0
330
F4B
  0
MLINESTYLE
  5
F48
102
{ACAD_REACTORS
330
F47
102
}
330
F47
100
AcDbMlineStyle
  2
STANDARD
 70
     0
  3

 62
   256
 51
90.0
 52
90.0
 71
     2
 49
0.5
 62
   256
  6
BYLAYER
 49
-0.5
 62
   256
  6
BYLAYER
  0
ACDBPLACEHOLDER
  5
F40
102
{ACAD_REACTORS
330
F3F
102
}
330
F3F
  0
DICTIONARYVAR
  5
F95
102
{ACAD_REACTORS
330
F94
102
}
330
F94
100
DictionaryVariables
280
     0
  1
1
  0
ENDSEC
  0
EOF
