  0
SECTION
  2
HEADER
  9
$ACADVER
  1
AC1015
  9
$ACADMAINTVER
 70
    14
  9
$DWGCODEPAGE
  3
ANSI_932
  9
$INSBASE
 10
0.0
 20
0.0
 30
0.0
  9
$EXTMIN
 10
188.572684312199
 20
116.9091750530471
 30
-0.0000000000112498
  9
$EXTMAX
 10
637.4673405142898
 20
533.8479510857239
 30
0.0000000000002956
  9
$LIMMIN
 10
-44.912933
 20
-21.841471
  9
$LIMMAX
 10
153.5627299999999
 20
105.04179
  9
$ORTHOMODE
 70
     0
  9
$REGENMODE
 70
     1
  9
$FILLMODE
 70
     1
  9
$QTEXTMODE
 70
     0
  9
$MIRRTEXT
 70
     1
  9
$LTSCALE
 40
1.0
  9
$ATTMODE
 70
     1
  9
$TEXTSIZE
 40
0.2
  9
$TRACEWID
 40
0.05
  9
$TEXTSTYLE
  7
STANDARD
  9
$CLAYER
  8
0
  9
$CELTYPE
  6
CONTINUOUS
  9
$CECOLOR
 62
   256
  9
$CELTSCALE
 40
1.0
  9
$DISPSILH
 70
     0
  9
$DIMSCALE
 40
1.0
  9
$DIMASZ
 40
15.0
  9
$DIMEXO
 40
5.0
  9
$DIMDLI
 40
10.0
  9
$DIMRND
 40
0.0
  9
$DIMDLE
 40
0.0
  9
$DIMEXE
 40
10.0
  9
$DIMTP
 40
0.0
  9
$DIMTM
 40
0.0
  9
$DIMTXT
 40
20.0
  9
$DIMCEN
 40
0.09
  9
$DIMTSZ
 40
0.0
  9
$DIMTOL
 70
     0
  9
$DIMLIM
 70
     0
  9
$DIMTIH
 70
     0
  9
$DIMTOH
 70
     1
  9
$DIMSE1
 70
     0
  9
$DIMSE2
 70
     0
  9
$DIMTAD
 70
     1
  9
$DIMZIN
 70
     8
  9
$DIMBLK
  1

  9
$DIMASO
 70
     1
  9
$DIMSHO
 70
     0
  9
$DIMPOST
  1

  9
$DIMAPOST
  1

  9
$DIMALT
 70
     0
  9
$DIMALTD
 70
     2
  9
$DIMALTF
 40
25.4
  9
$DIMLFAC
 40
1.0
  9
$DIMTOFL
 70
     0
  9
$DIMTVP
 40
0.0
  9
$DIMTIX
 70
     0
  9
$DIMSOXD
 70
     0
  9
$DIMSAH
 70
     0
  9
$DIMBLK1
  1

  9
$DIMBLK2
  1

  9
$DIMSTYLE
  2
STANDARD
  9
$DIMCLRD
 70
     0
  9
$DIMCLRE
 70
     0
  9
$DIMCLRT
 70
     0
  9
$DIMTFAC
 40
1.0
  9
$DIMGAP
 40
5.0
  9
$DIMJUST
 70
     0
  9
$DIMSD1
 70
     0
  9
$DIMSD2
 70
     0
  9
$DIMTOLJ
 70
     1
  9
$DIMTZIN
 70
     0
  9
$DIMALTZ
 70
     0
  9
$DIMALTTZ
 70
     0
  9
$DIMUPT
 70
     0
  9
$DIMDEC
 70
     4
  9
$DIMTDEC
 70
     4
  9
$DIMALTU
 70
     2
  9
$DIMALTTD
 70
     2
  9
$DIMTXSTY
  7
STANDARD
  9
$DIMAUNIT
 70
     0
  9
$DIMADEC
 70
     0
  9
$DIMALTRND
 40
0.0
  9
$DIMAZIN
 70
     0
  9
$DIMDSEP
 70
    46
  9
$DIMATFIT
 70
     3
  9
$DIMFRAC
 70
     0
  9
$DIMLDRBLK
  1

  9
$DIMLUNIT
 70
     2
  9
$DIMLWD
 70
    -2
  9
$DIMLWE
 70
    -2
  9
$DIMTMOVE
 70
     0
  9
$LUNITS
 70
     2
  9
$LUPREC
 70
     4
  9
$SKETCHINC
 40
0.1
  9
$FILLETRAD
 40
0.0
  9
$AUNITS
 70
     0
  9
$AUPREC
 70
     0
  9
$MENU
  1
.
  9
$ELEVATION
 40
0.0
  9
$PELEVATION
 40
0.0
  9
$THICKNESS
 40
0.0
  9
$LIMCHECK
 70
     0
  9
$CHAMFERA
 40
0.0
  9
$CHAMFERB
 40
0.0
  9
$CHAMFERC
 40
0.0
  9
$CHAMFERD
 40
0.0
  9
$SKPOLY
 70
     0
  9
$TDCREATE
 40
2452488.423177615
  9
$TDUCREATE
 40
2452488.048177615
  9
$TDUPDATE
 40
2456899.667788692
  9
$TDUUPDATE
 40
2456899.292788692
  9
$TDINDWG
 40
0.0589044907
  9
$TDUSRTIMER
 40
0.0589044907
  9
$USRTIMER
 70
     1
  9
$ANGBASE
 50
0.0
  9
$ANGDIR
 70
     0
  9
$PDMODE
 70
     3
  9
$PDSIZE
 40
0.0
  9
$PLINEWID
 40
0.0
  9
$SPLFRAME
 70
     0
  9
$SPLINETYPE
 70
     6
  9
$SPLINESEGS
 70
     8
  9
$HANDSEED
  5
FFA
  9
$SURFTAB1
 70
     6
  9
$SURFTAB2
 70
     6
  9
$SURFTYPE
 70
     6
  9
$SURFU
 70
     6
  9
$SURFV
 70
     6
  9
$UCSBASE
  2

  9
$UCSNAME
  2

  9
$UCSORG
 10
0.0
 20
0.0
 30
0.0
  9
$UCSXDIR
 10
1.0
 20
0.0
 30
0.0
  9
$UCSYDIR
 10
0.0
 20
1.0
 30
0.0
  9
$UCSORTHOREF
  2

  9
$UCSORTHOVIEW
 70
     0
  9
$UCSORGTOP
 10
0.0
 20
0.0
 30
0.0
  9
$UCSORGBOTTOM
 10
0.0
 20
0.0
 30
0.0
  9
$UCSORGLEFT
 10
0.0
 20
0.0
 30
0.0
  9
$UCSORGRIGHT
 10
0.0
 20
0.0
 30
0.0
  9
$UCSORGFRONT
 10
0.0
 20
0.0
 30
0.0
  9
$UCSORGBACK
 10
0.0
 20
0.0
 30
0.0
  9
$PUCSBASE
  2

  9
$PUCSNAME
  2

  9
$PUCSORG
 10
0.0
 20
0.0
 30
0.0
  9
$PUCSXDIR
 10
1.0
 20
0.0
 30
0.0
  9
$PUCSYDIR
 10
0.0
 20
1.0
 30
0.0
  9
$PUCSORTHOREF
  2

  9
$PUCSORTHOVIEW
 70
     0
  9
$PUCSORGTOP
 10
0.0
 20
0.0
 30
0.0
  9
$PUCSORGBOTTOM
 10
0.0
 20
0.0
 30
0.0
  9
$PUCSORGLEFT
 10
0.0
 20
0.0
 30
0.0
  9
$PUCSORGRIGHT
 10
0.0
 20
0.0
 30
0.0
  9
$PUCSORGFRONT
 10
0.0
 20
0.0
 30
0.0
  9
$PUCSORGBACK
 10
0.0
 20
0.0
 30
0.0
  9
$USERI1
 70
     0
  9
$USERI2
 70
     0
  9
$USERI3
 70
     0
  9
$USERI4
 70
     0
  9
$USERI5
 70
     0
  9
$USERR1
 40
0.0
  9
$USERR2
 40
0.0
  9
$USERR3
 40
0.0
  9
$USERR4
 40
0.0
  9
$USERR5
 40
0.0
  9
$WORLDVIEW
 70
     1
  9
$SHADEDGE
 70
     3
  9
$SHADEDIF
 70
    70
  9
$TILEMODE
 70
     1
  9
$MAXACTVP
 70
    48
  9
$PINSBASE
 10
0.0
 20
0.0
 30
0.0
  9
$PLIMCHECK
 70
     0
  9
$PEXTMIN
 10
-44.912933
 20
-21.841471
 30
0.0
  9
$PEXTMAX
 10
153.5627299999999
 20
105.04179
 30
0.0
  9
$PLIMMIN
 10
-44.912933
 20
-21.841471
  9
$PLIMMAX
 10
153.5627299999999
 20
105.04179
  9
$UNITMODE
 70
     0
  9
$VISRETAIN
 70
     1
  9
$PLINEGEN
 70
     0
  9
$PSLTSCALE
 70
     1
  9
$TREEDEPTH
 70
  3020
  9
$CMLSTYLE
  2
Standard
  9
$CMLJUST
 70
     0
  9
$CMLSCALE
 40
1.0
  9
$PROXYGRAPHICS
 70
     1
  9
$MEASUREMENT
 70
     0
  9
$CELWEIGHT
370
    -1
  9
$ENDCAPS
280
     0
  9
$JOINSTYLE
280
     0
  9
$LWDISPLAY
290
     0
  9
$INSUNITS
 70
     0
  9
$HYPERLINKBASE
  1

  9
$STYLESHEET
  1

  9
$XEDIT
290
     1
  9
$CEPSNTYPE
380
     0
  9
$PSTYLEMODE
290
     1
  9
$FINGERPRINTGUID
  2
{B138EAB9-0B77-4753-97BC-47825DBE2618}
  9
$VERSIONGUID
  2
{9AA63B7D-B98B-43EE-8654-10BE2258C798}
  9
$EXTNAMES
290
     1
  9
$PSVPSCALE
 40
0.0
  9
$OLESTARTUP
290
     0
  0
ENDSEC
  0
SECTION
  2
CLASSES
  0
CLASS
  1
ACDBDICTIONARYWDFLT
  2
AcDbDictionaryWithDefault
  3
AutoCAD 2000
 90
        0
280
     0
281
     0
  0
CLASS
  1
ACDBPLACEHOLDER
  2
AcDbPlaceHolder
  3
AutoCAD 2000
 90
        0
280
     0
281
     0
  0
CLASS
  1
LAYOUT
  2
AcDbLayout
  3
AutoCAD 2000
 90
        0
280
     0
281
     0
  0
CLASS
  1
DICTIONARYVAR
  2
AcDbDictionaryVar
  3
AutoCAD 2000
 90
        0
280
     0
281
     0
  0
CLASS
  1
LONG_TRANSACTION
  2
AcDbLongTransaction
  3
AutoCAD 2000
 90
    32768
280
     0
281
     0
  0
CLASS
  1
LWPOLYLINE
  2
AcDbPolyline
  3
AutoCAD 2000
 90
    32768
280
     0
281
     1
  0
CLASS
  1
HATCH
  2
AcDbHatch
  3
AutoCAD 2000
 90
    32768
280
     0
281
     1
  0
CLASS
  1
XRECORD
  2
AcDbXrecord
  3
AutoCAD 2000
 90
    32768
280
     0
281
     0
  0
ENDSEC
  0
SECTION
  2
TABLES
  0
TABLE
  2
VPORT
  5
F7F
330
0
100
AcDbSymbolTable
 70
     2
  0
VPORT
  5
FF9
330
F7F
100
AcDbSymbolTableRecord
100
AcDbViewportTableRecord
  2
*Active
 70
     0
 10
0.0
 20
0.0
 11
1.0
 21
1.0
 12
413.0200124132445
 22
325.3785630693855
 13
0.0
 23
0.0
 14
1.0
 24
1.0
 15
0.0
 25
0.0
 16
0.0
 26
0.0
 36
1.0
 17
0.0
 27
0.0
 37
0.0
 40
419.5860063566938
 41
1.592161016949152
 42
50.0
 43
0.0
 44
0.0
 50
0.0
 51
0.0
 71
     0
 72
   100
 73
     1
 74
     3
 75
     0
 76
     0
 77
     0
 78
     0
281
     0
 65
     1
110
0.0
120
0.0
130
0.0
111
1.0
121
0.0
131
0.0
112
0.0
122
1.0
132
0.0
 79
     0
146
0.0
  0
ENDTAB
  0
TABLE
  2
LTYPE
  5
F7C
330
0
100
AcDbSymbolTable
 70
     2
  0
LTYPE
  5
F8A
330
F7C
100
AcDbSymbolTableRecord
100
AcDbLinetypeTableRecord
  2
ByBlock
 70
     0
  3

 72
    65
 73
     0
 40
0.0
  0
LTYPE
  5
F8B
330
F7C
100
AcDbSymbolTableRecord
100
AcDbLinetypeTableRecord
  2
ByLayer
 70
     0
  3

 72
    65
 73
     0
 40
0.0
  0
LTYPE
  5
F8C
330
F7C
100
AcDbSymbolTableRecord
100
AcDbLinetypeTableRecord
  2
CONTINUOUS
 70
     0
  3
Solid line
 72
    65
 73
     0
 40
0.0
  0
LTYPE
  5
FDF
330
F7C
100
AcDbSymbolTableRecord
100
AcDbLinetypeTableRecord
  2
CENTER
 70
     0
  3
__ . __
 72
    65
 73
     4
 40
7.0
 49
4.0
 74
     0
 49
-1.0
 74
     0
 49
1.0
 74
     0
 49
-1.0
 74
     0
  0
ENDTAB
  0
TABLE
  2
LAYER
  5
F79
102
{ACAD_XDICTIONARY
360
FE0
102
}
330
0
100
AcDbSymbolTable
 70
     1
  0
LAYER
  5
F87
330
F79
100
AcDbSymbolTableRecord
100
AcDbLayerTableRecord
  2
0
 70
     0
 62
     7
  6
CONTINUOUS
370
    -3
390
F86
  0
ENDTAB
  0
TABLE
  2
STYLE
  5
F7A
330
0
100
AcDbSymbolTable
 70
     1
  0
STYLE
  5
F88
330
F7A
100
AcDbSymbolTableRecord
100
AcDbTextStyleTableRecord
  2
STANDARD
 70
     0
 40
0.0
 41
1.0
 50
0.0
 71
     0
 42
0.2
  3
txt
  4

  0
ENDTAB
  0
TABLE
  2
VIEW
  5
F7D
330
0
100
AcDbSymbolTable
 70
     0
  0
ENDTAB
  0
TABLE
  2
UCS
  5
F7E
330
0
100
AcDbSymbolTable
 70
     0
  0
ENDTAB
  0
TABLE
  2
APPID
  5
F80
330
0
100
AcDbSymbolTable
 70
     4
  0
APPID
  5
F89
330
F80
100
AcDbSymbolTableRecord
100
AcDbRegAppTableRecord
  2
ACAD
 70
     0
  0
APPID
  5
F9B
330
F80
100
AcDbSymbolTableRecord
100
AcDbRegAppTableRecord
  2
MCAD_NO_VIS
 70
     0
  0
APPID
  5
F9C
330
F80
100
AcDbSymbolTableRecord
100
AcDbRegAppTableRecord
  2
ACAD_TEMP_GRAPHIC
 70
     0
  0
APPID
  5
F9D
330
F80
100
AcDbSymbolTableRecord
100
AcDbRegAppTableRecord
  2
ACATTRIBSERVICES
 70
     0
  0
ENDTAB
  0
TABLE
  2
DIMSTYLE
  5
F81
330
0
100
AcDbSymbolTable
 70
     1
100
AcDbDimStyleTable
 71
     0
  0
DIMSTYLE
105
F9E
330
F81
100
AcDbSymbolTableRecord
100
AcDbDimStyleTableRecord
  2
STANDARD
 70
     0
 41
15.0
 42
5.0
 43
10.0
 44
10.0
 73
     0
 77
     1
 78
     8
140
20.0
147
5.0
279
     2
284
     8
285
     8
286
     8
340
F88
  0
ENDTAB
  0
TABLE
  2
BLOCK_RECORD
  5
F78
330
0
100
AcDbSymbolTable
 70
     0
  0
BLOCK_RECORD
  5
F95
102
{ACAD_XDICTIONARY
360
FA6
102
}
330
F78
100
AcDbSymbolTableRecord
100
AcDbBlockTableRecord
  2
*Model_Space
340
F98
  0
BLOCK_RECORD
  5
F91
102
{ACAD_XDICTIONARY
360
FA8
102
}
330
F78
100
AcDbSymbolTableRecord
100
AcDbBlockTableRecord
  2
*Paper_Space
340
F94
  0
ENDTAB
  0
ENDSEC
  0
SECTION
  2
BLOCKS
  0
BLOCK
  5
F96
330
F95
100
AcDbEntity
  8
0
100
AcDbBlockBegin
  2
*Model_Space
 70
     0
 10
0.0
 20
0.0
 30
0.0
  3
*Model_Space
  1

  0
ENDBLK
  5
F97
330
F95
100
AcDbEntity
  8
0
100
AcDbBlockEnd
  0
BLOCK
  5
F92
330
F91
100
AcDbEntity
 67
     1
  8
0
100
AcDbBlockBegin
  2
*Paper_Space
 70
     0
 10
0.0
 20
0.0
 30
0.0
  3
*Paper_Space
  1

  0
ENDBLK
  5
F93
330
F91
100
AcDbEntity
 67
     1
  8
0
100
AcDbBlockEnd
  0
ENDSEC
  0
SECTION
  2
ENTITIES
  0
TEXT
  5
581
330
F95
100
AcDbEntity
  8
0
  6
Continuous
 62
     7
100
AcDbText
 10
188.6025061789823
 20
485.8394672210952
 30
0.0
 40
48.000002
  1
CVCS 1S
 41
1.40267
100
AcDbText
  0
LINE
  5
5D4
330
F95
100
AcDbEntity
  8
0
  6
Continuous
 62
     7
100
AcDbLine
 10
384.5632026822139
 20
189.643671544487
 30
0.0
 11
414.3132006822139
 21
189.643671544487
 31
0.0
  0
LINE
  5
5D5
330
F95
100
AcDbEntity
  8
0
  6
Continuous
 62
     7
100
AcDbLine
 10
384.5632006822139
 20
141.643671544487
 30
0.0
 11
414.3132006822139
 21
141.643671544487
 31
0.0
  0
LINE
  5
5D6
330
F95
100
AcDbEntity
  8
0
  6
Continuous
 62
     7
100
AcDbLine
 10
442.5632006822139
 20
189.643671544487
 30
0.0
 11
442.5632006822139
 21
141.643673544487
 31
0.0
  0
LINE
  5
5D7
330
F95
100
AcDbEntity
  8
0
  6
Continuous
 62
     7
100
AcDbLine
 10
442.5632036822139
 20
189.6436725444871
 30
0.0
 11
449.0872576822139
 21
178.3436785444869
 31
0.0
  0
LINE
  5
5DA
330
F95
100
AcDbEntity
  8
0
  6
Continuous
 62
     7
100
AcDbLine
 10
442.5631966822139
 20
141.643673544487
 30
0.0
 11
449.087253682214
 21
152.943671544487
 31
0.0
  0
LINE
  5
5DB
330
F95
100
AcDbEntity
  8
0
  6
Continuous
 62
     7
100
AcDbLine
 10
384.5632006822139
 20
189.643671544487
 30
0.0
 11
384.5632006822139
 21
141.643671544487
 31
0.0
  0
LINE
  5
5DC
330
F95
100
AcDbEntity
  8
0
  6
Continuous
 62
     7
100
AcDbLine
 10
384.5632036822139
 20
189.643671544487
 30
0.0
 11
381.5353776822138
 21
178.3436725444869
 31
0.0
  0
LINE
  5
5DF
330
F95
100
AcDbEntity
  8
0
  6
Continuous
 62
     7
100
AcDbLine
 10
384.5632016822139
 20
141.643671544487
 30
0.0
 11
381.5353756822139
 21
152.9436705444871
 31
0.0
  0
LINE
  5
5E0
330
F95
100
AcDbEntity
  8
0
  6
Continuous
 62
     7
100
AcDbLine
 10
428.8132006822139
 20
189.643671544487
 30
0.0
 11
442.5632006822139
 21
189.643671544487
 31
0.0
  0
LINE
  5
5E1
330
F95
100
AcDbEntity
  8
0
  6
Continuous
 62
     7
100
AcDbLine
 10
428.8132006822139
 20
141.643671544487
 30
0.0
 11
442.5632006822139
 21
141.643671544487
 31
0.0
  0
LINE
  5
5E4
330
F95
100
AcDbEntity
  8
0
  6
Continuous
 62
     7
100
AcDbLine
 10
449.0872556822139
 20
178.3436765444869
 30
0.0
 11
449.0872556822139
 21
152.9436705444871
 31
0.0
  0
LINE
  5
5E5
330
F95
100
AcDbEntity
  8
0
  6
Continuous
 62
     7
100
AcDbLine
 10
381.5353766822139
 20
178.3436725444869
 30
0.0
 11
381.5353766822139
 21
152.9436705444871
 31
0.0
  0
LINE
  5
5E6
330
F95
100
AcDbEntity
  8
0
  6
Continuous
 62
     7
100
AcDbLine
 10
414.3132006822139
 20
127.643671544487
 30
0.0
 11
414.3132006822139
 21
203.643671544487
 31
0.0
  0
LINE
  5
5E7
330
F95
100
AcDbEntity
  8
0
  6
Continuous
 62
     7
100
AcDbLine
 10
428.8132006822139
 20
127.643671544487
 30
0.0
 11
428.8132006822139
 21
203.643671544487
 31
0.0
  0
LINE
  5
5E8
330
F95
100
AcDbEntity
  8
0
  6
Continuous
 62
     7
100
AcDbLine
 10
414.3132006822139
 20
203.643671544487
 30
0.0
 11
428.8132006822139
 21
203.643671544487
 31
0.0
  0
LINE
  5
5E9
330
F95
100
AcDbEntity
  8
0
  6
Continuous
 62
     7
100
AcDbLine
 10
414.3132006822139
 20
127.643671544487
 30
0.0
 11
428.8132006822139
 21
127.643671544487
 31
0.0
  0
LINE
  5
5EA
330
F95
100
AcDbEntity
  8
0
  6
Continuous
 62
     7
100
AcDbLine
 10
416.5632006822139
 20
175.643671544487
 30
0.0
 11
380.0695256822139
 21
175.643671544487
 31
0.0
  0
LINE
  5
5EB
330
F95
100
AcDbEntity
  8
0
  6
Continuous
 62
     7
100
AcDbLine
 10
380.0695256822139
 20
155.643671544487
 30
0.0
 11
380.0695256822139
 21
175.643671544487
 31
0.0
  0
LINE
  5
5EC
330
F95
100
AcDbEntity
  8
0
  6
Continuous
 62
     7
100
AcDbLine
 10
416.5632006822139
 20
185.6436665444869
 30
0.0
 11
436.5632006822139
 21
165.6436661496905
 31
0.0
  0
LINE
  5
5ED
330
F95
100
AcDbEntity
  8
0
  6
Continuous
 62
     7
100
AcDbLine
 10
416.5632006822139
 20
175.643671544487
 30
0.0
 11
416.5632006822139
 21
185.643671544487
 31
0.0
  0
LINE
  5
5EE
330
F95
100
AcDbEntity
  8
0
  6
Continuous
 62
     7
100
AcDbLine
 10
436.5632006822139
 20
165.6436769392835
 30
0.0
 11
416.5632006822139
 21
145.6436765444871
 31
0.0
  0
LINE
  5
5EF
330
F95
100
AcDbEntity
  8
0
  6
Continuous
 62
     7
100
AcDbLine
 10
416.5632006822139
 20
145.643671544487
 30
0.0
 11
416.5632006822139
 21
155.643671544487
 31
0.0
  0
LINE
  5
5F0
330
F95
100
AcDbEntity
  8
0
  6
Continuous
 62
     7
100
AcDbLine
 10
416.5632006822139
 20
155.643671544487
 30
0.0
 11
380.0695256822139
 21
155.643671544487
 31
0.0
  0
LINE
  5
832
330
F95
100
AcDbEntity
  8
0
  6
Continuous
 62
     7
100
AcDbLine
 10
471.5632006822139
 20
140.393671544487
 30
0.0
 11
468.7132007822139
 21
140.393671544487
 31
0.0
  0
LINE
  5
833
330
F95
100
AcDbEntity
  8
0
  6
Continuous
 62
     7
100
AcDbLine
 10
468.7132009822139
 20
140.393671544487
 30
0.0
 11
464.1453741822139
 21
152.943671544487
 31
0.0
  0
LINE
  5
834
330
F95
100
AcDbEntity
  8
0
  6
Continuous
 62
     7
100
AcDbLine
 10
464.1453739822139
 20
152.943671544487
 30
0.0
 11
449.0872556822139
 21
152.943671544487
 31
0.0
  0
LINE
  5
835
330
F95
100
AcDbEntity
  8
0
  6
Continuous
 62
     7
100
AcDbLine
 10
471.5632006822139
 20
190.893671544487
 30
0.0
 11
471.5632006822139
 21
140.393671544487
 31
0.0
  0
LINE
  5
836
330
F95
100
AcDbEntity
  8
0
  6
Continuous
 62
     7
100
AcDbLine
 10
464.1453739822139
 20
178.343671544487
 30
0.0
 11
449.0872556822139
 21
178.343671544487
 31
0.0
  0
LINE
  5
837
330
F95
100
AcDbEntity
  8
0
  6
Continuous
 62
     7
100
AcDbLine
 10
468.7132009822139
 20
190.893671544487
 30
0.0
 11
464.1453741822139
 21
178.343671544487
 31
0.0
  0
LINE
  5
838
330
F95
100
AcDbEntity
  8
0
  6
Continuous
 62
     7
100
AcDbLine
 10
471.5632006822139
 20
190.893671544487
 30
0.0
 11
468.7132007822139
 21
190.893671544487
 31
0.0
  0
LINE
  5
83A
330
F95
100
AcDbEntity
  8
0
  6
Continuous
 62
     7
100
AcDbLine
 10
464.1453739822139
 20
152.943671544487
 30
0.0
 11
464.1453739822139
 21
178.343671544487
 31
0.0
  0
LINE
  5
8AE
330
F95
100
AcDbEntity
  8
0
  6
Continuous
 62
     7
100
AcDbLine
 10
356.5632006822139
 20
190.893671544487
 30
0.0
 11
359.4132005822139
 21
190.893671544487
 31
0.0
  0
LINE
  5
8AF
330
F95
100
AcDbEntity
  8
0
  6
Continuous
 62
     7
100
AcDbLine
 10
359.4132003822139
 20
190.893671544487
 30
0.0
 11
363.9810271822138
 21
178.343671544487
 31
0.0
  0
LINE
  5
8B0
330
F95
100
AcDbEntity
  8
0
  6
Continuous
 62
     7
100
AcDbLine
 10
363.9810273822138
 20
178.343671544487
 30
0.0
 11
381.5353766822139
 21
178.343671544487
 31
0.0
  0
LINE
  5
8B1
330
F95
100
AcDbEntity
  8
0
  6
Continuous
 62
     7
100
AcDbLine
 10
356.5632006822139
 20
140.393671544487
 30
0.0
 11
356.5632006822139
 21
190.893671544487
 31
0.0
  0
LINE
  5
8B2
330
F95
100
AcDbEntity
  8
0
  6
Continuous
 62
     7
100
AcDbLine
 10
363.9810273822138
 20
152.943671544487
 30
0.0
 11
381.5353766822139
 21
152.943671544487
 31
0.0
  0
LINE
  5
8B3
330
F95
100
AcDbEntity
  8
0
  6
Continuous
 62
     7
100
AcDbLine
 10
359.4132003822139
 20
140.393671544487
 30
0.0
 11
363.9810271822138
 21
152.943671544487
 31
0.0
  0
LINE
  5
8B4
330
F95
100
AcDbEntity
  8
0
  6
Continuous
 62
     7
100
AcDbLine
 10
356.5632006822139
 20
140.393671544487
 30
0.0
 11
359.4132005822139
 21
140.393671544487
 31
0.0
  0
LINE
  5
8B6
330
F95
100
AcDbEntity
  8
0
  6
Continuous
 62
     7
100
AcDbLine
 10
363.9810273822138
 20
178.343671544487
 30
0.0
 11
363.9810273822138
 21
152.943671544487
 31
0.0
  0
LINE
  5
8E3
330
F95
100
AcDbEntity
  8
0
  6
Continuous
 62
     7
100
AcDbLine
 10
416.5632006822139
 20
149.3166805444871
 30
0.0
 11
434.7266756822139
 21
167.4801919444869
 31
0.0
  0
LINE
  5
8E4
330
F95
100
AcDbEntity
  8
0
  6
Continuous
 62
     7
100
AcDbLine
 10
416.5632006822139
 20
153.8068135444871
 30
0.0
 11
432.4816116822139
 21
169.7252562444869
 31
0.0
  0
LINE
  5
8E5
330
F95
100
AcDbEntity
  8
0
  6
Continuous
 62
     7
100
AcDbLine
 10
413.9099316822139
 20
155.643671544487
 30
0.0
 11
430.2365486822138
 21
171.9703205444871
 31
0.0
  0
LINE
  5
8E6
330
F95
100
AcDbEntity
  8
0
  6
Continuous
 62
     7
100
AcDbLine
 10
409.4198086822139
 20
155.643671544487
 30
0.0
 11
427.991484682214
 21
174.2153848444871
 31
0.0
  0
LINE
  5
8E7
330
F95
100
AcDbEntity
  8
0
  6
Continuous
 62
     7
100
AcDbLine
 10
404.9296846822139
 20
155.643671544487
 30
0.0
 11
425.7464206822139
 21
176.4604495444869
 31
0.0
  0
LINE
  5
8E8
330
F95
100
AcDbEntity
  8
0
  6
Continuous
 62
     7
100
AcDbLine
 10
400.4395616822137
 20
155.643671544487
 30
0.0
 11
423.5013566822138
 21
178.7055135444871
 31
0.0
  0
LINE
  5
8E9
330
F95
100
AcDbEntity
  8
0
  6
Continuous
 62
     7
100
AcDbLine
 10
395.9494376822139
 20
155.643671544487
 30
0.0
 11
415.9493976822138
 21
175.643671544487
 31
0.0
  0
LINE
  5
8EA
330
F95
100
AcDbEntity
  8
0
  6
Continuous
 62
     7
100
AcDbLine
 10
416.5632006822139
 20
176.2574755444871
 30
0.0
 11
421.256293682214
 21
180.950577544487
 31
0.0
  0
LINE
  5
8EB
330
F95
100
AcDbEntity
  8
0
  6
Continuous
 62
     7
100
AcDbLine
 10
391.4593146822139
 20
155.643671544487
 30
0.0
 11
411.4592746822139
 21
175.643671544487
 31
0.0
  0
LINE
  5
8EC
330
F95
100
AcDbEntity
  8
0
  6
Continuous
 62
     7
100
AcDbLine
 10
416.5632006822139
 20
180.7476085444871
 30
0.0
 11
419.011229682214
 21
183.195641544487
 31
0.0
  0
LINE
  5
8ED
330
F95
100
AcDbEntity
  8
0
  6
Continuous
 62
     7
100
AcDbLine
 10
386.969190682214
 20
155.643671544487
 30
0.0
 11
406.9691506822139
 21
175.643671544487
 31
0.0
  0
LINE
  5
8EE
330
F95
100
AcDbEntity
  8
0
  6
Continuous
 62
     7
100
AcDbLine
 10
416.5632006822139
 20
185.237740544487
 30
0.0
 11
416.7661656822139
 21
185.4407065444871
 31
0.0
  0
LINE
  5
8EF
330
F95
100
AcDbEntity
  8
0
  6
Continuous
 62
     7
100
AcDbLine
 10
382.4790676822139
 20
155.643671544487
 30
0.0
 11
402.4790276822137
 21
175.643671544487
 31
0.0
  0
LINE
  5
8F0
330
F95
100
AcDbEntity
  8
0
  6
Continuous
 62
     7
100
AcDbLine
 10
380.0695256822139
 20
157.7242573444871
 30
0.0
 11
397.9889036822139
 21
175.643671544487
 31
0.0
  0
LINE
  5
8F1
330
F95
100
AcDbEntity
  8
0
  6
Continuous
 62
     7
100
AcDbLine
 10
380.0695256822139
 20
162.214389844487
 30
0.0
 11
393.4987806822139
 21
175.643671544487
 31
0.0
  0
LINE
  5
8F2
330
F95
100
AcDbEntity
  8
0
  6
Continuous
 62
     7
100
AcDbLine
 10
380.0695256822139
 20
166.704522344487
 30
0.0
 11
389.0086566822138
 21
175.643671544487
 31
0.0
  0
LINE
  5
8F3
330
F95
100
AcDbEntity
  8
0
  6
Continuous
 62
     7
100
AcDbLine
 10
380.0695256822139
 20
171.194654744487
 30
0.0
 11
384.5185336822139
 21
175.643671544487
 31
0.0
  0
CIRCLE
  5
94E
330
F95
100
AcDbEntity
  8
0
  6
Continuous
 62
     7
100
AcDbCircle
 10
263.9700006822138
 20
165.643671544487
 30
0.0
 40
12.700001
  0
CIRCLE
  5
94F
330
F95
100
AcDbEntity
  8
0
  6
Continuous
 62
     7
100
AcDbCircle
 10
263.9700006822138
 20
165.643671544487
 30
0.0
 40
38.0
  0
CIRCLE
  5
952
330
F95
100
AcDbEntity
  8
0
  6
Continuous
100
AcDbCircle
 10
263.9700006822138
 20
165.643671544487
 30
0.0
 40
25.25
  0
LINE
  5
958
330
F95
100
AcDbEntity
  8
0
  6
Continuous
 62
     7
100
AcDbLine
 10
471.5632006822139
 20
314.9434691490882
 30
0.0
 11
471.5632006822139
 21
264.4434691490884
 31
0.0
  0
LINE
  5
959
330
F95
100
AcDbEntity
  8
0
  6
Continuous
 62
     7
100
AcDbLine
 10
416.5632006822139
 20
277.8566111490884
 30
0.0
 11
432.4816116822139
 21
293.7750538490881
 31
0.0
  0
LINE
  5
95A
330
F95
100
AcDbEntity
  8
0
  6
Continuous
 62
     7
100
AcDbLine
 10
413.9099316822139
 20
279.6934691490883
 30
0.0
 11
430.2365486822138
 21
296.0201181490885
 31
0.0
  0
LINE
  5
95B
330
F95
100
AcDbEntity
  8
0
  6
Continuous
 62
     7
100
AcDbLine
 10
416.5632006822139
 20
309.6934641490883
 30
0.0
 11
436.5632006822139
 21
289.6934637542918
 31
0.0
  0
LINE
  5
95C
330
F95
100
AcDbEntity
  8
0
  6
Continuous
 62
     7
100
AcDbLine
 10
409.4198086822139
 20
279.6934691490883
 30
0.0
 11
427.991484682214
 21
298.2651824490883
 31
0.0
  0
LINE
  5
95D
330
F95
100
AcDbEntity
  8
0
  6
Continuous
 62
     7
100
AcDbLine
 10
404.9296846822139
 20
279.6934691490883
 30
0.0
 11
425.7464206822139
 21
300.5102471490881
 31
0.0
  0
LINE
  5
95E
330
F95
100
AcDbEntity
  8
0
  6
Continuous
 62
     7
100
AcDbLine
 10
442.5632006822139
 20
313.6934691490883
 30
0.0
 11
442.5632006822139
 21
265.6934711490884
 31
0.0
  0
LINE
  5
95F
330
F95
100
AcDbEntity
  8
0
  6
Continuous
 62
     7
100
AcDbLine
 10
449.0872556822139
 20
302.3934741490883
 30
0.0
 11
449.0872556822139
 21
276.9934681490884
 31
0.0
  0
LINE
  5
960
330
F95
100
AcDbEntity
  8
0
  6
Continuous
 62
     7
100
AcDbLine
 10
464.1453739822139
 20
276.9934691490882
 30
0.0
 11
464.1453739822139
 21
302.3934691490883
 31
0.0
  0
LINE
  5
961
330
F95
100
AcDbEntity
  8
0
  6
Continuous
 62
     7
100
AcDbLine
 10
356.5632006822139
 20
264.4434691490884
 30
0.0
 11
356.5632006822139
 21
314.9434691490882
 31
0.0
  0
LINE
  5
962
330
F95
100
AcDbEntity
  8
0
  6
Continuous
 62
     7
100
AcDbLine
 10
363.9810273822138
 20
302.3934691490883
 30
0.0
 11
363.9810273822138
 21
276.9934691490882
 31
0.0
  0
LINE
  5
963
330
F95
100
AcDbEntity
  8
0
  6
Continuous
 62
     7
100
AcDbLine
 10
382.4790676822139
 20
279.6934691490883
 30
0.0
 11
402.4790276822137
 21
299.6934691490883
 31
0.0
  0
LINE
  5
964
330
F95
100
AcDbEntity
  8
0
  6
Continuous
 62
     7
100
AcDbLine
 10
380.0695256822139
 20
281.7740549490885
 30
0.0
 11
397.9889036822139
 21
299.6934691490883
 31
0.0
  0
LINE
  5
965
330
F95
100
AcDbEntity
  8
0
  6
Continuous
 62
     7
100
AcDbLine
 10
384.5632006822139
 20
313.6934691490883
 30
0.0
 11
384.5632006822139
 21
265.6934691490884
 31
0.0
  0
LINE
  5
966
330
F95
100
AcDbEntity
  8
0
  6
Continuous
 62
     7
100
AcDbLine
 10
381.5353766822139
 20
302.3934701490882
 30
0.0
 11
381.5353766822139
 21
276.9934681490884
 31
0.0
  0
LINE
  5
967
330
F95
100
AcDbEntity
  8
0
  6
Continuous
 62
     7
100
AcDbLine
 10
380.0695256822139
 20
279.6934691490883
 30
0.0
 11
380.0695256822139
 21
299.6934691490883
 31
0.0
  0
LINE
  5
968
330
F95
100
AcDbEntity
  8
0
  6
Continuous
 62
     7
100
AcDbLine
 10
380.0695256822139
 20
286.2641874490883
 30
0.0
 11
393.4987806822139
 21
299.6934691490883
 31
0.0
  0
LINE
  5
969
330
F95
100
AcDbEntity
  8
0
  6
Continuous
 62
     7
100
AcDbLine
 10
380.0695256822139
 20
290.7543199490884
 30
0.0
 11
389.0086566822138
 21
299.6934691490883
 31
0.0
  0
LINE
  5
96A
330
F95
100
AcDbEntity
  8
0
  6
Continuous
 62
     7
100
AcDbLine
 10
391.4593146822139
 20
279.6934691490883
 30
0.0
 11
411.4592746822139
 21
299.6934691490883
 31
0.0
  0
LINE
  5
96B
330
F95
100
AcDbEntity
  8
0
  6
Continuous
 62
     7
100
AcDbLine
 10
386.969190682214
 20
279.6934691490883
 30
0.0
 11
406.9691506822139
 21
299.6934691490883
 31
0.0
  0
LINE
  5
96C
330
F95
100
AcDbEntity
  8
0
  6
Continuous
 62
     7
100
AcDbLine
 10
400.4395616822137
 20
279.6934691490883
 30
0.0
 11
423.5013566822138
 21
302.7553111490883
 31
0.0
  0
LINE
  5
96D
330
F95
100
AcDbEntity
  8
0
  6
Continuous
 62
     7
100
AcDbLine
 10
395.9494376822139
 20
279.6934691490883
 30
0.0
 11
415.9493976822138
 21
299.6934691490883
 31
0.0
  0
LINE
  5
96E
330
F95
100
AcDbEntity
  8
0
  6
Continuous
 62
     7
100
AcDbLine
 10
414.3132006822139
 20
251.6934691490884
 30
0.0
 11
414.3132006822139
 21
327.6934691490882
 31
0.0
  0
LINE
  5
96F
330
F95
100
AcDbEntity
  8
0
  6
Continuous
 62
     7
100
AcDbLine
 10
428.8132006822139
 20
251.6934691490884
 30
0.0
 11
428.8132006822139
 21
327.6934691490882
 31
0.0
  0
LINE
  5
970
330
F95
100
AcDbEntity
  8
0
  6
Continuous
 62
     7
100
AcDbLine
 10
384.5632006822139
 20
265.6934691490884
 30
0.0
 11
414.3132006822139
 21
265.6934691490884
 31
0.0
  0
LINE
  5
971
330
F95
100
AcDbEntity
  8
0
  6
Continuous
 62
     7
100
AcDbLine
 10
416.5632006822139
 20
279.6934691490883
 30
0.0
 11
380.0695256822139
 21
279.6934691490883
 31
0.0
  0
LINE
  5
972
330
F95
100
AcDbEntity
  8
0
  6
Continuous
 62
     7
100
AcDbLine
 10
363.9810273822138
 20
276.9934691490882
 30
0.0
 11
381.5353766822139
 21
276.9934691490882
 31
0.0
  0
LINE
  5
973
330
F95
100
AcDbEntity
  8
0
  6
Continuous
 62
     7
100
AcDbLine
 10
359.4132003822139
 20
264.4434691490884
 30
0.0
 11
363.9810271822138
 21
276.9934691490882
 31
0.0
  0
LINE
  5
974
330
F95
100
AcDbEntity
  8
0
  6
Continuous
 62
     7
100
AcDbLine
 10
356.5632006822139
 20
264.4434691490884
 30
0.0
 11
359.4132005822139
 21
264.4434691490884
 31
0.0
  0
LINE
  5
975
330
F95
100
AcDbEntity
  8
0
  6
Continuous
 62
     7
100
AcDbLine
 10
384.5632016822139
 20
265.6934691490884
 30
0.0
 11
381.5353756822139
 21
276.9934681490884
 31
0.0
  0
LINE
  5
976
330
F95
100
AcDbEntity
  8
0
  6
Continuous
 62
     7
100
AcDbLine
 10
468.7132009822139
 20
264.4434691490884
 30
0.0
 11
464.1453741822139
 21
276.9934691490882
 31
0.0
  0
LINE
  5
977
330
F95
100
AcDbEntity
  8
0
  6
Continuous
 62
     7
100
AcDbLine
 10
416.5632006822139
 20
273.3664781490883
 30
0.0
 11
434.7266756822139
 21
291.5299895490883
 31
0.0
  0
LINE
  5
978
330
F95
100
AcDbEntity
  8
0
  6
Continuous
 62
     7
100
AcDbLine
 10
428.8132006822139
 20
265.6934691490884
 30
0.0
 11
442.5632006822139
 21
265.6934691490884
 31
0.0
  0
LINE
  5
979
330
F95
100
AcDbEntity
  8
0
  6
Continuous
 62
     7
100
AcDbLine
 10
436.5632006822139
 20
289.6934745438848
 30
0.0
 11
416.5632006822139
 21
269.6934741490883
 31
0.0
  0
LINE
  5
97A
330
F95
100
AcDbEntity
  8
0
  6
Continuous
 62
     7
100
AcDbLine
 10
416.5632006822139
 20
269.6934691490884
 30
0.0
 11
416.5632006822139
 21
279.6934691490883
 31
0.0
  0
LINE
  5
97B
330
F95
100
AcDbEntity
  8
0
  6
Continuous
 62
     7
100
AcDbLine
 10
414.3132006822139
 20
251.6934691490884
 30
0.0
 11
428.8132006822139
 21
251.6934691490884
 31
0.0
  0
LINE
  5
97C
330
F95
100
AcDbEntity
  8
0
  6
Continuous
 62
     7
100
AcDbLine
 10
464.1453739822139
 20
276.9934691490882
 30
0.0
 11
449.0872556822139
 21
276.9934691490882
 31
0.0
  0
LINE
  5
97D
330
F95
100
AcDbEntity
  8
0
  6
Continuous
 62
     7
100
AcDbLine
 10
442.5631966822139
 20
265.6934711490884
 30
0.0
 11
449.087253682214
 21
276.9934691490882
 31
0.0
  0
LINE
  5
97E
330
F95
100
AcDbEntity
  8
0
  6
Continuous
 62
     7
100
AcDbLine
 10
471.5632006822139
 20
264.4434691490884
 30
0.0
 11
468.7132007822139
 21
264.4434691490884
 31
0.0
  0
LINE
  5
97F
330
F95
100
AcDbEntity
  8
0
  6
Continuous
 62
     7
100
AcDbLine
 10
384.5632026822139
 20
313.6934691490883
 30
0.0
 11
414.3132006822139
 21
313.6934691490883
 31
0.0
  0
LINE
  5
980
330
F95
100
AcDbEntity
  8
0
  6
Continuous
 62
     7
100
AcDbLine
 10
416.5632006822139
 20
299.6934691490883
 30
0.0
 11
380.0695256822139
 21
299.6934691490883
 31
0.0
  0
LINE
  5
981
330
F95
100
AcDbEntity
  8
0
  6
Continuous
 62
     7
100
AcDbLine
 10
363.9810273822138
 20
302.3934691490883
 30
0.0
 11
381.5353766822139
 21
302.3934691490883
 31
0.0
  0
LINE
  5
982
330
F95
100
AcDbEntity
  8
0
  6
Continuous
 62
     7
100
AcDbLine
 10
359.4132003822139
 20
314.9434691490882
 30
0.0
 11
363.9810271822138
 21
302.3934691490883
 31
0.0
  0
LINE
  5
983
330
F95
100
AcDbEntity
  8
0
  6
Continuous
 62
     7
100
AcDbLine
 10
356.5632006822139
 20
314.9434691490882
 30
0.0
 11
359.4132005822139
 21
314.9434691490882
 31
0.0
  0
LINE
  5
984
330
F95
100
AcDbEntity
  8
0
  6
Continuous
 62
     7
100
AcDbLine
 10
384.5632036822139
 20
313.6934691490883
 30
0.0
 11
381.5353776822138
 21
302.3934701490882
 31
0.0
  0
LINE
  5
985
330
F95
100
AcDbEntity
  8
0
  6
Continuous
 62
     7
100
AcDbLine
 10
380.0695256822139
 20
295.2444523490883
 30
0.0
 11
384.5185336822139
 21
299.6934691490883
 31
0.0
  0
LINE
  5
986
330
F95
100
AcDbEntity
  8
0
  6
Continuous
 62
     7
100
AcDbLine
 10
468.7132009822139
 20
314.9434691490882
 30
0.0
 11
464.1453741822139
 21
302.3934691490883
 31
0.0
  0
LINE
  5
987
330
F95
100
AcDbEntity
  8
0
  6
Continuous
 62
     7
100
AcDbLine
 10
428.8132006822139
 20
313.6934691490883
 30
0.0
 11
442.5632006822139
 21
313.6934691490883
 31
0.0
  0
LINE
  5
988
330
F95
100
AcDbEntity
  8
0
  6
Continuous
 62
     7
100
AcDbLine
 10
416.5632006822139
 20
299.6934691490883
 30
0.0
 11
416.5632006822139
 21
309.6934691490883
 31
0.0
  0
LINE
  5
989
330
F95
100
AcDbEntity
  8
0
  6
Continuous
 62
     7
100
AcDbLine
 10
416.5632006822139
 20
300.3072731490883
 30
0.0
 11
421.256293682214
 21
305.0003751490884
 31
0.0
  0
LINE
  5
98A
330
F95
100
AcDbEntity
  8
0
  6
Continuous
 62
     7
100
AcDbLine
 10
416.5632006822139
 20
304.7974061490883
 30
0.0
 11
419.011229682214
 21
307.2454391490883
 31
0.0
  0
LINE
  5
98B
330
F95
100
AcDbEntity
  8
0
  6
Continuous
 62
     7
100
AcDbLine
 10
416.5632006822139
 20
309.2875381490884
 30
0.0
 11
416.7661656822139
 21
309.4905041490883
 31
0.0
  0
LINE
  5
98C
330
F95
100
AcDbEntity
  8
0
  6
Continuous
 62
     7
100
AcDbLine
 10
414.3132006822139
 20
327.6934691490882
 30
0.0
 11
428.8132006822139
 21
327.6934691490882
 31
0.0
  0
LINE
  5
98D
330
F95
100
AcDbEntity
  8
0
  6
Continuous
 62
     7
100
AcDbLine
 10
464.1453739822139
 20
302.3934691490883
 30
0.0
 11
449.0872556822139
 21
302.3934691490883
 31
0.0
  0
LINE
  5
98E
330
F95
100
AcDbEntity
  8
0
  6
Continuous
 62
     7
100
AcDbLine
 10
442.5632036822139
 20
313.6934701490885
 30
0.0
 11
449.0872576822139
 21
302.3934761490883
 31
0.0
  0
LINE
  5
98F
330
F95
100
AcDbEntity
  8
0
  6
Continuous
 62
     7
100
AcDbLine
 10
471.5632006822139
 20
314.9434691490882
 30
0.0
 11
468.7132007822139
 21
314.9434691490882
 31
0.0
  0
CIRCLE
  5
9C8
330
F95
100
AcDbEntity
  8
0
  6
Continuous
 62
     7
100
AcDbCircle
 10
570.1108410208888
 20
165.643671544487
 30
0.0
 40
12.700001
  0
CIRCLE
  5
9C9
330
F95
100
AcDbEntity
  8
0
  6
Continuous
 62
     7
100
AcDbCircle
 10
570.1108410208888
 20
165.643671544487
 30
0.0
 40
38.0
  0
CIRCLE
  5
9CA
330
F95
100
AcDbEntity
  8
0
  6
Continuous
100
AcDbCircle
 10
570.1108410208888
 20
165.643671544487
 30
0.0
 40
25.25
  0
LINE
  5
FE8
330
F95
100
AcDbEntity
  8
0
  6
CENTER
100
AcDbLine
 10
570.1108410208888
 20
116.938228908333
 30
0.0
 11
570.1108410208888
 21
214.3491141806411
 31
0.0
  0
LINE
  5
FEA
330
F95
100
AcDbEntity
  8
0
  6
CENTER
100
AcDbLine
 10
521.4053983847348
 20
165.6436715444871
 30
0.0
 11
618.8162836570428
 21
165.643671544487
 31
0.0
  0
LINE
  5
FEB
330
F95
100
AcDbEntity
  8
0
  6
CENTER
100
AcDbLine
 10
215.2645580460597
 20
165.6436715444871
 30
0.0
 11
312.6754433183678
 21
165.643671544487
 31
0.0
  0
LINE
  5
FEC
330
F95
100
AcDbEntity
  8
0
  6
CENTER
100
AcDbLine
 10
263.9700006822138
 20
116.938228908333
 30
0.0
 11
263.9700006822138
 21
214.3491141806411
 31
0.0
  0
LINE
  5
FED
330
F95
100
AcDbEntity
  8
0
  6
CENTER
100
AcDbLine
 10
339.3840712751466
 20
289.6934691490883
 30
0.0
 11
489.2940790249427
 21
289.6934691490883
 31
0.0
  0
LINE
  5
FEE
330
F95
100
AcDbEntity
  8
0
  6
CENTER
100
AcDbLine
 10
339.3840712751466
 20
165.643671544487
 30
0.0
 11
489.2940790249427
 21
165.643671544487
 31
0.0
  0
ENDSEC
  0
SECTION
  2
OBJECTS
  0
DICTIONARY
  5
F83
330
0
100
AcDbDictionary
281
     1
  3
ACAD_GROUP
350
F84
  3
ACAD_LAYOUT
350
F90
  3
ACAD_MLINESTYLE
350
F8D
  3
ACAD_PLOTSETTINGS
350
F8F
  3
ACAD_PLOTSTYLENAME
350
F85
  3
AcDbVariableDictionary
350
FDA
  0
DICTIONARY
  5
FE0
330
F79
100
AcDbDictionary
280
     1
281
     1
  3
ACAD_LAYERSTATES
360
FE1
  0
DICTIONARY
  5
FA6
330
F95
100
AcDbDictionary
280
     1
281
     1
  3
ACAD_LAYOUTSELFREF
360
FD5
  0
DICTIONARY
  5
FA8
330
F91
100
AcDbDictionary
280
     1
281
     1
  3
ACAD_LAYOUTSELFREF
360
FD4
  0
DICTIONARY
  5
F84
102
{ACAD_REACTORS
330
F83
102
}
330
F83
100
AcDbDictionary
281
     1
  0
DICTIONARY
  5
F90
102
{ACAD_REACTORS
330
F83
102
}
330
F83
100
AcDbDictionary
281
     1
  3
Model
350
F98
  3
ﾚｲｱｳﾄ1
350
F94
  0
DICTIONARY
  5
F8D
102
{ACAD_REACTORS
330
F83
102
}
330
F83
100
AcDbDictionary
281
     1
  3
Standard
350
F8E
  0
DICTIONARY
  5
F8F
102
{ACAD_REACTORS
330
F83
102
}
330
F83
100
AcDbDictionary
281
     1
  0
ACDBDICTIONARYWDFLT
  5
F85
102
{ACAD_REACTORS
330
F83
102
}
330
F83
100
AcDbDictionary
281
     1
  3
Normal
350
F86
100
AcDbDictionaryWithDefault
340
F86
  0
DICTIONARY
  5
FDA
102
{ACAD_REACTORS
330
F83
102
}
330
F83
100
AcDbDictionary
281
     1
  3
DIMASSOC
350
FDB
  0
DICTIONARY
  5
FE1
102
{ACAD_REACTORS
330
FE0
102
}
330
FE0
100
AcDbDictionary
281
     1
  0
XRECORD
  5
FD5
102
{ACAD_REACTORS
330
FA6
102
}
330
FA6
100
AcDbXrecord
280
     1
340
F95
  0
XRECORD
  5
FD4
102
{ACAD_REACTORS
330
FA8
102
}
330
FA8
100
AcDbXrecord
280
     1
340
F91
  0
LAYOUT
  5
F98
102
{ACAD_REACTORS
330
F90
102
}
330
F90
100
AcDbPlotSettings
  1

  2
SII LP-2150 (D-SCAN C2)
  4

  6

 40
0.0
 41
0.0
 42
0.0
 43
0.0
 44
0.0
 45
0.0
 46
0.0
 47
0.0
 48
0.0
 49
0.0
140
0.0
141
0.0
142
1.0
143
1.0
 70
  1712
 72
     0
 73
     0
 74
     0
  7

 75
     0
147
1.0
148
0.0
149
0.0
100
AcDbLayout
  1
Model
 70
     1
 71
     0
 10
0.0
 20
0.0
 11
12.0
 21
9.0
 12
0.0
 22
0.0
 32
0.0
 14
0.0
 24
0.0
 34
0.0
 15
0.0
 25
0.0
 35
0.0
146
0.0
 13
0.0
 23
0.0
 33
0.0
 16
1.0
 26
0.0
 36
0.0
 17
0.0
 27
1.0
 37
0.0
 76
     0
330
F95
  0
LAYOUT
  5
F94
102
{ACAD_REACTORS
330
F90
102
}
330
F90
100
AcDbPlotSettings
  1

  2
SII LP-2150 (D-SCAN C2)
  4

  6

 40
0.0
 41
0.0
 42
0.0
 43
0.0
 44
0.0
 45
0.0
 46
0.0
 47
0.0
 48
0.0
 49
0.0
140
0.0
141
0.0
142
1.0
143
1.0
 70
   688
 72
     0
 73
     0
 74
     5
  7

 75
    16
147
1.0
148
0.0
149
0.0
100
AcDbLayout
  1
ﾚｲｱｳﾄ1
 70
     1
 71
     1
 10
-44.912933
 20
-21.841471
 11
153.5627299999999
 21
105.04179
 12
0.0
 22
0.0
 32
0.0
 14
-44.912933
 24
-21.841471
 34
0.0
 15
153.5627299999999
 25
105.04179
 35
0.0
146
0.0
 13
0.0
 23
0.0
 33
0.0
 16
1.0
 26
0.0
 36
0.0
 17
0.0
 27
1.0
 37
0.0
 76
     0
330
F91
  0
MLINESTYLE
  5
F8E
102
{ACAD_REACTORS
330
F8D
102
}
330
F8D
100
AcDbMlineStyle
  2
STANDARD
 70
     0
  3

 62
   256
 51
90.0
 52
90.0
 71
     2
 49
0.5
 62
   256
  6
BYLAYER
 49
-0.5
 62
   256
  6
BYLAYER
  0
ACDBPLACEHOLDER
  5
F86
102
{ACAD_REACTORS
330
F85
102
}
330
F85
  0
DICTIONARYVAR
  5
FDB
102
{ACAD_REACTORS
330
FDA
102
}
330
FDA
100
DictionaryVariables
280
     0
  1
1
  0
ENDSEC
  0
EOF
