  0
SECTION
  2
HEADER
  9
$ACADVER
  1
AC1024
  9
$ACADMAINTVER
 70
     6
  9
$DWGCODEPAGE
  3
ANSI_932
  9
$LASTSAVEDBY
  1
kanatani
  9
$INSBASE
 10
0.0
 20
0.0
 30
0.0
  9
$EXTMIN
 10
-80.00036365653476
 20
-112.711771618255
 30
0.0
  9
$EXTMAX
 10
296.5008208398167
 20
188.2156822647053
 30
0.0
  9
$LIMMIN
 10
0.0
 20
0.0
  9
$LIMMAX
 10
420.0
 20
297.0
  9
$ORTHOMODE
 70
     0
  9
$REGENMODE
 70
     1
  9
$FILLMODE
 70
     1
  9
$QTEXTMODE
 70
     0
  9
$MIRRTEXT
 70
     1
  9
$LTSCALE
 40
0.2
  9
$ATTMODE
 70
     1
  9
$TEXTSIZE
 40
2.5
  9
$TRACEWID
 40
1.0
  9
$TEXTSTYLE
  7
Standard
  9
$CLAYER
  8
0
  9
$CELTYPE
  6
ByLayer
  9
$CECOLOR
 62
   256
  9
$CELTSCALE
 40
1.0
  9
$DISPSILH
 70
     0
  9
$DIMSCALE
 40
1.0
  9
$DIMASZ
 40
2.5
  9
$DIMEXO
 40
0.625
  9
$DIMDLI
 40
3.75
  9
$DIMRND
 40
0.0
  9
$DIMDLE
 40
0.0
  9
$DIMEXE
 40
1.25
  9
$DIMTP
 40
0.0
  9
$DIMTM
 40
0.0
  9
$DIMTXT
 40
2.5
  9
$DIMCEN
 40
2.5
  9
$DIMTSZ
 40
0.0
  9
$DIMTOL
 70
     0
  9
$DIMLIM
 70
     0
  9
$DIMTIH
 70
     0
  9
$DIMTOH
 70
     0
  9
$DIMSE1
 70
     0
  9
$DIMSE2
 70
     0
  9
$DIMTAD
 70
     1
  9
$DIMZIN
 70
     8
  9
$DIMBLK
  1

  9
$DIMASO
 70
     1
  9
$DIMSHO
 70
     1
  9
$DIMPOST
  1

  9
$DIMAPOST
  1

  9
$DIMALT
 70
     0
  9
$DIMALTD
 70
     3
  9
$DIMALTF
 40
0.03937007874016
  9
$DIMLFAC
 40
1.0
  9
$DIMTOFL
 70
     1
  9
$DIMTVP
 40
0.0
  9
$DIMTIX
 70
     0
  9
$DIMSOXD
 70
     0
  9
$DIMSAH
 70
     0
  9
$DIMBLK1
  1

  9
$DIMBLK2
  1

  9
$DIMSTYLE
  2
ISO-25
  9
$DIMCLRD
 70
     0
  9
$DIMCLRE
 70
     0
  9
$DIMCLRT
 70
     0
  9
$DIMTFAC
 40
1.0
  9
$DIMGAP
 40
0.625
  9
$DIMJUST
 70
     0
  9
$DIMSD1
 70
     0
  9
$DIMSD2
 70
     0
  9
$DIMTOLJ
 70
     0
  9
$DIMTZIN
 70
     8
  9
$DIMALTZ
 70
     0
  9
$DIMALTTZ
 70
     0
  9
$DIMUPT
 70
     0
  9
$DIMDEC
 70
     2
  9
$DIMTDEC
 70
     2
  9
$DIMALTU
 70
     2
  9
$DIMALTTD
 70
     3
  9
$DIMTXSTY
  7
Standard
  9
$DIMAUNIT
 70
     0
  9
$DIMADEC
 70
     0
  9
$DIMALTRND
 40
0.0
  9
$DIMAZIN
 70
     0
  9
$DIMDSEP
 70
    44
  9
$DIMATFIT
 70
     3
  9
$DIMFRAC
 70
     0
  9
$DIMLDRBLK
  1

  9
$DIMLUNIT
 70
     2
  9
$DIMLWD
 70
    -2
  9
$DIMLWE
 70
    -2
  9
$DIMTMOVE
 70
     0
  9
$DIMFXL
 40
1.0
  9
$DIMFXLON
 70
     0
  9
$DIMJOGANG
 40
0.7853981633974483
  9
$DIMTFILL
 70
     0
  9
$DIMTFILLCLR
 70
     0
  9
$DIMARCSYM
 70
     0
  9
$DIMLTYPE
  6

  9
$DIMLTEX1
  6

  9
$DIMLTEX2
  6

  9
$DIMTXTDIRECTION
 70
     0
  9
$LUNITS
 70
     2
  9
$LUPREC
 70
     4
  9
$SKETCHINC
 40
1.0
  9
$FILLETRAD
 40
10.0
  9
$AUNITS
 70
     0
  9
$AUPREC
 70
     0
  9
$MENU
  1
.
  9
$ELEVATION
 40
0.0
  9
$PELEVATION
 40
0.0
  9
$THICKNESS
 40
0.0
  9
$LIMCHECK
 70
     0
  9
$CHAMFERA
 40
10.0
  9
$CHAMFERB
 40
10.0
  9
$CHAMFERC
 40
20.0
  9
$CHAMFERD
 40
0.0
  9
$SKPOLY
 70
     0
  9
$TDCREATE
 40
2456874.593217083
  9
$TDUCREATE
 40
2456874.218217083
  9
$TDUPDATE
 40
2456910.423620822
  9
$TDUUPDATE
 40
2456910.048620822
  9
$TDINDWG
 40
0.0024940625
  9
$TDUSRTIMER
 40
0.0024940509
  9
$USRTIMER
 70
     1
  9
$ANGBASE
 50
0.0
  9
$ANGDIR
 70
     0
  9
$PDMODE
 70
     0
  9
$PDSIZE
 40
0.0
  9
$PLINEWID
 40
0.0
  9
$SPLFRAME
 70
     0
  9
$SPLINETYPE
 70
     6
  9
$SPLINESEGS
 70
     8
  9
$HANDSEED
  5
C3C
  9
$SURFTAB1
 70
     6
  9
$SURFTAB2
 70
     6
  9
$SURFTYPE
 70
     6
  9
$SURFU
 70
     6
  9
$SURFV
 70
     6
  9
$UCSBASE
  2

  9
$UCSNAME
  2

  9
$UCSORG
 10
0.0
 20
0.0
 30
0.0
  9
$UCSXDIR
 10
1.0
 20
0.0
 30
0.0
  9
$UCSYDIR
 10
0.0
 20
1.0
 30
0.0
  9
$UCSORTHOREF
  2

  9
$UCSORTHOVIEW
 70
     0
  9
$UCSORGTOP
 10
0.0
 20
0.0
 30
0.0
  9
$UCSORGBOTTOM
 10
0.0
 20
0.0
 30
0.0
  9
$UCSORGLEFT
 10
0.0
 20
0.0
 30
0.0
  9
$UCSORGRIGHT
 10
0.0
 20
0.0
 30
0.0
  9
$UCSORGFRONT
 10
0.0
 20
0.0
 30
0.0
  9
$UCSORGBACK
 10
0.0
 20
0.0
 30
0.0
  9
$PUCSBASE
  2

  9
$PUCSNAME
  2

  9
$PUCSORG
 10
0.0
 20
0.0
 30
0.0
  9
$PUCSXDIR
 10
1.0
 20
0.0
 30
0.0
  9
$PUCSYDIR
 10
0.0
 20
1.0
 30
0.0
  9
$PUCSORTHOREF
  2

  9
$PUCSORTHOVIEW
 70
     0
  9
$PUCSORGTOP
 10
0.0
 20
0.0
 30
0.0
  9
$PUCSORGBOTTOM
 10
0.0
 20
0.0
 30
0.0
  9
$PUCSORGLEFT
 10
0.0
 20
0.0
 30
0.0
  9
$PUCSORGRIGHT
 10
0.0
 20
0.0
 30
0.0
  9
$PUCSORGFRONT
 10
0.0
 20
0.0
 30
0.0
  9
$PUCSORGBACK
 10
0.0
 20
0.0
 30
0.0
  9
$USERI1
 70
     0
  9
$USERI2
 70
     0
  9
$USERI3
 70
     0
  9
$USERI4
 70
     0
  9
$USERI5
 70
     0
  9
$USERR1
 40
0.0
  9
$USERR2
 40
0.0
  9
$USERR3
 40
0.0
  9
$USERR4
 40
0.0
  9
$USERR5
 40
0.0
  9
$WORLDVIEW
 70
     1
  9
$SHADEDGE
 70
     3
  9
$SHADEDIF
 70
    70
  9
$TILEMODE
 70
     1
  9
$MAXACTVP
 70
    64
  9
$PINSBASE
 10
0.0
 20
0.0
 30
0.0
  9
$PLIMCHECK
 70
     0
  9
$PEXTMIN
 10
26.66076962115563
 20
20.31135699206658
 30
-0.0015258207003583
  9
$PEXTMAX
 10
240.039213369355
 20
182.8886381005154
 30
0.0000000349246037
  9
$PLIMMIN
 10
-6.350006103515625
 20
-6.349999904632568
  9
$PLIMMAX
 10
273.0499877929688
 20
209.5499939918518
  9
$UNITMODE
 70
     0
  9
$VISRETAIN
 70
     1
  9
$PLINEGEN
 70
     0
  9
$PSLTSCALE
 70
     1
  9
$TREEDEPTH
 70
  3020
  9
$CMLSTYLE
  2
Standard
  9
$CMLJUST
 70
     0
  9
$CMLSCALE
 40
20.0
  9
$PROXYGRAPHICS
 70
     1
  9
$MEASUREMENT
 70
     1
  9
$CELWEIGHT
370
    -1
  9
$ENDCAPS
280
     0
  9
$JOINSTYLE
280
     0
  9
$LWDISPLAY
290
     0
  9
$INSUNITS
 70
     4
  9
$HYPERLINKBASE
  1

  9
$STYLESHEET
  1

  9
$XEDIT
290
     1
  9
$CEPSNTYPE
380
     0
  9
$PSTYLEMODE
290
     1
  9
$FINGERPRINTGUID
  2
{FDEAD578-A652-11D2-9A35-0060089B3A3F}
  9
$VERSIONGUID
  2
{ABC54405-2AE6-4ACF-B371-210B929FC20E}
  9
$EXTNAMES
290
     1
  9
$PSVPSCALE
 40
0.0
  9
$OLESTARTUP
290
     0
  9
$SORTENTS
280
   127
  9
$INDEXCTL
280
     0
  9
$HIDETEXT
280
     1
  9
$XCLIPFRAME
280
     2
  9
$HALOGAP
280
     0
  9
$OBSCOLOR
 70
   257
  9
$OBSLTYPE
280
     0
  9
$INTERSECTIONDISPLAY
280
     0
  9
$INTERSECTIONCOLOR
 70
   257
  9
$DIMASSOC
280
     2
  9
$PROJECTNAME
  1

  9
$CAMERADISPLAY
290
     0
  9
$LENSLENGTH
 40
50.0
  9
$CAMERAHEIGHT
 40
0.0
  9
$STEPSPERSEC
 40
2.0
  9
$STEPSIZE
 40
6.0
  9
$3DDWFPREC
 40
2.0
  9
$PSOLWIDTH
 40
0.25
  9
$PSOLHEIGHT
 40
4.0
  9
$LOFTANG1
 40
1.570796326794896
  9
$LOFTANG2
 40
1.570796326794896
  9
$LOFTMAG1
 40
0.0
  9
$LOFTMAG2
 40
0.0
  9
$LOFTPARAM
 70
     7
  9
$LOFTNORMALS
280
     1
  9
$LATITUDE
 40
37.795
  9
$LONGITUDE
 40
-122.394
  9
$NORTHDIRECTION
 40
0.0
  9
$TIMEZONE
 70
 -8000
  9
$LIGHTGLYPHDISPLAY
280
     1
  9
$TILEMODELIGHTSYNCH
280
     1
  9
$CMATERIAL
347
BEB
  9
$SOLIDHIST
280
     1
  9
$SHOWHIST
280
     1
  9
$DWFFRAME
280
     2
  9
$DGNFRAME
280
     0
  9
$REALWORLDSCALE
290
     1
  9
$INTERFERECOLOR
 62
     1
  9
$INTERFEREOBJVS
345
C0D
  9
$INTERFEREVPVS
346
C0A
  9
$CSHADOW
280
     0
  9
$SHADOWPLANELOCATION
 40
0.0
  0
ENDSEC
  0
SECTION
  2
CLASSES
  0
CLASS
  1
ACDBDICTIONARYWDFLT
  2
AcDbDictionaryWithDefault
  3
ObjectDBX Classes
 90
        0
 91
        1
280
     0
281
     0
  0
CLASS
  1
DICTIONARYVAR
  2
AcDbDictionaryVar
  3
ObjectDBX Classes
 90
        0
 91
        9
280
     0
281
     0
  0
CLASS
  1
MATERIAL
  2
AcDbMaterial
  3
ObjectDBX Classes
 90
     1153
 91
        3
280
     0
281
     0
  0
CLASS
  1
VISUALSTYLE
  2
AcDbVisualStyle
  3
ObjectDBX Classes
 90
     4095
 91
       19
280
     0
281
     0
  0
CLASS
  1
TABLESTYLE
  2
AcDbTableStyle
  3
ObjectDBX Classes
 90
     4095
 91
        1
280
     0
281
     0
  0
CLASS
  1
SCALE
  2
AcDbScale
  3
ObjectDBX Classes
 90
     1153
 91
       17
280
     0
281
     0
  0
CLASS
  1
MLEADERSTYLE
  2
AcDbMLeaderStyle
  3
ACDB_MLEADERSTYLE_CLASS
 90
     4095
 91
        1
280
     0
281
     0
  0
CLASS
  1
CELLSTYLEMAP
  2
AcDbCellStyleMap
  3
ObjectDBX Classes
 90
     1152
 91
        1
280
     0
281
     0
  0
ENDSEC
  0
SECTION
  2
TABLES
  0
TABLE
  2
VPORT
  5
8
330
0
100
AcDbSymbolTable
 70
     1
  0
VPORT
  5
BE8
330
8
100
AcDbSymbolTableRecord
100
AcDbViewportTableRecord
  2
*Active
 70
     0
 10
0.0
 20
0.0
 11
1.0
 21
1.0
 12
109.1173869206131
 22
45.59952876009321
 13
0.0
 23
0.0
 14
10.0
 24
10.0
 15
10.0
 25
10.0
 16
0.0
 26
0.0
 36
1.0
 17
0.0
 27
0.0
 37
0.0
 40
318.5677833995359
 41
1.857142857142857
 42
50.0
 43
0.0
 44
0.0
 50
0.0
 51
0.0
 71
     0
 72
   100
 73
     1
 74
     3
 75
     0
 76
     0
 77
     0
 78
     0
281
     0
 65
     1
110
0.0
120
0.0
130
0.0
111
1.0
121
0.0
131
0.0
112
0.0
122
1.0
132
0.0
 79
     0
146
0.0
348
C09
 60
     3
 61
     5
292
     1
282
     1
141
0.0
142
0.0
 63
   250
421
  3355443
  0
ENDTAB
  0
TABLE
  2
LTYPE
  5
5
330
0
100
AcDbSymbolTable
 70
     3
  0
LTYPE
  5
14
330
5
100
AcDbSymbolTableRecord
100
AcDbLinetypeTableRecord
  2
ByBlock
 70
     0
  3

 72
    65
 73
     0
 40
0.0
  0
LTYPE
  5
15
330
5
100
AcDbSymbolTableRecord
100
AcDbLinetypeTableRecord
  2
ByLayer
 70
     0
  3

 72
    65
 73
     0
 40
0.0
  0
LTYPE
  5
16
330
5
100
AcDbSymbolTableRecord
100
AcDbLinetypeTableRecord
  2
Continuous
 70
     0
  3
Solid line
 72
    65
 73
     0
 40
0.0
  0
LTYPE
  5
89
330
5
100
AcDbSymbolTableRecord
100
AcDbLinetypeTableRecord
  2
CENTER
 70
     0
  3
Center ____ _ ____ _ ____ _ ____ _ ____ _ ____
 72
    65
 73
     4
 40
50.8
 49
31.75
 74
     0
 49
-6.349999999999999
 74
     0
 49
6.349999999999999
 74
     0
 49
-6.349999999999999
 74
     0
  0
LTYPE
  5
8A
330
5
100
AcDbSymbolTableRecord
100
AcDbLinetypeTableRecord
  2
PHANTOM
 70
     0
  3
Phantom ______  __  __  ______  __  __  ______
 72
    65
 73
     6
 40
63.5
 49
31.75
 74
     0
 49
-6.349999999999999
 74
     0
 49
6.349999999999999
 74
     0
 49
-6.349999999999999
 74
     0
 49
6.349999999999999
 74
     0
 49
-6.349999999999999
 74
     0
  0
ENDTAB
  0
TABLE
  2
LAYER
  5
2
102
{ACAD_XDICTIONARY
360
93
102
}
330
0
100
AcDbSymbolTable
 70
     3
  0
LAYER
  5
10
102
{ACAD_XDICTIONARY
360
C30
102
}
330
2
100
AcDbSymbolTableRecord
100
AcDbLayerTableRecord
  2
0
 70
     0
 62
     7
  6
Continuous
370
    -3
390
F
347
BFB
  0
LAYER
  5
8B
102
{ACAD_XDICTIONARY
360
8C
102
}
330
2
100
AcDbSymbolTableRecord
100
AcDbLayerTableRecord
  2
2
 70
     0
 62
     2
  6
PHANTOM
370
    -3
390
F
347
BFB
1001
AcAecLayerStandard
1000

1000

1001
ACCMTRANSPARENCY
1071
        0
  0
LAYER
  5
8E
102
{ACAD_XDICTIONARY
360
8F
102
}
330
2
100
AcDbSymbolTableRecord
100
AcDbLayerTableRecord
  2
1
 70
     0
 62
     5
  6
CENTER
370
    -3
390
F
347
BFB
1001
AcAecLayerStandard
1000

1000

1001
ACCMTRANSPARENCY
1071
        0
  0
ENDTAB
  0
TABLE
  2
STYLE
  5
3
330
0
100
AcDbSymbolTable
 70
     1
  0
STYLE
  5
11
330
3
100
AcDbSymbolTableRecord
100
AcDbTextStyleTableRecord
  2
Standard
 70
     0
 40
0.0
 41
1.0
 50
0.0
 71
     0
 42
2.5
  3
txt
  4

  0
ENDTAB
  0
TABLE
  2
VIEW
  5
6
330
0
100
AcDbSymbolTable
 70
     0
  0
ENDTAB
  0
TABLE
  2
UCS
  5
7
330
0
100
AcDbSymbolTable
 70
     0
  0
ENDTAB
  0
TABLE
  2
APPID
  5
9
330
0
100
AcDbSymbolTable
 70
     3
  0
APPID
  5
12
330
9
100
AcDbSymbolTableRecord
100
AcDbRegAppTableRecord
  2
ACAD
 70
     0
  0
APPID
  5
91
330
9
100
AcDbSymbolTableRecord
100
AcDbRegAppTableRecord
  2
AcAecLayerStandard
 70
     0
  0
APPID
  5
92
330
9
100
AcDbSymbolTableRecord
100
AcDbRegAppTableRecord
  2
ACCMTRANSPARENCY
 70
     0
  0
ENDTAB
  0
TABLE
  2
DIMSTYLE
  5
A
330
0
100
AcDbSymbolTable
 70
     1
100
AcDbDimStyleTable
 71
     0
  0
DIMSTYLE
105
27
330
A
100
AcDbSymbolTableRecord
100
AcDbDimStyleTableRecord
  2
ISO-25
 70
     0
 41
2.5
 42
0.625
 43
3.75
 44
1.25
 73
     0
 74
     0
 77
     1
 78
     8
140
2.5
141
2.5
143
0.03937007874016
147
0.625
171
     3
172
     1
271
     2
272
     2
274
     3
278
    44
283
     0
284
     8
340
11
  0
ENDTAB
  0
TABLE
  2
BLOCK_RECORD
  5
1
330
0
100
AcDbSymbolTable
 70
     1
  0
BLOCK_RECORD
  5
1F
330
1
100
AcDbSymbolTableRecord
100
AcDbBlockTableRecord
  2
*Model_Space
340
22
 70
     0
280
     1
281
     0
  0
BLOCK_RECORD
  5
55
330
1
100
AcDbSymbolTableRecord
100
AcDbBlockTableRecord
  2
*Paper_Space
340
56
 70
     0
280
     1
281
     0
  0
BLOCK_RECORD
  5
50
330
1
100
AcDbSymbolTableRecord
100
AcDbBlockTableRecord
  2
*Paper_Space0
340
51
 70
     0
280
     1
281
     0
  0
ENDTAB
  0
ENDSEC
  0
SECTION
  2
BLOCKS
  0
BLOCK
  5
20
330
1F
100
AcDbEntity
  8
0
100
AcDbBlockBegin
  2
*Model_Space
 70
     0
 10
0.0
 20
0.0
 30
0.0
  3
*Model_Space
  1

  0
ENDBLK
  5
21
330
1F
100
AcDbEntity
  8
0
100
AcDbBlockEnd
  0
BLOCK
  5
57
330
55
100
AcDbEntity
 67
     1
  8
0
100
AcDbBlockBegin
  2
*Paper_Space
 70
     0
 10
0.0
 20
0.0
 30
0.0
  3
*Paper_Space
  1

  0
ENDBLK
  5
58
330
55
100
AcDbEntity
 67
     1
  8
0
100
AcDbBlockEnd
  0
BLOCK
  5
52
330
50
100
AcDbEntity
 67
     1
  8
0
100
AcDbBlockBegin
  2
*Paper_Space0
 70
     0
 10
0.0
 20
0.0
 30
0.0
  3
*Paper_Space0
  1

  0
VIEWPORT
  5
6B
330
50
100
AcDbEntity
 67
     1
  8
0
100
AcDbViewport
 10
133.3499908447266
 20
101.5999970436096
 30
0.0
 40
381.3957395593835
 41
218.2856291881582
 68
     0
 69
     0
 12
133.3499908447266
 22
101.5999970436096
 13
0.0
 23
0.0
 14
10.0
 24
10.0
 15
10.0
 25
10.0
 16
0.0
 26
0.0
 36
1.0
 17
0.0
 27
0.0
 37
0.0
 42
50.0
 43
0.0
 44
0.0
 45
218.2856291881582
 50
0.0
 51
0.0
 72
   100
 90
    32800
  1

281
     0
 71
     1
 74
     0
110
0.0
120
0.0
130
0.0
111
1.0
121
0.0
131
0.0
112
0.0
122
1.0
132
0.0
 79
     0
146
0.0
170
     0
 61
     5
348
C09
292
     1
282
     1
141
0.0
142
0.0
 63
   250
421
  3355443
  0
VIEWPORT
  5
6D
330
50
100
AcDbEntity
 67
     1
  8
0
100
AcDbViewport
 10
133.3499939441681
 20
101.5999939441681
 30
0.0
 40
213.3599903106689
 41
162.5599903106689
 68
     0
 69
     0
 12
210.0
 22
148.5
 13
0.0
 23
0.0
 14
10.0
 24
10.0
 15
10.0
 25
10.0
 16
0.0
 26
0.0
 36
1.0
 17
0.0
 27
0.0
 37
0.0
 42
50.0
 43
0.0
 44
0.0
 45
324.0677920111345
 50
0.0
 51
0.0
 72
   100
 90
    32864
  1

281
     0
 71
     1
 74
     0
110
0.0
120
0.0
130
0.0
111
1.0
121
0.0
131
0.0
112
0.0
122
1.0
132
0.0
 79
     0
146
0.0
170
     0
 61
     5
348
C09
292
     1
282
     1
141
0.0
142
0.0
 63
   250
421
  3355443
  0
ENDBLK
  5
53
330
50
100
AcDbEntity
 67
     1
  8
0
100
AcDbBlockEnd
  0
ENDSEC
  0
SECTION
  2
ENTITIES
  0
LINE
  5
63E
330
1F
100
AcDbEntity
  8
1
100
AcDbLine
 10
0.0
 20
-105.364835569036
 30
0.0
 11
0.0
 21
188.2156822647053
 31
0.0
  0
LINE
  5
63F
330
1F
100
AcDbEntity
  8
0
100
AcDbLine
 10
62.5
 20
146.9416040016492
 30
0.0
 11
62.5
 21
91.30000000000904
 31
0.0
  0
LINE
  5
640
330
1F
100
AcDbEntity
  8
0
100
AcDbLine
 10
-62.5
 20
146.9416040016492
 30
0.0
 11
-62.5
 21
91.30000000000904
 31
0.0
  0
LINE
  5
641
330
1F
100
AcDbEntity
  8
0
100
AcDbLine
 10
39.15612767604443
 20
47.30647627032204
 30
0.0
 11
61.61462410798503
 21
49.89784124323819
 31
0.0
  0
ARC
  5
642
330
1F
100
AcDbEntity
  8
0
100
AcDbCircle
 10
36.5
 20
54.70000000000891
 30
0.0
 40
5.000000000000007
100
AcDbArc
 50
270.0
 51
0.0
  0
LINE
  5
643
330
1F
100
AcDbEntity
  8
0
100
AcDbLine
 10
40.0
 20
45.40384615385528
 30
0.0
 11
48.61462410798504
 21
46.39784124323819
 31
0.0
  0
ARC
  5
644
330
1F
100
AcDbEntity
  8
0
100
AcDbCircle
 10
36.5
 20
86.30000000000904
 30
0.0
 40
5.000000000000012
100
AcDbArc
 50
0.0
 51
90.0
  0
ARC
  5
645
330
1F
100
AcDbEntity
  8
0
100
AcDbCircle
 10
36.5
 20
86.00000000000909
 30
0.0
 40
4.999999999999998
100
AcDbArc
 50
0.0
 51
90.0
  0
LINE
  5
646
330
1F
100
AcDbEntity
  8
0
100
AcDbLine
 10
-40.0
 20
47.40384615385528
 30
0.0
 11
-61.61462410798503
 21
49.89784124323819
 31
0.0
  0
LINE
  5
647
330
1F
100
AcDbEntity
  8
0
100
AcDbLine
 10
-62.5
 20
91.30000000000904
 30
0.0
 11
62.5
 21
91.30000000000904
 31
0.0
  0
LINE
  5
648
330
1F
100
AcDbEntity
  8
0
100
AcDbLine
 10
-70.80000000000018
 20
89.00000000000909
 30
0.0
 11
-70.80000000000018
 21
55.00000000000909
 31
0.0
  0
LINE
  5
649
330
1F
100
AcDbEntity
  8
0
100
AcDbLine
 10
-71.30000000000018
 20
55.5000000000091
 30
0.0
 11
-71.30000000000018
 21
88.50000000000909
 31
0.0
  0
POLYLINE
  5
64A
330
1F
100
AcDbEntity
  8
0
100
AcDb2dPolyline
 66
     1
 10
0.0
 20
0.0
 30
0.0
  0
VERTEX
  5
64B
330
64A
100
AcDbEntity
  8
0
100
AcDbVertex
100
AcDb2dVertex
 10
-65.49342155456542
 20
88.99392040012163
 30
0.0
  0
VERTEX
  5
64C
330
64A
100
AcDbEntity
  8
0
100
AcDbVertex
100
AcDb2dVertex
 10
-65.49141407012939
 20
88.99077327487749
 30
0.0
  0
VERTEX
  5
64D
330
64A
100
AcDbEntity
  8
0
100
AcDbVertex
100
AcDb2dVertex
 10
-65.48805713653564
 20
88.98392112491411
 30
0.0
  0
VERTEX
  5
64E
330
64A
100
AcDbEntity
  8
0
100
AcDbVertex
100
AcDb2dVertex
 10
-65.48336029052734
 20
88.97337825534624
 30
0.0
  0
VERTEX
  5
64F
330
64A
100
AcDbEntity
  8
0
100
AcDbVertex
100
AcDb2dVertex
 10
-65.4773473739624
 20
88.9591637396602
 30
0.0
  0
VERTEX
  5
650
330
64A
100
AcDbEntity
  8
0
100
AcDbVertex
100
AcDb2dVertex
 10
-65.47004222869873
 20
88.94129665134233
 30
0.0
  0
VERTEX
  5
651
330
64A
100
AcDbEntity
  8
0
100
AcDbVertex
100
AcDb2dVertex
 10
-65.46145915985107
 20
88.91980083225053
 30
0.0
  0
VERTEX
  5
652
330
64A
100
AcDbEntity
  8
0
100
AcDbVertex
100
AcDb2dVertex
 10
-65.45162200927734
 20
88.89468581912797
 30
0.0
  0
VERTEX
  5
653
330
64A
100
AcDbEntity
  8
0
100
AcDbVertex
100
AcDb2dVertex
 10
-65.44054508209228
 20
88.86597545383256
 30
0.0
  0
VERTEX
  5
654
330
64A
100
AcDbEntity
  8
0
100
AcDbVertex
100
AcDb2dVertex
 10
-65.42825698852539
 20
88.83368880985063
 30
0.0
  0
VERTEX
  5
655
330
64A
100
AcDbEntity
  8
0
100
AcDbVertex
100
AcDb2dVertex
 10
-65.4147720336914
 20
88.79784019229692
 30
0.0
  0
VERTEX
  5
656
330
64A
100
AcDbEntity
  8
0
100
AcDbVertex
100
AcDb2dVertex
 10
-65.40010929107666
 20
88.75844867465776
 30
0.0
  0
VERTEX
  5
657
330
64A
100
AcDbEntity
  8
0
100
AcDbVertex
100
AcDb2dVertex
 10
-65.38429260253906
 20
88.71553809879106
 30
0.0
  0
VERTEX
  5
658
330
64A
100
AcDbEntity
  8
0
100
AcDbVertex
100
AcDb2dVertex
 10
-65.36733627319335
 20
88.66912753818315
 30
0.0
  0
VERTEX
  5
659
330
64A
100
AcDbEntity
  8
0
100
AcDbVertex
100
AcDb2dVertex
 10
-65.34926891326904
 20
88.61922652957719
 30
0.0
  0
VERTEX
  5
65A
330
64A
100
AcDbEntity
  8
0
100
AcDbVertex
100
AcDb2dVertex
 10
-65.33010482788085
 20
88.5658589148311
 30
0.0
  0
VERTEX
  5
65B
330
64A
100
AcDbEntity
  8
0
100
AcDbVertex
100
AcDb2dVertex
 10
-65.30986785888671
 20
88.5090437674312
 30
0.0
  0
VERTEX
  5
65C
330
64A
100
AcDbEntity
  8
0
100
AcDbVertex
100
AcDb2dVertex
 10
-65.28857231140136
 20
88.44880016086381
 30
0.0
  0
VERTEX
  5
65D
330
64A
100
AcDbEntity
  8
0
100
AcDbVertex
100
AcDb2dVertex
 10
-65.26624202728271
 20
88.3851424002437
 30
0.0
  0
VERTEX
  5
65E
330
64A
100
AcDbEntity
  8
0
100
AcDbVertex
100
AcDb2dVertex
 10
-65.24289608001708
 20
88.31809432742875
 30
0.0
  0
VERTEX
  5
65F
330
64A
100
AcDbEntity
  8
0
100
AcDbVertex
100
AcDb2dVertex
 10
-65.21855354309082
 20
88.24767024753374
 30
0.0
  0
VERTEX
  5
660
330
64A
100
AcDbEntity
  8
0
100
AcDbVertex
100
AcDb2dVertex
 10
-65.19323825836181
 20
88.17389400241655
 30
0.0
  0
VERTEX
  5
661
330
64A
100
AcDbEntity
  8
0
100
AcDbVertex
100
AcDb2dVertex
 10
-65.1669692993164
 20
88.09677512882036
 30
0.0
  0
VERTEX
  5
662
330
64A
100
AcDbEntity
  8
0
100
AcDbVertex
100
AcDb2dVertex
 10
-65.13976097106933
 20
88.01634223697465
 30
0.0
  0
VERTEX
  5
663
330
64A
100
AcDbEntity
  8
0
100
AcDbVertex
100
AcDb2dVertex
 10
-65.11164188385009
 20
87.93260963199418
 30
0.0
  0
VERTEX
  5
664
330
64A
100
AcDbEntity
  8
0
100
AcDbVertex
100
AcDb2dVertex
 10
-65.08262157440185
 20
87.8455916189937
 30
0.0
  0
VERTEX
  5
665
330
64A
100
AcDbEntity
  8
0
100
AcDbVertex
100
AcDb2dVertex
 10
-65.0527286529541
 20
87.7553120398311
 30
0.0
  0
VERTEX
  5
666
330
64A
100
AcDbEntity
  8
0
100
AcDbVertex
100
AcDb2dVertex
 10
-65.02198219299316
 20
87.66178519962114
 30
0.0
  0
VERTEX
  5
667
330
64A
100
AcDbEntity
  8
0
100
AcDbVertex
100
AcDb2dVertex
 10
-64.99040126800537
 20
87.56503494022172
 30
0.0
  0
VERTEX
  5
668
330
64A
100
AcDbEntity
  8
0
100
AcDbVertex
100
AcDb2dVertex
 10
-64.95800495147705
 20
87.46508033511918
 30
0.0
  0
VERTEX
  5
669
330
64A
100
AcDbEntity
  8
0
100
AcDbVertex
100
AcDb2dVertex
 10
-64.92481231689453
 20
87.36193092105668
 30
0.0
  0
VERTEX
  5
66A
330
64A
100
AcDbEntity
  8
0
100
AcDbVertex
100
AcDb2dVertex
 10
-64.89084243774414
 20
87.25561530826372
 30
0.0
  0
VERTEX
  5
66B
330
64A
100
AcDbEntity
  8
0
100
AcDbVertex
100
AcDb2dVertex
 10
-64.85612392425537
 20
87.14614780185502
 30
0.0
  0
VERTEX
  5
66C
330
64A
100
AcDbEntity
  8
0
100
AcDbVertex
100
AcDb2dVertex
 10
-64.82066631317138
 20
87.03354270694536
 30
0.0
  0
VERTEX
  5
66D
330
64A
100
AcDbEntity
  8
0
100
AcDbVertex
100
AcDb2dVertex
 10
-64.78449344635009
 20
86.91782386539262
 30
0.0
  0
VERTEX
  5
66E
330
64A
100
AcDbEntity
  8
0
100
AcDbVertex
100
AcDb2dVertex
 10
-64.74762916564941
 20
86.79901035068315
 30
0.0
  0
VERTEX
  5
66F
330
64A
100
AcDbEntity
  8
0
100
AcDbVertex
100
AcDb2dVertex
 10
-64.71008777618408
 20
86.67712123630327
 30
0.0
  0
VERTEX
  5
670
330
64A
100
AcDbEntity
  8
0
100
AcDbVertex
100
AcDb2dVertex
 10
-64.67188835144042
 20
86.55216605899614
 30
0.0
  0
VERTEX
  5
671
330
64A
100
AcDbEntity
  8
0
100
AcDbVertex
100
AcDb2dVertex
 10
-64.63305950164794
 20
86.42417342899125
 30
0.0
  0
VERTEX
  5
672
330
64A
100
AcDbEntity
  8
0
100
AcDbVertex
100
AcDb2dVertex
 10
-64.5936107635498
 20
86.29316241977495
 30
0.0
  0
VERTEX
  5
673
330
64A
100
AcDbEntity
  8
0
100
AcDbVertex
100
AcDb2dVertex
 10
-64.55357074737548
 20
86.15914256809038
 30
0.0
  0
VERTEX
  5
674
330
64A
100
AcDbEntity
  8
0
100
AcDbVertex
100
AcDb2dVertex
 10
-64.51295852661132
 20
86.02213771579545
 30
0.0
  0
VERTEX
  5
675
330
64A
100
AcDbEntity
  8
0
100
AcDbVertex
100
AcDb2dVertex
 10
-64.47178840637207
 20
85.88216693637651
 30
0.0
  0
VERTEX
  5
676
330
64A
100
AcDbEntity
  8
0
100
AcDbVertex
100
AcDb2dVertex
 10
-64.43008422851562
 20
85.73924930331987
 30
0.0
  0
VERTEX
  5
677
330
64A
100
AcDbEntity
  8
0
100
AcDbVertex
100
AcDb2dVertex
 10
-64.38786506652832
 20
85.59339912174028
 30
0.0
  0
VERTEX
  5
678
330
64A
100
AcDbEntity
  8
0
100
AcDbVertex
100
AcDb2dVertex
 10
-64.34515476226806
 20
85.44463546512407
 30
0.0
  0
VERTEX
  5
679
330
64A
100
AcDbEntity
  8
0
100
AcDbVertex
100
AcDb2dVertex
 10
-64.30196285247802
 20
85.29298217532915
 30
0.0
  0
VERTEX
  5
67A
330
64A
100
AcDbEntity
  8
0
100
AcDbVertex
100
AcDb2dVertex
 10
-64.25832271575927
 20
85.13845832584184
 30
0.0
  0
VERTEX
  5
67B
330
64A
100
AcDbEntity
  8
0
100
AcDbVertex
100
AcDb2dVertex
 10
-64.21424865722656
 20
84.98107345340532
 30
0.0
  0
VERTEX
  5
67C
330
64A
100
AcDbEntity
  8
0
100
AcDbVertex
100
AcDb2dVertex
 10
-64.16975498199462
 20
84.82085139987749
 30
0.0
  0
VERTEX
  5
67D
330
64A
100
AcDbEntity
  8
0
100
AcDbVertex
100
AcDb2dVertex
 10
-64.1250991821289
 20
84.65774448154252
 30
0.0
  0
VERTEX
  5
67E
330
64A
100
AcDbEntity
  8
0
100
AcDbVertex
100
AcDb2dVertex
 10
-64.08055305480957
 20
84.49170501468461
 30
0.0
  0
VERTEX
  5
67F
330
64A
100
AcDbEntity
  8
0
100
AcDbVertex
100
AcDb2dVertex
 10
-64.03614521026611
 20
84.32278068301958
 30
0.0
  0
VERTEX
  5
680
330
64A
100
AcDbEntity
  8
0
100
AcDbVertex
100
AcDb2dVertex
 10
-63.99189949035644
 20
84.15102870700639
 30
0.0
  0
VERTEX
  5
681
330
64A
100
AcDbEntity
  8
0
100
AcDbVertex
100
AcDb2dVertex
 10
-63.94783020019531
 20
83.97650153873247
 30
0.0
  0
VERTEX
  5
682
330
64A
100
AcDbEntity
  8
0
100
AcDbVertex
100
AcDb2dVertex
 10
-63.90395641326904
 20
83.79924209354204
 30
0.0
  0
VERTEX
  5
683
330
64A
100
AcDbEntity
  8
0
100
AcDbVertex
100
AcDb2dVertex
 10
-63.86030673980712
 20
83.61931236026567
 30
0.0
  0
VERTEX
  5
684
330
64A
100
AcDbEntity
  8
0
100
AcDbVertex
100
AcDb2dVertex
 10
-63.81690025329589
 20
83.43676002261918
 30
0.0
  0
VERTEX
  5
685
330
64A
100
AcDbEntity
  8
0
100
AcDbVertex
100
AcDb2dVertex
 10
-63.77375602722167
 20
83.2516327643184
 30
0.0
  0
VERTEX
  5
686
330
64A
100
AcDbEntity
  8
0
100
AcDbVertex
100
AcDb2dVertex
 10
-63.7308931350708
 20
83.06398303745073
 30
0.0
  0
VERTEX
  5
687
330
64A
100
AcDbEntity
  8
0
100
AcDbVertex
100
AcDb2dVertex
 10
-63.68833541870117
 20
82.87386806247514
 30
0.0
  0
VERTEX
  5
688
330
64A
100
AcDbEntity
  8
0
100
AcDbVertex
100
AcDb2dVertex
 10
-63.64610195159912
 20
82.68133075473588
 30
0.0
  0
VERTEX
  5
689
330
64A
100
AcDbEntity
  8
0
100
AcDbVertex
100
AcDb2dVertex
 10
-63.60421657562255
 20
82.48642833469194
 30
0.0
  0
VERTEX
  5
68A
330
64A
100
AcDbEntity
  8
0
100
AcDbVertex
100
AcDb2dVertex
 10
-63.56269836425781
 20
82.28920848605913
 30
0.0
  0
VERTEX
  5
68B
330
64A
100
AcDbEntity
  8
0
100
AcDbVertex
100
AcDb2dVertex
 10
-63.52157115936279
 20
82.08972842929643
 30
0.0
  0
VERTEX
  5
68C
330
64A
100
AcDbEntity
  8
0
100
AcDbVertex
100
AcDb2dVertex
 10
-63.48084926605224
 20
81.88803107974809
 30
0.0
  0
VERTEX
  5
68D
330
64A
100
AcDbEntity
  8
0
100
AcDbVertex
100
AcDb2dVertex
 10
-63.44056129455566
 20
81.68417842624467
 30
0.0
  0
VERTEX
  5
68E
330
64A
100
AcDbEntity
  8
0
100
AcDbVertex
100
AcDb2dVertex
 10
-63.40072154998779
 20
81.47820861575883
 30
0.0
  0
VERTEX
  5
68F
330
64A
100
AcDbEntity
  8
0
100
AcDbVertex
100
AcDb2dVertex
 10
-63.36135387420654
 20
81.27018363712114
 30
0.0
  0
VERTEX
  5
690
330
64A
100
AcDbEntity
  8
0
100
AcDbVertex
100
AcDb2dVertex
 10
-63.32247734069824
 20
81.06015117404741
 30
0.0
  0
VERTEX
  5
691
330
64A
100
AcDbEntity
  8
0
100
AcDbVertex
100
AcDb2dVertex
 10
-63.2841157913208
 20
80.84816367862504
 30
0.0
  0
VERTEX
  5
692
330
64A
100
AcDbEntity
  8
0
100
AcDbVertex
100
AcDb2dVertex
 10
-63.24629306793212
 20
80.63427360294145
 30
0.0
  0
VERTEX
  5
693
330
64A
100
AcDbEntity
  8
0
100
AcDbVertex
100
AcDb2dVertex
 10
-63.20902347564697
 20
80.41852863071245
 30
0.0
  0
VERTEX
  5
694
330
64A
100
AcDbEntity
  8
0
100
AcDbVertex
100
AcDb2dVertex
 10
-63.17233085632324
 20
80.20098121402543
 30
0.0
  0
VERTEX
  5
695
330
64A
100
AcDbEntity
  8
0
100
AcDbVertex
100
AcDb2dVertex
 10
-63.13623428344726
 20
79.98168380496782
 30
0.0
  0
VERTEX
  5
696
330
64A
100
AcDbEntity
  8
0
100
AcDbVertex
100
AcDb2dVertex
 10
-63.10075759887695
 20
79.760688855627
 30
0.0
  0
VERTEX
  5
697
330
64A
100
AcDbEntity
  8
0
100
AcDbVertex
100
AcDb2dVertex
 10
-63.06591987609863
 20
79.53804404971879
 30
0.0
  0
VERTEX
  5
698
330
64A
100
AcDbEntity
  8
0
100
AcDbVertex
100
AcDb2dVertex
 10
-63.03174495697021
 20
79.31380183933061
 30
0.0
  0
VERTEX
  5
699
330
64A
100
AcDbEntity
  8
0
100
AcDbVertex
100
AcDb2dVertex
 10
-62.99824714660644
 20
79.08801944492143
 30
0.0
  0
VERTEX
  5
69A
330
64A
100
AcDbEntity
  8
0
100
AcDbVertex
100
AcDb2dVertex
 10
-62.96545505523681
 20
78.86073978183549
 30
0.0
  0
VERTEX
  5
69B
330
64A
100
AcDbEntity
  8
0
100
AcDbVertex
100
AcDb2dVertex
 10
-62.93338775634765
 20
78.63202007053178
 30
0.0
  0
VERTEX
  5
69C
330
64A
100
AcDbEntity
  8
0
100
AcDbVertex
100
AcDb2dVertex
 10
-62.90206432342529
 20
78.40190799472612
 30
0.0
  0
VERTEX
  5
69D
330
64A
100
AcDbEntity
  8
0
100
AcDbVertex
100
AcDb2dVertex
 10
-62.87150382995605
 20
78.1704560065059
 30
0.0
  0
VERTEX
  5
69E
330
64A
100
AcDbEntity
  8
0
100
AcDbVertex
100
AcDb2dVertex
 10
-62.84173011779785
 20
77.93772132633012
 30
0.0
  0
VERTEX
  5
69F
330
64A
100
AcDbEntity
  8
0
100
AcDbVertex
100
AcDb2dVertex
 10
-62.81276226043701
 20
77.70374686954301
 30
0.0
  0
VERTEX
  5
6A0
330
64A
100
AcDbEntity
  8
0
100
AcDbVertex
100
AcDb2dVertex
 10
-62.78462409973144
 20
77.46858508823198
 30
0.0
  0
VERTEX
  5
6A1
330
64A
100
AcDbEntity
  8
0
100
AcDbVertex
100
AcDb2dVertex
 10
-62.75733470916748
 20
77.232293202856
 30
0.0
  0
VERTEX
  5
6A2
330
64A
100
AcDbEntity
  8
0
100
AcDbVertex
100
AcDb2dVertex
 10
-62.73091793060302
 20
76.9949188971309
 30
0.0
  0
VERTEX
  5
6A3
330
64A
100
AcDbEntity
  8
0
100
AcDbVertex
100
AcDb2dVertex
 10
-62.70538806915283
 20
76.7565098547725
 30
0.0
  0
VERTEX
  5
6A4
330
64A
100
AcDbEntity
  8
0
100
AcDbVertex
100
AcDb2dVertex
 10
-62.68077373504638
 20
76.51712329623979
 30
0.0
  0
VERTEX
  5
6A5
330
64A
100
AcDbEntity
  8
0
100
AcDbVertex
100
AcDb2dVertex
 10
-62.65708923339843
 20
76.27680690524858
 30
0.0
  0
VERTEX
  5
6A6
330
64A
100
AcDbEntity
  8
0
100
AcDbVertex
100
AcDb2dVertex
 10
-62.63435840606689
 20
76.03561790225786
 30
0.0
  0
VERTEX
  5
6A7
330
64A
100
AcDbEntity
  8
0
100
AcDbVertex
100
AcDb2dVertex
 10
-62.61260509490966
 20
75.79359920261186
 30
0.0
  0
VERTEX
  5
6A8
330
64A
100
AcDbEntity
  8
0
100
AcDbVertex
100
AcDb2dVertex
 10
-62.5918436050415
 20
75.55080802676958
 30
0.0
  0
VERTEX
  5
6A9
330
64A
100
AcDbEntity
  8
0
100
AcDbVertex
100
AcDb2dVertex
 10
-62.57210254669189
 20
75.3072968268184
 30
0.0
  0
VERTEX
  5
6AA
330
64A
100
AcDbEntity
  8
0
100
AcDbVertex
100
AcDb2dVertex
 10
-62.55339622497558
 20
75.06310851810258
 30
0.0
  0
VERTEX
  5
6AB
330
64A
100
AcDbEntity
  8
0
100
AcDbVertex
100
AcDb2dVertex
 10
-62.53574848175048
 20
74.81830508945268
 30
0.0
  0
VERTEX
  5
6AC
330
64A
100
AcDbEntity
  8
0
100
AcDbVertex
100
AcDb2dVertex
 10
-62.51918315887451
 20
74.57293184039873
 30
0.0
  0
VERTEX
  5
6AD
330
64A
100
AcDbEntity
  8
0
100
AcDbVertex
100
AcDb2dVertex
 10
-62.5037145614624
 20
74.32704122302812
 30
0.0
  0
VERTEX
  5
6AE
330
64A
100
AcDbEntity
  8
0
100
AcDbVertex
100
AcDb2dVertex
 10
-62.48937129974365
 20
74.08068330524248
 30
0.0
  0
VERTEX
  5
6AF
330
64A
100
AcDbEntity
  8
0
100
AcDbVertex
100
AcDb2dVertex
 10
-62.476167678833
 20
73.83391292331499
 30
0.0
  0
VERTEX
  5
6B0
330
64A
100
AcDbEntity
  8
0
100
AcDbVertex
100
AcDb2dVertex
 10
-62.46412754058837
 20
73.58677776096147
 30
0.0
  0
VERTEX
  5
6B1
330
64A
100
AcDbEntity
  8
0
100
AcDbVertex
100
AcDb2dVertex
 10
-62.45326995849609
 20
73.33933265445512
 30
0.0
  0
VERTEX
  5
6B2
330
64A
100
AcDbEntity
  8
0
100
AcDbVertex
100
AcDb2dVertex
 10
-62.44361877441406
 20
73.09162528751176
 30
0.0
  0
VERTEX
  5
6B3
330
64A
100
AcDbEntity
  8
0
100
AcDbVertex
100
AcDb2dVertex
 10
-62.43519306182861
 20
72.84371049640459
 30
0.0
  0
VERTEX
  5
6B4
330
64A
100
AcDbEntity
  8
0
100
AcDbVertex
100
AcDb2dVertex
 10
-62.42801666259765
 20
72.5956383490352
 30
0.0
  0
VERTEX
  5
6B5
330
64A
100
AcDbEntity
  8
0
100
AcDbVertex
100
AcDb2dVertex
 10
-62.42210388183593
 20
72.34745891330522
 30
0.0
  0
VERTEX
  5
6B6
330
64A
100
AcDbEntity
  8
0
100
AcDbVertex
100
AcDb2dVertex
 10
-62.41748332977294
 20
72.09922464130205
 30
0.0
  0
VERTEX
  5
6B7
330
64A
100
AcDbEntity
  8
0
100
AcDbVertex
100
AcDb2dVertex
 10
-62.41417407989501
 20
71.85098798511308
 30
0.0
  0
VERTEX
  5
6B8
330
64A
100
AcDbEntity
  8
0
100
AcDbVertex
100
AcDb2dVertex
 10
-62.41219043731689
 20
71.60279901263994
 30
0.0
  0
VERTEX
  5
6B9
330
64A
100
AcDbEntity
  8
0
100
AcDbVertex
100
AcDb2dVertex
 10
-62.41156578063964
 20
71.35471017597001
 30
0.0
  0
VERTEX
  5
6BA
330
64A
100
AcDbEntity
  8
0
100
AcDbVertex
100
AcDb2dVertex
 10
-62.41230964660644
 20
71.10677154300493
 30
0.0
  0
VERTEX
  5
6BB
330
64A
100
AcDbEntity
  8
0
100
AcDbVertex
100
AcDb2dVertex
 10
-62.41444587707519
 20
70.85903318164628
 30
0.0
  0
VERTEX
  5
6BC
330
64A
100
AcDbEntity
  8
0
100
AcDbVertex
100
AcDb2dVertex
 10
-62.4179983139038
 20
70.61154992816728
 30
0.0
  0
VERTEX
  5
6BD
330
64A
100
AcDbEntity
  8
0
100
AcDbVertex
100
AcDb2dVertex
 10
-62.42298603057861
 20
70.36437185046953
 30
0.0
  0
VERTEX
  5
6BE
330
64A
100
AcDbEntity
  8
0
100
AcDbVertex
100
AcDb2dVertex
 10
-62.42942810058593
 20
70.11754901645463
 30
0.0
  0
VERTEX
  5
6BF
330
64A
100
AcDbEntity
  8
0
100
AcDbVertex
100
AcDb2dVertex
 10
-62.43734836578369
 20
69.8711362623958
 30
0.0
  0
VERTEX
  5
6C0
330
64A
100
AcDbEntity
  8
0
100
AcDbVertex
100
AcDb2dVertex
 10
-62.44677066802978
 20
69.62517888782304
 30
0.0
  0
VERTEX
  5
6C1
330
64A
100
AcDbEntity
  8
0
100
AcDbVertex
100
AcDb2dVertex
 10
-62.45770931243896
 20
69.37973411319536
 30
0.0
  0
VERTEX
  5
6C2
330
64A
100
AcDbEntity
  8
0
100
AcDbVertex
100
AcDb2dVertex
 10
-62.47018814086914
 20
69.13484962222856
 30
0.0
  0
VERTEX
  5
6C3
330
64A
100
AcDbEntity
  8
0
100
AcDbVertex
100
AcDb2dVertex
 10
-62.48422622680664
 20
68.89058025119584
 30
0.0
  0
VERTEX
  5
6C4
330
64A
100
AcDbEntity
  8
0
100
AcDbVertex
100
AcDb2dVertex
 10
-62.49984741210937
 20
68.64697368381303
 30
0.0
  0
VERTEX
  5
6C5
330
64A
100
AcDbEntity
  8
0
100
AcDbVertex
100
AcDb2dVertex
 10
-62.51707553863525
 20
68.40408475635332
 30
0.0
  0
VERTEX
  5
6C6
330
64A
100
AcDbEntity
  8
0
100
AcDbVertex
100
AcDb2dVertex
 10
-62.53592491149902
 20
68.16196115253251
 30
0.0
  0
VERTEX
  5
6C7
330
64A
100
AcDbEntity
  8
0
100
AcDbVertex
100
AcDb2dVertex
 10
-62.55641460418701
 20
67.92065770862382
 30
0.0
  0
VERTEX
  5
6C8
330
64A
100
AcDbEntity
  8
0
100
AcDbVertex
100
AcDb2dVertex
 10
-62.57857322692871
 20
67.68022687671464
 30
0.0
  0
VERTEX
  5
6C9
330
64A
100
AcDbEntity
  8
0
100
AcDbVertex
100
AcDb2dVertex
 10
-62.60211944580078
 20
67.44086177585405
 30
0.0
  0
VERTEX
  5
6CA
330
64A
100
AcDbEntity
  8
0
100
AcDbVertex
100
AcDb2dVertex
 10
-62.62685775756835
 20
67.20268638370317
 30
0.0
  0
VERTEX
  5
6CB
330
64A
100
AcDbEntity
  8
0
100
AcDbVertex
100
AcDb2dVertex
 10
-62.65275955200195
 20
66.96573646304887
 30
0.0
  0
VERTEX
  5
6CC
330
64A
100
AcDbEntity
  8
0
100
AcDbVertex
100
AcDb2dVertex
 10
-62.6797866821289
 20
66.73004777667802
 30
0.0
  0
VERTEX
  5
6CD
330
64A
100
AcDbEntity
  8
0
100
AcDbVertex
100
AcDb2dVertex
 10
-62.70791053771972
 20
66.49565608737749
 30
0.0
  0
VERTEX
  5
6CE
330
64A
100
AcDbEntity
  8
0
100
AcDbVertex
100
AcDb2dVertex
 10
-62.73709297180175
 20
66.26259238956254
 30
0.0
  0
VERTEX
  5
6CF
330
64A
100
AcDbEntity
  8
0
100
AcDbVertex
100
AcDb2dVertex
 10
-62.76729583740234
 20
66.03089959857744
 30
0.0
  0
VERTEX
  5
6D0
330
64A
100
AcDbEntity
  8
0
100
AcDbVertex
100
AcDb2dVertex
 10
-62.79849052429199
 20
65.80060394046586
 30
0.0
  0
VERTEX
  5
6D1
330
64A
100
AcDbEntity
  8
0
100
AcDbVertex
100
AcDb2dVertex
 10
-62.83064365386962
 20
65.57174833057207
 30
0.0
  0
VERTEX
  5
6D2
330
64A
100
AcDbEntity
  8
0
100
AcDbVertex
100
AcDb2dVertex
 10
-62.86371707916259
 20
65.34436376331132
 30
0.0
  0
VERTEX
  5
6D3
330
64A
100
AcDbEntity
  8
0
100
AcDbVertex
100
AcDb2dVertex
 10
-62.89767742156982
 20
65.11848838565629
 30
0.0
  0
VERTEX
  5
6D4
330
64A
100
AcDbEntity
  8
0
100
AcDbVertex
100
AcDb2dVertex
 10
-62.93249607086181
 20
64.89415319202226
 30
0.0
  0
VERTEX
  5
6D5
330
64A
100
AcDbEntity
  8
0
100
AcDbVertex
100
AcDb2dVertex
 10
-62.96813011169433
 20
64.67139871356767
 30
0.0
  0
VERTEX
  5
6D6
330
64A
100
AcDbEntity
  8
0
100
AcDbVertex
100
AcDb2dVertex
 10
-63.00455093383789
 20
64.45025594470781
 30
0.0
  0
VERTEX
  5
6D7
330
64A
100
AcDbEntity
  8
0
100
AcDbVertex
100
AcDb2dVertex
 10
-63.04172039031982
 20
64.23076064822954
 30
0.0
  0
VERTEX
  5
6D8
330
64A
100
AcDbEntity
  8
0
100
AcDbVertex
100
AcDb2dVertex
 10
-63.07960987091064
 20
64.01295097110551
 30
0.0
  0
VERTEX
  5
6D9
330
64A
100
AcDbEntity
  8
0
100
AcDbVertex
100
AcDb2dVertex
 10
-63.11818122863769
 20
63.79685790775102
 30
0.0
  0
VERTEX
  5
6DA
330
64A
100
AcDbEntity
  8
0
100
AcDbVertex
100
AcDb2dVertex
 10
-63.1574010848999
 20
63.58251960513872
 30
0.0
  0
VERTEX
  5
6DB
330
64A
100
AcDbEntity
  8
0
100
AcDbVertex
100
AcDb2dVertex
 10
-63.19723606109619
 20
63.36997182605546
 30
0.0
  0
VERTEX
  5
6DC
330
64A
100
AcDbEntity
  8
0
100
AcDbVertex
100
AcDb2dVertex
 10
-63.23765277862548
 20
63.15924794910234
 30
0.0
  0
VERTEX
  5
6DD
330
64A
100
AcDbEntity
  8
0
100
AcDbVertex
100
AcDb2dVertex
 10
-63.27861309051513
 20
62.950386121252
 30
0.0
  0
VERTEX
  5
6DE
330
64A
100
AcDbEntity
  8
0
100
AcDbVertex
100
AcDb2dVertex
 10
-63.32008361816406
 20
62.74341733691972
 30
0.0
  0
VERTEX
  5
6DF
330
64A
100
AcDbEntity
  8
0
100
AcDbVertex
100
AcDb2dVertex
 10
-63.36203575134277
 20
62.53837974307817
 30
0.0
  0
VERTEX
  5
6E0
330
64A
100
AcDbEntity
  8
0
100
AcDbVertex
100
AcDb2dVertex
 10
-63.40443134307861
 20
62.33530671832841
 30
0.0
  0
VERTEX
  5
6E1
330
64A
100
AcDbEntity
  8
0
100
AcDbVertex
100
AcDb2dVertex
 10
-63.44723224639892
 20
62.13423402545732
 30
0.0
  0
VERTEX
  5
6E2
330
64A
100
AcDbEntity
  8
0
100
AcDbVertex
100
AcDb2dVertex
 10
-63.49040985107421
 20
61.93519981143754
 30
0.0
  0
VERTEX
  5
6E3
330
64A
100
AcDbEntity
  8
0
100
AcDbVertex
100
AcDb2dVertex
 10
-63.53393077850341
 20
61.73823507068437
 30
0.0
  0
VERTEX
  5
6E4
330
64A
100
AcDbEntity
  8
0
100
AcDbVertex
100
AcDb2dVertex
 10
-63.57775688171386
 20
61.54337795017045
 30
0.0
  0
VERTEX
  5
6E5
330
64A
100
AcDbEntity
  8
0
100
AcDbVertex
100
AcDb2dVertex
 10
-63.62185955047607
 20
61.35066182849687
 30
0.0
  0
VERTEX
  5
6E6
330
64A
100
AcDbEntity
  8
0
100
AcDbVertex
100
AcDb2dVertex
 10
-63.6661958694458
 20
61.16012246845048
 30
0.0
  0
VERTEX
  5
6E7
330
64A
100
AcDbEntity
  8
0
100
AcDbVertex
100
AcDb2dVertex
 10
-63.71073722839355
 20
60.97179563281816
 30
0.0
  0
VERTEX
  5
6E8
330
64A
100
AcDbEntity
  8
0
100
AcDbVertex
100
AcDb2dVertex
 10
-63.75545024871826
 20
60.78571708438676
 30
0.0
  0
VERTEX
  5
6E9
330
64A
100
AcDbEntity
  8
0
100
AcDbVertex
100
AcDb2dVertex
 10
-63.80029678344726
 20
60.60192258594316
 30
0.0
  0
VERTEX
  5
6EA
330
64A
100
AcDbEntity
  8
0
100
AcDbVertex
100
AcDb2dVertex
 10
-63.84524822235107
 20
60.42044313190263
 30
0.0
  0
VERTEX
  5
6EB
330
64A
100
AcDbEntity
  8
0
100
AcDbVertex
100
AcDb2dVertex
 10
-63.89026641845703
 20
60.24131925342363
 30
0.0
  0
VERTEX
  5
6EC
330
64A
100
AcDbEntity
  8
0
100
AcDbVertex
100
AcDb2dVertex
 10
-63.93531799316406
 20
60.06458432910722
 30
0.0
  0
VERTEX
  5
6ED
330
64A
100
AcDbEntity
  8
0
100
AcDbVertex
100
AcDb2dVertex
 10
-63.98036956787109
 20
59.89027173755449
 30
0.0
  0
VERTEX
  5
6EE
330
64A
100
AcDbEntity
  8
0
100
AcDbVertex
100
AcDb2dVertex
 10
-64.02538299560546
 20
59.71841724155229
 30
0.0
  0
VERTEX
  5
6EF
330
64A
100
AcDbEntity
  8
0
100
AcDbVertex
100
AcDb2dVertex
 10
-64.07032966613769
 20
59.54905898807329
 30
0.0
  0
VERTEX
  5
6F0
330
64A
100
AcDbEntity
  8
0
100
AcDbVertex
100
AcDb2dVertex
 10
-64.11517620086669
 20
59.38223035571855
 30
0.0
  0
VERTEX
  5
6F1
330
64A
100
AcDbEntity
  8
0
100
AcDbVertex
100
AcDb2dVertex
 10
-64.15987968444824
 20
59.21796472308916
 30
0.0
  0
VERTEX
  5
6F2
330
64A
100
AcDbEntity
  8
0
100
AcDbVertex
100
AcDb2dVertex
 10
-64.20441627502441
 20
59.05630023715776
 30
0.0
  0
VERTEX
  5
6F3
330
64A
100
AcDbEntity
  8
0
100
AcDbVertex
100
AcDb2dVertex
 10
-64.24874305725097
 20
58.89727027652543
 30
0.0
  0
VERTEX
  5
6F4
330
64A
100
AcDbEntity
  8
0
100
AcDbVertex
100
AcDb2dVertex
 10
-64.29283142089843
 20
58.74091298816484
 30
0.0
  0
VERTEX
  5
6F5
330
64A
100
AcDbEntity
  8
0
100
AcDbVertex
100
AcDb2dVertex
 10
-64.33664798736572
 20
58.58725936649125
 30
0.0
  0
VERTEX
  5
6F6
330
64A
100
AcDbEntity
  8
0
100
AcDbVertex
100
AcDb2dVertex
 10
-64.38015460968017
 20
58.43634755847734
 30
0.0
  0
VERTEX
  5
6F7
330
64A
100
AcDbEntity
  8
0
100
AcDbVertex
100
AcDb2dVertex
 10
-64.42331790924072
 20
58.28821094272417
 30
0.0
  0
VERTEX
  5
6F8
330
64A
100
AcDbEntity
  8
0
100
AcDbVertex
100
AcDb2dVertex
 10
-64.46610450744628
 20
58.1428852820186
 30
0.0
  0
VERTEX
  5
6F9
330
64A
100
AcDbEntity
  8
0
100
AcDbVertex
100
AcDb2dVertex
 10
-64.5084810256958
 20
58.0004087233333
 30
0.0
  0
VERTEX
  5
6FA
330
64A
100
AcDbEntity
  8
0
100
AcDbVertex
100
AcDb2dVertex
 10
-64.5504093170166
 20
57.86081226108354
 30
0.0
  0
VERTEX
  5
6FB
330
64A
100
AcDbEntity
  8
0
100
AcDbVertex
100
AcDb2dVertex
 10
-64.59186553955078
 20
57.72413404224199
 30
0.0
  0
VERTEX
  5
6FC
330
64A
100
AcDbEntity
  8
0
100
AcDbVertex
100
AcDb2dVertex
 10
-64.63280200958251
 20
57.59040744540971
 30
0.0
  0
VERTEX
  5
6FD
330
64A
100
AcDbEntity
  8
0
100
AcDbVertex
100
AcDb2dVertex
 10
-64.6731948852539
 20
57.45967061755937
 30
0.0
  0
VERTEX
  5
6FE
330
64A
100
AcDbEntity
  8
0
100
AcDbVertex
100
AcDb2dVertex
 10
-64.7130012512207
 20
57.33195455310625
 30
0.0
  0
VERTEX
  5
6FF
330
64A
100
AcDbEntity
  8
0
100
AcDbVertex
100
AcDb2dVertex
 10
-64.752197265625
 20
57.20729739902299
 30
0.0
  0
VERTEX
  5
700
330
64A
100
AcDbEntity
  8
0
100
AcDbVertex
100
AcDb2dVertex
 10
-64.79074001312255
 20
57.08573253391069
 30
0.0
  0
VERTEX
  5
701
330
64A
100
AcDbEntity
  8
0
100
AcDbVertex
100
AcDb2dVertex
 10
-64.82860088348388
 20
56.96729810474199
 30
0.0
  0
VERTEX
  5
702
330
64A
100
AcDbEntity
  8
0
100
AcDbVertex
100
AcDb2dVertex
 10
-64.86574172973632
 20
56.85202510593217
 30
0.0
  0
VERTEX
  5
703
330
64A
100
AcDbEntity
  8
0
100
AcDbVertex
100
AcDb2dVertex
 10
-64.9021291732788
 20
56.73995406863969
 30
0.0
  0
VERTEX
  5
704
330
64A
100
AcDbEntity
  8
0
100
AcDbVertex
100
AcDb2dVertex
 10
-64.93772983551025
 20
56.63111598727983
 30
0.0
  0
VERTEX
  5
705
330
64A
100
AcDbEntity
  8
0
100
AcDbVertex
100
AcDb2dVertex
 10
-64.97251033782958
 20
56.52554662463945
 30
0.0
  0
VERTEX
  5
706
330
64A
100
AcDbEntity
  8
0
100
AcDbVertex
100
AcDb2dVertex
 10
-65.00643730163574
 20
56.42328412769121
 30
0.0
  0
VERTEX
  5
707
330
64A
100
AcDbEntity
  8
0
100
AcDbVertex
100
AcDb2dVertex
 10
-65.03947257995605
 20
56.32435949085039
 30
0.0
  0
VERTEX
  5
708
330
64A
100
AcDbEntity
  8
0
100
AcDbVertex
100
AcDb2dVertex
 10
-65.07158756256103
 20
56.22881324527543
 30
0.0
  0
VERTEX
  5
709
330
64A
100
AcDbEntity
  8
0
100
AcDbVertex
100
AcDb2dVertex
 10
-65.10274410247802
 20
56.13667400119584
 30
0.0
  0
VERTEX
  5
70A
330
64A
100
AcDbEntity
  8
0
100
AcDbVertex
100
AcDb2dVertex
 10
-65.13290405273437
 20
56.04798467395585
 30
0.0
  0
VERTEX
  5
70B
330
64A
100
AcDbEntity
  8
0
100
AcDbVertex
100
AcDb2dVertex
 10
-65.16204357147216
 20
55.96277387378496
 30
0.0
  0
VERTEX
  5
70C
330
64A
100
AcDbEntity
  8
0
100
AcDbVertex
100
AcDb2dVertex
 10
-65.19011974334716
 20
55.88107974765581
 30
0.0
  0
VERTEX
  5
70D
330
64A
100
AcDbEntity
  8
0
100
AcDbVertex
100
AcDb2dVertex
 10
-65.21710395812988
 20
55.80293567416948
 30
0.0
  0
VERTEX
  5
70E
330
64A
100
AcDbEntity
  8
0
100
AcDbVertex
100
AcDb2dVertex
 10
-65.24295806884765
 20
55.72837980029863
 30
0.0
  0
VERTEX
  5
70F
330
64A
100
AcDbEntity
  8
0
100
AcDbVertex
100
AcDb2dVertex
 10
-65.26764869689941
 20
55.65744788883012
 30
0.0
  0
VERTEX
  5
710
330
64A
100
AcDbEntity
  8
0
100
AcDbVertex
100
AcDb2dVertex
 10
-65.29114246368408
 20
55.59017093417924
 30
0.0
  0
VERTEX
  5
711
330
64A
100
AcDbEntity
  8
0
100
AcDbVertex
100
AcDb2dVertex
 10
-65.31341075897216
 20
55.52658708331865
 30
0.0
  0
VERTEX
  5
712
330
64A
100
AcDbEntity
  8
0
100
AcDbVertex
100
AcDb2dVertex
 10
-65.33440589904785
 20
55.4667320990352
 30
0.0
  0
VERTEX
  5
713
330
64A
100
AcDbEntity
  8
0
100
AcDbVertex
100
AcDb2dVertex
 10
-65.35410404205322
 20
55.41063935992998
 30
0.0
  0
VERTEX
  5
714
330
64A
100
AcDbEntity
  8
0
100
AcDbVertex
100
AcDb2dVertex
 10
-65.37227630615234
 20
55.35843999622148
 30
0.0
  0
VERTEX
  5
715
330
64A
100
AcDbEntity
  8
0
100
AcDbVertex
100
AcDb2dVertex
 10
-65.38877964019775
 20
55.31020553348344
 30
0.0
  0
VERTEX
  5
716
330
64A
100
AcDbEntity
  8
0
100
AcDbVertex
100
AcDb2dVertex
 10
-65.40363788604736
 20
55.26591212985795
 30
0.0
  0
VERTEX
  5
717
330
64A
100
AcDbEntity
  8
0
100
AcDbVertex
100
AcDb2dVertex
 10
-65.41687965393066
 20
55.22554071185869
 30
0.0
  0
VERTEX
  5
718
330
64A
100
AcDbEntity
  8
0
100
AcDbVertex
100
AcDb2dVertex
 10
-65.42852401733398
 20
55.18907220599931
 30
0.0
  0
VERTEX
  5
719
330
64A
100
AcDbEntity
  8
0
100
AcDbVertex
100
AcDb2dVertex
 10
-65.43859004974365
 20
55.15648277042192
 30
0.0
  0
VERTEX
  5
71A
330
64A
100
AcDbEntity
  8
0
100
AcDbVertex
100
AcDb2dVertex
 10
-65.44710636138916
 20
55.12775810001176
 30
0.0
  0
VERTEX
  5
71B
330
64A
100
AcDbEntity
  8
0
100
AcDbVertex
100
AcDb2dVertex
 10
-65.45409679412841
 20
55.10287196872514
 30
0.0
  0
VERTEX
  5
71C
330
64A
100
AcDbEntity
  8
0
100
AcDbVertex
100
AcDb2dVertex
 10
-65.45958518981933
 20
55.08181007144731
 30
0.0
  0
VERTEX
  5
71D
330
64A
100
AcDbEntity
  8
0
100
AcDbVertex
100
AcDb2dVertex
 10
-65.46358585357666
 20
55.06454618213457
 30
0.0
  0
VERTEX
  5
71E
330
64A
100
AcDbEntity
  8
0
100
AcDbVertex
100
AcDb2dVertex
 10
-65.46613216400146
 20
55.05106361148637
 30
0.0
  0
VERTEX
  5
71F
330
64A
100
AcDbEntity
  8
0
100
AcDbVertex
100
AcDb2dVertex
 10
-65.46724319458007
 20
55.0413432860164
 30
0.0
  0
VERTEX
  5
720
330
64A
100
AcDbEntity
  8
0
100
AcDbVertex
100
AcDb2dVertex
 10
-65.46694755554199
 20
55.03536136386674
 30
0.0
  0
VERTEX
  5
721
330
64A
100
AcDbEntity
  8
0
100
AcDbVertex
100
AcDb2dVertex
 10
-65.46525478363037
 20
55.03309877155107
 30
0.0
  0
VERTEX
  5
722
330
64A
100
AcDbEntity
  8
0
100
AcDbVertex
100
AcDb2dVertex
 10
-65.46220302581787
 20
55.03453881976884
 30
0.0
  0
SEQEND
  5
723
330
64A
100
AcDbEntity
  8
0
  0
LINE
  5
724
330
1F
100
AcDbEntity
  8
0
100
AcDbLine
 10
-62.5
 20
52.00000000000909
 30
0.0
 11
-62.5
 21
50.89125017910919
 31
0.0
  0
ARC
  5
725
330
1F
100
AcDbEntity
  8
0
100
AcDbCircle
 10
-61.5
 20
50.89125017910919
 30
0.0
 40
0.9999999999999854
100
AcDbArc
 50
180.0
 51
263.4180553448274
  0
LINE
  5
726
330
1F
100
AcDbEntity
  8
0
100
AcDbLine
 10
-65.5
 20
55.00000000000909
 30
0.0
 11
-70.80000000000018
 21
55.00000000000909
 31
0.0
  0
LINE
  5
727
330
1F
100
AcDbEntity
  8
0
100
AcDbLine
 10
-71.30000000000018
 20
55.5000000000091
 30
0.0
 11
-70.80000000000018
 21
55.00000000000909
 31
0.0
  0
POLYLINE
  5
728
330
1F
100
AcDbEntity
  8
0
100
AcDb2dPolyline
 66
     1
 10
0.0
 20
0.0
 30
0.0
  0
VERTEX
  5
729
330
728
100
AcDbEntity
  8
0
100
AcDbVertex
100
AcDb2dVertex
 10
-62.5
 20
51.99999959705156
 30
0.0
  0
VERTEX
  5
72A
330
728
100
AcDbEntity
  8
0
100
AcDbVertex
100
AcDb2dVertex
 10
-62.53170490264892
 20
52.19295056102556
 30
0.0
  0
VERTEX
  5
72B
330
728
100
AcDbEntity
  8
0
100
AcDbVertex
100
AcDb2dVertex
 10
-62.56340980529785
 20
52.38590033290666
 30
0.0
  0
VERTEX
  5
72C
330
728
100
AcDbEntity
  8
0
100
AcDbVertex
100
AcDb2dVertex
 10
-62.59511947631835
 20
52.57885129688066
 30
0.0
  0
VERTEX
  5
72D
330
728
100
AcDbEntity
  8
0
100
AcDbVertex
100
AcDb2dVertex
 10
-62.62682437896728
 20
52.77180106876176
 30
0.0
  0
VERTEX
  5
72E
330
728
100
AcDbEntity
  8
0
100
AcDbVertex
100
AcDb2dVertex
 10
-62.65999317169189
 20
52.96425850627702
 30
0.0
  0
VERTEX
  5
72F
330
728
100
AcDbEntity
  8
0
100
AcDbVertex
100
AcDb2dVertex
 10
-62.75126457214355
 20
53.13718946216386
 30
0.0
  0
VERTEX
  5
730
330
728
100
AcDbEntity
  8
0
100
AcDbVertex
100
AcDb2dVertex
 10
-62.84253597259521
 20
53.31011922595781
 30
0.0
  0
VERTEX
  5
731
330
728
100
AcDbEntity
  8
0
100
AcDbVertex
100
AcDb2dVertex
 10
-62.93380260467529
 20
53.48305018184465
 30
0.0
  0
VERTEX
  5
732
330
728
100
AcDbEntity
  8
0
100
AcDbVertex
100
AcDb2dVertex
 10
-63.02507400512695
 20
53.65597994563859
 30
0.0
  0
VERTEX
  5
733
330
728
100
AcDbEntity
  8
0
100
AcDbVertex
100
AcDb2dVertex
 10
-63.12326431274414
 20
53.82369668720048
 30
0.0
  0
VERTEX
  5
734
330
728
100
AcDbEntity
  8
0
100
AcDbVertex
100
AcDb2dVertex
 10
-63.26428890228271
 20
53.95915181873125
 30
0.0
  0
VERTEX
  5
735
330
728
100
AcDbEntity
  8
0
100
AcDbVertex
100
AcDb2dVertex
 10
-63.54632854461669
 20
54.23006208179277
 30
0.0
  0
VERTEX
  5
736
330
728
100
AcDbEntity
  8
0
100
AcDbVertex
100
AcDb2dVertex
 10
-63.68735313415527
 20
54.36551721332353
 30
0.0
  0
VERTEX
  5
737
330
728
100
AcDbEntity
  8
0
100
AcDbVertex
100
AcDb2dVertex
 10
-63.837251663208
 20
54.48814304111284
 30
0.0
  0
VERTEX
  5
738
330
728
100
AcDbEntity
  8
0
100
AcDbVertex
100
AcDb2dVertex
 10
-64.01371955871582
 20
54.57236082790178
 30
0.0
  0
VERTEX
  5
739
330
728
100
AcDbEntity
  8
0
100
AcDbVertex
100
AcDb2dVertex
 10
-64.19019222259521
 20
54.65657742259782
 30
0.0
  0
VERTEX
  5
73A
330
728
100
AcDbEntity
  8
0
100
AcDbVertex
100
AcDb2dVertex
 10
-64.3666648864746
 20
54.74079520938676
 30
0.0
  0
VERTEX
  5
73B
330
728
100
AcDbEntity
  8
0
100
AcDbVertex
100
AcDb2dVertex
 10
-64.543137550354
 20
54.8250141882686
 30
0.0
  0
VERTEX
  5
73C
330
728
100
AcDbEntity
  8
0
100
AcDbVertex
100
AcDb2dVertex
 10
-64.72579002380371
 20
54.88881738422197
 30
0.0
  0
VERTEX
  5
73D
330
728
100
AcDbEntity
  8
0
100
AcDbVertex
100
AcDb2dVertex
 10
-64.91934299468994
 20
54.91661222217363
 30
0.0
  0
VERTEX
  5
73E
330
728
100
AcDbEntity
  8
0
100
AcDbVertex
100
AcDb2dVertex
 10
-65.11289596557617
 20
54.94440944431108
 30
0.0
  0
VERTEX
  5
73F
330
728
100
AcDbEntity
  8
0
100
AcDbVertex
100
AcDb2dVertex
 10
-65.50000190734863
 20
54.9999991202144
 30
0.0
  0
SEQEND
  5
740
330
728
100
AcDbEntity
  8
0
  0
POLYLINE
  5
741
330
1F
100
AcDbEntity
  8
0
100
AcDb2dPolyline
 66
     1
 10
0.0
 20
0.0
 30
0.0
  0
VERTEX
  5
742
330
741
100
AcDbEntity
  8
0
100
AcDbVertex
100
AcDb2dVertex
 10
-62.78441905975341
 20
90.72500140903276
 30
0.0
  0
VERTEX
  5
743
330
741
100
AcDbEntity
  8
0
100
AcDbVertex
100
AcDb2dVertex
 10
-62.75782108306884
 20
90.76372535465043
 30
0.0
  0
VERTEX
  5
744
330
741
100
AcDbEntity
  8
0
100
AcDbVertex
100
AcDb2dVertex
 10
-62.73122787475585
 20
90.80244930026811
 30
0.0
  0
VERTEX
  5
745
330
741
100
AcDbEntity
  8
0
100
AcDbVertex
100
AcDb2dVertex
 10
-62.65143394470214
 20
90.91862113712114
 30
0.0
  0
VERTEX
  5
746
330
741
100
AcDbEntity
  8
0
100
AcDbVertex
100
AcDb2dVertex
 10
-62.62484073638916
 20
90.95734508273881
 30
0.0
  0
VERTEX
  5
747
330
741
100
AcDbEntity
  8
0
100
AcDbVertex
100
AcDb2dVertex
 10
-62.59718418121337
 20
90.9950581335811
 30
0.0
  0
VERTEX
  5
748
330
741
100
AcDbEntity
  8
0
100
AcDbVertex
100
AcDb2dVertex
 10
-62.5596809387207
 20
91.02334888217729
 30
0.0
  0
VERTEX
  5
749
330
741
100
AcDbEntity
  8
0
100
AcDbVertex
100
AcDb2dVertex
 10
-62.52217292785644
 20
91.0516348624019
 30
0.0
  0
VERTEX
  5
74A
330
741
100
AcDbEntity
  8
0
100
AcDbVertex
100
AcDb2dVertex
 10
-62.48466491699218
 20
91.07992561099809
 30
0.0
  0
VERTEX
  5
74B
330
741
100
AcDbEntity
  8
0
100
AcDbVertex
100
AcDb2dVertex
 10
-62.44716167449951
 20
91.1082115912227
 30
0.0
  0
VERTEX
  5
74C
330
741
100
AcDbEntity
  8
0
100
AcDbVertex
100
AcDb2dVertex
 10
-62.40965366363525
 20
91.13650233981889
 30
0.0
  0
VERTEX
  5
74D
330
741
100
AcDbEntity
  8
0
100
AcDbVertex
100
AcDb2dVertex
 10
-62.37214565277099
 20
91.1647883200435
 30
0.0
  0
VERTEX
  5
74E
330
741
100
AcDbEntity
  8
0
100
AcDbVertex
100
AcDb2dVertex
 10
-62.33241081237792
 20
91.18886382816118
 30
0.0
  0
VERTEX
  5
74F
330
741
100
AcDbEntity
  8
0
100
AcDbVertex
100
AcDb2dVertex
 10
-62.19891548156738
 20
91.23403938052934
 30
0.0
  0
VERTEX
  5
750
330
741
100
AcDbEntity
  8
0
100
AcDbVertex
100
AcDb2dVertex
 10
-62.15441226959228
 20
91.2490978979854
 30
0.0
  0
VERTEX
  5
751
330
741
100
AcDbEntity
  8
0
100
AcDbVertex
100
AcDb2dVertex
 10
-62.06541538238525
 20
91.2792149328975
 30
0.0
  0
VERTEX
  5
752
330
741
100
AcDbEntity
  8
0
100
AcDbVertex
100
AcDb2dVertex
 10
-62.01967239379882
 20
91.28829391238969
 30
0.0
  0
VERTEX
  5
753
330
741
100
AcDbEntity
  8
0
100
AcDbVertex
100
AcDb2dVertex
 10
-61.97285652160644
 20
91.29219444034379
 30
0.0
  0
VERTEX
  5
754
330
741
100
AcDbEntity
  8
0
100
AcDbVertex
100
AcDb2dVertex
 10
-61.92604064941406
 20
91.29609973666948
 30
0.0
  0
VERTEX
  5
755
330
741
100
AcDbEntity
  8
0
100
AcDbVertex
100
AcDb2dVertex
 10
-61.87922477722167
 20
91.30000026462358
 30
0.0
  0
SEQEND
  5
756
330
741
100
AcDbEntity
  8
0
  0
LINE
  5
757
330
1F
100
AcDbEntity
  8
0
100
AcDbLine
 10
-65.5
 20
89.00000000000909
 30
0.0
 11
-70.80000000000018
 21
89.00000000000909
 31
0.0
  0
LINE
  5
758
330
1F
100
AcDbEntity
  8
0
100
AcDbLine
 10
-71.30000000000018
 20
88.50000000000909
 30
0.0
 11
-70.80000000000018
 21
89.00000000000909
 31
0.0
  0
POLYLINE
  5
759
330
1F
100
AcDbEntity
  8
0
100
AcDb2dPolyline
 66
     1
 10
0.0
 20
0.0
 30
0.0
  0
VERTEX
  5
75A
330
759
100
AcDbEntity
  8
0
100
AcDbVertex
100
AcDb2dVertex
 10
-65.50000190734863
 20
89.00000007388872
 30
0.0
  0
VERTEX
  5
75B
330
759
100
AcDbEntity
  8
0
100
AcDbVertex
100
AcDb2dVertex
 10
-65.36093235015869
 20
89.02285011050981
 30
0.0
  0
VERTEX
  5
75C
330
759
100
AcDbEntity
  8
0
100
AcDbVertex
100
AcDb2dVertex
 10
-65.22185802459716
 20
89.04570491550249
 30
0.0
  0
VERTEX
  5
75D
330
759
100
AcDbEntity
  8
0
100
AcDbVertex
100
AcDb2dVertex
 10
-65.08278846740722
 20
89.06855495212358
 30
0.0
  0
VERTEX
  5
75E
330
759
100
AcDbEntity
  8
0
100
AcDbVertex
100
AcDb2dVertex
 10
-64.94371891021728
 20
89.09140975711625
 30
0.0
  0
VERTEX
  5
75F
330
759
100
AcDbEntity
  8
0
100
AcDbVertex
100
AcDb2dVertex
 10
-64.80464935302734
 20
89.11425979373735
 30
0.0
  0
VERTEX
  5
760
330
759
100
AcDbEntity
  8
0
100
AcDbVertex
100
AcDb2dVertex
 10
-64.6655797958374
 20
89.13711459873002
 30
0.0
  0
VERTEX
  5
761
330
759
100
AcDbEntity
  8
0
100
AcDbVertex
100
AcDb2dVertex
 10
-64.52790737152099
 20
89.16412742374223
 30
0.0
  0
VERTEX
  5
762
330
759
100
AcDbEntity
  8
0
100
AcDbVertex
100
AcDb2dVertex
 10
-64.27862644195556
 20
89.29569633243364
 30
0.0
  0
VERTEX
  5
763
330
759
100
AcDbEntity
  8
0
100
AcDbVertex
100
AcDb2dVertex
 10
-64.15398597717285
 20
89.36147601840776
 30
0.0
  0
VERTEX
  5
764
330
759
100
AcDbEntity
  8
0
100
AcDbVertex
100
AcDb2dVertex
 10
-63.7800645828247
 20
89.55882938144487
 30
0.0
  0
VERTEX
  5
765
330
759
100
AcDbEntity
  8
0
100
AcDbVertex
100
AcDb2dVertex
 10
-63.66403579711914
 20
89.63603885410112
 30
0.0
  0
VERTEX
  5
766
330
759
100
AcDbEntity
  8
0
100
AcDbVertex
100
AcDb2dVertex
 10
-63.56640338897705
 20
89.7376814627437
 30
0.0
  0
VERTEX
  5
767
330
759
100
AcDbEntity
  8
0
100
AcDbVertex
100
AcDb2dVertex
 10
-63.46877574920654
 20
89.83932407138627
 30
0.0
  0
VERTEX
  5
768
330
759
100
AcDbEntity
  8
0
100
AcDbVertex
100
AcDb2dVertex
 10
-63.37114334106445
 20
89.94096668002885
 30
0.0
  0
VERTEX
  5
769
330
759
100
AcDbEntity
  8
0
100
AcDbVertex
100
AcDb2dVertex
 10
-63.27351570129394
 20
90.04260452029985
 30
0.0
  0
VERTEX
  5
76A
330
759
100
AcDbEntity
  8
0
100
AcDbVertex
100
AcDb2dVertex
 10
-63.17588329315185
 20
90.14424712894243
 30
0.0
  0
VERTEX
  5
76B
330
759
100
AcDbEntity
  8
0
100
AcDbVertex
100
AcDb2dVertex
 10
-63.07825565338134
 20
90.245889737585
 30
0.0
  0
VERTEX
  5
76C
330
759
100
AcDbEntity
  8
0
100
AcDbVertex
100
AcDb2dVertex
 10
-62.99527645111083
 20
90.35852821109575
 30
0.0
  0
VERTEX
  5
76D
330
759
100
AcDbEntity
  8
0
100
AcDbVertex
100
AcDb2dVertex
 10
-62.85470485687255
 20
90.6028404974727
 30
0.0
  0
VERTEX
  5
76E
330
759
100
AcDbEntity
  8
0
100
AcDbVertex
100
AcDb2dVertex
 10
-62.78441905975341
 20
90.72500140903276
 30
0.0
  0
SEQEND
  5
76F
330
759
100
AcDbEntity
  8
0
  0
LINE
  5
770
330
1F
100
AcDbEntity
  8
0
100
AcDbLine
 10
-40.0
 20
35.00000000000909
 30
0.0
 11
-40.0
 21
47.43976408556591
 31
0.0
  0
LINE
  5
771
330
1F
100
AcDbEntity
  8
0
100
AcDbLine
 10
-36.15591237958188
 20
44.32624946270857
 30
0.0
 11
-36.15591237958188
 21
36.0000000000091
 31
0.0
  0
LINE
  5
772
330
1F
100
AcDbEntity
  8
0
100
AcDbLine
 10
40.0
 20
35.00000000001023
 30
0.0
 11
39.99999999999955
 21
47.43976408556704
 31
0.0
  0
LINE
  5
773
330
1F
100
AcDbEntity
  8
0
100
AcDbLine
 10
36.5
 20
44.32624946270857
 30
0.0
 11
36.5
 21
36.0000000000091
 31
0.0
  0
LINE
  5
774
330
1F
100
AcDbEntity
  8
0
100
AcDbLine
 10
-36.15591237958188
 20
36.0000000000091
 30
0.0
 11
36.5
 21
36.0000000000091
 31
0.0
  0
LINE
  5
775
330
1F
100
AcDbEntity
  8
0
100
AcDbLine
 10
-40.0
 20
35.00000000000909
 30
0.0
 11
40.0
 21
35.00000000001023
 31
0.0
  0
POLYLINE
  5
776
330
1F
100
AcDbEntity
  8
0
100
AcDb2dPolyline
 66
     1
 10
0.0
 20
0.0
 30
0.0
  0
VERTEX
  5
777
330
776
100
AcDbEntity
  8
0
100
AcDbVertex
100
AcDb2dVertex
 10
-35.14612436294556
 20
34.99999999565762
 30
0.0
  0
VERTEX
  5
778
330
776
100
AcDbEntity
  8
0
100
AcDbVertex
100
AcDb2dVertex
 10
-35.1876425743103
 20
35.04110471842569
 30
0.0
  0
VERTEX
  5
779
330
776
100
AcDbEntity
  8
0
100
AcDbVertex
100
AcDb2dVertex
 10
-35.22920846939087
 20
35.08225766507667
 30
0.0
  0
VERTEX
  5
77A
330
776
100
AcDbEntity
  8
0
100
AcDbVertex
100
AcDb2dVertex
 10
-35.27082204818726
 20
35.12345896599573
 30
0.0
  0
VERTEX
  5
77B
330
776
100
AcDbEntity
  8
0
100
AcDbVertex
100
AcDb2dVertex
 10
-35.31248331069946
 20
35.16470865843576
 30
0.0
  0
VERTEX
  5
77C
330
776
100
AcDbEntity
  8
0
100
AcDbVertex
100
AcDb2dVertex
 10
-35.35419225692749
 20
35.20600689140838
 30
0.0
  0
VERTEX
  5
77D
330
776
100
AcDbEntity
  8
0
100
AcDbVertex
100
AcDb2dVertex
 10
-35.39595127105713
 20
35.24735366491359
 30
0.0
  0
VERTEX
  5
77E
330
776
100
AcDbEntity
  8
0
100
AcDbVertex
100
AcDb2dVertex
 10
-35.4377555847168
 20
35.2887490907101
 30
0.0
  0
VERTEX
  5
77F
330
776
100
AcDbEntity
  8
0
100
AcDbVertex
100
AcDb2dVertex
 10
-35.47960996627808
 20
35.33019328055662
 30
0.0
  0
VERTEX
  5
780
330
776
100
AcDbEntity
  8
0
100
AcDbVertex
100
AcDb2dVertex
 10
-35.52151203155518
 20
35.37168630895894
 30
0.0
  0
VERTEX
  5
781
330
776
100
AcDbEntity
  8
0
100
AcDbVertex
100
AcDb2dVertex
 10
-35.56346416473389
 20
35.41322828767579
 30
0.0
  0
VERTEX
  5
782
330
776
100
AcDbEntity
  8
0
100
AcDbVertex
100
AcDb2dVertex
 10
-35.60546398162842
 20
35.45481921670717
 30
0.0
  0
VERTEX
  5
783
330
776
100
AcDbEntity
  8
0
100
AcDbVertex
100
AcDb2dVertex
 10
-35.64751148223877
 20
35.49645931957048
 30
0.0
  0
VERTEX
  5
784
330
776
100
AcDbEntity
  8
0
100
AcDbVertex
100
AcDb2dVertex
 10
-35.68960905075073
 20
35.53814852175992
 30
0.0
  0
VERTEX
  5
785
330
776
100
AcDbEntity
  8
0
100
AcDbVertex
100
AcDb2dVertex
 10
-35.73175430297852
 20
35.57988697228712
 30
0.0
  0
VERTEX
  5
786
330
776
100
AcDbEntity
  8
0
100
AcDbVertex
100
AcDb2dVertex
 10
-35.77394962310791
 20
35.62167482016366
 30
0.0
  0
VERTEX
  5
787
330
776
100
AcDbEntity
  8
0
100
AcDbVertex
100
AcDb2dVertex
 10
-35.81619262695312
 20
35.66351206538957
 30
0.0
  0
VERTEX
  5
788
330
776
100
AcDbEntity
  8
0
100
AcDbVertex
100
AcDb2dVertex
 10
-35.85848331451416
 20
35.70539885697645
 30
0.0
  0
VERTEX
  5
789
330
776
100
AcDbEntity
  8
0
100
AcDbVertex
100
AcDb2dVertex
 10
-35.9008264541626
 20
35.74733519492429
 30
0.0
  0
VERTEX
  5
78A
330
776
100
AcDbEntity
  8
0
100
AcDbVertex
100
AcDb2dVertex
 10
-35.94321727752685
 20
35.78932130275052
 30
0.0
  0
VERTEX
  5
78B
330
776
100
AcDbEntity
  8
0
100
AcDbVertex
100
AcDb2dVertex
 10
-35.98565816879272
 20
35.83135710594934
 30
0.0
  0
VERTEX
  5
78C
330
776
100
AcDbEntity
  8
0
100
AcDbVertex
100
AcDb2dVertex
 10
-36.02814674377441
 20
35.87344282803815
 30
0.0
  0
VERTEX
  5
78D
330
776
100
AcDbEntity
  8
0
100
AcDbVertex
100
AcDb2dVertex
 10
-36.07068538665771
 20
35.91557846901697
 30
0.0
  0
VERTEX
  5
78E
330
776
100
AcDbEntity
  8
0
100
AcDbVertex
100
AcDb2dVertex
 10
-36.11327409744263
 20
35.9577642524032
 30
0.0
  0
VERTEX
  5
78F
330
776
100
AcDbEntity
  8
0
100
AcDbVertex
100
AcDb2dVertex
 10
-36.15591287612915
 20
35.99999995467943
 30
0.0
  0
SEQEND
  5
790
330
776
100
AcDbEntity
  8
0
  0
LINE
  5
791
330
1F
100
AcDbEntity
  8
0
100
AcDbLine
 10
35.5
 20
35.00000000000909
 30
0.0
 11
36.5
 21
36.0000000000091
 31
0.0
  0
LINE
  5
792
330
1F
100
AcDbEntity
  8
0
100
AcDbLine
 10
-38.83558078080842
 20
47.30647627032204
 30
0.0
 11
39.15612767604443
 21
47.30647627032204
 31
0.0
  0
LINE
  5
793
330
1F
100
AcDbEntity
  8
0
100
AcDbLine
 10
-36.50000000000046
 20
91.00000000000909
 30
0.0
 11
36.5
 21
91.00000000000909
 31
0.0
  0
LINE
  5
794
330
1F
100
AcDbEntity
  8
0
100
AcDbLine
 10
-15.00000000000045
 20
87.70000000000914
 30
0.0
 11
15.0
 21
87.70000000000891
 31
0.0
  0
LINE
  5
795
330
1F
100
AcDbEntity
  8
0
100
AcDbLine
 10
14.99999999999954
 20
56.70000000000891
 30
0.0
 11
0.475945135393431
 21
56.70000000000903
 31
0.0
  0
LINE
  5
796
330
1F
100
AcDbEntity
  8
1
100
AcDbLine
 10
-7.301659045116593
 20
79.70000000000891
 30
0.0
 11
7.301659045116139
 21
79.70000000000891
 31
0.0
  0
LINE
  5
797
330
1F
100
AcDbEntity
  8
1
100
AcDbLine
 10
-7.301659045116593
 20
64.70000000000914
 30
0.0
 11
7.301659045116139
 21
64.70000000000914
 31
0.0
  0
LINE
  5
798
330
1F
100
AcDbEntity
  8
0
100
AcDbLine
 10
-41.50000000000045
 20
54.70000000000914
 30
0.0
 11
-41.5
 21
86.30000000000904
 31
0.0
  0
ARC
  5
799
330
1F
100
AcDbEntity
  8
0
100
AcDbCircle
 10
-36.50000000000046
 20
54.70000000000914
 30
0.0
 40
5.000000000000007
100
AcDbArc
 50
180.0
 51
270.0
  0
POLYLINE
  5
79A
330
1F
100
AcDbEntity
  8
0
100
AcDb2dPolyline
 66
     1
 10
0.0
 20
0.0
 30
0.0
  0
VERTEX
  5
79B
330
79A
100
AcDbEntity
  8
0
100
AcDbVertex
100
AcDb2dVertex
 10
-36.15591287612915
 20
44.32624967334549
 30
0.0
  0
VERTEX
  5
79C
330
79A
100
AcDbEntity
  8
0
100
AcDbVertex
100
AcDb2dVertex
 10
-36.16209268569946
 20
44.50242073772233
 30
0.0
  0
VERTEX
  5
79D
330
79A
100
AcDbEntity
  8
0
100
AcDbVertex
100
AcDb2dVertex
 10
-36.18015050888061
 20
44.68446107147019
 30
0.0
  0
VERTEX
  5
79E
330
79A
100
AcDbEntity
  8
0
100
AcDbVertex
100
AcDb2dVertex
 10
-36.20936393737793
 20
44.8687985682277
 30
0.0
  0
VERTEX
  5
79F
330
79A
100
AcDbEntity
  8
0
100
AcDbVertex
100
AcDb2dVertex
 10
-36.24901294708252
 20
45.05186350581925
 30
0.0
  0
VERTEX
  5
7A0
330
79A
100
AcDbEntity
  8
0
100
AcDbVertex
100
AcDb2dVertex
 10
-36.29837274551392
 20
45.23008258579056
 30
0.0
  0
VERTEX
  5
7A1
330
79A
100
AcDbEntity
  8
0
100
AcDbVertex
100
AcDb2dVertex
 10
-36.35672569274902
 20
45.39988548991959
 30
0.0
  0
VERTEX
  5
7A2
330
79A
100
AcDbEntity
  8
0
100
AcDbVertex
100
AcDb2dVertex
 10
-36.42445087432861
 20
45.56047232387345
 30
0.0
  0
VERTEX
  5
7A3
330
79A
100
AcDbEntity
  8
0
100
AcDbVertex
100
AcDb2dVertex
 10
-36.50550842285156
 20
45.72157891032975
 30
0.0
  0
VERTEX
  5
7A4
330
79A
100
AcDbEntity
  8
0
100
AcDbVertex
100
AcDb2dVertex
 10
-36.59858703613281
 20
45.8818748736171
 30
0.0
  0
VERTEX
  5
7A5
330
79A
100
AcDbEntity
  8
0
100
AcDbVertex
100
AcDb2dVertex
 10
-36.70166015625
 20
46.03837759731095
 30
0.0
  0
VERTEX
  5
7A6
330
79A
100
AcDbEntity
  8
0
100
AcDbVertex
100
AcDb2dVertex
 10
-36.81269884109497
 20
46.18810208080094
 30
0.0
  0
VERTEX
  5
7A7
330
79A
100
AcDbEntity
  8
0
100
AcDbVertex
100
AcDb2dVertex
 10
-36.92968130111694
 20
46.32806451556962
 30
0.0
  0
VERTEX
  5
7A8
330
79A
100
AcDbEntity
  8
0
100
AcDbVertex
100
AcDb2dVertex
 10
-37.05063819885254
 20
46.45533712146561
 30
0.0
  0
VERTEX
  5
7A9
330
79A
100
AcDbEntity
  8
0
100
AcDbVertex
100
AcDb2dVertex
 10
-37.18112230300903
 20
46.57491834399979
 30
0.0
  0
VERTEX
  5
7AA
330
79A
100
AcDbEntity
  8
0
100
AcDbVertex
100
AcDb2dVertex
 10
-37.32373237609863
 20
46.69015677211564
 30
0.0
  0
VERTEX
  5
7AB
330
79A
100
AcDbEntity
  8
0
100
AcDbVertex
100
AcDb2dVertex
 10
-37.47548818588257
 20
46.79909141300004
 30
0.0
  0
VERTEX
  5
7AC
330
79A
100
AcDbEntity
  8
0
100
AcDbVertex
100
AcDb2dVertex
 10
-37.63341426849365
 20
46.89975888965409
 30
0.0
  0
VERTEX
  5
7AD
330
79A
100
AcDbEntity
  8
0
100
AcDbVertex
100
AcDb2dVertex
 10
-37.79453277587891
 20
46.99019940135758
 30
0.0
  0
VERTEX
  5
7AE
330
79A
100
AcDbEntity
  8
0
100
AcDbVertex
100
AcDb2dVertex
 10
-37.95586585998535
 20
47.0684507632045
 30
0.0
  0
VERTEX
  5
7AF
330
79A
100
AcDbEntity
  8
0
100
AcDbVertex
100
AcDb2dVertex
 10
-38.11741590499878
 20
47.13404686687272
 30
0.0
  0
VERTEX
  5
7B0
330
79A
100
AcDbEntity
  8
0
100
AcDbVertex
100
AcDb2dVertex
 10
-38.28868627548218
 20
47.19162018535416
 30
0.0
  0
VERTEX
  5
7B1
330
79A
100
AcDbEntity
  8
0
100
AcDbVertex
100
AcDb2dVertex
 10
-38.46772670745849
 20
47.24047811267655
 30
0.0
  0
VERTEX
  5
7B2
330
79A
100
AcDbEntity
  8
0
100
AcDbVertex
100
AcDb2dVertex
 10
-38.65115404129028
 20
47.27922828433793
 30
0.0
  0
VERTEX
  5
7B3
330
79A
100
AcDbEntity
  8
0
100
AcDbVertex
100
AcDb2dVertex
 10
-38.8355803489685
 20
47.30647595165055
 30
0.0
  0
SEQEND
  5
7B4
330
79A
100
AcDbEntity
  8
0
  0
ARC
  5
7B5
330
1F
100
AcDbEntity
  8
0
100
AcDbCircle
 10
-48.5
 20
47.39125017910919
 30
0.0
 40
0.9999999999999875
100
AcDbArc
 50
180.0
 51
263.4180553448274
  0
LINE
  5
7B6
330
1F
100
AcDbEntity
  8
0
100
AcDbLine
 10
-49.5
 20
48.5000000000091
 30
0.0
 11
-49.5
 21
47.39125017910919
 31
0.0
  0
LINE
  5
7B7
330
1F
100
AcDbEntity
  8
0
100
AcDbLine
 10
-48.61462410798504
 20
46.39784124323819
 30
0.0
 11
-40.0
 21
45.40384615385528
 31
0.0
  0
POLYLINE
  5
7B8
330
1F
100
AcDbEntity
  8
0
100
AcDb2dPolyline
 66
     1
 10
0.0
 20
0.0
 30
0.0
  0
VERTEX
  5
7B9
330
7B8
100
AcDbEntity
  8
0
100
AcDbVertex
100
AcDb2dVertex
 10
-40.0
 20
47.43976385829728
 30
0.0
  0
VERTEX
  5
7BA
330
7B8
100
AcDbEntity
  8
0
100
AcDbVertex
100
AcDb2dVertex
 10
-39.95084047317505
 20
47.43413598773758
 30
0.0
  0
VERTEX
  5
7BB
330
7B8
100
AcDbEntity
  8
0
100
AcDbVertex
100
AcDb2dVertex
 10
-39.90173578262329
 20
47.42851407764237
 30
0.0
  0
VERTEX
  5
7BC
330
7B8
100
AcDbEntity
  8
0
100
AcDbVertex
100
AcDb2dVertex
 10
-39.85269069671631
 20
47.42289812801163
 30
0.0
  0
VERTEX
  5
7BD
330
7B8
100
AcDbEntity
  8
0
100
AcDbVertex
100
AcDb2dVertex
 10
-39.80369806289673
 20
47.41728933093827
 30
0.0
  0
VERTEX
  5
7BE
330
7B8
100
AcDbEntity
  8
0
100
AcDbVertex
100
AcDb2dVertex
 10
-39.75476503372192
 20
47.41168768642228
 30
0.0
  0
VERTEX
  5
7BF
330
7B8
100
AcDbEntity
  8
0
100
AcDbVertex
100
AcDb2dVertex
 10
-39.70588684082031
 20
47.40609200237076
 30
0.0
  0
VERTEX
  5
7C0
330
7B8
100
AcDbEntity
  8
0
100
AcDbVertex
100
AcDb2dVertex
 10
-39.65706586837768
 20
47.40050227878373
 30
0.0
  0
VERTEX
  5
7C1
330
7B8
100
AcDbEntity
  8
0
100
AcDbVertex
100
AcDb2dVertex
 10
-39.60829973220825
 20
47.39491970775406
 30
0.0
  0
VERTEX
  5
7C2
330
7B8
100
AcDbEntity
  8
0
100
AcDbVertex
100
AcDb2dVertex
 10
-39.55958843231201
 20
47.38934428928177
 30
0.0
  0
VERTEX
  5
7C3
330
7B8
100
AcDbEntity
  8
0
100
AcDbVertex
100
AcDb2dVertex
 10
-39.51093435287475
 20
47.38377483127396
 30
0.0
  0
VERTEX
  5
7C4
330
7B8
100
AcDbEntity
  8
0
100
AcDbVertex
100
AcDb2dVertex
 10
-39.46233510971069
 20
47.37821133373063
 30
0.0
  0
VERTEX
  5
7C5
330
7B8
100
AcDbEntity
  8
0
100
AcDbVertex
100
AcDb2dVertex
 10
-39.41379308700561
 20
47.37265498874466
 30
0.0
  0
VERTEX
  5
7C6
330
7B8
100
AcDbEntity
  8
0
100
AcDbVertex
100
AcDb2dVertex
 10
-39.36530590057373
 20
47.36710460422318
 30
0.0
  0
VERTEX
  5
7C7
330
7B8
100
AcDbEntity
  8
0
100
AcDbVertex
100
AcDb2dVertex
 10
-39.31687355041504
 20
47.36156137225907
 30
0.0
  0
VERTEX
  5
7C8
330
7B8
100
AcDbEntity
  8
0
100
AcDbVertex
100
AcDb2dVertex
 10
-39.26849603652954
 20
47.35602410075943
 30
0.0
  0
VERTEX
  5
7C9
330
7B8
100
AcDbEntity
  8
0
100
AcDbVertex
100
AcDb2dVertex
 10
-39.22017574310303
 20
47.35049278972428
 30
0.0
  0
VERTEX
  5
7CA
330
7B8
100
AcDbEntity
  8
0
100
AcDbVertex
100
AcDb2dVertex
 10
-39.17191028594971
 20
47.3449686312465
 30
0.0
  0
VERTEX
  5
7CB
330
7B8
100
AcDbEntity
  8
0
100
AcDbVertex
100
AcDb2dVertex
 10
-39.12369728088379
 20
47.33945043323319
 30
0.0
  0
VERTEX
  5
7CC
330
7B8
100
AcDbEntity
  8
0
100
AcDbVertex
100
AcDb2dVertex
 10
-39.07554149627685
 20
47.33393819568436
 30
0.0
  0
VERTEX
  5
7CD
330
7B8
100
AcDbEntity
  8
0
100
AcDbVertex
100
AcDb2dVertex
 10
-39.02744054794311
 20
47.32843311069291
 30
0.0
  0
VERTEX
  5
7CE
330
7B8
100
AcDbEntity
  8
0
100
AcDbVertex
100
AcDb2dVertex
 10
-38.97939443588257
 20
47.32293517825882
 30
0.0
  0
VERTEX
  5
7CF
330
7B8
100
AcDbEntity
  8
0
100
AcDbVertex
100
AcDb2dVertex
 10
-38.93140077590942
 20
47.31744201419632
 30
0.0
  0
VERTEX
  5
7D0
330
7B8
100
AcDbEntity
  8
0
100
AcDbVertex
100
AcDb2dVertex
 10
-38.88346433639526
 20
47.3119560026912
 30
0.0
  0
VERTEX
  5
7D1
330
7B8
100
AcDbEntity
  8
0
100
AcDbVertex
100
AcDb2dVertex
 10
-38.8355803489685
 20
47.30647595165055
 30
0.0
  0
SEQEND
  5
7D2
330
7B8
100
AcDbEntity
  8
0
  0
ARC
  5
7D3
330
1F
100
AcDbEntity
  8
0
100
AcDbCircle
 10
-36.5
 20
86.30000000000904
 30
0.0
 40
4.999999999999994
100
AcDbArc
 50
90.0
 51
180.0
  0
ARC
  5
7D4
330
1F
100
AcDbEntity
  8
0
100
AcDbCircle
 10
-36.50000000000046
 20
86.00000000000909
 30
0.0
 40
5.000000000000003
100
AcDbArc
 50
90.0
 51
180.0
  0
LINE
  5
7D5
330
1F
100
AcDbEntity
  8
1
100
AcDbLine
 10
-0.0000000000004547
 20
57.39834095489277
 30
0.0
 11
-0.0000000000004547
 21
72.00165904512551
 31
0.0
  0
LINE
  5
7D6
330
1F
100
AcDbEntity
  8
1
100
AcDbLine
 10
15.0
 20
57.39834095489277
 30
0.0
 11
15.0
 21
72.00165904512551
 31
0.0
  0
LINE
  5
7D7
330
1F
100
AcDbEntity
  8
0
100
AcDbLine
 10
41.5
 20
86.30000000000904
 30
0.0
 11
41.5
 21
54.70000000000891
 31
0.0
  0
ARC
  5
7D8
330
1F
100
AcDbEntity
  8
0
100
AcDbCircle
 10
27.5
 20
72.20000000000891
 30
0.0
 40
8.000000000000028
100
AcDbArc
 50
300.9637565320754
 51
59.03624346792452
  0
LINE
  5
7D9
330
1F
100
AcDbEntity
  8
1
100
AcDbLine
 10
27.5
 20
64.89834095489277
 30
0.0
 11
27.5
 21
79.50165904512551
 31
0.0
  0
CIRCLE
  5
7DA
330
1F
100
AcDbEntity
  8
0
100
AcDbCircle
 10
27.5
 20
72.20000000000891
 30
0.0
 40
5.000000000000007
  0
CIRCLE
  5
7DB
330
1F
100
AcDbEntity
  8
0
100
AcDbCircle
 10
27.5
 20
72.20000000000891
 30
0.0
 40
4.000000000000005
  0
LINE
  5
7DC
330
1F
100
AcDbEntity
  8
1
100
AcDbLine
 10
7.698340954883406
 20
64.70000000000891
 30
0.0
 11
22.30165904511614
 21
64.70000000000891
 31
0.0
  0
ARC
  5
7DD
330
1F
100
AcDbEntity
  8
0
100
AcDbCircle
 10
14.99999999999954
 20
64.70000000000891
 30
0.0
 40
7.999999999999975
100
AcDbArc
 50
270.0
 51
300.9637565320754
  0
CIRCLE
  5
7DE
330
1F
100
AcDbEntity
  8
0
100
AcDbCircle
 10
14.99999999999954
 20
64.70000000000891
 30
0.0
 40
5.000000000000007
  0
CIRCLE
  5
7DF
330
1F
100
AcDbEntity
  8
0
100
AcDbCircle
 10
15.0
 20
64.70000000000891
 30
0.0
 40
4.000000000000005
  0
CIRCLE
  5
7E0
330
1F
100
AcDbEntity
  8
0
100
AcDbCircle
 10
-0.0000000000004547
 20
64.70000000000914
 30
0.0
 40
5.000000000000007
  0
CIRCLE
  5
7E1
330
1F
100
AcDbEntity
  8
0
100
AcDbCircle
 10
-0.0000000000004547
 20
64.70000000000914
 30
0.0
 40
4.000000000000005
  0
ARC
  5
7E2
330
1F
100
AcDbEntity
  8
0
100
AcDbCircle
 10
39.5
 20
44.32624946270857
 30
0.0
 40
3.000000000000015
100
AcDbArc
 50
96.5819446551726
 51
180.0
  0
LINE
  5
7E3
330
1F
100
AcDbEntity
  8
0
100
AcDbLine
 10
31.61596604342003
 20
65.34005659430864
 30
0.0
 11
19.11596604342003
 21
57.84005659430864
 31
0.0
  0
LINE
  5
7E4
330
1F
100
AcDbEntity
  8
1
100
AcDbLine
 10
7.698340954883406
 20
79.70000000000891
 30
0.0
 11
22.30165904511614
 21
79.70000000000891
 31
0.0
  0
CIRCLE
  5
7E5
330
1F
100
AcDbEntity
  8
0
100
AcDbCircle
 10
14.99999999999954
 20
79.70000000000891
 30
0.0
 40
5.000000000000007
  0
CIRCLE
  5
7E6
330
1F
100
AcDbEntity
  8
0
100
AcDbCircle
 10
15.0
 20
79.70000000000891
 30
0.0
 40
4.000000000000005
  0
ARC
  5
7E7
330
1F
100
AcDbEntity
  8
0
100
AcDbCircle
 10
15.0
 20
79.70000000000914
 30
0.0
 40
7.99999999999999
100
AcDbArc
 50
59.03624346792452
 51
90.0
  0
CIRCLE
  5
7E8
330
1F
100
AcDbEntity
  8
0
100
AcDbCircle
 10
-0.0000000000004547
 20
79.70000000000891
 30
0.0
 40
5.000000000000007
  0
CIRCLE
  5
7E9
330
1F
100
AcDbEntity
  8
0
100
AcDbCircle
 10
-0.0000000000004547
 20
79.70000000000891
 30
0.0
 40
4.000000000000005
  0
LINE
  5
7EA
330
1F
100
AcDbEntity
  8
1
100
AcDbLine
 10
-0.0000000000004547
 20
72.39834095489277
 30
0.0
 11
-0.0000000000004547
 21
87.0016590451255
 31
0.0
  0
LINE
  5
7EB
330
1F
100
AcDbEntity
  8
1
100
AcDbLine
 10
15.0
 20
72.39834095489277
 30
0.0
 11
15.0
 21
87.0016590451255
 31
0.0
  0
LINE
  5
7EC
330
1F
100
AcDbEntity
  8
0
100
AcDbLine
 10
19.11596604342003
 20
86.55994340570941
 30
0.0
 11
31.61596604342003
 21
79.05994340570941
 31
0.0
  0
LINE
  5
7ED
330
1F
100
AcDbEntity
  8
1
100
AcDbLine
 10
20.19834095488341
 20
72.20000000000891
 30
0.0
 11
34.80165904511614
 21
72.20000000000891
 31
0.0
  0
POLYLINE
  5
7EE
330
1F
100
AcDbEntity
  8
0
100
AcDb2dPolyline
 66
     1
 10
0.0
 20
0.0
 30
0.0
  0
VERTEX
  5
7EF
330
7EE
100
AcDbEntity
  8
0
100
AcDbVertex
100
AcDb2dVertex
 10
65.46220302581787
 20
55.03453881976884
 30
0.0
  0
VERTEX
  5
7F0
330
7EE
100
AcDbEntity
  8
0
100
AcDbVertex
100
AcDb2dVertex
 10
65.46017169952392
 20
55.03663928745073
 30
0.0
  0
VERTEX
  5
7F1
330
7EE
100
AcDbEntity
  8
0
100
AcDbVertex
100
AcDb2dVertex
 10
65.45780658721923
 20
55.03965766666215
 30
0.0
  0
VERTEX
  5
7F2
330
7EE
100
AcDbEntity
  8
0
100
AcDbVertex
100
AcDb2dVertex
 10
65.4551076889038
 20
55.04359395740312
 30
0.0
  0
VERTEX
  5
7F3
330
7EE
100
AcDbEntity
  8
0
100
AcDbVertex
100
AcDb2dVertex
 10
65.45208930969238
 20
55.04844100711625
 30
0.0
  0
VERTEX
  5
7F4
330
7EE
100
AcDbEntity
  8
0
100
AcDbVertex
100
AcDb2dVertex
 10
65.44874191284179
 20
55.05419881580156
 30
0.0
  0
VERTEX
  5
7F5
330
7EE
100
AcDbEntity
  8
0
100
AcDbVertex
100
AcDb2dVertex
 10
65.44507503509521
 20
55.06086738345903
 30
0.0
  0
VERTEX
  5
7F6
330
7EE
100
AcDbEntity
  8
0
100
AcDbVertex
100
AcDb2dVertex
 10
65.44108867645263
 20
55.0684371733455
 30
0.0
  0
VERTEX
  5
7F7
330
7EE
100
AcDbEntity
  8
0
100
AcDbVertex
100
AcDb2dVertex
 10
65.43678760528564
 20
55.07691295383256
 30
0.0
  0
VERTEX
  5
7F8
330
7EE
100
AcDbEntity
  8
0
100
AcDbVertex
100
AcDb2dVertex
 10
65.43217182159423
 20
55.08628757236284
 30
0.0
  0
VERTEX
  5
7F9
330
7EE
100
AcDbEntity
  8
0
100
AcDbVertex
100
AcDb2dVertex
 10
65.42725086212158
 20
55.09656102893632
 30
0.0
  0
VERTEX
  5
7FA
330
7EE
100
AcDbEntity
  8
0
100
AcDbVertex
100
AcDb2dVertex
 10
65.42201995849609
 20
55.10772855518144
 30
0.0
  0
VERTEX
  5
7FB
330
7EE
100
AcDbEntity
  8
0
100
AcDbVertex
100
AcDb2dVertex
 10
65.41648387908935
 20
55.11979015109819
 30
0.0
  0
VERTEX
  5
7FC
330
7EE
100
AcDbEntity
  8
0
100
AcDbVertex
100
AcDb2dVertex
 10
65.41064739227294
 20
55.13274104831499
 30
0.0
  0
VERTEX
  5
7FD
330
7EE
100
AcDbEntity
  8
0
100
AcDbVertex
100
AcDb2dVertex
 10
65.40451526641845
 20
55.14658124683183
 30
0.0
  0
VERTEX
  5
7FE
330
7EE
100
AcDbEntity
  8
0
100
AcDbVertex
100
AcDb2dVertex
 10
65.39808750152587
 20
55.16130597827714
 30
0.0
  0
VERTEX
  5
7FF
330
7EE
100
AcDbEntity
  8
0
100
AcDbVertex
100
AcDb2dVertex
 10
65.39136886596679
 20
55.17691285846513
 30
0.0
  0
VERTEX
  5
800
330
7EE
100
AcDbEntity
  8
0
100
AcDbVertex
100
AcDb2dVertex
 10
65.38435935974121
 20
55.19339950321
 30
0.0
  0
VERTEX
  5
801
330
7EE
100
AcDbEntity
  8
0
100
AcDbVertex
100
AcDb2dVertex
 10
65.3770637512207
 20
55.21076352832597
 30
0.0
  0
VERTEX
  5
802
330
7EE
100
AcDbEntity
  8
0
100
AcDbVertex
100
AcDb2dVertex
 10
65.36948204040527
 20
55.22900493381303
 30
0.0
  0
VERTEX
  5
803
330
7EE
100
AcDbEntity
  8
0
100
AcDbVertex
100
AcDb2dVertex
 10
65.36162376403808
 20
55.24811656711381
 30
0.0
  0
VERTEX
  5
804
330
7EE
100
AcDbEntity
  8
0
100
AcDbVertex
100
AcDb2dVertex
 10
65.35348415374755
 20
55.26809842822832
 30
0.0
  0
VERTEX
  5
805
330
7EE
100
AcDbEntity
  8
0
100
AcDbVertex
100
AcDb2dVertex
 10
65.34507274627685
 20
55.28894813297075
 30
0.0
  0
VERTEX
  5
806
330
7EE
100
AcDbEntity
  8
0
100
AcDbVertex
100
AcDb2dVertex
 10
65.33638954162597
 20
55.31066329715532
 30
0.0
  0
VERTEX
  5
807
330
7EE
100
AcDbEntity
  8
0
100
AcDbVertex
100
AcDb2dVertex
 10
65.32743453979492
 20
55.33324153659624
 30
0.0
  0
VERTEX
  5
808
330
7EE
100
AcDbEntity
  8
0
100
AcDbVertex
100
AcDb2dVertex
 10
65.31821727752685
 20
55.35667808292192
 30
0.0
  0
VERTEX
  5
809
330
7EE
100
AcDbEntity
  8
0
100
AcDbVertex
100
AcDb2dVertex
 10
65.30873298645019
 20
55.38097293613237
 30
0.0
  0
VERTEX
  5
80A
330
7EE
100
AcDbEntity
  8
0
100
AcDbVertex
100
AcDb2dVertex
 10
65.2989912033081
 20
55.40612371204179
 30
0.0
  0
VERTEX
  5
80B
330
7EE
100
AcDbEntity
  8
0
100
AcDbVertex
100
AcDb2dVertex
 10
65.28899192810058
 20
55.43212564227861
 30
0.0
  0
VERTEX
  5
80C
330
7EE
100
AcDbEntity
  8
0
100
AcDbVertex
100
AcDb2dVertex
 10
65.27873516082763
 20
55.45897634265703
 30
0.0
  0
VERTEX
  5
80D
330
7EE
100
AcDbEntity
  8
0
100
AcDbVertex
100
AcDb2dVertex
 10
65.26823043823242
 20
55.48667581317705
 30
0.0
  0
VERTEX
  5
80E
330
7EE
100
AcDbEntity
  8
0
100
AcDbVertex
100
AcDb2dVertex
 10
65.25747299194335
 20
55.51521928546709
 30
0.0
  0
VERTEX
  5
80F
330
7EE
100
AcDbEntity
  8
0
100
AcDbVertex
100
AcDb2dVertex
 10
65.24647712707519
 20
55.54460437534135
 30
0.0
  0
VERTEX
  5
810
330
7EE
100
AcDbEntity
  8
0
100
AcDbVertex
100
AcDb2dVertex
 10
65.23523330688476
 20
55.57483108279985
 30
0.0
  0
VERTEX
  5
811
330
7EE
100
AcDbEntity
  8
0
100
AcDbVertex
100
AcDb2dVertex
 10
65.22374629974365
 20
55.60589463947099
 30
0.0
  0
VERTEX
  5
812
330
7EE
100
AcDbEntity
  8
0
100
AcDbVertex
100
AcDb2dVertex
 10
65.21202564239501
 20
55.6377902769832
 30
0.0
  0
VERTEX
  5
813
330
7EE
100
AcDbEntity
  8
0
100
AcDbVertex
100
AcDb2dVertex
 10
65.20007133483886
 20
55.67052037952226
 30
0.0
  0
VERTEX
  5
814
330
7EE
100
AcDbEntity
  8
0
100
AcDbVertex
100
AcDb2dVertex
 10
65.18788814544677
 20
55.7040801787166
 30
0.0
  0
VERTEX
  5
815
330
7EE
100
AcDbEntity
  8
0
100
AcDbVertex
100
AcDb2dVertex
 10
65.17547607421875
 20
55.73846729038042
 30
0.0
  0
VERTEX
  5
816
330
7EE
100
AcDbEntity
  8
0
100
AcDbVertex
100
AcDb2dVertex
 10
65.16283512115478
 20
55.77367694614213
 30
0.0
  0
VERTEX
  5
817
330
7EE
100
AcDbEntity
  8
0
100
AcDbVertex
100
AcDb2dVertex
 10
65.14997482299804
 20
55.80970914600175
 30
0.0
  0
VERTEX
  5
818
330
7EE
100
AcDbEntity
  8
0
100
AcDbVertex
100
AcDb2dVertex
 10
65.13689041137695
 20
55.84656150577348
 30
0.0
  0
VERTEX
  5
819
330
7EE
100
AcDbEntity
  8
0
100
AcDbVertex
100
AcDb2dVertex
 10
65.12359142303466
 20
55.88423164127153
 30
0.0
  0
VERTEX
  5
81A
330
7EE
100
AcDbEntity
  8
0
100
AcDbVertex
100
AcDb2dVertex
 10
65.11008262634277
 20
55.92271478412431
 30
0.0
  0
VERTEX
  5
81B
330
7EE
100
AcDbEntity
  8
0
100
AcDbVertex
100
AcDb2dVertex
 10
65.09635925292968
 20
55.96201093433183
 30
0.0
  0
VERTEX
  5
81C
330
7EE
100
AcDbEntity
  8
0
100
AcDbVertex
100
AcDb2dVertex
 10
65.08242607116699
 20
56.0021153235225
 30
0.0
  0
VERTEX
  5
81D
330
7EE
100
AcDbEntity
  8
0
100
AcDbVertex
100
AcDb2dVertex
 10
65.06829261779785
 20
56.04302795169633
 30
0.0
  0
VERTEX
  5
81E
330
7EE
100
AcDbEntity
  8
0
100
AcDbVertex
100
AcDb2dVertex
 10
65.05395412445068
 20
56.08474405048173
 30
0.0
  0
VERTEX
  5
81F
330
7EE
100
AcDbEntity
  8
0
100
AcDbVertex
100
AcDb2dVertex
 10
65.03941535949707
 20
56.12726123569292
 30
0.0
  0
VERTEX
  5
820
330
7EE
100
AcDbEntity
  8
0
100
AcDbVertex
100
AcDb2dVertex
 10
65.02468109130859
 20
56.17057950732988
 30
0.0
  0
VERTEX
  5
821
330
7EE
100
AcDbEntity
  8
0
100
AcDbVertex
100
AcDb2dVertex
 10
65.00975608825683
 20
56.21469171283525
 30
0.0
  0
VERTEX
  5
822
330
7EE
100
AcDbEntity
  8
0
100
AcDbVertex
100
AcDb2dVertex
 10
64.99463558197021
 20
56.25960023639482
 30
0.0
  0
VERTEX
  5
823
330
7EE
100
AcDbEntity
  8
0
100
AcDbVertex
100
AcDb2dVertex
 10
64.97932910919189
 20
56.30530030963701
 30
0.0
  0
VERTEX
  5
824
330
7EE
100
AcDbEntity
  8
0
100
AcDbVertex
100
AcDb2dVertex
 10
64.96384143829345
 20
56.35178954837602
 30
0.0
  0
VERTEX
  5
825
330
7EE
100
AcDbEntity
  8
0
100
AcDbVertex
100
AcDb2dVertex
 10
64.94816780090332
 20
56.39906318424028
 30
0.0
  0
VERTEX
  5
826
330
7EE
100
AcDbEntity
  8
0
100
AcDbVertex
100
AcDb2dVertex
 10
64.93231773376464
 20
56.44712360141557
 30
0.0
  0
VERTEX
  5
827
330
7EE
100
AcDbEntity
  8
0
100
AcDbVertex
100
AcDb2dVertex
 10
64.91629123687744
 20
56.49596603153032
 30
0.0
  0
VERTEX
  5
828
330
7EE
100
AcDbEntity
  8
0
100
AcDbVertex
100
AcDb2dVertex
 10
64.90008831024169
 20
56.54558570621293
 30
0.0
  0
VERTEX
  5
829
330
7EE
100
AcDbEntity
  8
0
100
AcDbVertex
100
AcDb2dVertex
 10
64.88371849060058
 20
56.59598262546342
 30
0.0
  0
VERTEX
  5
82A
330
7EE
100
AcDbEntity
  8
0
100
AcDbVertex
100
AcDb2dVertex
 10
64.8671817779541
 20
56.6471520209102
 30
0.0
  0
VERTEX
  5
82B
330
7EE
100
AcDbEntity
  8
0
100
AcDbVertex
100
AcDb2dVertex
 10
64.85047817230224
 20
56.69909389255327
 30
0.0
  0
VERTEX
  5
82C
330
7EE
100
AcDbEntity
  8
0
100
AcDbVertex
100
AcDb2dVertex
 10
64.83361721038818
 20
56.75180585620683
 30
0.0
  0
VERTEX
  5
82D
330
7EE
100
AcDbEntity
  8
0
100
AcDbVertex
100
AcDb2dVertex
 10
64.81659412384033
 20
56.80528314349931
 30
0.0
  0
VERTEX
  5
82E
330
7EE
100
AcDbEntity
  8
0
100
AcDbVertex
100
AcDb2dVertex
 10
64.79941368103027
 20
56.85952337024492
 30
0.0
  0
VERTEX
  5
82F
330
7EE
100
AcDbEntity
  8
0
100
AcDbVertex
100
AcDb2dVertex
 10
64.78208541870117
 20
56.91452653644365
 30
0.0
  0
VERTEX
  5
830
330
7EE
100
AcDbEntity
  8
0
100
AcDbVertex
100
AcDb2dVertex
 10
64.76460456848144
 20
56.97028787372392
 30
0.0
  0
VERTEX
  5
831
330
7EE
100
AcDbEntity
  8
0
100
AcDbVertex
100
AcDb2dVertex
 10
64.74697589874267
 20
57.02680499789995
 30
0.0
  0
VERTEX
  5
832
330
7EE
100
AcDbEntity
  8
0
100
AcDbVertex
100
AcDb2dVertex
 10
64.72920417785644
 20
57.08407552478593
 30
0.0
  0
VERTEX
  5
833
330
7EE
100
AcDbEntity
  8
0
100
AcDbVertex
100
AcDb2dVertex
 10
64.71128940582275
 20
57.14209945438188
 30
0.0
  0
VERTEX
  5
834
330
7EE
100
AcDbEntity
  8
0
100
AcDbVertex
100
AcDb2dVertex
 10
64.69323635101318
 20
57.20086963413042
 30
0.0
  0
VERTEX
  5
835
330
7EE
100
AcDbEntity
  8
0
100
AcDbVertex
100
AcDb2dVertex
 10
64.67504978179931
 20
57.26038606403154
 30
0.0
  0
VERTEX
  5
836
330
7EE
100
AcDbEntity
  8
0
100
AcDbVertex
100
AcDb2dVertex
 10
64.65673446655273
 20
57.32064874408525
 30
0.0
  0
VERTEX
  5
837
330
7EE
100
AcDbEntity
  8
0
100
AcDbVertex
100
AcDb2dVertex
 10
64.63828563690185
 20
57.38165052173417
 30
0.0
  0
VERTEX
  5
838
330
7EE
100
AcDbEntity
  8
0
100
AcDbVertex
100
AcDb2dVertex
 10
64.61970806121826
 20
57.44339139697832
 30
0.0
  0
VERTEX
  5
839
330
7EE
100
AcDbEntity
  8
0
100
AcDbVertex
100
AcDb2dVertex
 10
64.60100650787353
 20
57.50586660144609
 30
0.0
  0
VERTEX
  5
83A
330
7EE
100
AcDbEntity
  8
0
100
AcDbVertex
100
AcDb2dVertex
 10
64.58218574523925
 20
57.56907851932329
 30
0.0
  0
VERTEX
  5
83B
330
7EE
100
AcDbEntity
  8
0
100
AcDbVertex
100
AcDb2dVertex
 10
64.56325054168701
 20
57.63301761386674
 30
0.0
  0
VERTEX
  5
83C
330
7EE
100
AcDbEntity
  8
0
100
AcDbVertex
100
AcDb2dVertex
 10
64.54419612884521
 20
57.69768865344804
 30
0.0
  0
VERTEX
  5
83D
330
7EE
100
AcDbEntity
  8
0
100
AcDbVertex
100
AcDb2dVertex
 10
64.52503204345703
 20
57.76308448550981
 30
0.0
  0
VERTEX
  5
83E
330
7EE
100
AcDbEntity
  8
0
100
AcDbVertex
100
AcDb2dVertex
 10
64.50575351715087
 20
57.82920272586625
 30
0.0
  0
VERTEX
  5
83F
330
7EE
100
AcDbEntity
  8
0
100
AcDbVertex
100
AcDb2dVertex
 10
64.4863748550415
 20
57.89604337451738
 30
0.0
  0
VERTEX
  5
840
330
7EE
100
AcDbEntity
  8
0
100
AcDbVertex
100
AcDb2dVertex
 10
64.46689128875732
 20
57.9636016630916
 30
0.0
  0
VERTEX
  5
841
330
7EE
100
AcDbEntity
  8
0
100
AcDbVertex
100
AcDb2dVertex
 10
64.44730281829833
 20
58.03187520740312
 30
0.0
  0
VERTEX
  5
842
330
7EE
100
AcDbEntity
  8
0
100
AcDbVertex
100
AcDb2dVertex
 10
64.42762374877929
 20
58.10086162326616
 30
0.0
  0
VERTEX
  5
843
330
7EE
100
AcDbEntity
  8
0
100
AcDbVertex
100
AcDb2dVertex
 10
64.40784454345703
 20
58.17056091068071
 30
0.0
  0
VERTEX
  5
844
330
7EE
100
AcDbEntity
  8
0
100
AcDbVertex
100
AcDb2dVertex
 10
64.3879747390747
 20
58.2409659170894
 30
0.0
  0
VERTEX
  5
845
330
7EE
100
AcDbEntity
  8
0
100
AcDbVertex
100
AcDb2dVertex
 10
64.36801433563232
 20
58.31207902667802
 30
0.0
  0
VERTEX
  5
846
330
7EE
100
AcDbEntity
  8
0
100
AcDbVertex
100
AcDb2dVertex
 10
64.34797286987304
 20
58.3838930868892
 30
0.0
  0
VERTEX
  5
847
330
7EE
100
AcDbEntity
  8
0
100
AcDbVertex
100
AcDb2dVertex
 10
64.32784557342529
 20
58.45641048190874
 30
0.0
  0
VERTEX
  5
848
330
7EE
100
AcDbEntity
  8
0
100
AcDbVertex
100
AcDb2dVertex
 10
64.30763721466064
 20
58.52962405917924
 30
0.0
  0
VERTEX
  5
849
330
7EE
100
AcDbEntity
  8
0
100
AcDbVertex
100
AcDb2dVertex
 10
64.28735256195068
 20
58.60353381870073
 30
0.0
  0
VERTEX
  5
84A
330
7EE
100
AcDbEntity
  8
0
100
AcDbVertex
100
AcDb2dVertex
 10
64.26699161529541
 20
58.6781373762874
 30
0.0
  0
VERTEX
  5
84B
330
7EE
100
AcDbEntity
  8
0
100
AcDbVertex
100
AcDb2dVertex
 10
64.2465591430664
 20
58.75342996356767
 30
0.0
  0
VERTEX
  5
84C
330
7EE
100
AcDbEntity
  8
0
100
AcDbVertex
100
AcDb2dVertex
 10
64.22605991363525
 20
58.82941158054155
 30
0.0
  0
VERTEX
  5
84D
330
7EE
100
AcDbEntity
  8
0
100
AcDbVertex
100
AcDb2dVertex
 10
64.20549392700195
 20
58.90607745883745
 30
0.0
  0
VERTEX
  5
84E
330
7EE
100
AcDbEntity
  8
0
100
AcDbVertex
100
AcDb2dVertex
 10
64.18486595153808
 20
58.98342759845537
 30
0.0
  0
VERTEX
  5
84F
330
7EE
100
AcDbEntity
  8
0
100
AcDbVertex
100
AcDb2dVertex
 10
64.16418075561523
 20
59.06145723102373
 30
0.0
  0
VERTEX
  5
850
330
7EE
100
AcDbEntity
  8
0
100
AcDbVertex
100
AcDb2dVertex
 10
64.14343357086181
 20
59.14016397235673
 30
0.0
  0
VERTEX
  5
851
330
7EE
100
AcDbEntity
  8
0
100
AcDbVertex
100
AcDb2dVertex
 10
64.12263393402099
 20
59.21954782245439
 30
0.0
  0
VERTEX
  5
852
330
7EE
100
AcDbEntity
  8
0
100
AcDbVertex
100
AcDb2dVertex
 10
64.10178661346435
 20
59.29960401294511
 30
0.0
  0
VERTEX
  5
853
330
7EE
100
AcDbEntity
  8
0
100
AcDbVertex
100
AcDb2dVertex
 10
64.08088684082031
 20
59.38033015964311
 30
0.0
  0
VERTEX
  5
854
330
7EE
100
AcDbEntity
  8
0
100
AcDbVertex
100
AcDb2dVertex
 10
64.05994415283203
 20
59.46172626254838
 30
0.0
  0
VERTEX
  5
855
330
7EE
100
AcDbEntity
  8
0
100
AcDbVertex
100
AcDb2dVertex
 10
64.03895378112792
 20
59.54378516910356
 30
0.0
  0
VERTEX
  5
856
330
7EE
100
AcDbEntity
  8
0
100
AcDbVertex
100
AcDb2dVertex
 10
64.01793003082275
 20
59.62650687930864
 30
0.0
  0
VERTEX
  5
857
330
7EE
100
AcDbEntity
  8
0
100
AcDbVertex
100
AcDb2dVertex
 10
63.99686813354492
 20
59.70988900897783
 30
0.0
  0
VERTEX
  5
858
330
7EE
100
AcDbEntity
  8
0
100
AcDbVertex
100
AcDb2dVertex
 10
63.97576808929443
 20
59.79392917392534
 30
0.0
  0
VERTEX
  5
859
330
7EE
100
AcDbEntity
  8
0
100
AcDbVertex
100
AcDb2dVertex
 10
63.95464420318603
 20
59.87862498996538
 30
0.0
  0
VERTEX
  5
85A
330
7EE
100
AcDbEntity
  8
0
100
AcDbVertex
100
AcDb2dVertex
 10
63.93348693847656
 20
59.96397168872636
 30
0.0
  0
VERTEX
  5
85B
330
7EE
100
AcDbEntity
  8
0
100
AcDbVertex
100
AcDb2dVertex
 10
63.91230583190917
 20
60.04997165439409
 30
0.0
  0
VERTEX
  5
85C
330
7EE
100
AcDbEntity
  8
0
100
AcDbVertex
100
AcDb2dVertex
 10
63.89110565185546
 20
60.13661535022539
 30
0.0
  0
VERTEX
  5
85D
330
7EE
100
AcDbEntity
  8
0
100
AcDbVertex
100
AcDb2dVertex
 10
63.86988162994384
 20
60.22390754459184
 30
0.0
  0
VERTEX
  5
85E
330
7EE
100
AcDbEntity
  8
0
100
AcDbVertex
100
AcDb2dVertex
 10
63.84864330291748
 20
60.31183870075029
 30
0.0
  0
VERTEX
  5
85F
330
7EE
100
AcDbEntity
  8
0
100
AcDbVertex
100
AcDb2dVertex
 10
63.82739067077636
 20
60.40041358707231
 30
0.0
  0
VERTEX
  5
860
330
7EE
100
AcDbEntity
  8
0
100
AcDbVertex
100
AcDb2dVertex
 10
63.80612850189208
 20
60.48962266681474
 30
0.0
  0
VERTEX
  5
861
330
7EE
100
AcDbEntity
  8
0
100
AcDbVertex
100
AcDb2dVertex
 10
63.78486156463623
 20
60.57946832416337
 30
0.0
  0
VERTEX
  5
862
330
7EE
100
AcDbEntity
  8
0
100
AcDbVertex
100
AcDb2dVertex
 10
63.7635850906372
 20
60.66994579074663
 30
0.0
  0
VERTEX
  5
863
330
7EE
100
AcDbEntity
  8
0
100
AcDbVertex
100
AcDb2dVertex
 10
63.74230861663818
 20
60.7610550665645
 30
0.0
  0
VERTEX
  5
864
330
7EE
100
AcDbEntity
  8
0
100
AcDbVertex
100
AcDb2dVertex
 10
63.72103214263916
 20
60.85278899905961
 30
0.0
  0
VERTEX
  5
865
330
7EE
100
AcDbEntity
  8
0
100
AcDbVertex
100
AcDb2dVertex
 10
63.6997652053833
 20
60.94514997241777
 30
0.0
  0
VERTEX
  5
866
330
7EE
100
AcDbEntity
  8
0
100
AcDbVertex
100
AcDb2dVertex
 10
63.67849826812744
 20
61.03813083408159
 30
0.0
  0
VERTEX
  5
867
330
7EE
100
AcDbEntity
  8
0
100
AcDbVertex
100
AcDb2dVertex
 10
63.65724563598632
 20
61.13173396823686
 30
0.0
  0
VERTEX
  5
868
330
7EE
100
AcDbEntity
  8
0
100
AcDbVertex
100
AcDb2dVertex
 10
63.63600254058837
 20
61.22595222232622
 30
0.0
  0
VERTEX
  5
869
330
7EE
100
AcDbEntity
  8
0
100
AcDbVertex
100
AcDb2dVertex
 10
63.61477375030517
 20
61.32078559634965
 30
0.0
  0
VERTEX
  5
86A
330
7EE
100
AcDbEntity
  8
0
100
AcDbVertex
100
AcDb2dVertex
 10
63.59356880187988
 20
61.41623170612138
 30
0.0
  0
VERTEX
  5
86B
330
7EE
100
AcDbEntity
  8
0
100
AcDbVertex
100
AcDb2dVertex
 10
63.57238292694091
 20
61.51228816745561
 30
0.0
  0
VERTEX
  5
86C
330
7EE
100
AcDbEntity
  8
0
100
AcDbVertex
100
AcDb2dVertex
 10
63.55122089385986
 20
61.60895021198076
 30
0.0
  0
VERTEX
  5
86D
330
7EE
100
AcDbEntity
  8
0
100
AcDbVertex
100
AcDb2dVertex
 10
63.53008270263671
 20
61.70621783969682
 30
0.0
  0
VERTEX
  5
86E
330
7EE
100
AcDbEntity
  8
0
100
AcDbVertex
100
AcDb2dVertex
 10
63.50897789001464
 20
61.80408628223222
 30
0.0
  0
VERTEX
  5
86F
330
7EE
100
AcDbEntity
  8
0
100
AcDbVertex
100
AcDb2dVertex
 10
63.48790645599365
 20
61.90255553958696
 30
0.0
  0
VERTEX
  5
870
330
7EE
100
AcDbEntity
  8
0
100
AcDbVertex
100
AcDb2dVertex
 10
63.46687316894531
 20
62.00162084338945
 30
0.0
  0
VERTEX
  5
871
330
7EE
100
AcDbEntity
  8
0
100
AcDbVertex
100
AcDb2dVertex
 10
63.44587326049804
 20
62.10128219363969
 30
0.0
  0
VERTEX
  5
872
330
7EE
100
AcDbEntity
  8
0
100
AcDbVertex
100
AcDb2dVertex
 10
63.4249210357666
 20
62.20153243778032
 30
0.0
  0
VERTEX
  5
873
330
7EE
100
AcDbEntity
  8
0
100
AcDbVertex
100
AcDb2dVertex
 10
63.40400695800781
 20
62.30237395999711
 30
0.0
  0
VERTEX
  5
874
330
7EE
100
AcDbEntity
  8
0
100
AcDbVertex
100
AcDb2dVertex
 10
63.38314533233642
 20
62.40380437610429
 30
0.0
  0
VERTEX
  5
875
330
7EE
100
AcDbEntity
  8
0
100
AcDbVertex
100
AcDb2dVertex
 10
63.36233139038085
 20
62.50581653354448
 30
0.0
  0
VERTEX
  5
876
330
7EE
100
AcDbEntity
  8
0
100
AcDbVertex
100
AcDb2dVertex
 10
63.34157466888427
 20
62.60841043231767
 30
0.0
  0
VERTEX
  5
877
330
7EE
100
AcDbEntity
  8
0
100
AcDbVertex
100
AcDb2dVertex
 10
63.32087039947509
 20
62.71158368823808
 30
0.0
  0
VERTEX
  5
878
330
7EE
100
AcDbEntity
  8
0
100
AcDbVertex
100
AcDb2dVertex
 10
63.30022811889648
 20
62.81533630130571
 30
0.0
  0
VERTEX
  5
879
330
7EE
100
AcDbEntity
  8
0
100
AcDbVertex
100
AcDb2dVertex
 10
63.27964305877685
 20
62.91966111896318
 30
0.0
  0
VERTEX
  5
87A
330
7EE
100
AcDbEntity
  8
0
100
AcDbVertex
100
AcDb2dVertex
 10
63.25912475585937
 20
63.02455814121049
 30
0.0
  0
VERTEX
  5
87B
330
7EE
100
AcDbEntity
  8
0
100
AcDbVertex
100
AcDb2dVertex
 10
63.23867797851562
 20
63.13002259967607
 30
0.0
  0
VERTEX
  5
87C
330
7EE
100
AcDbEntity
  8
0
100
AcDbVertex
100
AcDb2dVertex
 10
63.21829795837402
 20
63.2360568785457
 30
0.0
  0
VERTEX
  5
87D
330
7EE
100
AcDbEntity
  8
0
100
AcDbVertex
100
AcDb2dVertex
 10
63.19799423217773
 20
63.34265144107622
 30
0.0
  0
VERTEX
  5
87E
330
7EE
100
AcDbEntity
  8
0
100
AcDbVertex
100
AcDb2dVertex
 10
63.17782402038574
 20
63.44977052448076
 30
0.0
  0
VERTEX
  5
87F
330
7EE
100
AcDbEntity
  8
0
100
AcDbVertex
100
AcDb2dVertex
 10
63.15783500671386
 20
63.5573664450435
 30
0.0
  0
VERTEX
  5
880
330
7EE
100
AcDbEntity
  8
0
100
AcDbVertex
100
AcDb2dVertex
 10
63.13803195953369
 20
63.66543681857866
 30
0.0
  0
VERTEX
  5
881
330
7EE
100
AcDbEntity
  8
0
100
AcDbVertex
100
AcDb2dVertex
 10
63.11841487884521
 20
63.77397449252885
 30
0.0
  0
VERTEX
  5
882
330
7EE
100
AcDbEntity
  8
0
100
AcDbVertex
100
AcDb2dVertex
 10
63.09898853302001
 20
63.88297231433671
 30
0.0
  0
VERTEX
  5
883
330
7EE
100
AcDbEntity
  8
0
100
AcDbVertex
100
AcDb2dVertex
 10
63.07975769042968
 20
63.99242313144487
 30
0.0
  0
VERTEX
  5
884
330
7EE
100
AcDbEntity
  8
0
100
AcDbVertex
100
AcDb2dVertex
 10
63.06072235107421
 20
64.10231979129594
 30
0.0
  0
VERTEX
  5
885
330
7EE
100
AcDbEntity
  8
0
100
AcDbVertex
100
AcDb2dVertex
 10
63.04188728332519
 20
64.21265514133256
 30
0.0
  0
VERTEX
  5
886
330
7EE
100
AcDbEntity
  8
0
100
AcDbVertex
100
AcDb2dVertex
 10
63.02325248718261
 20
64.32342441318315
 30
0.0
  0
VERTEX
  5
887
330
7EE
100
AcDbEntity
  8
0
100
AcDbVertex
100
AcDb2dVertex
 10
63.00482273101806
 20
64.43461807010454
 30
0.0
  0
VERTEX
  5
888
330
7EE
100
AcDbEntity
  8
0
100
AcDbVertex
100
AcDb2dVertex
 10
62.98659801483154
 20
64.54623134372514
 30
0.0
  0
VERTEX
  5
889
330
7EE
100
AcDbEntity
  8
0
100
AcDbVertex
100
AcDb2dVertex
 10
62.96858310699462
 20
64.65825708148759
 30
0.0
  0
VERTEX
  5
88A
330
7EE
100
AcDbEntity
  8
0
100
AcDbVertex
100
AcDb2dVertex
 10
62.9507827758789
 20
64.77068813083452
 30
0.0
  0
VERTEX
  5
88B
330
7EE
100
AcDbEntity
  8
0
100
AcDbVertex
100
AcDb2dVertex
 10
62.93319225311279
 20
64.88351733920854
 30
0.0
  0
VERTEX
  5
88C
330
7EE
100
AcDbEntity
  8
0
100
AcDbVertex
100
AcDb2dVertex
 10
62.91582584381103
 20
64.99673755405229
 30
0.0
  0
VERTEX
  5
88D
330
7EE
100
AcDbEntity
  8
0
100
AcDbVertex
100
AcDb2dVertex
 10
62.89867401123046
 20
65.11034400699418
 30
0.0
  0
VERTEX
  5
88E
330
7EE
100
AcDbEntity
  8
0
100
AcDbVertex
100
AcDb2dVertex
 10
62.88174629211425
 20
65.22432716129106
 30
0.0
  0
VERTEX
  5
88F
330
7EE
100
AcDbEntity
  8
0
100
AcDbVertex
100
AcDb2dVertex
 10
62.86504745483398
 20
65.33867986438554
 30
0.0
  0
VERTEX
  5
890
330
7EE
100
AcDbEntity
  8
0
100
AcDbVertex
100
AcDb2dVertex
 10
62.84857273101806
 20
65.45339973209184
 30
0.0
  0
VERTEX
  5
891
330
7EE
100
AcDbEntity
  8
0
100
AcDbVertex
100
AcDb2dVertex
 10
62.83233165740966
 20
65.568474843481
 30
0.0
  0
VERTEX
  5
892
330
7EE
100
AcDbEntity
  8
0
100
AcDbVertex
100
AcDb2dVertex
 10
62.8163194656372
 20
65.68390281436723
 30
0.0
  0
VERTEX
  5
893
330
7EE
100
AcDbEntity
  8
0
100
AcDbVertex
100
AcDb2dVertex
 10
62.80055046081542
 20
65.79967410800737
 30
0.0
  0
VERTEX
  5
894
330
7EE
100
AcDbEntity
  8
0
100
AcDbVertex
100
AcDb2dVertex
 10
62.78501510620117
 20
65.91578157184404
 30
0.0
  0
VERTEX
  5
895
330
7EE
100
AcDbEntity
  8
0
100
AcDbVertex
100
AcDb2dVertex
 10
62.76972293853759
 20
66.03221805331987
 30
0.0
  0
VERTEX
  5
896
330
7EE
100
AcDbEntity
  8
0
100
AcDbVertex
100
AcDb2dVertex
 10
62.7546739578247
 20
66.14897878406328
 30
0.0
  0
VERTEX
  5
897
330
7EE
100
AcDbEntity
  8
0
100
AcDbVertex
100
AcDb2dVertex
 10
62.73987293243408
 20
66.26605661151689
 30
0.0
  0
VERTEX
  5
898
330
7EE
100
AcDbEntity
  8
0
100
AcDbVertex
100
AcDb2dVertex
 10
62.72531986236572
 20
66.38344438312334
 30
0.0
  0
VERTEX
  5
899
330
7EE
100
AcDbEntity
  8
0
100
AcDbVertex
100
AcDb2dVertex
 10
62.71102428436279
 20
66.50113494632524
 30
0.0
  0
VERTEX
  5
89A
330
7EE
100
AcDbEntity
  8
0
100
AcDbVertex
100
AcDb2dVertex
 10
62.69697666168212
 20
66.61912114856523
 30
0.0
  0
VERTEX
  5
89B
330
7EE
100
AcDbEntity
  8
0
100
AcDbVertex
100
AcDb2dVertex
 10
62.68319129943847
 20
66.73739583728593
 30
0.0
  0
VERTEX
  5
89C
330
7EE
100
AcDbEntity
  8
0
100
AcDbVertex
100
AcDb2dVertex
 10
62.66966342926025
 20
66.85595424411577
 30
0.0
  0
VERTEX
  5
89D
330
7EE
100
AcDbEntity
  8
0
100
AcDbVertex
100
AcDb2dVertex
 10
62.65639781951904
 20
66.97478683231157
 30
0.0
  0
VERTEX
  5
89E
330
7EE
100
AcDbEntity
  8
0
100
AcDbVertex
100
AcDb2dVertex
 10
62.64339923858642
 20
67.09389121768754
 30
0.0
  0
VERTEX
  5
89F
330
7EE
100
AcDbEntity
  8
0
100
AcDbVertex
100
AcDb2dVertex
 10
62.63067245483398
 20
67.21325547931474
 30
0.0
  0
VERTEX
  5
8A0
330
7EE
100
AcDbEntity
  8
0
100
AcDbVertex
100
AcDb2dVertex
 10
62.61821269989013
 20
67.33287246463579
 30
0.0
  0
VERTEX
  5
8A1
330
7EE
100
AcDbEntity
  8
0
100
AcDbVertex
100
AcDb2dVertex
 10
62.60602474212646
 20
67.45274217365068
 30
0.0
  0
VERTEX
  5
8A2
330
7EE
100
AcDbEntity
  8
0
100
AcDbVertex
100
AcDb2dVertex
 10
62.59411811828613
 20
67.57285030124467
 30
0.0
  0
VERTEX
  5
8A3
330
7EE
100
AcDbEntity
  8
0
100
AcDbVertex
100
AcDb2dVertex
 10
62.58248805999755
 20
67.69319446323198
 30
0.0
  0
VERTEX
  5
8A4
330
7EE
100
AcDbEntity
  8
0
100
AcDbVertex
100
AcDb2dVertex
 10
62.57113933563232
 20
67.81376512286943
 30
0.0
  0
VERTEX
  5
8A5
330
7EE
100
AcDbEntity
  8
0
100
AcDbVertex
100
AcDb2dVertex
 10
62.56007194519042
 20
67.93455751178544
 30
0.0
  0
VERTEX
  5
8A6
330
7EE
100
AcDbEntity
  8
0
100
AcDbVertex
100
AcDb2dVertex
 10
62.54929542541503
 20
68.05556447742265
 30
0.0
  0
VERTEX
  5
8A7
330
7EE
100
AcDbEntity
  8
0
100
AcDbVertex
100
AcDb2dVertex
 10
62.53880500793457
 20
68.17677648303789
 30
0.0
  0
VERTEX
  5
8A8
330
7EE
100
AcDbEntity
  8
0
100
AcDbVertex
100
AcDb2dVertex
 10
62.52861022949218
 20
68.29819114444536
 30
0.0
  0
VERTEX
  5
8A9
330
7EE
100
AcDbEntity
  8
0
100
AcDbVertex
100
AcDb2dVertex
 10
62.51871109008789
 20
68.4197989249019
 30
0.0
  0
VERTEX
  5
8AA
330
7EE
100
AcDbEntity
  8
0
100
AcDbVertex
100
AcDb2dVertex
 10
62.50910758972167
 20
68.54159505603593
 30
0.0
  0
VERTEX
  5
8AB
330
7EE
100
AcDbEntity
  8
0
100
AcDbVertex
100
AcDb2dVertex
 10
62.49980449676513
 20
68.66357000110429
 30
0.0
  0
VERTEX
  5
8AC
330
7EE
100
AcDbEntity
  8
0
100
AcDbVertex
100
AcDb2dVertex
 10
62.49080181121826
 20
68.7857166075496
 30
0.0
  0
VERTEX
  5
8AD
330
7EE
100
AcDbEntity
  8
0
100
AcDbVertex
100
AcDb2dVertex
 10
62.48210906982421
 20
68.90803249118608
 30
0.0
  0
VERTEX
  5
8AE
330
7EE
100
AcDbEntity
  8
0
100
AcDbVertex
100
AcDb2dVertex
 10
62.47372150421142
 20
69.03050573108476
 30
0.0
  0
VERTEX
  5
8AF
330
7EE
100
AcDbEntity
  8
0
100
AcDbVertex
100
AcDb2dVertex
 10
62.46564388275146
 20
69.15313155887407
 30
0.0
  0
VERTEX
  5
8B0
330
7EE
100
AcDbEntity
  8
0
100
AcDbVertex
100
AcDb2dVertex
 10
62.4578857421875
 20
69.27590520618242
 30
0.0
  0
VERTEX
  5
8B1
330
7EE
100
AcDbEntity
  8
0
100
AcDbVertex
100
AcDb2dVertex
 10
62.45043754577636
 20
69.39881713626665
 30
0.0
  0
VERTEX
  5
8B2
330
7EE
100
AcDbEntity
  8
0
100
AcDbVertex
100
AcDb2dVertex
 10
62.44331359863281
 20
69.52186019656938
 30
0.0
  0
VERTEX
  5
8B3
330
7EE
100
AcDbEntity
  8
0
100
AcDbVertex
100
AcDb2dVertex
 10
62.43650436401367
 20
69.64502961871904
 30
0.0
  0
VERTEX
  5
8B4
330
7EE
100
AcDbEntity
  8
0
100
AcDbVertex
100
AcDb2dVertex
 10
62.43002414703369
 20
69.76831825015825
 30
0.0
  0
VERTEX
  5
8B5
330
7EE
100
AcDbEntity
  8
0
100
AcDbVertex
100
AcDb2dVertex
 10
62.42387294769287
 20
69.89171893832963
 30
0.0
  0
VERTEX
  5
8B6
330
7EE
100
AcDbEntity
  8
0
100
AcDbVertex
100
AcDb2dVertex
 10
62.41804599761962
 20
70.01522214649003
 30
0.0
  0
VERTEX
  5
8B7
330
7EE
100
AcDbEntity
  8
0
100
AcDbVertex
100
AcDb2dVertex
 10
62.41255760192871
 20
70.13882549045366
 30
0.0
  0
VERTEX
  5
8B8
330
7EE
100
AcDbEntity
  8
0
100
AcDbVertex
100
AcDb2dVertex
 10
62.40739822387695
 20
70.26251943347734
 30
0.0
  0
VERTEX
  5
8B9
330
7EE
100
AcDbEntity
  8
0
100
AcDbVertex
100
AcDb2dVertex
 10
62.40257740020751
 20
70.38629682300371
 30
0.0
  0
VERTEX
  5
8BA
330
7EE
100
AcDbEntity
  8
0
100
AcDbVertex
100
AcDb2dVertex
 10
62.39809989929199
 20
70.51015289066118
 30
0.0
  0
VERTEX
  5
8BB
330
7EE
100
AcDbEntity
  8
0
100
AcDbVertex
100
AcDb2dVertex
 10
62.39396572113037
 20
70.63408048389238
 30
0.0
  0
VERTEX
  5
8BC
330
7EE
100
AcDbEntity
  8
0
100
AcDbVertex
100
AcDb2dVertex
 10
62.39017486572265
 20
70.75807245013994
 30
0.0
  0
VERTEX
  5
8BD
330
7EE
100
AcDbEntity
  8
0
100
AcDbVertex
100
AcDb2dVertex
 10
62.38673210144042
 20
70.88211925266069
 30
0.0
  0
VERTEX
  5
8BE
330
7EE
100
AcDbEntity
  8
0
100
AcDbVertex
100
AcDb2dVertex
 10
62.38364219665527
 20
71.00621850726884
 30
0.0
  0
VERTEX
  5
8BF
330
7EE
100
AcDbEntity
  8
0
100
AcDbVertex
100
AcDb2dVertex
 10
62.38090515136718
 20
71.13036067722124
 30
0.0
  0
VERTEX
  5
8C0
330
7EE
100
AcDbEntity
  8
0
100
AcDbVertex
100
AcDb2dVertex
 10
62.37852096557617
 20
71.25453860996049
 30
0.0
  0
VERTEX
  5
8C1
330
7EE
100
AcDbEntity
  8
0
100
AcDbVertex
100
AcDb2dVertex
 10
62.37649917602539
 20
71.37874753711503
 30
0.0
  0
VERTEX
  5
8C2
330
7EE
100
AcDbEntity
  8
0
100
AcDbVertex
100
AcDb2dVertex
 10
62.37483978271484
 20
71.50298030612749
 30
0.0
  0
VERTEX
  5
8C3
330
7EE
100
AcDbEntity
  8
0
100
AcDbVertex
100
AcDb2dVertex
 10
62.37354278564453
 20
71.62722738025468
 30
0.0
  0
VERTEX
  5
8C4
330
7EE
100
AcDbEntity
  8
0
100
AcDbVertex
100
AcDb2dVertex
 10
62.37261295318603
 20
71.75148399112504
 30
0.0
  0
VERTEX
  5
8C5
330
7EE
100
AcDbEntity
  8
0
100
AcDbVertex
100
AcDb2dVertex
 10
62.37205505371093
 20
71.87574537036699
 30
0.0
  0
VERTEX
  5
8C6
330
7EE
100
AcDbEntity
  8
0
100
AcDbVertex
100
AcDb2dVertex
 10
62.37186908721923
 20
71.99999959705156
 30
0.0
  0
SEQEND
  5
8C7
330
7EE
100
AcDbEntity
  8
0
  0
LINE
  5
8C8
330
1F
100
AcDbEntity
  8
0
100
AcDbLine
 10
70.80000000000018
 20
55.00000000000909
 30
0.0
 11
70.80000000000018
 21
89.00000000000909
 31
0.0
  0
LINE
  5
8C9
330
1F
100
AcDbEntity
  8
0
100
AcDbLine
 10
71.30000000000018
 20
88.50000000000909
 30
0.0
 11
71.30000000000018
 21
55.5000000000091
 31
0.0
  0
LINE
  5
8CA
330
1F
100
AcDbEntity
  8
0
100
AcDbLine
 10
65.5
 20
55.00000000000909
 30
0.0
 11
70.80000000000018
 21
55.00000000000909
 31
0.0
  0
LINE
  5
8CB
330
1F
100
AcDbEntity
  8
0
100
AcDbLine
 10
49.5
 20
47.39125017910919
 30
0.0
 11
49.5
 21
48.5000000000091
 31
0.0
  0
ARC
  5
8CC
330
1F
100
AcDbEntity
  8
0
100
AcDbCircle
 10
48.5
 20
47.39125017910919
 30
0.0
 40
0.9999999999999987
100
AcDbArc
 50
276.5819446551726
 51
0.0
  0
LINE
  5
8CD
330
1F
100
AcDbEntity
  8
0
100
AcDbLine
 10
62.5
 20
52.00000000000909
 30
0.0
 11
62.5
 21
50.89125017910919
 31
0.0
  0
ARC
  5
8CE
330
1F
100
AcDbEntity
  8
0
100
AcDbCircle
 10
61.5
 20
50.89125017910919
 30
0.0
 40
0.9999999999999964
100
AcDbArc
 50
276.5819446551726
 51
0.0
  0
POLYLINE
  5
8CF
330
1F
100
AcDbEntity
  8
0
100
AcDb2dPolyline
 66
     1
 10
0.0
 20
0.0
 30
0.0
  0
VERTEX
  5
8D0
330
8CF
100
AcDbEntity
  8
0
100
AcDbVertex
100
AcDb2dVertex
 10
65.50000190734863
 20
54.9999991202144
 30
0.0
  0
VERTEX
  5
8D1
330
8CF
100
AcDbEntity
  8
0
100
AcDbVertex
100
AcDb2dVertex
 10
65.11409759521484
 20
54.93658931491655
 30
0.0
  0
VERTEX
  5
8D2
330
8CF
100
AcDbEntity
  8
0
100
AcDbVertex
100
AcDb2dVertex
 10
64.92115020751953
 20
54.90488202808183
 30
0.0
  0
VERTEX
  5
8D3
330
8CF
100
AcDbEntity
  8
0
100
AcDbVertex
100
AcDb2dVertex
 10
64.72819805145263
 20
54.87317712543291
 30
0.0
  0
VERTEX
  5
8D4
330
8CF
100
AcDbEntity
  8
0
100
AcDbVertex
100
AcDb2dVertex
 10
64.53574180603027
 20
54.8400059485225
 30
0.0
  0
VERTEX
  5
8D5
330
8CF
100
AcDbEntity
  8
0
100
AcDbVertex
100
AcDb2dVertex
 10
64.36281204223632
 20
54.74873454807084
 30
0.0
  0
VERTEX
  5
8D6
330
8CF
100
AcDbEntity
  8
0
100
AcDbVertex
100
AcDb2dVertex
 10
64.18988227844238
 20
54.65746553180498
 30
0.0
  0
VERTEX
  5
8D7
330
8CF
100
AcDbEntity
  8
0
100
AcDbVertex
100
AcDb2dVertex
 10
64.01694774627685
 20
54.56619532344621
 30
0.0
  0
VERTEX
  5
8D8
330
8CF
100
AcDbEntity
  8
0
100
AcDbVertex
100
AcDb2dVertex
 10
63.84401798248291
 20
54.47492511508745
 30
0.0
  0
VERTEX
  5
8D9
330
8CF
100
AcDbEntity
  8
0
100
AcDbVertex
100
AcDb2dVertex
 10
63.6763048171997
 20
54.37673361537736
 30
0.0
  0
VERTEX
  5
8DA
330
8CF
100
AcDbEntity
  8
0
100
AcDbVertex
100
AcDb2dVertex
 10
63.26993942260742
 20
53.9536705755977
 30
0.0
  0
VERTEX
  5
8DB
330
8CF
100
AcDbEntity
  8
0
100
AcDbVertex
100
AcDb2dVertex
 10
63.13448429107666
 20
53.81264837024492
 30
0.0
  0
VERTEX
  5
8DC
330
8CF
100
AcDbEntity
  8
0
100
AcDbVertex
100
AcDb2dVertex
 10
63.01185607910156
 20
53.66275103328508
 30
0.0
  0
VERTEX
  5
8DD
330
8CF
100
AcDbEntity
  8
0
100
AcDbVertex
100
AcDb2dVertex
 10
62.9276418685913
 20
53.48627836940568
 30
0.0
  0
VERTEX
  5
8DE
330
8CF
100
AcDbEntity
  8
0
100
AcDbVertex
100
AcDb2dVertex
 10
62.75920391082763
 20
53.13333304164689
 30
0.0
  0
VERTEX
  5
8DF
330
8CF
100
AcDbEntity
  8
0
100
AcDbVertex
100
AcDb2dVertex
 10
62.6749849319458
 20
52.9568615698604
 30
0.0
  0
VERTEX
  5
8E0
330
8CF
100
AcDbEntity
  8
0
100
AcDbVertex
100
AcDb2dVertex
 10
62.61118412017822
 20
52.77420909641069
 30
0.0
  0
VERTEX
  5
8E1
330
8CF
100
AcDbEntity
  8
0
100
AcDbVertex
100
AcDb2dVertex
 10
62.58338451385498
 20
52.58065731761735
 30
0.0
  0
VERTEX
  5
8E2
330
8CF
100
AcDbEntity
  8
0
100
AcDbVertex
100
AcDb2dVertex
 10
62.55558967590332
 20
52.38710434673112
 30
0.0
  0
VERTEX
  5
8E3
330
8CF
100
AcDbEntity
  8
0
100
AcDbVertex
100
AcDb2dVertex
 10
62.52779483795166
 20
52.19355256793779
 30
0.0
  0
VERTEX
  5
8E4
330
8CF
100
AcDbEntity
  8
0
100
AcDbVertex
100
AcDb2dVertex
 10
62.5
 20
51.99999959705156
 30
0.0
  0
SEQEND
  5
8E5
330
8CF
100
AcDbEntity
  8
0
  0
LINE
  5
8E6
330
1F
100
AcDbEntity
  8
0
100
AcDbLine
 10
71.30000000000018
 20
55.5000000000091
 30
0.0
 11
70.80000000000018
 21
55.00000000000909
 31
0.0
  0
LINE
  5
8E7
330
1F
100
AcDbEntity
  8
0
100
AcDbLine
 10
65.5
 20
89.00000000000909
 30
0.0
 11
70.80000000000018
 21
89.00000000000909
 31
0.0
  0
POLYLINE
  5
8E8
330
1F
100
AcDbEntity
  8
0
100
AcDb2dPolyline
 66
     1
 10
0.0
 20
0.0
 30
0.0
  0
VERTEX
  5
8E9
330
8E8
100
AcDbEntity
  8
0
100
AcDbVertex
100
AcDb2dVertex
 10
62.78441905975341
 20
90.72500140903276
 30
0.0
  0
VERTEX
  5
8EA
330
8E8
100
AcDbEntity
  8
0
100
AcDbVertex
100
AcDb2dVertex
 10
62.86420822143554
 20
90.60882480380815
 30
0.0
  0
VERTEX
  5
8EB
330
8E8
100
AcDbEntity
  8
0
100
AcDbVertex
100
AcDb2dVertex
 10
62.94400215148925
 20
90.49265296695512
 30
0.0
  0
VERTEX
  5
8EC
330
8E8
100
AcDbEntity
  8
0
100
AcDbVertex
100
AcDb2dVertex
 10
63.10358047485351
 20
90.26030929324907
 30
0.0
  0
VERTEX
  5
8ED
330
8E8
100
AcDbEntity
  8
0
100
AcDbVertex
100
AcDb2dVertex
 10
63.18336963653564
 20
90.14413268802446
 30
0.0
  0
VERTEX
  5
8EE
330
8E8
100
AcDbEntity
  8
0
100
AcDbVertex
100
AcDb2dVertex
 10
63.26316356658935
 20
90.02796085117143
 30
0.0
  0
VERTEX
  5
8EF
330
8E8
100
AcDbEntity
  8
0
100
AcDbVertex
100
AcDb2dVertex
 10
63.34612846374511
 20
89.91482646701616
 30
0.0
  0
VERTEX
  5
8F0
330
8E8
100
AcDbEntity
  8
0
100
AcDbVertex
100
AcDb2dVertex
 10
63.45864295959472
 20
89.82995898959917
 30
0.0
  0
VERTEX
  5
8F1
330
8E8
100
AcDbEntity
  8
0
100
AcDbVertex
100
AcDb2dVertex
 10
63.57116222381591
 20
89.74509151218217
 30
0.0
  0
VERTEX
  5
8F2
330
8E8
100
AcDbEntity
  8
0
100
AcDbVertex
100
AcDb2dVertex
 10
63.6836814880371
 20
89.66022880313676
 30
0.0
  0
VERTEX
  5
8F3
330
8E8
100
AcDbEntity
  8
0
100
AcDbVertex
100
AcDb2dVertex
 10
63.90872001647949
 20
89.49049384830278
 30
0.0
  0
VERTEX
  5
8F4
330
8E8
100
AcDbEntity
  8
0
100
AcDbVertex
100
AcDb2dVertex
 10
64.02123928070068
 20
89.40563113925737
 30
0.0
  0
VERTEX
  5
8F5
330
8E8
100
AcDbEntity
  8
0
100
AcDbVertex
100
AcDb2dVertex
 10
64.14044380187988
 20
89.3334141516475
 30
0.0
  0
VERTEX
  5
8F6
330
8E8
100
AcDbEntity
  8
0
100
AcDbVertex
100
AcDb2dVertex
 10
64.27394390106201
 20
89.28823859927934
 30
0.0
  0
VERTEX
  5
8F7
330
8E8
100
AcDbEntity
  8
0
100
AcDbVertex
100
AcDb2dVertex
 10
64.40743923187255
 20
89.24305827853959
 30
0.0
  0
VERTEX
  5
8F8
330
8E8
100
AcDbEntity
  8
0
100
AcDbVertex
100
AcDb2dVertex
 10
64.54093933105468
 20
89.19788272617143
 30
0.0
  0
VERTEX
  5
8F9
330
8E8
100
AcDbEntity
  8
0
100
AcDbVertex
100
AcDb2dVertex
 10
64.67443466186523
 20
89.15270717380327
 30
0.0
  0
VERTEX
  5
8FA
330
8E8
100
AcDbEntity
  8
0
100
AcDbVertex
100
AcDb2dVertex
 10
64.94143486022949
 20
89.06235606906694
 30
0.0
  0
VERTEX
  5
8FB
330
8E8
100
AcDbEntity
  8
0
100
AcDbVertex
100
AcDb2dVertex
 10
65.0786542892456
 20
89.03511436221879
 30
0.0
  0
VERTEX
  5
8FC
330
8E8
100
AcDbEntity
  8
0
100
AcDbVertex
100
AcDb2dVertex
 10
65.21910190582275
 20
89.02341277835649
 30
0.0
  0
VERTEX
  5
8FD
330
8E8
100
AcDbEntity
  8
0
100
AcDbVertex
100
AcDb2dVertex
 10
65.35955429077148
 20
89.0117064261226
 30
0.0
  0
VERTEX
  5
8FE
330
8E8
100
AcDbEntity
  8
0
100
AcDbVertex
100
AcDb2dVertex
 10
65.50000190734863
 20
89.00000007388872
 30
0.0
  0
SEQEND
  5
8FF
330
8E8
100
AcDbEntity
  8
0
  0
POLYLINE
  5
900
330
1F
100
AcDbEntity
  8
0
100
AcDb2dPolyline
 66
     1
 10
0.0
 20
0.0
 30
0.0
  0
VERTEX
  5
901
330
900
100
AcDbEntity
  8
0
100
AcDbVertex
100
AcDb2dVertex
 10
61.87922477722167
 20
91.30000026462358
 30
0.0
  0
VERTEX
  5
902
330
900
100
AcDbEntity
  8
0
100
AcDbVertex
100
AcDb2dVertex
 10
61.92611694335937
 20
91.29632861850542
 30
0.0
  0
VERTEX
  5
903
330
900
100
AcDbEntity
  8
0
100
AcDbVertex
100
AcDb2dVertex
 10
62.01990127563476
 20
91.28899486301225
 30
0.0
  0
VERTEX
  5
904
330
900
100
AcDbEntity
  8
0
100
AcDbVertex
100
AcDb2dVertex
 10
62.06603050231933
 20
91.28043086765092
 30
0.0
  0
VERTEX
  5
905
330
900
100
AcDbEntity
  8
0
100
AcDbVertex
100
AcDb2dVertex
 10
62.11179733276367
 20
91.26959712741655
 30
0.0
  0
VERTEX
  5
906
330
900
100
AcDbEntity
  8
0
100
AcDbVertex
100
AcDb2dVertex
 10
62.15756893157958
 20
91.25876338718217
 30
0.0
  0
VERTEX
  5
907
330
900
100
AcDbEntity
  8
0
100
AcDbVertex
100
AcDb2dVertex
 10
62.20195770263671
 20
91.24393375156206
 30
0.0
  0
VERTEX
  5
908
330
900
100
AcDbEntity
  8
0
100
AcDbVertex
100
AcDb2dVertex
 10
62.24461078643798
 20
91.22411639926713
 30
0.0
  0
VERTEX
  5
909
330
900
100
AcDbEntity
  8
0
100
AcDbVertex
100
AcDb2dVertex
 10
62.28726863861083
 20
91.20429427860063
 30
0.0
  0
VERTEX
  5
90A
330
900
100
AcDbEntity
  8
0
100
AcDbVertex
100
AcDb2dVertex
 10
62.3299217224121
 20
91.18447215793413
 30
0.0
  0
VERTEX
  5
90B
330
900
100
AcDbEntity
  8
0
100
AcDbVertex
100
AcDb2dVertex
 10
62.37257480621337
 20
91.1646548056392
 30
0.0
  0
VERTEX
  5
90C
330
900
100
AcDbEntity
  8
0
100
AcDbVertex
100
AcDb2dVertex
 10
62.41468429565429
 20
91.14396484134477
 30
0.0
  0
VERTEX
  5
90D
330
900
100
AcDbEntity
  8
0
100
AcDbVertex
100
AcDb2dVertex
 10
62.45103359222412
 20
91.11411006686967
 30
0.0
  0
VERTEX
  5
90E
330
900
100
AcDbEntity
  8
0
100
AcDbVertex
100
AcDb2dVertex
 10
62.48737812042236
 20
91.08425052402299
 30
0.0
  0
VERTEX
  5
90F
330
900
100
AcDbEntity
  8
0
100
AcDbVertex
100
AcDb2dVertex
 10
62.59641170501708
 20
90.9946862005977
 30
0.0
  0
VERTEX
  5
910
330
900
100
AcDbEntity
  8
0
100
AcDbVertex
100
AcDb2dVertex
 10
62.62556552886962
 20
90.95825584171098
 30
0.0
  0
VERTEX
  5
911
330
900
100
AcDbEntity
  8
0
100
AcDbVertex
100
AcDb2dVertex
 10
62.65204429626464
 20
90.91938407657426
 30
0.0
  0
VERTEX
  5
912
330
900
100
AcDbEntity
  8
0
100
AcDbVertex
100
AcDb2dVertex
 10
62.70499229431152
 20
90.84163100955766
 30
0.0
  0
VERTEX
  5
913
330
900
100
AcDbEntity
  8
0
100
AcDbVertex
100
AcDb2dVertex
 10
62.73147106170654
 20
90.80275447604936
 30
0.0
  0
VERTEX
  5
914
330
900
100
AcDbEntity
  8
0
100
AcDbVertex
100
AcDb2dVertex
 10
62.78441905975341
 20
90.72500140903276
 30
0.0
  0
SEQEND
  5
915
330
900
100
AcDbEntity
  8
0
  0
POLYLINE
  5
916
330
1F
100
AcDbEntity
  8
0
100
AcDb2dPolyline
 66
     1
 10
0.0
 20
0.0
 30
0.0
  0
VERTEX
  5
917
330
916
100
AcDbEntity
  8
0
100
AcDbVertex
100
AcDb2dVertex
 10
62.37186908721923
 20
71.99999959705156
 30
0.0
  0
VERTEX
  5
918
330
916
100
AcDbEntity
  8
0
100
AcDbVertex
100
AcDb2dVertex
 10
62.37204551696777
 20
72.1242347502498
 30
0.0
  0
VERTEX
  5
919
330
916
100
AcDbEntity
  8
0
100
AcDbVertex
100
AcDb2dVertex
 10
62.37257957458496
 20
72.24854619739335
 30
0.0
  0
VERTEX
  5
91A
330
916
100
AcDbEntity
  8
0
100
AcDbVertex
100
AcDb2dVertex
 10
62.3734712600708
 20
72.37292678592485
 30
0.0
  0
VERTEX
  5
91B
330
916
100
AcDbEntity
  8
0
100
AcDbVertex
100
AcDb2dVertex
 10
62.37471103668212
 20
72.49736459491533
 30
0.0
  0
VERTEX
  5
91C
330
916
100
AcDbEntity
  8
0
100
AcDbVertex
100
AcDb2dVertex
 10
62.37629890441894
 20
72.62185008762163
 30
0.0
  0
VERTEX
  5
91D
330
916
100
AcDbEntity
  8
0
100
AcDbVertex
100
AcDb2dVertex
 10
62.37823963165283
 20
72.74637134311479
 30
0.0
  0
VERTEX
  5
91E
330
916
100
AcDbEntity
  8
0
100
AcDbVertex
100
AcDb2dVertex
 10
62.3805284500122
 20
72.87091882465166
 30
0.0
  0
VERTEX
  5
91F
330
916
100
AcDbEntity
  8
0
100
AcDbVertex
100
AcDb2dVertex
 10
62.38316535949707
 20
72.99548061130327
 30
0.0
  0
VERTEX
  5
920
330
916
100
AcDbEntity
  8
0
100
AcDbVertex
100
AcDb2dVertex
 10
62.38614082336425
 20
73.12004478214067
 30
0.0
  0
VERTEX
  5
921
330
916
100
AcDbEntity
  8
0
100
AcDbVertex
100
AcDb2dVertex
 10
62.38946437835693
 20
73.2446018004207
 30
0.0
  0
VERTEX
  5
922
330
916
100
AcDbEntity
  8
0
100
AcDbVertex
100
AcDb2dVertex
 10
62.39312648773193
 20
73.36914212940019
 30
0.0
  0
VERTEX
  5
923
330
916
100
AcDbEntity
  8
0
100
AcDbVertex
100
AcDb2dVertex
 10
62.39712715148925
 20
73.49365623233598
 30
0.0
  0
VERTEX
  5
924
330
916
100
AcDbEntity
  8
0
100
AcDbVertex
100
AcDb2dVertex
 10
62.4014663696289
 20
73.61812741992753
 30
0.0
  0
VERTEX
  5
925
330
916
100
AcDbEntity
  8
0
100
AcDbVertex
100
AcDb2dVertex
 10
62.40613937377929
 20
73.74255092380327
 30
0.0
  0
VERTEX
  5
926
330
916
100
AcDbEntity
  8
0
100
AcDbVertex
100
AcDb2dVertex
 10
62.41115093231201
 20
73.86691482303422
 30
0.0
  0
VERTEX
  5
927
330
916
100
AcDbEntity
  8
0
100
AcDbVertex
100
AcDb2dVertex
 10
62.41649627685546
 20
73.99120481250566
 30
0.0
  0
VERTEX
  5
928
330
916
100
AcDbEntity
  8
0
100
AcDbVertex
100
AcDb2dVertex
 10
62.42217063903808
 20
74.1154137396602
 30
0.0
  0
VERTEX
  5
929
330
916
100
AcDbEntity
  8
0
100
AcDbVertex
100
AcDb2dVertex
 10
62.42817401885986
 20
74.23953206775468
 30
0.0
  0
VERTEX
  5
92A
330
916
100
AcDbEntity
  8
0
100
AcDbVertex
100
AcDb2dVertex
 10
62.4345064163208
 20
74.36354310748857
 30
0.0
  0
VERTEX
  5
92B
330
916
100
AcDbEntity
  8
0
100
AcDbVertex
100
AcDb2dVertex
 10
62.44116783142089
 20
74.48744209049028
 30
0.0
  0
VERTEX
  5
92C
330
916
100
AcDbEntity
  8
0
100
AcDbVertex
100
AcDb2dVertex
 10
62.44814872741699
 20
74.61121709583085
 30
0.0
  0
VERTEX
  5
92D
330
916
100
AcDbEntity
  8
0
100
AcDbVertex
100
AcDb2dVertex
 10
62.45545864105224
 20
74.73485381839555
 30
0.0
  0
VERTEX
  5
92E
330
916
100
AcDbEntity
  8
0
100
AcDbVertex
100
AcDb2dVertex
 10
62.46308803558349
 20
74.858345105627
 30
0.0
  0
VERTEX
  5
92F
330
916
100
AcDbEntity
  8
0
100
AcDbVertex
100
AcDb2dVertex
 10
62.47103691101074
 20
74.98167903659624
 30
0.0
  0
VERTEX
  5
930
330
916
100
AcDbEntity
  8
0
100
AcDbVertex
100
AcDb2dVertex
 10
62.4793004989624
 20
75.1048460745601
 30
0.0
  0
VERTEX
  5
931
330
916
100
AcDbEntity
  8
0
100
AcDbVertex
100
AcDb2dVertex
 10
62.48788833618164
 20
75.22783191440385
 30
0.0
  0
VERTEX
  5
932
330
916
100
AcDbEntity
  8
0
100
AcDbVertex
100
AcDb2dVertex
 10
62.49678611755371
 20
75.3506317877559
 30
0.0
  0
VERTEX
  5
933
330
916
100
AcDbEntity
  8
0
100
AcDbVertex
100
AcDb2dVertex
 10
62.50599861145019
 20
75.47323138950151
 30
0.0
  0
VERTEX
  5
934
330
916
100
AcDbEntity
  8
0
100
AcDbVertex
100
AcDb2dVertex
 10
62.51552581787109
 20
75.59561641452592
 30
0.0
  0
VERTEX
  5
935
330
916
100
AcDbEntity
  8
0
100
AcDbVertex
100
AcDb2dVertex
 10
62.52535820007324
 20
75.71778209445756
 30
0.0
  0
VERTEX
  5
936
330
916
100
AcDbEntity
  8
0
100
AcDbVertex
100
AcDb2dVertex
 10
62.5355052947998
 20
75.83971412418168
 30
0.0
  0
VERTEX
  5
937
330
916
100
AcDbEntity
  8
0
100
AcDbVertex
100
AcDb2dVertex
 10
62.54595279693603
 20
75.96140296695512
 30
0.0
  0
VERTEX
  5
938
330
916
100
AcDbEntity
  8
0
100
AcDbVertex
100
AcDb2dVertex
 10
62.55671024322509
 20
76.08283908603471
 30
0.0
  0
VERTEX
  5
939
330
916
100
AcDbEntity
  8
0
100
AcDbVertex
100
AcDb2dVertex
 10
62.56777286529541
 20
76.20401294467729
 30
0.0
  0
VERTEX
  5
93A
330
916
100
AcDbEntity
  8
0
100
AcDbVertex
100
AcDb2dVertex
 10
62.57913589477539
 20
76.32491023776811
 30
0.0
  0
VERTEX
  5
93B
330
916
100
AcDbEntity
  8
0
100
AcDbVertex
100
AcDb2dVertex
 10
62.59079933166503
 20
76.44552142856401
 30
0.0
  0
VERTEX
  5
93C
330
916
100
AcDbEntity
  8
0
100
AcDbVertex
100
AcDb2dVertex
 10
62.60275840759277
 20
76.56583221195024
 30
0.0
  0
VERTEX
  5
93D
330
916
100
AcDbEntity
  8
0
100
AcDbVertex
100
AcDb2dVertex
 10
62.61501789093017
 20
76.68583781955522
 30
0.0
  0
VERTEX
  5
93E
330
916
100
AcDbEntity
  8
0
100
AcDbVertex
100
AcDb2dVertex
 10
62.62757301330566
 20
76.80553348300737
 30
0.0
  0
VERTEX
  5
93F
330
916
100
AcDbEntity
  8
0
100
AcDbVertex
100
AcDb2dVertex
 10
62.64042377471923
 20
76.92493350742143
 30
0.0
  0
VERTEX
  5
940
330
916
100
AcDbEntity
  8
0
100
AcDbVertex
100
AcDb2dVertex
 10
62.65356063842773
 20
77.04403312442583
 30
0.0
  0
VERTEX
  5
941
330
916
100
AcDbEntity
  8
0
100
AcDbVertex
100
AcDb2dVertex
 10
62.66698360443115
 20
77.16283710239213
 30
0.0
  0
VERTEX
  5
942
330
916
100
AcDbEntity
  8
0
100
AcDbVertex
100
AcDb2dVertex
 10
62.68068790435791
 20
77.28132636783403
 30
0.0
  0
VERTEX
  5
943
330
916
100
AcDbEntity
  8
0
100
AcDbVertex
100
AcDb2dVertex
 10
62.69466876983642
 20
77.39950568912309
 30
0.0
  0
VERTEX
  5
944
330
916
100
AcDbEntity
  8
0
100
AcDbVertex
100
AcDb2dVertex
 10
62.70892143249511
 20
77.51736552951616
 30
0.0
  0
VERTEX
  5
945
330
916
100
AcDbEntity
  8
0
100
AcDbVertex
100
AcDb2dVertex
 10
62.72344589233398
 20
77.63490112064165
 30
0.0
  0
VERTEX
  5
946
330
916
100
AcDbEntity
  8
0
100
AcDbVertex
100
AcDb2dVertex
 10
62.73822784423828
 20
77.75210769412797
 30
0.0
  0
VERTEX
  5
947
330
916
100
AcDbEntity
  8
0
100
AcDbVertex
100
AcDb2dVertex
 10
62.75327205657958
 20
77.86898048160356
 30
0.0
  0
VERTEX
  5
948
330
916
100
AcDbEntity
  8
0
100
AcDbVertex
100
AcDb2dVertex
 10
62.76856899261474
 20
77.98550994632524
 30
0.0
  0
VERTEX
  5
949
330
916
100
AcDbEntity
  8
0
100
AcDbVertex
100
AcDb2dVertex
 10
62.78411388397216
 20
78.10169131992143
 30
0.0
  0
VERTEX
  5
94A
330
916
100
AcDbEntity
  8
0
100
AcDbVertex
100
AcDb2dVertex
 10
62.79990673065185
 20
78.21751983402055
 30
0.0
  0
VERTEX
  5
94B
330
916
100
AcDbEntity
  8
0
100
AcDbVertex
100
AcDb2dVertex
 10
62.81594276428222
 20
78.3329954886226
 30
0.0
  0
VERTEX
  5
94C
330
916
100
AcDbEntity
  8
0
100
AcDbVertex
100
AcDb2dVertex
 10
62.83221721649169
 20
78.44810397861284
 30
0.0
  0
VERTEX
  5
94D
330
916
100
AcDbEntity
  8
0
100
AcDbVertex
100
AcDb2dVertex
 10
62.8487205505371
 20
78.56284530399125
 30
0.0
  0
VERTEX
  5
94E
330
916
100
AcDbEntity
  8
0
100
AcDbVertex
100
AcDb2dVertex
 10
62.86545276641845
 20
78.67720992801469
 30
0.0
  0
VERTEX
  5
94F
330
916
100
AcDbEntity
  8
0
100
AcDbVertex
100
AcDb2dVertex
 10
62.88241386413574
 20
78.79119785068315
 30
0.0
  0
VERTEX
  5
950
330
916
100
AcDbEntity
  8
0
100
AcDbVertex
100
AcDb2dVertex
 10
62.89958953857421
 20
78.90479953525346
 30
0.0
  0
VERTEX
  5
951
330
916
100
AcDbEntity
  8
0
100
AcDbVertex
100
AcDb2dVertex
 10
62.91697978973388
 20
79.01801021335405
 30
0.0
  0
VERTEX
  5
952
330
916
100
AcDbEntity
  8
0
100
AcDbVertex
100
AcDb2dVertex
 10
62.93458461761474
 20
79.13082511661333
 30
0.0
  0
VERTEX
  5
953
330
916
100
AcDbEntity
  8
0
100
AcDbVertex
100
AcDb2dVertex
 10
62.95239448547363
 20
79.24323470828813
 30
0.0
  0
VERTEX
  5
954
330
916
100
AcDbEntity
  8
0
100
AcDbVertex
100
AcDb2dVertex
 10
62.97040939331054
 20
79.35523898837846
 30
0.0
  0
VERTEX
  5
955
330
916
100
AcDbEntity
  8
0
100
AcDbVertex
100
AcDb2dVertex
 10
62.98861980438232
 20
79.46683318851274
 30
0.0
  0
VERTEX
  5
956
330
916
100
AcDbEntity
  8
0
100
AcDbVertex
100
AcDb2dVertex
 10
63.00702571868896
 20
79.57800300357622
 30
0.0
  0
VERTEX
  5
957
330
916
100
AcDbEntity
  8
0
100
AcDbVertex
100
AcDb2dVertex
 10
63.0256175994873
 20
79.68875320194047
 30
0.0
  0
VERTEX
  5
958
330
916
100
AcDbEntity
  8
0
100
AcDbVertex
100
AcDb2dVertex
 10
63.04439544677734
 20
79.79906947849077
 30
0.0
  0
VERTEX
  5
959
330
916
100
AcDbEntity
  8
0
100
AcDbVertex
100
AcDb2dVertex
 10
63.0633544921875
 20
79.90895183322709
 30
0.0
  0
VERTEX
  5
95A
330
916
100
AcDbEntity
  8
0
100
AcDbVertex
100
AcDb2dVertex
 10
63.08248996734619
 20
80.01839549777788
 30
0.0
  0
VERTEX
  5
95B
330
916
100
AcDbEntity
  8
0
100
AcDbVertex
100
AcDb2dVertex
 10
63.10179710388183
 20
80.12739093539995
 30
0.0
  0
VERTEX
  5
95C
330
916
100
AcDbEntity
  8
0
100
AcDbVertex
100
AcDb2dVertex
 10
63.12127113342285
 20
80.23593814609331
 30
0.0
  0
VERTEX
  5
95D
330
916
100
AcDbEntity
  8
0
100
AcDbVertex
100
AcDb2dVertex
 10
63.14091205596923
 20
80.34402282474321
 30
0.0
  0
VERTEX
  5
95E
330
916
100
AcDbEntity
  8
0
100
AcDbVertex
100
AcDb2dVertex
 10
63.16070556640625
 20
80.45164497134965
 30
0.0
  0
VERTEX
  5
95F
330
916
100
AcDbEntity
  8
0
100
AcDbVertex
100
AcDb2dVertex
 10
63.18065643310546
 20
80.55879981754106
 30
0.0
  0
VERTEX
  5
960
330
916
100
AcDbEntity
  8
0
100
AcDbVertex
100
AcDb2dVertex
 10
63.20075988769531
 20
80.66548259494584
 30
0.0
  0
VERTEX
  5
961
330
916
100
AcDbEntity
  8
0
100
AcDbVertex
100
AcDb2dVertex
 10
63.22100639343261
 20
80.77168376682084
 30
0.0
  0
VERTEX
  5
962
330
916
100
AcDbEntity
  8
0
100
AcDbVertex
100
AcDb2dVertex
 10
63.24139595031738
 20
80.87739856479448
 30
0.0
  0
VERTEX
  5
963
330
916
100
AcDbEntity
  8
0
100
AcDbVertex
100
AcDb2dVertex
 10
63.26191902160644
 20
80.98262222049516
 30
0.0
  0
VERTEX
  5
964
330
916
100
AcDbEntity
  8
0
100
AcDbVertex
100
AcDb2dVertex
 10
63.2825756072998
 20
81.0873547339229
 30
0.0
  0
VERTEX
  5
965
330
916
100
AcDbEntity
  8
0
100
AcDbVertex
100
AcDb2dVertex
 10
63.30336093902587
 20
81.19158179996293
 30
0.0
  0
VERTEX
  5
966
330
916
100
AcDbEntity
  8
0
100
AcDbVertex
100
AcDb2dVertex
 10
63.32427501678466
 20
81.2952986502437
 30
0.0
  0
VERTEX
  5
967
330
916
100
AcDbEntity
  8
0
100
AcDbVertex
100
AcDb2dVertex
 10
63.34530353546142
 20
81.39850528476518
 30
0.0
  0
VERTEX
  5
968
330
916
100
AcDbEntity
  8
0
100
AcDbVertex
100
AcDb2dVertex
 10
63.36644649505615
 20
81.50119693515581
 30
0.0
  0
VERTEX
  5
969
330
916
100
AcDbEntity
  8
0
100
AcDbVertex
100
AcDb2dVertex
 10
63.38770389556884
 20
81.60335929630083
 30
0.0
  0
VERTEX
  5
96A
330
916
100
AcDbEntity
  8
0
100
AcDbVertex
100
AcDb2dVertex
 10
63.40906620025634
 20
81.70499713657182
 30
0.0
  0
VERTEX
  5
96B
330
916
100
AcDbEntity
  8
0
100
AcDbVertex
100
AcDb2dVertex
 10
63.43052864074707
 20
81.80609615085405
 30
0.0
  0
VERTEX
  5
96C
330
916
100
AcDbEntity
  8
0
100
AcDbVertex
100
AcDb2dVertex
 10
63.45209121704101
 20
81.9066563391475
 30
0.0
  0
VERTEX
  5
96D
330
916
100
AcDbEntity
  8
0
100
AcDbVertex
100
AcDb2dVertex
 10
63.4737491607666
 20
82.00666816470903
 30
0.0
  0
VERTEX
  5
96E
330
916
100
AcDbEntity
  8
0
100
AcDbVertex
100
AcDb2dVertex
 10
63.49549293518066
 20
82.10612685916704
 30
0.0
  0
VERTEX
  5
96F
330
916
100
AcDbEntity
  8
0
100
AcDbVertex
100
AcDb2dVertex
 10
63.5173225402832
 20
82.20503242252153
 30
0.0
  0
VERTEX
  5
970
330
916
100
AcDbEntity
  8
0
100
AcDbVertex
100
AcDb2dVertex
 10
63.53923320770263
 20
82.30337531802934
 30
0.0
  0
VERTEX
  5
971
330
916
100
AcDbEntity
  8
0
100
AcDbVertex
100
AcDb2dVertex
 10
63.56122016906738
 20
82.40114600894731
 30
0.0
  0
VERTEX
  5
972
330
916
100
AcDbEntity
  8
0
100
AcDbVertex
100
AcDb2dVertex
 10
63.58327865600585
 20
82.49834449527543
 30
0.0
  0
VERTEX
  5
973
330
916
100
AcDbEntity
  8
0
100
AcDbVertex
100
AcDb2dVertex
 10
63.60540390014648
 20
82.59496600864213
 30
0.0
  0
VERTEX
  5
974
330
916
100
AcDbEntity
  8
0
100
AcDbVertex
100
AcDb2dVertex
 10
63.62759113311767
 20
82.69100101230424
 30
0.0
  0
VERTEX
  5
975
330
916
100
AcDbEntity
  8
0
100
AcDbVertex
100
AcDb2dVertex
 10
63.64984035491943
 20
82.78644473789018
 30
0.0
  0
VERTEX
  5
976
330
916
100
AcDbEntity
  8
0
100
AcDbVertex
100
AcDb2dVertex
 10
63.67214202880859
 20
82.88129241702836
 30
0.0
  0
VERTEX
  5
977
330
916
100
AcDbEntity
  8
0
100
AcDbVertex
100
AcDb2dVertex
 10
63.69449138641357
 20
82.97553928134721
 30
0.0
  0
VERTEX
  5
978
330
916
100
AcDbEntity
  8
0
100
AcDbVertex
100
AcDb2dVertex
 10
63.71688842773437
 20
83.06918056247514
 30
0.0
  0
VERTEX
  5
979
330
916
100
AcDbEntity
  8
0
100
AcDbVertex
100
AcDb2dVertex
 10
63.73932361602783
 20
83.16220672366899
 30
0.0
  0
VERTEX
  5
97A
330
916
100
AcDbEntity
  8
0
100
AcDbVertex
100
AcDb2dVertex
 10
63.76180171966552
 20
83.25461299655717
 30
0.0
  0
VERTEX
  5
97B
330
916
100
AcDbEntity
  8
0
100
AcDbVertex
100
AcDb2dVertex
 10
63.78430843353271
 20
83.34639938113969
 30
0.0
  0
VERTEX
  5
97C
330
916
100
AcDbEntity
  8
0
100
AcDbVertex
100
AcDb2dVertex
 10
63.80683422088623
 20
83.43757064578813
 30
0.0
  0
VERTEX
  5
97D
330
916
100
AcDbEntity
  8
0
100
AcDbVertex
100
AcDb2dVertex
 10
63.82936477661132
 20
83.52814109561723
 30
0.0
  0
VERTEX
  5
97E
330
916
100
AcDbEntity
  8
0
100
AcDbVertex
100
AcDb2dVertex
 10
63.85189533233642
 20
83.61810119388383
 30
0.0
  0
VERTEX
  5
97F
330
916
100
AcDbEntity
  8
0
100
AcDbVertex
100
AcDb2dVertex
 10
63.8744306564331
 20
83.70745094058793
 30
0.0
  0
VERTEX
  5
980
330
916
100
AcDbEntity
  8
0
100
AcDbVertex
100
AcDb2dVertex
 10
63.89695644378662
 20
83.79618556735795
 30
0.0
  0
VERTEX
  5
981
330
916
100
AcDbEntity
  8
0
100
AcDbVertex
100
AcDb2dVertex
 10
63.91947746276855
 20
83.88430507419389
 30
0.0
  0
VERTEX
  5
982
330
916
100
AcDbEntity
  8
0
100
AcDbVertex
100
AcDb2dVertex
 10
63.94198417663574
 20
83.97179992435258
 30
0.0
  0
VERTEX
  5
983
330
916
100
AcDbEntity
  8
0
100
AcDbVertex
100
AcDb2dVertex
 10
63.96447658538818
 20
84.05867011783403
 30
0.0
  0
VERTEX
  5
984
330
916
100
AcDbEntity
  8
0
100
AcDbVertex
100
AcDb2dVertex
 10
63.98694515228271
 20
84.14491088626665
 30
0.0
  0
VERTEX
  5
985
330
916
100
AcDbEntity
  8
0
100
AcDbVertex
100
AcDb2dVertex
 10
64.00939464569091
 20
84.23051746127885
 30
0.0
  0
VERTEX
  5
986
330
916
100
AcDbEntity
  8
0
100
AcDbVertex
100
AcDb2dVertex
 10
64.03181552886962
 20
84.31548984287065
 30
0.0
  0
VERTEX
  5
987
330
916
100
AcDbEntity
  8
0
100
AcDbVertex
100
AcDb2dVertex
 10
64.05420303344726
 20
84.39982326267045
 30
0.0
  0
VERTEX
  5
988
330
916
100
AcDbEntity
  8
0
100
AcDbVertex
100
AcDb2dVertex
 10
64.07655715942382
 20
84.4835081839351
 30
0.0
  0
VERTEX
  5
989
330
916
100
AcDbEntity
  8
0
100
AcDbVertex
100
AcDb2dVertex
 10
64.09887313842773
 20
84.56655414340776
 30
0.0
  0
VERTEX
  5
98A
330
916
100
AcDbEntity
  8
0
100
AcDbVertex
100
AcDb2dVertex
 10
64.1211462020874
 20
84.64894206760209
 30
0.0
  0
VERTEX
  5
98B
330
916
100
AcDbEntity
  8
0
100
AcDbVertex
100
AcDb2dVertex
 10
64.14337635040283
 20
84.73068149326127
 30
0.0
  0
VERTEX
  5
98C
330
916
100
AcDbEntity
  8
0
100
AcDbVertex
100
AcDb2dVertex
 10
64.16555404663085
 20
84.81176288364213
 30
0.0
  0
VERTEX
  5
98D
330
916
100
AcDbEntity
  8
0
100
AcDbVertex
100
AcDb2dVertex
 10
64.18767929077148
 20
84.89218147037309
 30
0.0
  0
VERTEX
  5
98E
330
916
100
AcDbEntity
  8
0
100
AcDbVertex
100
AcDb2dVertex
 10
64.20974254608154
 20
84.97193725345415
 30
0.0
  0
VERTEX
  5
98F
330
916
100
AcDbEntity
  8
0
100
AcDbVertex
100
AcDb2dVertex
 10
64.23174858093261
 20
85.05102069614213
 30
0.0
  0
VERTEX
  5
990
330
916
100
AcDbEntity
  8
0
100
AcDbVertex
100
AcDb2dVertex
 10
64.25369262695312
 20
85.12943656680864
 30
0.0
  0
VERTEX
  5
991
330
916
100
AcDbEntity
  8
0
100
AcDbVertex
100
AcDb2dVertex
 10
64.2755651473999
 20
85.20717532871049
 30
0.0
  0
VERTEX
  5
992
330
916
100
AcDbEntity
  8
0
100
AcDbVertex
100
AcDb2dVertex
 10
64.29736614227294
 20
85.2842369818477
 30
0.0
  0
VERTEX
  5
993
330
916
100
AcDbEntity
  8
0
100
AcDbVertex
100
AcDb2dVertex
 10
64.31909084320068
 20
85.36061675784868
 30
0.0
  0
VERTEX
  5
994
330
916
100
AcDbEntity
  8
0
100
AcDbVertex
100
AcDb2dVertex
 10
64.3407392501831
 20
85.43630511997026
 30
0.0
  0
VERTEX
  5
995
330
916
100
AcDbEntity
  8
0
100
AcDbVertex
100
AcDb2dVertex
 10
64.36229705810546
 20
85.51130683658403
 30
0.0
  0
VERTEX
  5
996
330
916
100
AcDbEntity
  8
0
100
AcDbVertex
100
AcDb2dVertex
 10
64.38377380371093
 20
85.5856171393184
 30
0.0
  0
VERTEX
  5
997
330
916
100
AcDbEntity
  8
0
100
AcDbVertex
100
AcDb2dVertex
 10
64.40515518188476
 20
85.6592312598018
 30
0.0
  0
VERTEX
  5
998
330
916
100
AcDbEntity
  8
0
100
AcDbVertex
100
AcDb2dVertex
 10
64.42644596099853
 20
85.73214442966264
 30
0.0
  0
VERTEX
  5
999
330
916
100
AcDbEntity
  8
0
100
AcDbVertex
100
AcDb2dVertex
 10
64.44763660430908
 20
85.80435188052934
 30
0.0
  0
VERTEX
  5
99A
330
916
100
AcDbEntity
  8
0
100
AcDbVertex
100
AcDb2dVertex
 10
64.4687271118164
 20
85.8758536124019
 30
0.0
  0
VERTEX
  5
99B
330
916
100
AcDbEntity
  8
0
100
AcDbVertex
100
AcDb2dVertex
 10
64.48970794677734
 20
85.94664485690874
 30
0.0
  0
VERTEX
  5
99C
330
916
100
AcDbEntity
  8
0
100
AcDbVertex
100
AcDb2dVertex
 10
64.51058387756347
 20
86.01672084567827
 30
0.0
  0
VERTEX
  5
99D
330
916
100
AcDbEntity
  8
0
100
AcDbVertex
100
AcDb2dVertex
 10
64.53134059906005
 20
86.08607681033891
 30
0.0
  0
VERTEX
  5
99E
330
916
100
AcDbEntity
  8
0
100
AcDbVertex
100
AcDb2dVertex
 10
64.55198287963867
 20
86.15471275089067
 30
0.0
  0
VERTEX
  5
99F
330
916
100
AcDbEntity
  8
0
100
AcDbVertex
100
AcDb2dVertex
 10
64.57250595092773
 20
86.22262389896196
 30
0.0
  0
VERTEX
  5
9A0
330
916
100
AcDbEntity
  8
0
100
AcDbVertex
100
AcDb2dVertex
 10
64.59290504455566
 20
86.2898054861812
 30
0.0
  0
VERTEX
  5
9A1
330
916
100
AcDbEntity
  8
0
100
AcDbVertex
100
AcDb2dVertex
 10
64.61317062377929
 20
86.3562527441768
 30
0.0
  0
VERTEX
  5
9A2
330
916
100
AcDbEntity
  8
0
100
AcDbVertex
100
AcDb2dVertex
 10
64.63330745697021
 20
86.42197044132036
 30
0.0
  0
VERTEX
  5
9A3
330
916
100
AcDbEntity
  8
0
100
AcDbVertex
100
AcDb2dVertex
 10
64.65331077575683
 20
86.48694427249711
 30
0.0
  0
VERTEX
  5
9A4
330
916
100
AcDbEntity
  8
0
100
AcDbVertex
100
AcDb2dVertex
 10
64.67317104339599
 20
86.55117423770708
 30
0.0
  0
VERTEX
  5
9A5
330
916
100
AcDbEntity
  8
0
100
AcDbVertex
100
AcDb2dVertex
 10
64.69288825988769
 20
86.61466033695024
 30
0.0
  0
VERTEX
  5
9A6
330
916
100
AcDbEntity
  8
0
100
AcDbVertex
100
AcDb2dVertex
 10
64.71246242523193
 20
86.67739303348344
 30
0.0
  0
VERTEX
  5
9A7
330
916
100
AcDbEntity
  8
0
100
AcDbVertex
100
AcDb2dVertex
 10
64.73187923431396
 20
86.73937709567827
 30
0.0
  0
VERTEX
  5
9A8
330
916
100
AcDbEntity
  8
0
100
AcDbVertex
100
AcDb2dVertex
 10
64.75114822387695
 20
86.80059821841997
 30
0.0
  0
VERTEX
  5
9A9
330
916
100
AcDbEntity
  8
0
100
AcDbVertex
100
AcDb2dVertex
 10
64.77025508880615
 20
86.86106117008012
 30
0.0
  0
VERTEX
  5
9AA
330
916
100
AcDbEntity
  8
0
100
AcDbVertex
100
AcDb2dVertex
 10
64.78919982910156
 20
86.92076118228715
 30
0.0
  0
VERTEX
  5
9AB
330
916
100
AcDbEntity
  8
0
100
AcDbVertex
100
AcDb2dVertex
 10
64.8079776763916
 20
86.9796887182979
 30
0.0
  0
VERTEX
  5
9AC
330
916
100
AcDbEntity
  8
0
100
AcDbVertex
100
AcDb2dVertex
 10
64.82658863067626
 20
87.03784854648393
 30
0.0
  0
VERTEX
  5
9AD
330
916
100
AcDbEntity
  8
0
100
AcDbVertex
100
AcDb2dVertex
 10
64.8450231552124
 20
87.09523589847368
 30
0.0
  0
VERTEX
  5
9AE
330
916
100
AcDbEntity
  8
0
100
AcDbVertex
100
AcDb2dVertex
 10
64.86328601837158
 20
87.15184123752397
 30
0.0
  0
VERTEX
  5
9AF
330
916
100
AcDbEntity
  8
0
100
AcDbVertex
100
AcDb2dVertex
 10
64.88136291503906
 20
87.20766456363481
 30
0.0
  0
VERTEX
  5
9B0
330
916
100
AcDbEntity
  8
0
100
AcDbVertex
100
AcDb2dVertex
 10
64.89925861358642
 20
87.26270110843461
 30
0.0
  0
VERTEX
  5
9B1
330
916
100
AcDbEntity
  8
0
100
AcDbVertex
100
AcDb2dVertex
 10
64.9169635772705
 20
87.31695087192338
 30
0.0
  0
VERTEX
  5
9B2
330
916
100
AcDbEntity
  8
0
100
AcDbVertex
100
AcDb2dVertex
 10
64.9344778060913
 20
87.37040431735795
 30
0.0
  0
VERTEX
  5
9B3
330
916
100
AcDbEntity
  8
0
100
AcDbVertex
100
AcDb2dVertex
 10
64.95179653167724
 20
87.42306144473833
 30
0.0
  0
VERTEX
  5
9B4
330
916
100
AcDbEntity
  8
0
100
AcDbVertex
100
AcDb2dVertex
 10
64.96891975402832
 20
87.4749222540645
 30
0.0
  0
VERTEX
  5
9B5
330
916
100
AcDbEntity
  8
0
100
AcDbVertex
100
AcDb2dVertex
 10
64.98583316802978
 20
87.52597720859331
 30
0.0
  0
VERTEX
  5
9B6
330
916
100
AcDbEntity
  8
0
100
AcDbVertex
100
AcDb2dVertex
 10
65.00254154205322
 20
87.57622630832475
 30
0.0
  0
VERTEX
  5
9B7
330
916
100
AcDbEntity
  8
0
100
AcDbVertex
100
AcDb2dVertex
 10
65.01904010772705
 20
87.62566478488725
 30
0.0
  0
VERTEX
  5
9B8
330
916
100
AcDbEntity
  8
0
100
AcDbVertex
100
AcDb2dVertex
 10
65.03532409667968
 20
87.67428786990922
 30
0.0
  0
VERTEX
  5
9B9
330
916
100
AcDbEntity
  8
0
100
AcDbVertex
100
AcDb2dVertex
 10
65.05139350891113
 20
87.72209079501909
 30
0.0
  0
VERTEX
  5
9BA
330
916
100
AcDbEntity
  8
0
100
AcDbVertex
100
AcDb2dVertex
 10
65.06723403930664
 20
87.76907832858842
 30
0.0
  0
VERTEX
  5
9BB
330
916
100
AcDbEntity
  8
0
100
AcDbVertex
100
AcDb2dVertex
 10
65.08285522460937
 20
87.81523616550249
 30
0.0
  0
VERTEX
  5
9BC
330
916
100
AcDbEntity
  8
0
100
AcDbVertex
100
AcDb2dVertex
 10
65.09824275970458
 20
87.86056907413286
 30
0.0
  0
VERTEX
  5
9BD
330
916
100
AcDbEntity
  8
0
100
AcDbVertex
100
AcDb2dVertex
 10
65.11339664459228
 20
87.90506751773637
 30
0.0
  0
VERTEX
  5
9BE
330
916
100
AcDbEntity
  8
0
100
AcDbVertex
100
AcDb2dVertex
 10
65.12831687927246
 20
87.94872672794145
 30
0.0
  0
VERTEX
  5
9BF
330
916
100
AcDbEntity
  8
0
100
AcDbVertex
100
AcDb2dVertex
 10
65.14299392700195
 20
87.99155147311967
 30
0.0
  0
VERTEX
  5
9C0
330
916
100
AcDbEntity
  8
0
100
AcDbVertex
100
AcDb2dVertex
 10
65.15742778778076
 20
88.03353221652788
 30
0.0
  0
VERTEX
  5
9C1
330
916
100
AcDbEntity
  8
0
100
AcDbVertex
100
AcDb2dVertex
 10
65.1716136932373
 20
88.07466895816606
 30
0.0
  0
VERTEX
  5
9C2
330
916
100
AcDbEntity
  8
0
100
AcDbVertex
100
AcDb2dVertex
 10
65.185546875
 20
88.11495216129106
 30
0.0
  0
VERTEX
  5
9C3
330
916
100
AcDbEntity
  8
0
100
AcDbVertex
100
AcDb2dVertex
 10
65.19922733306884
 20
88.15438659427446
 30
0.0
  0
VERTEX
  5
9C4
330
916
100
AcDbEntity
  8
0
100
AcDbVertex
100
AcDb2dVertex
 10
65.21264553070068
 20
88.19295795200151
 30
0.0
  0
VERTEX
  5
9C5
330
916
100
AcDbEntity
  8
0
100
AcDbVertex
100
AcDb2dVertex
 10
65.2258014678955
 20
88.23067577121538
 30
0.0
  0
VERTEX
  5
9C6
330
916
100
AcDbEntity
  8
0
100
AcDbVertex
100
AcDb2dVertex
 10
65.23869037628173
 20
88.26752574680131
 30
0.0
  0
VERTEX
  5
9C7
330
916
100
AcDbEntity
  8
0
100
AcDbVertex
100
AcDb2dVertex
 10
65.25130748748779
 20
88.30350787875932
 30
0.0
  0
VERTEX
  5
9C8
330
916
100
AcDbEntity
  8
0
100
AcDbVertex
100
AcDb2dVertex
 10
65.26365280151367
 20
88.33861739871782
 30
0.0
  0
VERTEX
  5
9C9
330
916
100
AcDbEntity
  8
0
100
AcDbVertex
100
AcDb2dVertex
 10
65.27572154998779
 20
88.3728543066768
 30
0.0
  0
VERTEX
  5
9CA
330
916
100
AcDbEntity
  8
0
100
AcDbVertex
100
AcDb2dVertex
 10
65.28750419616699
 20
88.40621383426469
 30
0.0
  0
VERTEX
  5
9CB
330
916
100
AcDbEntity
  8
0
100
AcDbVertex
100
AcDb2dVertex
 10
65.29900074005126
 20
88.43868644473833
 30
0.0
  0
VERTEX
  5
9CC
330
916
100
AcDbEntity
  8
0
100
AcDbVertex
100
AcDb2dVertex
 10
65.31021118164062
 20
88.47027690646928
 30
0.0
  0
VERTEX
  5
9CD
330
916
100
AcDbEntity
  8
0
100
AcDbVertex
100
AcDb2dVertex
 10
65.32112598419189
 20
88.50098045108598
 30
0.0
  0
VERTEX
  5
9CE
330
916
100
AcDbEntity
  8
0
100
AcDbVertex
100
AcDb2dVertex
 10
65.33174991607666
 20
88.53078754184526
 30
0.0
  0
VERTEX
  5
9CF
330
916
100
AcDbEntity
  8
0
100
AcDbVertex
100
AcDb2dVertex
 10
65.34206867218017
 20
88.5597029471187
 30
0.0
  0
VERTEX
  5
9D0
330
916
100
AcDbEntity
  8
0
100
AcDbVertex
100
AcDb2dVertex
 10
65.35208225250244
 20
88.58771236179155
 30
0.0
  0
VERTEX
  5
9D1
330
916
100
AcDbEntity
  8
0
100
AcDbVertex
100
AcDb2dVertex
 10
65.36179065704345
 20
88.61482532260698
 30
0.0
  0
VERTEX
  5
9D2
330
916
100
AcDbEntity
  8
0
100
AcDbVertex
100
AcDb2dVertex
 10
65.37118434906005
 20
88.64102752445024
 30
0.0
  0
VERTEX
  5
9D3
330
916
100
AcDbEntity
  8
0
100
AcDbVertex
100
AcDb2dVertex
 10
65.38026332855224
 20
88.66631896732133
 30
0.0
  0
VERTEX
  5
9D4
330
916
100
AcDbEntity
  8
0
100
AcDbVertex
100
AcDb2dVertex
 10
65.38902282714843
 20
88.69069488284868
 30
0.0
  0
VERTEX
  5
9D5
330
916
100
AcDbEntity
  8
0
100
AcDbVertex
100
AcDb2dVertex
 10
65.39746284484863
 20
88.71416003940385
 30
0.0
  0
VERTEX
  5
9D6
330
916
100
AcDbEntity
  8
0
100
AcDbVertex
100
AcDb2dVertex
 10
65.40557384490966
 20
88.73669536350053
 30
0.0
  0
VERTEX
  5
9D7
330
916
100
AcDbEntity
  8
0
100
AcDbVertex
100
AcDb2dVertex
 10
65.41335105895996
 20
88.75831039188188
 30
0.0
  0
VERTEX
  5
9D8
330
916
100
AcDbEntity
  8
0
100
AcDbVertex
100
AcDb2dVertex
 10
65.42079925537109
 20
88.77900035617631
 30
0.0
  0
VERTEX
  5
9D9
330
916
100
AcDbEntity
  8
0
100
AcDbVertex
100
AcDb2dVertex
 10
65.4279088973999
 20
88.79875571964067
 30
0.0
  0
VERTEX
  5
9DA
330
916
100
AcDbEntity
  8
0
100
AcDbVertex
100
AcDb2dVertex
 10
65.4346752166748
 20
88.81757171390336
 30
0.0
  0
VERTEX
  5
9DB
330
916
100
AcDbEntity
  8
0
100
AcDbVertex
100
AcDb2dVertex
 10
65.44109344482421
 20
88.83545310733598
 30
0.0
  0
VERTEX
  5
9DC
330
916
100
AcDbEntity
  8
0
100
AcDbVertex
100
AcDb2dVertex
 10
65.44716835021972
 20
88.85239513156694
 30
0.0
  0
VERTEX
  5
9DD
330
916
100
AcDbEntity
  8
0
100
AcDbVertex
100
AcDb2dVertex
 10
65.45288562774658
 20
88.86838348148149
 30
0.0
  0
VERTEX
  5
9DE
330
916
100
AcDbEntity
  8
0
100
AcDbVertex
100
AcDb2dVertex
 10
65.4582405090332
 20
88.88342292545122
 30
0.0
  0
VERTEX
  5
9DF
330
916
100
AcDbEntity
  8
0
100
AcDbVertex
100
AcDb2dVertex
 10
65.46321392059326
 20
88.89749438998979
 30
0.0
  0
VERTEX
  5
9E0
330
916
100
AcDbEntity
  8
0
100
AcDbVertex
100
AcDb2dVertex
 10
65.46780109405517
 20
88.91059787509721
 30
0.0
  0
VERTEX
  5
9E1
330
916
100
AcDbEntity
  8
0
100
AcDbVertex
100
AcDb2dVertex
 10
65.47201633453369
 20
88.92273814914506
 30
0.0
  0
VERTEX
  5
9E2
330
916
100
AcDbEntity
  8
0
100
AcDbVertex
100
AcDb2dVertex
 10
65.47585010528564
 20
88.93391521213334
 30
0.0
  0
VERTEX
  5
9E3
330
916
100
AcDbEntity
  8
0
100
AcDbVertex
100
AcDb2dVertex
 10
65.47931194305419
 20
88.94413860080522
 30
0.0
  0
VERTEX
  5
9E4
330
916
100
AcDbEntity
  8
0
100
AcDbVertex
100
AcDb2dVertex
 10
65.48240184783935
 20
88.95339877841752
 30
0.0
  0
VERTEX
  5
9E5
330
916
100
AcDbEntity
  8
0
100
AcDbVertex
100
AcDb2dVertex
 10
65.48511981964111
 20
88.961710050085
 30
0.0
  0
VERTEX
  5
9E6
330
916
100
AcDbEntity
  8
0
100
AcDbVertex
100
AcDb2dVertex
 10
65.48747539520263
 20
88.9690628790645
 30
0.0
  0
VERTEX
  5
9E7
330
916
100
AcDbEntity
  8
0
100
AcDbVertex
100
AcDb2dVertex
 10
65.48946857452392
 20
88.97547157047075
 30
0.0
  0
VERTEX
  5
9E8
330
916
100
AcDbEntity
  8
0
100
AcDbVertex
100
AcDb2dVertex
 10
65.49109458923339
 20
88.98093135593217
 30
0.0
  0
VERTEX
  5
9E9
330
916
100
AcDbEntity
  8
0
100
AcDbVertex
100
AcDb2dVertex
 10
65.4923677444458
 20
88.98544700382036
 30
0.0
  0
VERTEX
  5
9EA
330
916
100
AcDbEntity
  8
0
100
AcDbVertex
100
AcDb2dVertex
 10
65.49327850341796
 20
88.9890185141353
 30
0.0
  0
VERTEX
  5
9EB
330
916
100
AcDbEntity
  8
0
100
AcDbVertex
100
AcDb2dVertex
 10
65.49384117126464
 20
88.991645886877
 30
0.0
  0
VERTEX
  5
9EC
330
916
100
AcDbEntity
  8
0
100
AcDbVertex
100
AcDb2dVertex
 10
65.49404621124267
 20
88.99333865878862
 30
0.0
  0
VERTEX
  5
9ED
330
916
100
AcDbEntity
  8
0
100
AcDbVertex
100
AcDb2dVertex
 10
65.49390792846679
 20
88.99409682987016
 30
0.0
  0
VERTEX
  5
9EE
330
916
100
AcDbEntity
  8
0
100
AcDbVertex
100
AcDb2dVertex
 10
65.49342155456542
 20
88.99392040012163
 30
0.0
  0
SEQEND
  5
9EF
330
916
100
AcDbEntity
  8
0
  0
LINE
  5
9F0
330
1F
100
AcDbEntity
  8
0
100
AcDbLine
 10
71.30000000000018
 20
88.50000000000909
 30
0.0
 11
70.80000000000018
 21
89.00000000000909
 31
0.0
  0
ARC
  5
9F1
330
1F
100
AcDbEntity
  8
0
100
AcDbCircle
 10
0.0
 20
53.30000000000928
 30
0.0
 40
119.9999999999997
100
AcDbArc
 50
63.10345369667526
 51
116.8965463033247
  0
ARC
  5
9F2
330
1F
100
AcDbEntity
  8
0
100
AcDbCircle
 10
-47.5
 20
146.9416040016494
 30
0.0
 40
14.99999999999993
100
AcDbArc
 50
116.8965463033247
 51
180.0
  0
ARC
  5
9F3
330
1F
100
AcDbEntity
  8
0
100
AcDbCircle
 10
47.5
 20
146.9416040016492
 30
0.0
 40
14.99999999999997
100
AcDbArc
 50
0.0
 51
63.10345369667526
  0
LINE
  5
9F4
330
1F
100
AcDbEntity
  8
0
100
AcDbLine
 10
36.5
 20
49.70000000000879
 30
0.0
 11
-36.50000000000046
 21
49.70000000000914
 31
0.0
  0
LINE
  5
9F5
330
1F
100
AcDbEntity
  8
0
100
AcDbLine
 10
184.5008208398167
 20
48.50000000000966
 30
0.0
 11
283.5008208398167
 21
48.50000000000966
 31
0.0
  0
LINE
  5
9F6
330
1F
100
AcDbEntity
  8
0
100
AcDbLine
 10
184.5008208398167
 20
46.50000000000966
 30
0.0
 11
283.5008208398167
 21
46.50000000000966
 31
0.0
  0
LINE
  5
9F7
330
1F
100
AcDbEntity
  8
0
100
AcDbLine
 10
296.5008208398167
 20
90.30000000000962
 30
0.0
 11
241.7117026473352
 21
90.2999999999912
 31
0.0
  0
LINE
  5
9F8
330
1F
100
AcDbEntity
  8
0
100
AcDbLine
 10
241.5881895777216
 20
91.29999999999142
 30
0.0
 11
296.5000787616254
 21
91.30000000000984
 31
0.0
  0
LINE
  5
9F9
330
1F
100
AcDbEntity
  8
0
100
AcDbLine
 10
239.0075981177802
 20
35.99999999999875
 30
0.0
 11
270.5008208398167
 21
36.00000000000966
 31
0.0
  0
LINE
  5
9FA
330
1F
100
AcDbEntity
  8
0
100
AcDbLine
 10
239.0076800704678
 20
45.30647627031078
 30
0.0
 11
273.1569485158611
 21
45.30647627032237
 31
0.0
  0
LINE
  5
9FB
330
1F
100
AcDbEntity
  8
0
100
AcDbLine
 10
171.5000787616254
 20
146.9416042662459
 30
0.0
 11
171.5000787616254
 21
91.30000026460573
 31
0.0
  0
LINE
  5
9FC
330
1F
100
AcDbEntity
  8
1
100
AcDbLine
 10
164.1565019916115
 20
79.69999999999629
 30
0.0
 11
178.9677783704765
 21
79.69999999999629
 31
0.0
  0
LINE
  5
9FD
330
1F
100
AcDbEntity
  8
1
100
AcDbLine
 10
164.1565019916115
 20
64.69999999999629
 30
0.0
 11
178.9677783704765
 21
64.69999999999629
 31
0.0
  0
CIRCLE
  5
9FE
330
1F
100
AcDbEntity
  8
0
100
AcDbCircle
 10
234.0008208398167
 20
38.99999999999761
 30
0.0
 40
2.0
  0
CIRCLE
  5
9FF
330
1F
100
AcDbEntity
  8
0
100
AcDbCircle
 10
234.0008208398167
 20
38.99999999999761
 30
0.0
 40
1.5
  0
LINE
  5
A00
330
1F
100
AcDbEntity
  8
0
100
AcDbLine
 10
197.5008208398167
 20
42.32624946270891
 30
0.0
 11
197.5008208398167
 21
36.00000000000966
 31
0.0
  0
LINE
  5
A01
330
1F
100
AcDbEntity
  8
0
100
AcDbLine
 10
239.0008208398167
 20
34.99999999999761
 30
0.0
 11
239.0008208398167
 21
45.43976408555465
 31
0.0
  0
LINE
  5
A02
330
1F
100
AcDbEntity
  8
0
100
AcDbLine
 10
229.0008208398167
 20
34.99999999999761
 30
0.0
 11
229.0008208398167
 21
45.43976408555465
 31
0.0
  0
LINE
  5
A03
330
1F
100
AcDbEntity
  8
0
100
AcDbLine
 10
269.5008208398167
 20
35.00000000000966
 30
0.0
 11
198.5008208398167
 21
35.00000000000966
 31
0.0
  0
LINE
  5
A04
330
1F
100
AcDbEntity
  8
0
100
AcDbLine
 10
197.5008208398167
 20
36.00000000000966
 30
0.0
 11
228.9940435618532
 21
35.99999999999875
 31
0.0
  0
LINE
  5
A05
330
1F
100
AcDbEntity
  8
0
100
AcDbLine
 10
197.5008208398167
 20
36.00000000000966
 30
0.0
 11
198.5008208398167
 21
35.00000000000944
 31
0.0
  0
LINE
  5
A06
330
1F
100
AcDbEntity
  8
0
100
AcDbLine
 10
226.301320100361
 20
90.29999999999052
 30
0.0
 11
185.5652966865673
 21
90.29999999999779
 31
0.0
  0
LINE
  5
A07
330
1F
100
AcDbEntity
  8
0
100
AcDbLine
 10
194.8446931637718
 20
45.30647627032237
 30
0.0
 11
228.9939616091651
 21
45.30647627031078
 31
0.0
  0
LINE
  5
A08
330
1F
100
AcDbEntity
  8
1
100
AcDbLine
 10
213.4069816390502
 20
71.99999999998851
 30
0.0
 11
254.5946600405832
 21
71.99999999998851
 31
0.0
  0
LINE
  5
A09
330
1F
100
AcDbEntity
  8
0
100
AcDbLine
 10
187.267535057625
 20
86.29999999999734
 30
0.0
 11
187.267535057625
 21
54.99999999999715
 31
0.0
  0
LINE
  5
A0A
330
1F
100
AcDbEntity
  8
0
100
AcDbLine
 10
170.5000787616254
 20
49.99999999999852
 30
0.0
 11
170.5000787616254
 21
91.29999999999894
 31
0.0
  0
LINE
  5
A0B
330
1F
100
AcDbEntity
  8
0
100
AcDbLine
 10
169.0000787616254
 20
88.00000026461214
 30
0.0
 11
169.0000787616254
 21
57.00000026461191
 31
0.0
  0
LINE
  5
A0C
330
1F
100
AcDbEntity
  8
0
100
AcDbLine
 10
184.5008208398167
 20
46.50000000000966
 30
0.0
 11
194.8446931637718
 21
45.30647627032237
 31
0.0
  0
LINE
  5
A0D
330
1F
100
AcDbEntity
  8
0
100
AcDbLine
 10
184.5008208398167
 20
48.50000000000966
 30
0.0
 11
184.5008208398167
 21
46.50000000000966
 31
0.0
  0
LINE
  5
A0E
330
1F
100
AcDbEntity
  8
0
100
AcDbLine
 10
171.5008208398167
 20
50.00000000000966
 30
0.0
 11
184.5008208398167
 21
48.50000000000966
 31
0.0
  0
POLYLINE
  5
A0F
330
1F
100
AcDbEntity
  8
0
100
AcDb2dPolyline
 66
     1
 10
0.0
 20
0.0
 30
0.0
  0
VERTEX
  5
A10
330
A0F
100
AcDbEntity
  8
0
100
AcDbVertex
100
AcDb2dVertex
 10
187.2675368432346
 20
54.99999912020246
 30
0.0
  0
VERTEX
  5
A11
330
A0F
100
AcDbEntity
  8
0
100
AcDbVertex
100
AcDb2dVertex
 10
187.2554728631321
 20
54.63960440393965
 30
0.0
  0
VERTEX
  5
A12
330
A0F
100
AcDbEntity
  8
0
100
AcDbVertex
100
AcDb2dVertex
 10
187.2198292855564
 20
54.2779687189726
 30
0.0
  0
VERTEX
  5
A13
330
A0F
100
AcDbEntity
  8
0
100
AcDbVertex
100
AcDb2dVertex
 10
187.1614405755344
 20
53.91884954210798
 30
0.0
  0
VERTEX
  5
A14
330
A0F
100
AcDbEntity
  8
0
100
AcDbVertex
100
AcDb2dVertex
 10
187.0811221246067
 20
53.56600315805974
 30
0.0
  0
VERTEX
  5
A15
330
A0F
100
AcDbEntity
  8
0
100
AcDbVertex
100
AcDb2dVertex
 10
186.9797036294285
 20
53.22318465944829
 30
0.0
  0
VERTEX
  5
A16
330
A0F
100
AcDbEntity
  8
0
100
AcDbVertex
100
AcDb2dVertex
 10
186.8583199624363
 20
52.8939369463593
 30
0.0
  0
VERTEX
  5
A17
330
A0F
100
AcDbEntity
  8
0
100
AcDbVertex
100
AcDb2dVertex
 10
186.7197177056614
 20
52.58055956598821
 30
0.0
  0
VERTEX
  5
A18
330
A0F
100
AcDbEntity
  8
0
100
AcDbVertex
100
AcDb2dVertex
 10
186.5670296792332
 20
52.28496105906072
 30
0.0
  0
VERTEX
  5
A19
330
A0F
100
AcDbEntity
  8
0
100
AcDbVertex
100
AcDb2dVertex
 10
186.4033791665379
 20
52.00905354258146
 30
0.0
  0
VERTEX
  5
A1A
330
A0F
100
AcDbEntity
  8
0
100
AcDbVertex
100
AcDb2dVertex
 10
186.2318846825901
 20
51.75474913355436
 30
0.0
  0
VERTEX
  5
A1B
330
A0F
100
AcDbEntity
  8
0
100
AcDbVertex
100
AcDb2dVertex
 10
186.0545584801975
 20
51.52241738077726
 30
0.0
  0
VERTEX
  5
A1C
330
A0F
100
AcDbEntity
  8
0
100
AcDbVertex
100
AcDb2dVertex
 10
185.8674189690891
 20
51.30466134783353
 30
0.0
  0
VERTEX
  5
A1D
330
A0F
100
AcDbEntity
  8
0
100
AcDbVertex
100
AcDb2dVertex
 10
185.6708333138767
 20
51.10100538965809
 30
0.0
  0
VERTEX
  5
A1E
330
A0F
100
AcDbEntity
  8
0
100
AcDbVertex
100
AcDb2dVertex
 10
185.4661318902317
 20
50.91237099405873
 30
0.0
  0
VERTEX
  5
A1F
330
A0F
100
AcDbEntity
  8
0
100
AcDbVertex
100
AcDb2dVertex
 10
185.2546403054539
 20
50.73967845675099
 30
0.0
  0
VERTEX
  5
A20
330
A0F
100
AcDbEntity
  8
0
100
AcDbVertex
100
AcDb2dVertex
 10
185.0376937035862
 20
50.58384807345044
 30
0.0
  0
VERTEX
  5
A21
330
A0F
100
AcDbEntity
  8
0
100
AcDbVertex
100
AcDb2dVertex
 10
184.8166129235569
 20
50.44580252405774
 30
0.0
  0
VERTEX
  5
A22
330
A0F
100
AcDbEntity
  8
0
100
AcDbVertex
100
AcDb2dVertex
 10
184.5927474145237
 20
50.32640726801526
 30
0.0
  0
VERTEX
  5
A23
330
A0F
100
AcDbEntity
  8
0
100
AcDbVertex
100
AcDb2dVertex
 10
184.3674561623875
 20
50.22589118715917
 30
0.0
  0
VERTEX
  5
A24
330
A0F
100
AcDbEntity
  8
0
100
AcDbVertex
100
AcDb2dVertex
 10
184.142064774448
 20
50.14407069918309
 30
0.0
  0
VERTEX
  5
A25
330
A0F
100
AcDbEntity
  8
0
100
AcDbVertex
100
AcDb2dVertex
 10
183.9179131631199
 20
50.08075864550289
 30
0.0
  0
VERTEX
  5
A26
330
A0F
100
AcDbEntity
  8
0
100
AcDbVertex
100
AcDb2dVertex
 10
183.6963364724461
 20
50.03576786753353
 30
0.0
  0
VERTEX
  5
A27
330
A0F
100
AcDbEntity
  8
0
100
AcDbVertex
100
AcDb2dVertex
 10
183.4786555413548
 20
50.00891120669064
 30
0.0
  0
VERTEX
  5
A28
330
A0F
100
AcDbEntity
  8
0
100
AcDbVertex
100
AcDb2dVertex
 10
183.2662150506321
 20
50.00000031229695
 30
0.0
  0
SEQEND
  5
A29
330
A0F
100
AcDbEntity
  8
0
  0
LINE
  5
A2A
330
1F
100
AcDbEntity
  8
0
100
AcDbLine
 10
170.5000787616254
 20
49.99999999999852
 30
0.0
 11
296.5008208398167
 21
50.00000000000966
 31
0.0
  0
LINE
  5
A2B
330
1F
100
AcDbEntity
  8
0
100
AcDbLine
 10
171.5008208398167
 20
49.99999999999875
 30
0.0
 11
171.5008208398167
 21
91.29999999999871
 31
0.0
  0
LINE
  5
A2C
330
1F
100
AcDbEntity
  8
0
100
AcDbLine
 10
170.5000787616254
 20
57.00000026461214
 30
0.0
 11
169.0000787616254
 21
57.00000026461191
 31
0.0
  0
ARC
  5
A2D
330
1F
100
AcDbEntity
  8
0
100
AcDbCircle
 10
194.5008208398167
 20
42.32624946270914
 30
0.0
 40
2.999999999999909
100
AcDbArc
 50
64.66867976230775
 51
83.41038377983807
  0
ARC
  5
A2E
330
1F
100
AcDbEntity
  8
0
100
AcDbCircle
 10
194.5008208398167
 20
42.32624946270891
 30
0.0
 40
2.999999999999988
100
AcDbArc
 50
0.0097027648829007
 51
62.58658252653138
  0
POLYLINE
  5
A2F
330
1F
100
AcDbEntity
  8
0
100
AcDb2dPolyline
 66
     1
 10
0.0
 20
0.0
 30
0.0
  0
VERTEX
  5
A30
330
A2F
100
AcDbEntity
  8
0
100
AcDbVertex
100
AcDb2dVertex
 10
187.2675368432346
 20
86.30000026461164
 30
0.0
  0
VERTEX
  5
A31
330
A2F
100
AcDbEntity
  8
0
100
AcDbVertex
100
AcDb2dVertex
 10
187.2636887673679
 20
86.50266559359113
 30
0.0
  0
VERTEX
  5
A32
330
A2F
100
AcDbEntity
  8
0
100
AcDbVertex
100
AcDb2dVertex
 10
187.2522399071995
 20
86.70624168154279
 30
0.0
  0
VERTEX
  5
A33
330
A2F
100
AcDbEntity
  8
0
100
AcDbVertex
100
AcDb2dVertex
 10
187.2333476189915
 20
86.91006095644514
 30
0.0
  0
VERTEX
  5
A34
330
A2F
100
AcDbEntity
  8
0
100
AcDbVertex
100
AcDb2dVertex
 10
187.2071501855198
 20
87.1134510779051
 30
0.0
  0
VERTEX
  5
A35
330
A2F
100
AcDbEntity
  8
0
100
AcDbVertex
100
AcDb2dVertex
 10
187.1737954263035
 20
87.31573970552961
 30
0.0
  0
VERTEX
  5
A36
330
A2F
100
AcDbEntity
  8
0
100
AcDbVertex
100
AcDb2dVertex
 10
187.1334359292332
 20
87.51625926729719
 30
0.0
  0
VERTEX
  5
A37
330
A2F
100
AcDbEntity
  8
0
100
AcDbVertex
100
AcDb2dVertex
 10
187.0862195138279
 20
87.71433265444342
 30
0.0
  0
VERTEX
  5
A38
330
A2F
100
AcDbEntity
  8
0
100
AcDbVertex
100
AcDb2dVertex
 10
187.0322892312351
 20
87.90928752657476
 30
0.0
  0
VERTEX
  5
A39
330
A2F
100
AcDbEntity
  8
0
100
AcDbVertex
100
AcDb2dVertex
 10
186.9717976693455
 20
88.10046108004156
 30
0.0
  0
VERTEX
  5
A3A
330
A2F
100
AcDbEntity
  8
0
100
AcDbVertex
100
AcDb2dVertex
 10
186.9049450997654
 20
88.28720958468023
 30
0.0
  0
VERTEX
  5
A3B
330
A2F
100
AcDbEntity
  8
0
100
AcDbVertex
100
AcDb2dVertex
 10
186.8322655801121
 20
88.46914680239263
 30
0.0
  0
VERTEX
  5
A3C
330
A2F
100
AcDbEntity
  8
0
100
AcDbVertex
100
AcDb2dVertex
 10
186.7543170098606
 20
88.64592464205328
 30
0.0
  0
VERTEX
  5
A3D
330
A2F
100
AcDbEntity
  8
0
100
AcDbVertex
100
AcDb2dVertex
 10
186.6716620568577
 20
88.81720931765142
 30
0.0
  0
VERTEX
  5
A3E
330
A2F
100
AcDbEntity
  8
0
100
AcDbVertex
100
AcDb2dVertex
 10
186.5848586205784
 20
88.98264796969
 30
0.0
  0
VERTEX
  5
A3F
330
A2F
100
AcDbEntity
  8
0
100
AcDbVertex
100
AcDb2dVertex
 10
186.4944598321262
 20
89.14191158053005
 30
0.0
  0
VERTEX
  5
A40
330
A2F
100
AcDbEntity
  8
0
100
AcDbVertex
100
AcDb2dVertex
 10
186.4010283593479
 20
89.29465205904568
 30
0.0
  0
VERTEX
  5
A41
330
A2F
100
AcDbEntity
  8
0
100
AcDbVertex
100
AcDb2dVertex
 10
186.3051221017185
 20
89.44052608248318
 30
0.0
  0
VERTEX
  5
A42
330
A2F
100
AcDbEntity
  8
0
100
AcDbVertex
100
AcDb2dVertex
 10
186.2072989587131
 20
89.57919032808865
 30
0.0
  0
VERTEX
  5
A43
330
A2F
100
AcDbEntity
  8
0
100
AcDbVertex
100
AcDb2dVertex
 10
186.1079308633152
 20
89.7105875754031
 30
0.0
  0
VERTEX
  5
A44
330
A2F
100
AcDbEntity
  8
0
100
AcDbVertex
100
AcDb2dVertex
 10
186.0055348519627
 20
89.83726890322293
 30
0.0
  0
VERTEX
  5
A45
330
A2F
100
AcDbEntity
  8
0
100
AcDbVertex
100
AcDb2dVertex
 10
185.8998486642185
 20
89.95976836916531
 30
0.0
  0
VERTEX
  5
A46
330
A2F
100
AcDbEntity
  8
0
100
AcDbVertex
100
AcDb2dVertex
 10
185.7910916451755
 20
90.07786662813771
 30
0.0
  0
VERTEX
  5
A47
330
A2F
100
AcDbEntity
  8
0
100
AcDbVertex
100
AcDb2dVertex
 10
185.6795022134129
 20
90.19134910341847
 30
0.0
  0
VERTEX
  5
A48
330
A2F
100
AcDbEntity
  8
0
100
AcDbVertex
100
AcDb2dVertex
 10
185.5652949456516
 20
90.30000121828663
 30
0.0
  0
SEQEND
  5
A49
330
A2F
100
AcDbEntity
  8
0
  0
LINE
  5
A4A
330
1F
100
AcDbEntity
  8
0
100
AcDbLine
 10
241.5771296862904
 20
91.30000026460596
 30
0.0
 11
170.5000787616254
 21
91.29999999999894
 31
0.0
  0
POLYLINE
  5
A4B
330
1F
100
AcDbEntity
  8
0
100
AcDb2dPolyline
 66
     1
 10
0.0
 20
0.0
 30
0.0
  0
VERTEX
  5
A4C
330
A4B
100
AcDbEntity
  8
0
100
AcDbVertex
100
AcDb2dVertex
 10
184.5033452157322
 20
91.30000026461322
 30
0.0
  0
VERTEX
  5
A4D
330
A4B
100
AcDbEntity
  8
0
100
AcDbVertex
100
AcDb2dVertex
 10
184.5305010918919
 20
91.29780681368549
 30
0.0
  0
VERTEX
  5
A4E
330
A4B
100
AcDbEntity
  8
0
100
AcDbVertex
100
AcDb2dVertex
 10
184.5580289010349
 20
91.29128368136106
 30
0.0
  0
VERTEX
  5
A4F
330
A4B
100
AcDbEntity
  8
0
100
AcDbVertex
100
AcDb2dVertex
 10
184.5861098412815
 20
91.28052623507199
 30
0.0
  0
VERTEX
  5
A50
330
A4B
100
AcDbEntity
  8
0
100
AcDbVertex
100
AcDb2dVertex
 10
184.614910805637
 20
91.26562030550656
 30
0.0
  0
VERTEX
  5
A51
330
A4B
100
AcDbEntity
  8
0
100
AcDbVertex
100
AcDb2dVertex
 10
184.644617760593
 20
91.24666126009641
 30
0.0
  0
VERTEX
  5
A52
330
A4B
100
AcDbEntity
  8
0
100
AcDbVertex
100
AcDb2dVertex
 10
184.6754023675266
 20
91.22373492953
 30
0.0
  0
VERTEX
  5
A53
330
A4B
100
AcDbEntity
  8
0
100
AcDbVertex
100
AcDb2dVertex
 10
184.7074362878147
 20
91.19693668123899
 30
0.0
  0
VERTEX
  5
A54
330
A4B
100
AcDbEntity
  8
0
100
AcDbVertex
100
AcDb2dVertex
 10
184.7408959512058
 20
91.16635711428319
 30
0.0
  0
VERTEX
  5
A55
330
A4B
100
AcDbEntity
  8
0
100
AcDbVertex
100
AcDb2dVertex
 10
184.7759577874485
 20
91.13208682772313
 30
0.0
  0
VERTEX
  5
A56
330
A4B
100
AcDbEntity
  8
0
100
AcDbVertex
100
AcDb2dVertex
 10
184.8128029946629
 20
91.09421642061864
 30
0.0
  0
VERTEX
  5
A57
330
A4B
100
AcDbEntity
  8
0
100
AcDbVertex
100
AcDb2dVertex
 10
184.8515984658543
 20
91.05283649202977
 30
0.0
  0
VERTEX
  5
A58
330
A4B
100
AcDbEntity
  8
0
100
AcDbVertex
100
AcDb2dVertex
 10
184.8925253991428
 20
91.00803764101659
 30
0.0
  0
VERTEX
  5
A59
330
A4B
100
AcDbEntity
  8
0
100
AcDbVertex
100
AcDb2dVertex
 10
184.935750687534
 20
90.9599152350105
 30
0.0
  0
VERTEX
  5
A5A
330
A4B
100
AcDbEntity
  8
0
100
AcDbVertex
100
AcDb2dVertex
 10
184.9811360482517
 20
90.90896041628491
 30
0.0
  0
VERTEX
  5
A5B
330
A4B
100
AcDbEntity
  8
0
100
AcDbVertex
100
AcDb2dVertex
 10
185.0285956506077
 20
90.8555975699104
 30
0.0
  0
VERTEX
  5
A5C
330
A4B
100
AcDbEntity
  8
0
100
AcDbVertex
100
AcDb2dVertex
 10
185.0782200936619
 20
90.80003650423657
 30
0.0
  0
VERTEX
  5
A5D
330
A4B
100
AcDbEntity
  8
0
100
AcDbVertex
100
AcDb2dVertex
 10
185.1301142815891
 20
90.74247272249829
 30
0.0
  0
VERTEX
  5
A5E
330
A4B
100
AcDbEntity
  8
0
100
AcDbVertex
100
AcDb2dVertex
 10
185.1843783501927
 20
90.68309695955884
 30
0.0
  0
VERTEX
  5
A5F
330
A4B
100
AcDbEntity
  8
0
100
AcDbVertex
100
AcDb2dVertex
 10
185.2411076669041
 20
90.62211425539624
 30
0.0
  0
VERTEX
  5
A60
330
A4B
100
AcDbEntity
  8
0
100
AcDbVertex
100
AcDb2dVertex
 10
185.3004071358982
 20
90.55972488161671
 30
0.0
  0
VERTEX
  5
A61
330
A4B
100
AcDbEntity
  8
0
100
AcDbVertex
100
AcDb2dVertex
 10
185.3623768929783
 20
90.496119573084
 30
0.0
  0
VERTEX
  5
A62
330
A4B
100
AcDbEntity
  8
0
100
AcDbVertex
100
AcDb2dVertex
 10
185.427112305576
 20
90.43149860140431
 30
0.0
  0
VERTEX
  5
A63
330
A4B
100
AcDbEntity
  8
0
100
AcDbVertex
100
AcDb2dVertex
 10
185.4947230462376
 20
90.36605746981251
 30
0.0
  0
VERTEX
  5
A64
330
A4B
100
AcDbEntity
  8
0
100
AcDbVertex
100
AcDb2dVertex
 10
185.5652949456516
 20
90.30000121828663
 30
0.0
  0
SEQEND
  5
A65
330
A4B
100
AcDbEntity
  8
0
  0
LINE
  5
A66
330
1F
100
AcDbEntity
  8
0
100
AcDbLine
 10
170.5000787616254
 20
88.00000026461214
 30
0.0
 11
169.0000787616254
 21
88.00000026461214
 31
0.0
  0
LINE
  5
A67
330
1F
100
AcDbEntity
  8
0
100
AcDbLine
 10
228.2273181479173
 20
61.99999999998851
 30
0.0
 11
222.4538154560209
 21
71.99999999998851
 31
0.0
  0
LINE
  5
A68
330
1F
100
AcDbEntity
  8
0
100
AcDbLine
 10
245.5478262236061
 20
71.99999999998851
 30
0.0
 11
239.7743235317098
 21
61.99999999998851
 31
0.0
  0
CIRCLE
  5
A69
330
1F
100
AcDbEntity
  8
0
100
AcDbCircle
 10
234.0008208398167
 20
71.99999999998851
 30
0.0
 40
14.5
  0
CIRCLE
  5
A6A
330
1F
100
AcDbEntity
  8
0
100
AcDbCircle
 10
234.0008208398167
 20
71.99999999998851
 30
0.0
 40
16.5
  0
CIRCLE
  5
A6B
330
1F
100
AcDbEntity
  8
0
100
AcDbCircle
 10
234.0008208398167
 20
71.99999999998851
 30
0.0
 40
4.75
  0
CIRCLE
  5
A6C
330
1F
100
AcDbEntity
  8
0
100
AcDbCircle
 10
234.0008208398135
 20
71.99999999998851
 30
0.0
 40
8.0
  0
CIRCLE
  5
A6D
330
1F
100
AcDbEntity
  8
0
100
AcDbCircle
 10
234.0008208398162
 20
71.99999999998851
 30
0.0
 40
6.0
  0
CIRCLE
  5
A6E
330
1F
100
AcDbEntity
  8
0
100
AcDbCircle
 10
234.0008208398167
 20
71.99999999998851
 30
0.0
 40
5.5
  0
CIRCLE
  5
A6F
330
1F
100
AcDbEntity
  8
0
100
AcDbCircle
 10
234.0008208398135
 20
71.99999999998851
 30
0.0
 40
6.794500000000001
  0
POLYLINE
  5
A70
330
1F
100
AcDbEntity
  8
0
100
AcDb2dPolyline
 66
     1
 10
0.0
 20
0.0
 30
0.0
  0
VERTEX
  5
A71
330
A70
100
AcDbEntity
  8
0
100
AcDbVertex
100
AcDb2dVertex
 10
229.0008208398167
 20
45.43976457354154
 30
0.0
  0
VERTEX
  5
A72
330
A70
100
AcDbEntity
  8
0
100
AcDbVertex
100
AcDb2dVertex
 10
229.4203341249767
 20
45.43400795694913
 30
0.0
  0
VERTEX
  5
A73
330
A70
100
AcDbEntity
  8
0
100
AcDbVertex
100
AcDb2dVertex
 10
229.8391023520771
 20
45.42875917193021
 30
0.0
  0
VERTEX
  5
A74
330
A70
100
AcDbEntity
  8
0
100
AcDbVertex
100
AcDb2dVertex
 10
230.2571937684361
 20
45.42401583429898
 30
0.0
  0
VERTEX
  5
A75
330
A70
100
AcDbEntity
  8
0
100
AcDbVertex
100
AcDb2dVertex
 10
230.6746778134648
 20
45.41977555986966
 30
0.0
  0
VERTEX
  5
A76
330
A70
100
AcDbEntity
  8
0
100
AcDbVertex
100
AcDb2dVertex
 10
231.091622138435
 20
45.41603715654935
 30
0.0
  0
VERTEX
  5
A77
330
A70
100
AcDbEntity
  8
0
100
AcDbVertex
100
AcDb2dVertex
 10
231.5080954376999
 20
45.41279943224515
 30
0.0
  0
VERTEX
  5
A78
330
A70
100
AcDbEntity
  8
0
100
AcDbVertex
100
AcDb2dVertex
 10
231.9241650645081
 20
45.41006238695707
 30
0.0
  0
VERTEX
  5
A79
330
A70
100
AcDbEntity
  8
0
100
AcDbVertex
100
AcDb2dVertex
 10
232.3398989681546
 20
45.4078236364993
 30
0.0
  0
VERTEX
  5
A7A
330
A70
100
AcDbEntity
  8
0
100
AcDbVertex
100
AcDb2dVertex
 10
232.7553641293589
 20
45.40608318087186
 30
0.0
  0
VERTEX
  5
A7B
330
A70
100
AcDbEntity
  8
0
100
AcDbVertex
100
AcDb2dVertex
 10
233.1706281248871
 20
45.40483982798185
 30
0.0
  0
VERTEX
  5
A7C
330
A70
100
AcDbEntity
  8
0
100
AcDbVertex
100
AcDb2dVertex
 10
233.5857580099646
 20
45.40409476992215
 30
0.0
  0
VERTEX
  5
A7D
330
A70
100
AcDbEntity
  8
0
100
AcDbVertex
100
AcDb2dVertex
 10
234.0008208398167
 20
45.40384562250699
 30
0.0
  0
VERTEX
  5
A7E
330
A70
100
AcDbEntity
  8
0
100
AcDbVertex
100
AcDb2dVertex
 10
234.4158836696688
 20
45.40409476992215
 30
0.0
  0
VERTEX
  5
A7F
330
A70
100
AcDbEntity
  8
0
100
AcDbVertex
100
AcDb2dVertex
 10
234.8310135547463
 20
45.40483982798185
 30
0.0
  0
VERTEX
  5
A80
330
A70
100
AcDbEntity
  8
0
100
AcDbVertex
100
AcDb2dVertex
 10
235.2462775502745
 20
45.40608318087186
 30
0.0
  0
VERTEX
  5
A81
330
A70
100
AcDbEntity
  8
0
100
AcDbVertex
100
AcDb2dVertex
 10
235.6617427114788
 20
45.4078236364993
 30
0.0
  0
VERTEX
  5
A82
330
A70
100
AcDbEntity
  8
0
100
AcDbVertex
100
AcDb2dVertex
 10
236.0774766151253
 20
45.41006238695707
 30
0.0
  0
VERTEX
  5
A83
330
A70
100
AcDbEntity
  8
0
100
AcDbVertex
100
AcDb2dVertex
 10
236.4935462419335
 20
45.41279943224515
 30
0.0
  0
VERTEX
  5
A84
330
A70
100
AcDbEntity
  8
0
100
AcDbVertex
100
AcDb2dVertex
 10
236.9100195411984
 20
45.41603715654935
 30
0.0
  0
VERTEX
  5
A85
330
A70
100
AcDbEntity
  8
0
100
AcDbVertex
100
AcDb2dVertex
 10
237.3269638661686
 20
45.41977555986966
 30
0.0
  0
VERTEX
  5
A86
330
A70
100
AcDbEntity
  8
0
100
AcDbVertex
100
AcDb2dVertex
 10
237.7444479111973
 20
45.42401583429898
 30
0.0
  0
VERTEX
  5
A87
330
A70
100
AcDbEntity
  8
0
100
AcDbVertex
100
AcDb2dVertex
 10
238.1625393275562
 20
45.42875917193021
 30
0.0
  0
VERTEX
  5
A88
330
A70
100
AcDbEntity
  8
0
100
AcDbVertex
100
AcDb2dVertex
 10
238.5813075546566
 20
45.43400795694913
 30
0.0
  0
VERTEX
  5
A89
330
A70
100
AcDbEntity
  8
0
100
AcDbVertex
100
AcDb2dVertex
 10
239.0008208398167
 20
45.43976457354154
 30
0.0
  0
SEQEND
  5
A8A
330
A70
100
AcDbEntity
  8
0
  0
LINE
  5
A8B
330
1F
100
AcDbEntity
  8
0
100
AcDbLine
 10
239.7743235317098
 20
61.99999999998851
 30
0.0
 11
228.2273181479173
 21
61.99999999998851
 31
0.0
  0
LINE
  5
A8C
330
1F
100
AcDbEntity
  8
0
100
AcDbLine
 10
239.7743235317098
 20
81.99999999998851
 30
0.0
 11
245.5478262236061
 21
71.99999999998851
 31
0.0
  0
LINE
  5
A8D
330
1F
100
AcDbEntity
  8
0
100
AcDbLine
 10
228.2273181479173
 20
81.99999999998851
 30
0.0
 11
239.7743235317098
 21
81.99999999998851
 31
0.0
  0
LINE
  5
A8E
330
1F
100
AcDbEntity
  8
0
100
AcDbLine
 10
222.4538154560209
 20
71.99999999998851
 30
0.0
 11
228.2273181479173
 21
81.99999999998851
 31
0.0
  0
ARC
  5
A8F
330
1F
100
AcDbEntity
  8
0
100
AcDbCircle
 10
186.5000787616254
 20
146.9416042662461
 30
0.0
 40
14.99999999999993
100
AcDbArc
 50
116.8965463033174
 51
180.0
  0
LINE
  5
A90
330
1F
100
AcDbEntity
  8
0
100
AcDbLine
 10
296.5000787616254
 20
146.9416042662459
 30
0.0
 11
296.5000787616254
 21
91.30000000000984
 31
0.0
  0
LINE
  5
A91
330
1F
100
AcDbEntity
  8
0
100
AcDbLine
 10
270.5008208398167
 20
36.00000000000966
 30
0.0
 11
270.5008208398167
 21
42.32624946270891
 31
0.0
  0
LINE
  5
A92
330
1F
100
AcDbEntity
  8
0
100
AcDbLine
 10
269.5008208398167
 20
35.00000000000944
 30
0.0
 11
270.5008208398167
 21
36.00000000000966
 31
0.0
  0
LINE
  5
A93
330
1F
100
AcDbEntity
  8
0
100
AcDbLine
 10
296.5008208398167
 20
50.00000000000966
 30
0.0
 11
296.5008208398167
 21
90.30000000000962
 31
0.0
  0
LINE
  5
A94
330
1F
100
AcDbEntity
  8
0
100
AcDbLine
 10
283.5008208398167
 20
48.50000000000966
 30
0.0
 11
296.5008208398167
 21
50.00000000000966
 31
0.0
  0
LINE
  5
A95
330
1F
100
AcDbEntity
  8
0
100
AcDbLine
 10
283.5008208398167
 20
46.50000000000966
 30
0.0
 11
283.5008208398167
 21
48.50000000000966
 31
0.0
  0
LINE
  5
A96
330
1F
100
AcDbEntity
  8
0
100
AcDbLine
 10
273.1569485158611
 20
45.30647627032237
 30
0.0
 11
283.5008208398167
 21
46.50000000000966
 31
0.0
  0
ARC
  5
A97
330
1F
100
AcDbEntity
  8
0
100
AcDbCircle
 10
273.5008208398167
 20
42.32624946270891
 30
0.0
 40
3.000000000000002
100
AcDbArc
 50
96.5819446551726
 51
180.0
  0
ARC
  5
A98
330
1F
100
AcDbEntity
  8
0
100
AcDbCircle
 10
295.5008208398167
 20
90.30000000000962
 30
0.0
 40
0.9999999999999964
100
AcDbArc
 50
0.0
 51
90.0
  0
ARC
  5
A99
330
1F
100
AcDbEntity
  8
0
100
AcDbCircle
 10
281.5000787616254
 20
146.9416042662461
 30
0.0
 40
14.99999999999993
100
AcDbArc
 50
0.0
 51
63.10345369668254
  0
ARC
  5
A9A
330
1F
100
AcDbEntity
  8
0
100
AcDbCircle
 10
234.0000787616254
 20
53.30000026460595
 30
0.0
 40
119.9999999999998
100
AcDbArc
 50
63.10345369668254
 51
116.8965463033174
  0
LINE
  5
A9B
330
1F
100
AcDbEntity
  8
0
100
AcDbLine
 10
-14.99999999999954
 20
56.70000000000891
 30
0.0
 11
-0.4759451353929763
 21
56.70000000000903
 31
0.0
  0
LINE
  5
A9C
330
1F
100
AcDbEntity
  8
1
100
AcDbLine
 10
-14.99999999999954
 20
57.39834095489277
 30
0.0
 11
-14.99999999999954
 21
72.00165904512551
 31
0.0
  0
ARC
  5
A9D
330
1F
100
AcDbEntity
  8
0
100
AcDbCircle
 10
-27.49999999999955
 20
72.20000000000891
 30
0.0
 40
8.000000000000028
100
AcDbArc
 50
120.9637565320754
 51
239.0362434679246
  0
LINE
  5
A9E
330
1F
100
AcDbEntity
  8
1
100
AcDbLine
 10
-27.49999999999955
 20
64.89834095489277
 30
0.0
 11
-27.49999999999955
 21
79.50165904512551
 31
0.0
  0
CIRCLE
  5
A9F
330
1F
100
AcDbEntity
  8
0
100
AcDbCircle
 10
-27.49999999999955
 20
72.20000000000891
 30
0.0
 40
5.000000000000007
  0
CIRCLE
  5
AA0
330
1F
100
AcDbEntity
  8
0
100
AcDbCircle
 10
-27.49999999999955
 20
72.20000000000891
 30
0.0
 40
4.000000000000005
  0
LINE
  5
AA1
330
1F
100
AcDbEntity
  8
1
100
AcDbLine
 10
-7.698340954883406
 20
64.70000000000891
 30
0.0
 11
-22.30165904511614
 21
64.70000000000891
 31
0.0
  0
ARC
  5
AA2
330
1F
100
AcDbEntity
  8
0
100
AcDbCircle
 10
-14.99999999999954
 20
64.70000000000891
 30
0.0
 40
7.999999999999975
100
AcDbArc
 50
239.0362434679246
 51
270.0
  0
CIRCLE
  5
AA3
330
1F
100
AcDbEntity
  8
0
100
AcDbCircle
 10
-14.99999999999954
 20
64.70000000000891
 30
0.0
 40
5.000000000000007
  0
CIRCLE
  5
AA4
330
1F
100
AcDbEntity
  8
0
100
AcDbCircle
 10
-14.99999999999954
 20
64.70000000000891
 30
0.0
 40
4.000000000000005
  0
LINE
  5
AA5
330
1F
100
AcDbEntity
  8
0
100
AcDbLine
 10
-31.61596604342003
 20
65.34005659430864
 30
0.0
 11
-19.11596604342003
 21
57.84005659430864
 31
0.0
  0
LINE
  5
AA6
330
1F
100
AcDbEntity
  8
1
100
AcDbLine
 10
-7.698340954883406
 20
79.70000000000891
 30
0.0
 11
-22.30165904511614
 21
79.70000000000891
 31
0.0
  0
CIRCLE
  5
AA7
330
1F
100
AcDbEntity
  8
0
100
AcDbCircle
 10
-14.99999999999954
 20
79.70000000000891
 30
0.0
 40
5.000000000000007
  0
CIRCLE
  5
AA8
330
1F
100
AcDbEntity
  8
0
100
AcDbCircle
 10
-14.99999999999954
 20
79.70000000000891
 30
0.0
 40
4.000000000000005
  0
ARC
  5
AA9
330
1F
100
AcDbEntity
  8
0
100
AcDbCircle
 10
-14.99999999999954
 20
79.70000000000914
 30
0.0
 40
7.99999999999999
100
AcDbArc
 50
90.0
 51
120.9637565320754
  0
LINE
  5
AAA
330
1F
100
AcDbEntity
  8
1
100
AcDbLine
 10
-14.99999999999954
 20
72.39834095489277
 30
0.0
 11
-14.99999999999954
 21
87.0016590451255
 31
0.0
  0
LINE
  5
AAB
330
1F
100
AcDbEntity
  8
0
100
AcDbLine
 10
-19.11596604342003
 20
86.55994340570941
 30
0.0
 11
-31.61596604342003
 21
79.05994340570941
 31
0.0
  0
LINE
  5
AAC
330
1F
100
AcDbEntity
  8
1
100
AcDbLine
 10
-20.19834095488341
 20
72.20000000000891
 30
0.0
 11
-34.80165904511614
 21
72.20000000000891
 31
0.0
  0
LINE
  5
AAD
330
1F
100
AcDbEntity
  8
1
100
AcDbLine
 10
233.992109870142
 20
-112.711771618255
 30
0.0
 11
233.992109870142
 21
188.2156822647053
 31
0.0
  0
LINE
  5
AAE
330
1F
100
AcDbEntity
  8
1
100
AcDbLine
 10
56.51774244810849
 20
71.99999999998851
 30
0.0
 11
78.73426018449936
 21
71.99999999998851
 31
0.0
  0
LINE
  5
AAF
330
1F
100
AcDbEntity
  8
1
100
AcDbLine
 10
-56.51774244810849
 20
71.99999999998851
 30
0.0
 11
-78.73426018449936
 21
71.99999999998851
 31
0.0
  0
LINE
  5
AB0
330
1F
100
AcDbEntity
  8
0
100
AcDbLine
 10
-41.00000000000045
 20
5.0
 30
0.0
 11
40.99999999999954
 21
5.0
 31
0.0
  0
LINE
  5
AB1
330
1F
100
AcDbEntity
  8
0
100
AcDbLine
 10
-41.00000000000045
 20
0.0
 30
0.0
 11
40.99999999999954
 21
0.0
 31
0.0
  0
LINE
  5
AB2
330
1F
100
AcDbEntity
  8
0
100
AcDbLine
 10
-41.00000000000045
 20
0.0
 30
0.0
 11
-41.00000000000045
 21
5.0
 31
0.0
  0
LINE
  5
AB3
330
1F
100
AcDbEntity
  8
0
100
AcDbLine
 10
-17.29413694537788
 20
15.0
 30
0.0
 11
-17.29413694537788
 21
5.0
 31
0.0
  0
LINE
  5
AB4
330
1F
100
AcDbEntity
  8
0
100
AcDbLine
 10
-30.29413694537789
 20
15.0
 30
0.0
 11
-30.29413694537789
 21
5.0
 31
0.0
  0
LINE
  5
AB5
330
1F
100
AcDbEntity
  8
0
100
AcDbLine
 10
-30.29413694537789
 20
6.0
 30
0.0
 11
-17.29413694537788
 21
6.0
 31
0.0
  0
LINE
  5
AB6
330
1F
100
AcDbEntity
  8
0
100
AcDbLine
 10
-30.29413694537789
 20
15.0
 30
0.0
 11
-17.29413694537788
 21
15.0
 31
0.0
  0
LINE
  5
AB7
330
1F
100
AcDbEntity
  8
0
100
AcDbLine
 10
17.29415584866592
 20
15.0
 30
0.0
 11
30.29415584866593
 21
15.0
 31
0.0
  0
LINE
  5
AB8
330
1F
100
AcDbEntity
  8
0
100
AcDbLine
 10
17.29415584866592
 20
6.0
 30
0.0
 11
30.29415584866593
 21
6.0
 31
0.0
  0
LINE
  5
AB9
330
1F
100
AcDbEntity
  8
0
100
AcDbLine
 10
17.29415584866592
 20
15.0
 30
0.0
 11
17.29415584866592
 21
5.0
 31
0.0
  0
LINE
  5
ABA
330
1F
100
AcDbEntity
  8
0
100
AcDbLine
 10
40.99999999999954
 20
0.0
 30
0.0
 11
40.99999999999954
 21
5.0
 31
0.0
  0
LINE
  5
ABB
330
1F
100
AcDbEntity
  8
0
100
AcDbLine
 10
30.29415584866593
 20
15.0
 30
0.0
 11
30.29415584866593
 21
5.0
 31
0.0
  0
LINE
  5
ABC
330
1F
100
AcDbEntity
  8
1
100
AcDbLine
 10
-23.79413694537789
 20
-0.0000000000027285
 30
0.0
 11
-23.79413694537789
 21
19.74970032503233
 31
0.0
  0
LINE
  5
ABD
330
1F
100
AcDbEntity
  8
1
100
AcDbLine
 10
23.79415584866592
 20
-0.0000000000027285
 30
0.0
 11
23.79415584866592
 21
19.29703716829363
 31
0.0
  0
LINE
  5
ABE
330
1F
100
AcDbEntity
  8
0
100
AcDbLine
 10
-22.49999999999955
 20
15.0
 30
0.0
 11
-22.49999999999955
 21
35.0
 31
0.0
  0
LINE
  5
ABF
330
1F
100
AcDbEntity
  8
0
100
AcDbLine
 10
22.49999999999909
 20
14.99999999999932
 30
0.0
 11
22.5
 21
34.99999999999955
 31
0.0
  0
LINE
  5
AC0
330
1F
100
AcDbEntity
  8
0
100
AcDbLine
 10
193.0008208398162
 20
5.0
 30
0.0
 11
275.0008208398162
 21
5.0
 31
0.0
  0
LINE
  5
AC1
330
1F
100
AcDbEntity
  8
0
100
AcDbLine
 10
193.0008208398162
 20
0.0
 30
0.0
 11
275.0008208398162
 21
0.0
 31
0.0
  0
LINE
  5
AC2
330
1F
100
AcDbEntity
  8
0
100
AcDbLine
 10
193.0008208398162
 20
0.0
 30
0.0
 11
193.0008208398162
 21
5.0
 31
0.0
  0
LINE
  5
AC3
330
1F
100
AcDbEntity
  8
0
100
AcDbLine
 10
216.7066838944386
 20
15.0
 30
0.0
 11
216.7066838944386
 21
5.0
 31
0.0
  0
LINE
  5
AC4
330
1F
100
AcDbEntity
  8
0
100
AcDbLine
 10
203.7066838944386
 20
15.0
 30
0.0
 11
203.7066838944386
 21
5.0
 31
0.0
  0
LINE
  5
AC5
330
1F
100
AcDbEntity
  8
0
100
AcDbLine
 10
203.7066838944386
 20
6.0
 30
0.0
 11
216.7066838944386
 21
6.0
 31
0.0
  0
LINE
  5
AC6
330
1F
100
AcDbEntity
  8
0
100
AcDbLine
 10
203.7066838944386
 20
15.0
 30
0.0
 11
216.7066838944386
 21
15.0
 31
0.0
  0
LINE
  5
AC7
330
1F
100
AcDbEntity
  8
0
100
AcDbLine
 10
251.2949766884824
 20
15.0
 30
0.0
 11
264.2949766884824
 21
15.0
 31
0.0
  0
LINE
  5
AC8
330
1F
100
AcDbEntity
  8
0
100
AcDbLine
 10
251.2949766884824
 20
6.0
 30
0.0
 11
264.2949766884824
 21
6.0
 31
0.0
  0
LINE
  5
AC9
330
1F
100
AcDbEntity
  8
0
100
AcDbLine
 10
251.2949766884824
 20
15.0
 30
0.0
 11
251.2949766884824
 21
5.0
 31
0.0
  0
LINE
  5
ACA
330
1F
100
AcDbEntity
  8
0
100
AcDbLine
 10
275.0008208398162
 20
0.0
 30
0.0
 11
275.0008208398162
 21
5.0
 31
0.0
  0
LINE
  5
ACB
330
1F
100
AcDbEntity
  8
0
100
AcDbLine
 10
264.2949766884824
 20
15.0
 30
0.0
 11
264.2949766884824
 21
5.0
 31
0.0
  0
LINE
  5
ACC
330
1F
100
AcDbEntity
  8
1
100
AcDbLine
 10
210.2066838944386
 20
-0.0000000000027285
 30
0.0
 11
210.2066838944386
 21
19.74970032503233
 31
0.0
  0
LINE
  5
ACD
330
1F
100
AcDbEntity
  8
1
100
AcDbLine
 10
257.7949766884824
 20
-0.0000000000027285
 30
0.0
 11
257.7949766884824
 21
19.29703716829363
 31
0.0
  0
LINE
  5
ACE
330
1F
100
AcDbEntity
  8
0
100
AcDbLine
 10
211.5008208398169
 20
15.0
 30
0.0
 11
211.5008208398169
 21
35.0
 31
0.0
  0
LINE
  5
ACF
330
1F
100
AcDbEntity
  8
0
100
AcDbLine
 10
256.5008208398158
 20
14.99999999999932
 30
0.0
 11
256.5008208398165
 21
34.99999999999955
 31
0.0
  0
LINE
  5
AD0
330
1F
100
AcDbEntity
  8
2
100
AcDbLine
 10
44.99996999999985
 20
0.0
 30
0.0
 11
-44.99996999999985
 21
0.0
 31
0.0
  0
LINE
  5
AD1
330
1F
100
AcDbEntity
  8
0
100
AcDbLine
 10
-0.0000300000001516
 20
0.0
 30
0.0
 11
-14.00003000000015
 21
0.0
 31
0.0
  0
LINE
  5
AD2
330
1F
100
AcDbEntity
  8
0
100
AcDbLine
 10
-0.0000300000001516
 20
0.0
 30
0.0
 11
13.99996999999985
 21
0.0
 31
0.0
  0
LINE
  5
AD3
330
1F
100
AcDbEntity
  8
2
100
AcDbLine
 10
-44.99996999999985
 20
0.0
 30
0.0
 11
44.99996999999985
 21
0.0
 31
0.0
  0
LINE
  5
AD4
330
1F
100
AcDbEntity
  8
2
100
AcDbLine
 10
84.50006991201508
 20
-0.9999999999990905
 30
0.0
 11
84.50006991201508
 21
-85.99997699999949
 31
0.0
  0
ARC
  5
AD5
330
1F
100
AcDbEntity
  8
2
100
AcDbCircle
 10
83.5000699120169
 20
-0.9999999999990905
 30
0.0
 40
1.0
100
AcDbArc
 50
0.0
 51
90.0
  0
LINE
  5
AD6
330
1F
100
AcDbEntity
  8
2
100
AcDbLine
 10
-63.4999300879831
 20
0.0
 30
0.0
 11
83.5000699120169
 21
0.0
 31
0.0
  0
LINE
  5
AD7
330
1F
100
AcDbEntity
  8
2
100
AcDbLine
 10
-64.49993008798401
 20
-0.9999999999990905
 30
0.0
 11
-64.49993008798401
 21
-85.99997699999949
 31
0.0
  0
ARC
  5
AD8
330
1F
100
AcDbEntity
  8
2
100
AcDbCircle
 10
-63.4999300879831
 20
-0.9999999999990905
 30
0.0
 40
1.0
100
AcDbArc
 50
90.0
 51
180.0
  0
LINE
  5
AD9
330
1F
100
AcDbEntity
  8
2
100
AcDbLine
 10
-63.4999300879831
 20
-86.99997699999949
 30
0.0
 11
83.5000699120169
 21
-86.99997699999949
 31
0.0
  0
ARC
  5
ADA
330
1F
100
AcDbEntity
  8
2
100
AcDbCircle
 10
-63.4999300879831
 20
-85.99997699999949
 30
0.0
 40
1.0
100
AcDbArc
 50
180.0
 51
270.0
  0
ARC
  5
ADB
330
1F
100
AcDbEntity
  8
2
100
AcDbCircle
 10
83.5000699120169
 20
-85.99997699999949
 30
0.0
 40
1.0
100
AcDbArc
 50
270.0
 51
0.0
  0
LINE
  5
ADC
330
1F
100
AcDbEntity
  8
2
100
AcDbLine
 10
-64.49993008798401
 20
-67.42394999999942
 30
0.0
 11
84.50006991201508
 21
-67.42394999999942
 31
0.0
  0
LINE
  5
ADD
330
1F
100
AcDbEntity
  8
2
100
AcDbLine
 10
-64.49993008798401
 20
-19.57598899999902
 30
0.0
 11
84.50006991201508
 21
-19.57598899999902
 31
0.0
  0
LINE
  5
ADE
330
1F
100
AcDbEntity
  8
2
100
AcDbLine
 10
-59.50000010143913
 20
0.0
 30
0.0
 11
-59.50000010143913
 21
-86.99997699999949
 31
0.0
  0
LINE
  5
ADF
330
1F
100
AcDbEntity
  8
2
100
AcDbLine
 10
79.49999989856178
 20
0.0
 30
0.0
 11
79.49999989856178
 21
-86.99997699999949
 31
0.0
  0
LINE
  5
AE0
330
1F
100
AcDbEntity
  8
2
100
AcDbLine
 10
50.26770009387337
 20
-80.27919777921942
 30
0.0
 11
63.39495839465553
 21
-80.27919777921942
 31
0.0
  0
LINE
  5
AE1
330
1F
100
AcDbEntity
  8
2
100
AcDbLine
 10
50.26770009387337
 20
-70.27919777921943
 30
0.0
 11
63.39495839465553
 21
-70.27919777921943
 31
0.0
  0
LINE
  5
AE2
330
1F
100
AcDbEntity
  8
2
100
AcDbLine
 10
65.39495839465462
 20
-72.27919777922034
 30
0.0
 11
65.39495839465462
 21
-78.27919777922033
 31
0.0
  0
LINE
  5
AE3
330
1F
100
AcDbEntity
  8
2
100
AcDbLine
 10
48.26770009387428
 20
-72.27919777922034
 30
0.0
 11
48.26770009387428
 21
-78.27919777922033
 31
0.0
  0
ARC
  5
AE4
330
1F
100
AcDbEntity
  8
2
100
AcDbCircle
 10
50.26770009387337
 20
-72.27919777922034
 30
0.0
 40
2.0
100
AcDbArc
 50
90.0
 51
180.0
  0
ARC
  5
AE5
330
1F
100
AcDbEntity
  8
2
100
AcDbCircle
 10
63.39495839465553
 20
-72.27919777922034
 30
0.0
 40
2.0
100
AcDbArc
 50
0.0
 51
90.0
  0
ARC
  5
AE6
330
1F
100
AcDbEntity
  8
2
100
AcDbCircle
 10
63.39495839465553
 20
-78.27919777922033
 30
0.0
 40
2.0
100
AcDbArc
 50
270.0
 51
0.0
  0
ARC
  5
AE7
330
1F
100
AcDbEntity
  8
2
100
AcDbCircle
 10
50.26770009387337
 20
-78.27919777922033
 30
0.0
 40
2.0
100
AcDbArc
 50
180.0
 51
270.0
  0
LWPOLYLINE
  5
AE8
330
1F
100
AcDbEntity
  8
2
100
AcDbPolyline
 90
        3
 70
     1
 43
0.6
 10
61.21931142199855
 20
-77.59372699999949
 42
1.0
 10
60.61931142199819
 20
-77.59372699999949
 42
1.0
 10
61.21931142199855
 20
-77.59372699999949
 42
1.0
  0
LINE
  5
AE9
330
1F
100
AcDbEntity
  8
2
100
AcDbLine
 10
91.10016756826599
 20
-37.00006099999882
 30
0.0
 11
91.10016756826599
 21
-50.00021358788945
 31
0.0
  0
LINE
  5
AEA
330
1F
100
AcDbEntity
  8
2
100
AcDbLine
 10
90.52008944326599
 20
-35.99468990624882
 30
0.0
 11
86.68073397451598
 21
-35.99468990624882
 31
0.0
  0
LINE
  5
AEB
330
1F
100
AcDbEntity
  8
2
100
AcDbLine
 10
90.51960116201689
 20
-39.74713131249882
 30
0.0
 11
86.6812222557669
 21
-39.74713131249882
 31
0.0
  0
LINE
  5
AEC
330
1F
100
AcDbEntity
  8
2
100
AcDbLine
 10
91.10050448847914
 20
-37.00010387058228
 30
0.0
 11
90.51993808222823
 21
-35.99453337583782
 31
0.0
  0
LINE
  5
AED
330
1F
100
AcDbEntity
  8
2
100
AcDbLine
 10
86.68073936622977
 20
-51.00558468163945
 30
0.0
 11
90.52008944326599
 21
-51.00558468163945
 31
0.0
  0
LINE
  5
AEE
330
1F
100
AcDbEntity
  8
2
100
AcDbLine
 10
86.68071532190106
 20
-47.2528336229916
 30
0.0
 11
90.51960116201689
 21
-47.25289913476444
 31
0.0
  0
ARC
  5
AEF
330
1F
100
AcDbEntity
  8
2
100
AcDbCircle
 10
87.7774136620169
 20
-49.12933346093632
 30
0.0
 40
3.322566986083983
100
AcDbArc
 50
0.0
 51
34.38430267815228
  0
ARC
  5
AF0
330
1F
100
AcDbEntity
  8
2
100
AcDbCircle
 10
78.6807339745169
 20
-43.50006099999882
 30
0.0
 40
12.41944122314453
100
AcDbArc
 50
342.4120272456765
 51
17.58793860336173
  0
LINE
  5
AF1
330
1F
100
AcDbEntity
  8
2
100
AcDbLine
 10
91.10016756826599
 20
-39.50006099999882
 30
0.0
 11
95.00055819326508
 21
-39.50006099999882
 31
0.0
  0
LINE
  5
AF2
330
1F
100
AcDbEntity
  8
2
100
AcDbLine
 10
91.10016756826599
 20
-40.29986568749882
 30
0.0
 11
95.00055819326508
 21
-40.29986568749882
 31
0.0
  0
LINE
  5
AF3
330
1F
100
AcDbEntity
  8
2
100
AcDbLine
 10
91.10016756826599
 20
-47.50018307031132
 30
0.0
 11
95.00055819326508
 21
-47.50018307031132
 31
0.0
  0
LINE
  5
AF4
330
1F
100
AcDbEntity
  8
2
100
AcDbLine
 10
84.50006991201689
 20
-35.50006099999882
 30
0.0
 11
86.1001675682669
 21
-35.50006099999882
 31
0.0
  0
LINE
  5
AF5
330
1F
100
AcDbEntity
  8
2
100
AcDbLine
 10
91.10060113681857
 20
-50.00024453599962
 30
0.0
 11
90.52003473056766
 21
-51.00581503074408
 31
0.0
  0
ARC
  5
AF6
330
1F
100
AcDbEntity
  8
2
100
AcDbCircle
 10
87.7774136620169
 20
-37.87066646874882
 30
0.0
 40
3.322566986083983
100
AcDbArc
 50
325.6156973218395
 51
0.0
  0
LINE
  5
AF7
330
1F
100
AcDbEntity
  8
2
100
AcDbLine
 10
86.10065584951598
 20
-35.50006099999882
 30
0.0
 11
86.10065584951598
 21
-51.50018307031132
 31
0.0
  0
LINE
  5
AF8
330
1F
100
AcDbEntity
  8
2
100
AcDbLine
 10
86.10022130939205
 20
-37.00002406946442
 30
0.0
 11
86.6807724568539
 21
-35.99448000371831
 31
0.0
  0
ARC
  5
AF9
330
1F
100
AcDbEntity
  8
2
100
AcDbCircle
 10
98.51960116201599
 20
-43.50006099999882
 30
0.0
 40
12.41944122314453
100
AcDbArc
 50
162.4120629904955
 51
181.1534264831704
  0
ARC
  5
AFA
330
1F
100
AcDbEntity
  8
2
100
AcDbCircle
 10
89.42292147451599
 20
-37.87066646874882
 30
0.0
 40
3.322566986083983
100
AcDbArc
 50
179.9999640278024
 51
214.3842837814672
  0
LINE
  5
AFB
330
1F
100
AcDbEntity
  8
2
100
AcDbLine
 10
95.00055819326508
 20
-50.9918185796705
 30
0.0
 11
99.4199917870169
 21
-50.9918185796705
 31
0.0
  0
LINE
  5
AFC
330
1F
100
AcDbEntity
  8
2
100
AcDbLine
 10
100.0005034805676
 20
-49.98647843403069
 30
0.0
 11
99.41993707431857
 21
-50.99204892877423
 31
0.0
  0
ARC
  5
AFD
330
1F
100
AcDbEntity
  8
2
100
AcDbCircle
 10
96.67731600576509
 20
-49.11556735896647
 30
0.0
 40
3.322566986083983
100
AcDbArc
 50
0.0
 51
34.38430267815228
  0
LINE
  5
AFE
330
1F
100
AcDbEntity
  8
2
100
AcDbLine
 10
95.00055819326508
 20
-47.23913303279551
 30
0.0
 11
99.41950350576508
 21
-47.23913303279551
 31
0.0
  0
LINE
  5
AFF
330
1F
100
AcDbEntity
  8
2
100
AcDbLine
 10
99.41950350576508
 20
-39.73336521052988
 30
0.0
 11
95.00055819326508
 21
-39.73336521052988
 31
0.0
  0
LINE
  5
B00
330
1F
100
AcDbEntity
  8
2
100
AcDbLine
 10
99.4199917870169
 20
-35.98092380427988
 30
0.0
 11
95.00055819326508
 21
-35.98092380427988
 31
0.0
  0
LINE
  5
B01
330
1F
100
AcDbEntity
  8
2
100
AcDbLine
 10
100.0004068322282
 20
-36.98633776861243
 30
0.0
 11
99.41984042597733
 21
-35.98076727386888
 31
0.0
  0
ARC
  5
B02
330
1F
100
AcDbEntity
  8
2
100
AcDbCircle
 10
96.67731600576509
 20
-37.85690036677988
 30
0.0
 40
3.322566986083983
100
AcDbArc
 50
325.6156973218395
 51
0.0
  0
LINE
  5
B03
330
1F
100
AcDbEntity
  8
2
100
AcDbLine
 10
100.0000699120169
 20
-36.98629489802988
 30
0.0
 11
100.0000699120169
 21
-49.98644748592051
 31
0.0
  0
ARC
  5
B04
330
1F
100
AcDbEntity
  8
2
100
AcDbCircle
 10
87.58063631826507
 20
-43.48629489802988
 30
0.0
 40
12.41944122314453
100
AcDbArc
 50
342.4120272456765
 51
17.58793860336173
  0
ARC
  5
B05
330
1F
100
AcDbEntity
  8
2
100
AcDbCircle
 10
98.51960116201599
 20
-43.50006099999882
 30
0.0
 40
12.41944122314453
100
AcDbArc
 50
178.8465735168295
 51
197.5879370095044
  0
LINE
  5
B06
330
1F
100
AcDbEntity
  8
2
100
AcDbLine
 10
86.10022130939205
 20
-50.00009793053322
 30
0.0
 11
86.6807724568539
 21
-51.00564199628024
 31
0.0
  0
ARC
  5
B07
330
1F
100
AcDbEntity
  8
2
100
AcDbCircle
 10
89.42292147451599
 20
-49.12945553124882
 30
0.0
 40
3.322566986083983
100
AcDbArc
 50
145.6157162185327
 51
180.0000359721715
  0
LINE
  5
B08
330
1F
100
AcDbEntity
  8
2
100
AcDbLine
 10
84.50006991201689
 20
-51.50006099999882
 30
0.0
 11
86.1001675682669
 21
-51.50006099999882
 31
0.0
  0
LINE
  5
B09
330
1F
100
AcDbEntity
  8
2
100
AcDbLine
 10
91.10016756826599
 20
-37.00006099999882
 30
0.0
 11
91.10016756826599
 21
-50.00021358788945
 31
0.0
  0
LINE
  5
B0A
330
1F
100
AcDbEntity
  8
2
100
AcDbLine
 10
90.52008944326599
 20
-35.99468990624882
 30
0.0
 11
86.68073397451598
 21
-35.99468990624882
 31
0.0
  0
LINE
  5
B0B
330
1F
100
AcDbEntity
  8
2
100
AcDbLine
 10
90.51960116201689
 20
-39.74713131249882
 30
0.0
 11
86.6812222557669
 21
-39.74713131249882
 31
0.0
  0
LINE
  5
B0C
330
1F
100
AcDbEntity
  8
2
100
AcDbLine
 10
91.10050448847914
 20
-37.00010387058228
 30
0.0
 11
90.51993808222823
 21
-35.99453337583782
 31
0.0
  0
LINE
  5
B0D
330
1F
100
AcDbEntity
  8
2
100
AcDbLine
 10
86.68073936622977
 20
-51.00558468163945
 30
0.0
 11
90.52008944326599
 21
-51.00558468163945
 31
0.0
  0
LINE
  5
B0E
330
1F
100
AcDbEntity
  8
2
100
AcDbLine
 10
86.68071532190106
 20
-47.2528336229916
 30
0.0
 11
90.51960116201689
 21
-47.25289913476444
 31
0.0
  0
ARC
  5
B0F
330
1F
100
AcDbEntity
  8
2
100
AcDbCircle
 10
87.7774136620169
 20
-49.12933346093632
 30
0.0
 40
3.322566986083983
100
AcDbArc
 50
0.0
 51
34.38430267815228
  0
ARC
  5
B10
330
1F
100
AcDbEntity
  8
2
100
AcDbCircle
 10
78.6807339745169
 20
-43.50006099999882
 30
0.0
 40
12.41944122314453
100
AcDbArc
 50
342.4120272456765
 51
17.58793860336173
  0
LINE
  5
B11
330
1F
100
AcDbEntity
  8
2
100
AcDbLine
 10
84.50006991201689
 20
-35.50006099999882
 30
0.0
 11
86.1001675682669
 21
-35.50006099999882
 31
0.0
  0
LINE
  5
B12
330
1F
100
AcDbEntity
  8
2
100
AcDbLine
 10
91.10060113681857
 20
-50.00024453599962
 30
0.0
 11
90.52003473056766
 21
-51.00581503074408
 31
0.0
  0
ARC
  5
B13
330
1F
100
AcDbEntity
  8
2
100
AcDbCircle
 10
87.7774136620169
 20
-37.87066646874882
 30
0.0
 40
3.322566986083983
100
AcDbArc
 50
325.6156973218395
 51
0.0
  0
LINE
  5
B14
330
1F
100
AcDbEntity
  8
2
100
AcDbLine
 10
86.10065584951598
 20
-35.50006099999882
 30
0.0
 11
86.10065584951598
 21
-51.50018307031132
 31
0.0
  0
LINE
  5
B15
330
1F
100
AcDbEntity
  8
2
100
AcDbLine
 10
86.10022130939205
 20
-37.00002406946442
 30
0.0
 11
86.6807724568539
 21
-35.99448000371831
 31
0.0
  0
ARC
  5
B16
330
1F
100
AcDbEntity
  8
2
100
AcDbCircle
 10
98.51960116201599
 20
-43.50006099999882
 30
0.0
 40
12.41944122314453
100
AcDbArc
 50
162.4120629904955
 51
181.1534264831704
  0
ARC
  5
B17
330
1F
100
AcDbEntity
  8
2
100
AcDbCircle
 10
89.42292147451599
 20
-37.87066646874882
 30
0.0
 40
3.322566986083983
100
AcDbArc
 50
179.9999640278024
 51
214.3842837814672
  0
LINE
  5
B18
330
1F
100
AcDbEntity
  8
2
100
AcDbLine
 10
95.00055819326508
 20
-50.9918185796705
 30
0.0
 11
95.00055819326508
 21
-35.98092380427988
 31
0.0
  0
LINE
  5
B19
330
1F
100
AcDbEntity
  8
2
100
AcDbLine
 10
95.00055819326508
 20
-50.9918185796705
 30
0.0
 11
99.4199917870169
 21
-50.9918185796705
 31
0.0
  0
LINE
  5
B1A
330
1F
100
AcDbEntity
  8
2
100
AcDbLine
 10
100.0005034805676
 20
-49.98647843403069
 30
0.0
 11
99.41993707431857
 21
-50.99204892877423
 31
0.0
  0
ARC
  5
B1B
330
1F
100
AcDbEntity
  8
2
100
AcDbCircle
 10
96.67731600576509
 20
-49.11556735896647
 30
0.0
 40
3.322566986083983
100
AcDbArc
 50
0.0
 51
34.38430267815228
  0
LINE
  5
B1C
330
1F
100
AcDbEntity
  8
2
100
AcDbLine
 10
95.00055819326508
 20
-47.23913303279551
 30
0.0
 11
99.41950350576508
 21
-47.23913303279551
 31
0.0
  0
LINE
  5
B1D
330
1F
100
AcDbEntity
  8
2
100
AcDbLine
 10
99.41950350576508
 20
-39.73336521052988
 30
0.0
 11
95.00055819326508
 21
-39.73336521052988
 31
0.0
  0
LINE
  5
B1E
330
1F
100
AcDbEntity
  8
2
100
AcDbLine
 10
99.4199917870169
 20
-35.98092380427988
 30
0.0
 11
95.00055819326508
 21
-35.98092380427988
 31
0.0
  0
LINE
  5
B1F
330
1F
100
AcDbEntity
  8
2
100
AcDbLine
 10
100.0004068322282
 20
-36.98633776861243
 30
0.0
 11
99.41984042597733
 21
-35.98076727386888
 31
0.0
  0
ARC
  5
B20
330
1F
100
AcDbEntity
  8
2
100
AcDbCircle
 10
96.67731600576509
 20
-37.85690036677988
 30
0.0
 40
3.322566986083983
100
AcDbArc
 50
325.6156973218395
 51
0.0
  0
LINE
  5
B21
330
1F
100
AcDbEntity
  8
2
100
AcDbLine
 10
100.0000699120169
 20
-36.98629489802988
 30
0.0
 11
100.0000699120169
 21
-49.98644748592051
 31
0.0
  0
ARC
  5
B22
330
1F
100
AcDbEntity
  8
2
100
AcDbCircle
 10
87.58063631826507
 20
-43.48629489802988
 30
0.0
 40
12.41944122314453
100
AcDbArc
 50
342.4120272456765
 51
17.58793860336173
  0
ARC
  5
B23
330
1F
100
AcDbEntity
  8
2
100
AcDbCircle
 10
98.51960116201599
 20
-43.50006099999882
 30
0.0
 40
12.41944122314453
100
AcDbArc
 50
178.8465735168295
 51
197.5879370095044
  0
LINE
  5
B24
330
1F
100
AcDbEntity
  8
2
100
AcDbLine
 10
86.10022130939205
 20
-50.00009793053322
 30
0.0
 11
86.6807724568539
 21
-51.00564199628024
 31
0.0
  0
ARC
  5
B25
330
1F
100
AcDbEntity
  8
2
100
AcDbCircle
 10
89.42292147451599
 20
-49.12945553124882
 30
0.0
 40
3.322566986083983
100
AcDbArc
 50
145.6157162185327
 51
180.0000359721715
  0
LINE
  5
B26
330
1F
100
AcDbEntity
  8
2
100
AcDbLine
 10
84.50006991201689
 20
-51.50006099999882
 30
0.0
 11
86.1001675682669
 21
-51.50006099999882
 31
0.0
  0
LINE
  5
B27
330
1F
100
AcDbEntity
  8
2
100
AcDbLine
 10
91.10016756826599
 20
-46.70025631249973
 30
0.0
 11
95.00055819326508
 21
-46.70025631249973
 31
0.0
  0
LINE
  5
B28
330
1F
100
AcDbEntity
  8
2
100
AcDbLine
 10
87.60006991201544
 20
-85.49998839999899
 30
0.0
 11
87.60006991201544
 21
-73.49998839999898
 31
0.0
  0
LINE
  5
B29
330
1F
100
AcDbEntity
  8
2
100
AcDbLine
 10
91.60006991201544
 20
-84.49998839999897
 30
0.0
 11
91.60006991201544
 21
-74.49998839999898
 31
0.0
  0
LINE
  5
B2A
330
1F
100
AcDbEntity
  8
2
100
AcDbLine
 10
87.60006991201544
 20
-85.24998839999899
 30
0.0
 11
91.16705721012341
 21
-85.24998839999899
 31
0.0
  0
LINE
  5
B2B
330
1F
100
AcDbEntity
  8
2
100
AcDbLine
 10
87.60006991201544
 20
-73.74998839999898
 30
0.0
 11
91.16705721012341
 21
-73.74998839999898
 31
0.0
  0
LINE
  5
B2C
330
1F
100
AcDbEntity
  8
2
100
AcDbLine
 10
91.16705721012341
 20
-73.74998839999898
 30
0.0
 11
91.60006991201544
 21
-74.49998839999898
 31
0.0
  0
LINE
  5
B2D
330
1F
100
AcDbEntity
  8
2
100
AcDbLine
 10
91.16705721012341
 20
-85.24998839999899
 30
0.0
 11
91.60006991201544
 21
-84.49998839999897
 31
0.0
  0
LINE
  5
B2E
330
1F
100
AcDbEntity
  8
2
100
AcDbLine
 10
87.60006991201544
 20
-82.37498839999899
 30
0.0
 11
91.16705721012341
 21
-82.37498839999899
 31
0.0
  0
LINE
  5
B2F
330
1F
100
AcDbEntity
  8
2
100
AcDbLine
 10
87.60006991201544
 20
-76.62498839999898
 30
0.0
 11
91.16705721012341
 21
-76.62498839999898
 31
0.0
  0
ARC
  5
B30
330
1F
100
AcDbEntity
  8
2
100
AcDbCircle
 10
81.83924192353016
 20
-79.49998839999898
 30
0.0
 40
9.760827988486084
100
AcDbArc
 50
342.8697633249654
 51
17.1302366750346
  0
ARC
  5
B31
330
1F
100
AcDbEntity
  8
2
100
AcDbCircle
 10
88.99748315168608
 20
-83.81248839999898
 30
0.0
 40
2.602586760331064
100
AcDbArc
 50
326.4726419507354
 51
33.52735804926461
  0
ARC
  5
B32
330
1F
100
AcDbEntity
  8
2
100
AcDbCircle
 10
88.99748315168608
 20
-75.18748839999898
 30
0.0
 40
2.602586760331064
100
AcDbArc
 50
326.4726419507354
 51
33.52735804926461
  0
LINE
  5
B33
330
1F
100
AcDbEntity
  8
2
100
AcDbLine
 10
84.50006991201508
 20
-85.49998839999899
 30
0.0
 11
87.60006991201544
 21
-85.49998839999899
 31
0.0
  0
LINE
  5
B34
330
1F
100
AcDbEntity
  8
2
100
AcDbLine
 10
84.50006991201508
 20
-73.49998839999898
 30
0.0
 11
87.60006991201544
 21
-73.49998839999898
 31
0.0
  0
LINE
  5
B35
330
1F
100
AcDbEntity
  8
2
100
AcDbLine
 10
86.10006991201544
 20
-85.49998839999899
 30
0.0
 11
86.10006991201544
 21
-73.49998839999898
 31
0.0
  0
LINE
  5
B36
330
1F
100
AcDbEntity
  8
2
100
AcDbLine
 10
87.60006991201544
 20
-13.5
 30
0.0
 11
87.60006991201544
 21
-1.5
 31
0.0
  0
LINE
  5
B37
330
1F
100
AcDbEntity
  8
2
100
AcDbLine
 10
91.60006991201544
 20
-12.49999999999909
 30
0.0
 11
91.60006991201544
 21
-2.49999999999909
 31
0.0
  0
LINE
  5
B38
330
1F
100
AcDbEntity
  8
2
100
AcDbLine
 10
87.60006991201544
 20
-13.24999999999909
 30
0.0
 11
91.16705721012341
 21
-13.24999999999909
 31
0.0
  0
LINE
  5
B39
330
1F
100
AcDbEntity
  8
2
100
AcDbLine
 10
87.60006991201544
 20
-1.74999999999909
 30
0.0
 11
91.16705721012341
 21
-1.74999999999909
 31
0.0
  0
LINE
  5
B3A
330
1F
100
AcDbEntity
  8
2
100
AcDbLine
 10
91.16705721012341
 20
-1.74999999999909
 30
0.0
 11
91.60006991201544
 21
-2.49999999999909
 31
0.0
  0
LINE
  5
B3B
330
1F
100
AcDbEntity
  8
2
100
AcDbLine
 10
91.16705721012341
 20
-13.24999999999909
 30
0.0
 11
91.60006991201544
 21
-12.49999999999909
 31
0.0
  0
LINE
  5
B3C
330
1F
100
AcDbEntity
  8
2
100
AcDbLine
 10
87.60006991201544
 20
-10.37499999999909
 30
0.0
 11
91.16705721012341
 21
-10.37499999999909
 31
0.0
  0
LINE
  5
B3D
330
1F
100
AcDbEntity
  8
2
100
AcDbLine
 10
87.60006991201544
 20
-4.62499999999909
 30
0.0
 11
91.16705721012341
 21
-4.62499999999909
 31
0.0
  0
ARC
  5
B3E
330
1F
100
AcDbEntity
  8
2
100
AcDbCircle
 10
81.83924192353016
 20
-7.5
 30
0.0
 40
9.760827988486084
100
AcDbArc
 50
342.8697633249654
 51
17.1302366750346
  0
ARC
  5
B3F
330
1F
100
AcDbEntity
  8
2
100
AcDbCircle
 10
88.99748315168608
 20
-11.8125
 30
0.0
 40
2.602586760331064
100
AcDbArc
 50
326.4726419507354
 51
33.52735804926461
  0
ARC
  5
B40
330
1F
100
AcDbEntity
  8
2
100
AcDbCircle
 10
88.99748315168608
 20
-3.1875
 30
0.0
 40
2.602586760331064
100
AcDbArc
 50
326.4726419507354
 51
33.52735804926461
  0
LINE
  5
B41
330
1F
100
AcDbEntity
  8
2
100
AcDbLine
 10
84.50006991201508
 20
-13.5
 30
0.0
 11
87.60006991201544
 21
-13.5
 31
0.0
  0
LINE
  5
B42
330
1F
100
AcDbEntity
  8
2
100
AcDbLine
 10
84.50006991201508
 20
-1.5
 30
0.0
 11
87.60006991201544
 21
-1.5
 31
0.0
  0
LINE
  5
B43
330
1F
100
AcDbEntity
  8
2
100
AcDbLine
 10
86.10006991201544
 20
-13.5
 30
0.0
 11
86.10006991201544
 21
-1.5
 31
0.0
  0
LINE
  5
B44
330
1F
100
AcDbEntity
  8
2
100
AcDbLine
 10
-71.10002774423492
 20
-37.00006099999882
 30
0.0
 11
-71.10002774423492
 21
-50.00021358788945
 31
0.0
  0
LINE
  5
B45
330
1F
100
AcDbEntity
  8
2
100
AcDbLine
 10
-70.51994961923492
 20
-35.99468990624882
 30
0.0
 11
-66.68059415048492
 21
-35.99468990624882
 31
0.0
  0
LINE
  5
B46
330
1F
100
AcDbEntity
  8
2
100
AcDbLine
 10
-70.51946133798492
 20
-39.74713131249882
 30
0.0
 11
-66.68108243173401
 21
-39.74713131249882
 31
0.0
  0
LINE
  5
B47
330
1F
100
AcDbEntity
  8
2
100
AcDbLine
 10
-71.10036466444626
 20
-37.00010387058228
 30
0.0
 11
-70.51979825819626
 21
-35.99453337583782
 31
0.0
  0
LINE
  5
B48
330
1F
100
AcDbEntity
  8
2
100
AcDbLine
 10
-66.68059954219689
 20
-51.00558468163945
 30
0.0
 11
-70.51994961923492
 21
-51.00558468163945
 31
0.0
  0
LINE
  5
B49
330
1F
100
AcDbEntity
  8
2
100
AcDbLine
 10
-66.68057549787
 20
-47.2528336229916
 30
0.0
 11
-70.51946133798492
 21
-47.25289913476444
 31
0.0
  0
ARC
  5
B4A
330
1F
100
AcDbEntity
  8
2
100
AcDbCircle
 10
-67.77727383798492
 20
-49.12933346093632
 30
0.0
 40
3.322566986083983
100
AcDbArc
 50
145.6156973218396
 51
180.0
  0
ARC
  5
B4B
330
1F
100
AcDbEntity
  8
2
100
AcDbCircle
 10
-58.68059415048492
 20
-43.50006099999882
 30
0.0
 40
12.41944122314453
100
AcDbArc
 50
162.4120613966382
 51
197.5879727543235
  0
LINE
  5
B4C
330
1F
100
AcDbEntity
  8
2
100
AcDbLine
 10
-71.10002774423492
 20
-39.50006099999882
 30
0.0
 11
-75.0004183692331
 21
-39.50006099999882
 31
0.0
  0
LINE
  5
B4D
330
1F
100
AcDbEntity
  8
2
100
AcDbLine
 10
-71.10002774423492
 20
-40.29986568749882
 30
0.0
 11
-75.0004183692331
 21
-40.29986568749882
 31
0.0
  0
LINE
  5
B4E
330
1F
100
AcDbEntity
  8
2
100
AcDbLine
 10
-71.10002774423492
 20
-47.50018307031132
 30
0.0
 11
-75.0004183692331
 21
-47.50018307031132
 31
0.0
  0
LINE
  5
B4F
330
1F
100
AcDbEntity
  8
2
100
AcDbLine
 10
-64.49993008798401
 20
-35.50006099999882
 30
0.0
 11
-66.10002774423492
 21
-35.50006099999882
 31
0.0
  0
LINE
  5
B50
330
1F
100
AcDbEntity
  8
2
100
AcDbLine
 10
-71.10046131278568
 20
-50.00024453599962
 30
0.0
 11
-70.51989490653659
 21
-51.00581503074408
 31
0.0
  0
ARC
  5
B51
330
1F
100
AcDbEntity
  8
2
100
AcDbCircle
 10
-67.77727383798492
 20
-37.87066646874882
 30
0.0
 40
3.322566986083983
100
AcDbArc
 50
180.0
 51
214.3843026781523
  0
LINE
  5
B52
330
1F
100
AcDbEntity
  8
2
100
AcDbLine
 10
-66.10051602548492
 20
-35.50006099999882
 30
0.0
 11
-66.10051602548492
 21
-51.50018307031132
 31
0.0
  0
LINE
  5
B53
330
1F
100
AcDbEntity
  8
2
100
AcDbLine
 10
-66.10008148536099
 20
-37.00002406946442
 30
0.0
 11
-66.68063263282101
 21
-35.99448000371831
 31
0.0
  0
ARC
  5
B54
330
1F
100
AcDbEntity
  8
2
100
AcDbCircle
 10
-78.51946133798492
 20
-43.50006099999882
 30
0.0
 40
12.41944122314453
100
AcDbArc
 50
358.8465735168295
 51
17.58793700950444
  0
ARC
  5
B55
330
1F
100
AcDbEntity
  8
2
100
AcDbCircle
 10
-69.42278165048492
 20
-37.87066646874882
 30
0.0
 40
3.322566986083983
100
AcDbArc
 50
325.6157162185328
 51
0.0000359721976162
  0
LINE
  5
B56
330
1F
100
AcDbEntity
  8
2
100
AcDbLine
 10
-75.0004183692331
 20
-50.9918185796705
 30
0.0
 11
-79.41985196298492
 21
-50.9918185796705
 31
0.0
  0
LINE
  5
B57
330
1F
100
AcDbEntity
  8
2
100
AcDbLine
 10
-80.00036365653476
 20
-49.98647843403069
 30
0.0
 11
-79.41979725028659
 21
-50.99204892877423
 31
0.0
  0
ARC
  5
B58
330
1F
100
AcDbEntity
  8
2
100
AcDbCircle
 10
-76.67717618173401
 20
-49.11556735896647
 30
0.0
 40
3.322566986083983
100
AcDbArc
 50
145.6156973218396
 51
180.0
  0
LINE
  5
B59
330
1F
100
AcDbEntity
  8
2
100
AcDbLine
 10
-75.0004183692331
 20
-47.23913303279551
 30
0.0
 11
-79.41936368173401
 21
-47.23913303279551
 31
0.0
  0
LINE
  5
B5A
330
1F
100
AcDbEntity
  8
2
100
AcDbLine
 10
-79.41936368173401
 20
-39.73336521052988
 30
0.0
 11
-75.0004183692331
 21
-39.73336521052988
 31
0.0
  0
LINE
  5
B5B
330
1F
100
AcDbEntity
  8
2
100
AcDbLine
 10
-79.41985196298492
 20
-35.98092380427988
 30
0.0
 11
-75.0004183692331
 21
-35.98092380427988
 31
0.0
  0
LINE
  5
B5C
330
1F
100
AcDbEntity
  8
2
100
AcDbLine
 10
-80.00026700819626
 20
-36.98633776861243
 30
0.0
 11
-79.41970060194626
 21
-35.98076727386888
 31
0.0
  0
ARC
  5
B5D
330
1F
100
AcDbEntity
  8
2
100
AcDbCircle
 10
-76.67717618173401
 20
-37.85690036677988
 30
0.0
 40
3.322566986083983
100
AcDbArc
 50
180.0
 51
214.3843026781523
  0
LINE
  5
B5E
330
1F
100
AcDbEntity
  8
2
100
AcDbLine
 10
-79.99993008798492
 20
-36.98629489802988
 30
0.0
 11
-79.99993008798492
 21
-49.98644748592051
 31
0.0
  0
ARC
  5
B5F
330
1F
100
AcDbEntity
  8
2
100
AcDbCircle
 10
-67.58049649423401
 20
-43.48629489802988
 30
0.0
 40
12.41944122314453
100
AcDbArc
 50
162.4120613966382
 51
197.5879727543235
  0
ARC
  5
B60
330
1F
100
AcDbEntity
  8
2
100
AcDbCircle
 10
-78.51946133798492
 20
-43.50006099999882
 30
0.0
 40
12.41944122314453
100
AcDbArc
 50
342.4120629904956
 51
1.153426483170459
  0
LINE
  5
B61
330
1F
100
AcDbEntity
  8
2
100
AcDbLine
 10
-66.10008148536099
 20
-50.00009793053322
 30
0.0
 11
-66.68063263282101
 21
-51.00564199628024
 31
0.0
  0
ARC
  5
B62
330
1F
100
AcDbEntity
  8
2
100
AcDbCircle
 10
-69.42278165048492
 20
-49.12945553124882
 30
0.0
 40
3.322566986083983
100
AcDbArc
 50
359.9999640278284
 51
34.38428378146722
  0
LINE
  5
B63
330
1F
100
AcDbEntity
  8
2
100
AcDbLine
 10
-64.49993008798401
 20
-51.50006099999882
 30
0.0
 11
-66.10002774423492
 21
-51.50006099999882
 31
0.0
  0
LINE
  5
B64
330
1F
100
AcDbEntity
  8
2
100
AcDbLine
 10
-71.10002774423492
 20
-37.00006099999882
 30
0.0
 11
-71.10002774423492
 21
-50.00021358788945
 31
0.0
  0
LINE
  5
B65
330
1F
100
AcDbEntity
  8
2
100
AcDbLine
 10
-70.51994961923492
 20
-35.99468990624882
 30
0.0
 11
-66.68059415048492
 21
-35.99468990624882
 31
0.0
  0
LINE
  5
B66
330
1F
100
AcDbEntity
  8
2
100
AcDbLine
 10
-70.51946133798492
 20
-39.74713131249882
 30
0.0
 11
-66.68108243173401
 21
-39.74713131249882
 31
0.0
  0
LINE
  5
B67
330
1F
100
AcDbEntity
  8
2
100
AcDbLine
 10
-71.10036466444626
 20
-37.00010387058228
 30
0.0
 11
-70.51979825819626
 21
-35.99453337583782
 31
0.0
  0
LINE
  5
B68
330
1F
100
AcDbEntity
  8
2
100
AcDbLine
 10
-66.68059954219689
 20
-51.00558468163945
 30
0.0
 11
-70.51994961923492
 21
-51.00558468163945
 31
0.0
  0
LINE
  5
B69
330
1F
100
AcDbEntity
  8
2
100
AcDbLine
 10
-66.68057549787
 20
-47.2528336229916
 30
0.0
 11
-70.51946133798492
 21
-47.25289913476444
 31
0.0
  0
ARC
  5
B6A
330
1F
100
AcDbEntity
  8
2
100
AcDbCircle
 10
-67.77727383798492
 20
-49.12933346093632
 30
0.0
 40
3.322566986083983
100
AcDbArc
 50
145.6156973218396
 51
180.0
  0
ARC
  5
B6B
330
1F
100
AcDbEntity
  8
2
100
AcDbCircle
 10
-58.68059415048492
 20
-43.50006099999882
 30
0.0
 40
12.41944122314453
100
AcDbArc
 50
162.4120613966382
 51
197.5879727543235
  0
LINE
  5
B6C
330
1F
100
AcDbEntity
  8
2
100
AcDbLine
 10
-64.49993008798401
 20
-35.50006099999882
 30
0.0
 11
-66.10002774423492
 21
-35.50006099999882
 31
0.0
  0
LINE
  5
B6D
330
1F
100
AcDbEntity
  8
2
100
AcDbLine
 10
-71.10046131278568
 20
-50.00024453599962
 30
0.0
 11
-70.51989490653659
 21
-51.00581503074408
 31
0.0
  0
ARC
  5
B6E
330
1F
100
AcDbEntity
  8
2
100
AcDbCircle
 10
-67.77727383798492
 20
-37.87066646874882
 30
0.0
 40
3.322566986083983
100
AcDbArc
 50
180.0
 51
214.3843026781523
  0
LINE
  5
B6F
330
1F
100
AcDbEntity
  8
2
100
AcDbLine
 10
-66.10051602548492
 20
-35.50006099999882
 30
0.0
 11
-66.10051602548492
 21
-51.50018307031132
 31
0.0
  0
LINE
  5
B70
330
1F
100
AcDbEntity
  8
2
100
AcDbLine
 10
-66.10008148536099
 20
-37.00002406946442
 30
0.0
 11
-66.68063263282101
 21
-35.99448000371831
 31
0.0
  0
ARC
  5
B71
330
1F
100
AcDbEntity
  8
2
100
AcDbCircle
 10
-78.51946133798492
 20
-43.50006099999882
 30
0.0
 40
12.41944122314453
100
AcDbArc
 50
358.8465735168295
 51
17.58793700950444
  0
ARC
  5
B72
330
1F
100
AcDbEntity
  8
2
100
AcDbCircle
 10
-69.42278165048492
 20
-37.87066646874882
 30
0.0
 40
3.322566986083983
100
AcDbArc
 50
325.6157162185328
 51
0.0000359721976162
  0
LINE
  5
B73
330
1F
100
AcDbEntity
  8
2
100
AcDbLine
 10
-75.0004183692331
 20
-50.9918185796705
 30
0.0
 11
-75.0004183692331
 21
-35.98092380427988
 31
0.0
  0
LINE
  5
B74
330
1F
100
AcDbEntity
  8
2
100
AcDbLine
 10
-75.0004183692331
 20
-50.9918185796705
 30
0.0
 11
-75.0004183692331
 21
-35.98092380427988
 31
0.0
  0
LINE
  5
B75
330
1F
100
AcDbEntity
  8
2
100
AcDbLine
 10
-75.0004183692331
 20
-50.9918185796705
 30
0.0
 11
-79.41985196298492
 21
-50.9918185796705
 31
0.0
  0
LINE
  5
B76
330
1F
100
AcDbEntity
  8
2
100
AcDbLine
 10
-80.00036365653476
 20
-49.98647843403069
 30
0.0
 11
-79.41979725028659
 21
-50.99204892877423
 31
0.0
  0
ARC
  5
B77
330
1F
100
AcDbEntity
  8
2
100
AcDbCircle
 10
-76.67717618173401
 20
-49.11556735896647
 30
0.0
 40
3.322566986083983
100
AcDbArc
 50
145.6156973218396
 51
180.0
  0
LINE
  5
B78
330
1F
100
AcDbEntity
  8
2
100
AcDbLine
 10
-75.0004183692331
 20
-47.23913303279551
 30
0.0
 11
-79.41936368173401
 21
-47.23913303279551
 31
0.0
  0
LINE
  5
B79
330
1F
100
AcDbEntity
  8
2
100
AcDbLine
 10
-79.41936368173401
 20
-39.73336521052988
 30
0.0
 11
-75.0004183692331
 21
-39.73336521052988
 31
0.0
  0
LINE
  5
B7A
330
1F
100
AcDbEntity
  8
2
100
AcDbLine
 10
-79.41985196298492
 20
-35.98092380427988
 30
0.0
 11
-75.0004183692331
 21
-35.98092380427988
 31
0.0
  0
LINE
  5
B7B
330
1F
100
AcDbEntity
  8
2
100
AcDbLine
 10
-80.00026700819626
 20
-36.98633776861243
 30
0.0
 11
-79.41970060194626
 21
-35.98076727386888
 31
0.0
  0
ARC
  5
B7C
330
1F
100
AcDbEntity
  8
2
100
AcDbCircle
 10
-76.67717618173401
 20
-37.85690036677988
 30
0.0
 40
3.322566986083983
100
AcDbArc
 50
180.0
 51
214.3843026781523
  0
LINE
  5
B7D
330
1F
100
AcDbEntity
  8
2
100
AcDbLine
 10
-79.99993008798492
 20
-36.98629489802988
 30
0.0
 11
-79.99993008798492
 21
-49.98644748592051
 31
0.0
  0
ARC
  5
B7E
330
1F
100
AcDbEntity
  8
2
100
AcDbCircle
 10
-67.58049649423401
 20
-43.48629489802988
 30
0.0
 40
12.41944122314453
100
AcDbArc
 50
162.4120613966382
 51
197.5879727543235
  0
ARC
  5
B7F
330
1F
100
AcDbEntity
  8
2
100
AcDbCircle
 10
-78.51946133798492
 20
-43.50006099999882
 30
0.0
 40
12.41944122314453
100
AcDbArc
 50
342.4120629904956
 51
1.153426483170459
  0
LINE
  5
B80
330
1F
100
AcDbEntity
  8
2
100
AcDbLine
 10
-66.10008148536099
 20
-50.00009793053322
 30
0.0
 11
-66.68063263282101
 21
-51.00564199628024
 31
0.0
  0
ARC
  5
B81
330
1F
100
AcDbEntity
  8
2
100
AcDbCircle
 10
-69.42278165048492
 20
-49.12945553124882
 30
0.0
 40
3.322566986083983
100
AcDbArc
 50
359.9999640278284
 51
34.38428378146722
  0
LINE
  5
B82
330
1F
100
AcDbEntity
  8
2
100
AcDbLine
 10
-64.49993008798401
 20
-51.50006099999882
 30
0.0
 11
-66.10002774423492
 21
-51.50006099999882
 31
0.0
  0
LINE
  5
B83
330
1F
100
AcDbEntity
  8
2
100
AcDbLine
 10
-71.10002774423492
 20
-46.70025631249973
 30
0.0
 11
-75.0004183692331
 21
-46.70025631249973
 31
0.0
  0
LINE
  5
B84
330
1F
100
AcDbEntity
  8
2
100
AcDbLine
 10
-67.59993008798346
 20
-85.49998839999899
 30
0.0
 11
-67.59993008798346
 21
-73.49998839999898
 31
0.0
  0
LINE
  5
B85
330
1F
100
AcDbEntity
  8
2
100
AcDbLine
 10
-71.59993008798437
 20
-84.49998839999897
 30
0.0
 11
-71.59993008798437
 21
-74.49998839999898
 31
0.0
  0
LINE
  5
B86
330
1F
100
AcDbEntity
  8
2
100
AcDbLine
 10
-67.59993008798346
 20
-85.24998839999899
 30
0.0
 11
-71.16691738609233
 21
-85.24998839999899
 31
0.0
  0
LINE
  5
B87
330
1F
100
AcDbEntity
  8
2
100
AcDbLine
 10
-67.59993008798346
 20
-73.74998839999898
 30
0.0
 11
-71.16691738609233
 21
-73.74998839999898
 31
0.0
  0
LINE
  5
B88
330
1F
100
AcDbEntity
  8
2
100
AcDbLine
 10
-71.16691738609233
 20
-73.74998839999898
 30
0.0
 11
-71.59993008798437
 21
-74.49998839999898
 31
0.0
  0
LINE
  5
B89
330
1F
100
AcDbEntity
  8
2
100
AcDbLine
 10
-71.16691738609233
 20
-85.24998839999899
 30
0.0
 11
-71.59993008798437
 21
-84.49998839999897
 31
0.0
  0
LINE
  5
B8A
330
1F
100
AcDbEntity
  8
2
100
AcDbLine
 10
-67.59993008798346
 20
-82.37498839999899
 30
0.0
 11
-71.16691738609233
 21
-82.37498839999899
 31
0.0
  0
LINE
  5
B8B
330
1F
100
AcDbEntity
  8
2
100
AcDbLine
 10
-67.59993008798346
 20
-76.62498839999898
 30
0.0
 11
-71.16691738609233
 21
-76.62498839999898
 31
0.0
  0
ARC
  5
B8C
330
1F
100
AcDbEntity
  8
2
100
AcDbCircle
 10
-61.83910209949726
 20
-79.49998839999898
 30
0.0
 40
9.760827988486084
100
AcDbArc
 50
162.8697633249654
 51
197.1302366750346
  0
ARC
  5
B8D
330
1F
100
AcDbEntity
  8
2
100
AcDbCircle
 10
-68.99734332765229
 20
-83.81248839999898
 30
0.0
 40
2.602586760331064
100
AcDbArc
 50
146.4726419507354
 51
213.5273580492646
  0
ARC
  5
B8E
330
1F
100
AcDbEntity
  8
2
100
AcDbCircle
 10
-68.99734332765229
 20
-75.18748839999898
 30
0.0
 40
2.602586760331064
100
AcDbArc
 50
146.4726419507354
 51
213.5273580492646
  0
LINE
  5
B8F
330
1F
100
AcDbEntity
  8
2
100
AcDbLine
 10
-64.49993008798401
 20
-85.49998839999899
 30
0.0
 11
-67.59993008798346
 21
-85.49998839999899
 31
0.0
  0
LINE
  5
B90
330
1F
100
AcDbEntity
  8
2
100
AcDbLine
 10
-64.49993008798401
 20
-73.49998839999898
 30
0.0
 11
-67.59993008798346
 21
-73.49998839999898
 31
0.0
  0
LINE
  5
B91
330
1F
100
AcDbEntity
  8
2
100
AcDbLine
 10
-66.09993008798347
 20
-85.49998839999899
 30
0.0
 11
-66.09993008798347
 21
-73.49998839999898
 31
0.0
  0
LINE
  5
B92
330
1F
100
AcDbEntity
  8
2
100
AcDbLine
 10
-67.59993008798346
 20
-13.5
 30
0.0
 11
-67.59993008798346
 21
-1.5
 31
0.0
  0
LINE
  5
B93
330
1F
100
AcDbEntity
  8
2
100
AcDbLine
 10
-71.59993008798437
 20
-12.49999999999909
 30
0.0
 11
-71.59993008798437
 21
-2.49999999999909
 31
0.0
  0
LINE
  5
B94
330
1F
100
AcDbEntity
  8
2
100
AcDbLine
 10
-67.59993008798346
 20
-13.24999999999909
 30
0.0
 11
-71.16691738609233
 21
-13.24999999999909
 31
0.0
  0
LINE
  5
B95
330
1F
100
AcDbEntity
  8
2
100
AcDbLine
 10
-67.59993008798346
 20
-1.74999999999909
 30
0.0
 11
-71.16691738609233
 21
-1.74999999999909
 31
0.0
  0
LINE
  5
B96
330
1F
100
AcDbEntity
  8
2
100
AcDbLine
 10
-71.16691738609233
 20
-1.74999999999909
 30
0.0
 11
-71.59993008798437
 21
-2.49999999999909
 31
0.0
  0
LINE
  5
B97
330
1F
100
AcDbEntity
  8
2
100
AcDbLine
 10
-71.16691738609233
 20
-13.24999999999909
 30
0.0
 11
-71.59993008798437
 21
-12.49999999999909
 31
0.0
  0
LINE
  5
B98
330
1F
100
AcDbEntity
  8
2
100
AcDbLine
 10
-67.59993008798346
 20
-10.37499999999909
 30
0.0
 11
-71.16691738609233
 21
-10.37499999999909
 31
0.0
  0
LINE
  5
B99
330
1F
100
AcDbEntity
  8
2
100
AcDbLine
 10
-67.59993008798346
 20
-4.62499999999909
 30
0.0
 11
-71.16691738609233
 21
-4.62499999999909
 31
0.0
  0
ARC
  5
B9A
330
1F
100
AcDbEntity
  8
2
100
AcDbCircle
 10
-61.83910209949726
 20
-7.5
 30
0.0
 40
9.760827988486084
100
AcDbArc
 50
162.8697633249654
 51
197.1302366750346
  0
ARC
  5
B9B
330
1F
100
AcDbEntity
  8
2
100
AcDbCircle
 10
-68.99734332765229
 20
-11.8125
 30
0.0
 40
2.602586760331064
100
AcDbArc
 50
146.4726419507354
 51
213.5273580492646
  0
ARC
  5
B9C
330
1F
100
AcDbEntity
  8
2
100
AcDbCircle
 10
-68.99734332765229
 20
-3.1875
 30
0.0
 40
2.602586760331064
100
AcDbArc
 50
146.4726419507354
 51
213.5273580492646
  0
LINE
  5
B9D
330
1F
100
AcDbEntity
  8
2
100
AcDbLine
 10
-64.49993008798401
 20
-13.5
 30
0.0
 11
-67.59993008798346
 21
-13.5
 31
0.0
  0
LINE
  5
B9E
330
1F
100
AcDbEntity
  8
2
100
AcDbLine
 10
-64.49993008798401
 20
-1.5
 30
0.0
 11
-67.59993008798346
 21
-1.5
 31
0.0
  0
LINE
  5
B9F
330
1F
100
AcDbEntity
  8
2
100
AcDbLine
 10
-66.09993008798347
 20
-13.5
 30
0.0
 11
-66.09993008798347
 21
-1.5
 31
0.0
  0
LINE
  5
BA0
330
1F
100
AcDbEntity
  8
2
100
AcDbLine
 10
211.0884398701419
 20
-2.226570000000037
 30
0.0
 11
206.0884498701418
 21
-5.11331999999993
 31
0.0
  0
LINE
  5
BA1
330
1F
100
AcDbEntity
  8
2
100
AcDbLine
 10
206.0884498701418
 20
-5.113290000000006
 30
0.0
 11
206.0884498701418
 21
-10.88681999999994
 31
0.0
  0
LINE
  5
BA2
330
1F
100
AcDbEntity
  8
2
100
AcDbLine
 10
206.0884398701421
 20
-10.88680999999997
 30
0.0
 11
211.0884398701419
 21
-13.77356000000009
 31
0.0
  0
LINE
  5
BA3
330
1F
100
AcDbEntity
  8
2
100
AcDbLine
 10
211.0884498701419
 20
-13.77357000000006
 30
0.0
 11
216.0884398701419
 21
-10.88681999999994
 31
0.0
  0
LINE
  5
BA4
330
1F
100
AcDbEntity
  8
2
100
AcDbLine
 10
216.0884498701419
 20
-5.113290000000006
 30
0.0
 11
216.0884498701419
 21
-10.88681999999994
 31
0.0
  0
LINE
  5
BA5
330
1F
100
AcDbEntity
  8
2
100
AcDbLine
 10
211.0884398701419
 20
-2.226550000000088
 30
0.0
 11
216.0884298701419
 21
-5.113299999999981
 31
0.0
  0
LINE
  5
BA6
330
1F
100
AcDbEntity
  8
2
100
AcDbLine
 10
251.792099870142
 20
-86.99999999999993
 30
0.0
 11
249.7921398701419
 21
-85.00003999999995
 31
0.0
  0
LINE
  5
BA7
330
1F
100
AcDbEntity
  8
2
100
AcDbLine
 10
253.9920836080103
 20
-35.99450999999999
 30
0.0
 11
260.4920836080103
 21
-39.74729000000002
 31
0.0
  0
LINE
  5
BA8
330
1F
100
AcDbEntity
  8
2
100
AcDbLine
 10
260.4921636080101
 20
-39.7472600000001
 30
0.0
 11
260.4921636080101
 21
-47.25280999999995
 31
0.0
  0
LINE
  5
BA9
330
1F
100
AcDbEntity
  8
2
100
AcDbLine
 10
260.4920836080103
 20
-47.25281999999992
 30
0.0
 11
253.9921436080101
 21
-51.00556999999998
 31
0.0
  0
LINE
  5
BAA
330
1F
100
AcDbEntity
  8
2
100
AcDbLine
 10
253.9920836080103
 20
-51.00562000000008
 30
0.0
 11
247.4920836080102
 21
-47.25285000000008
 31
0.0
  0
LINE
  5
BAB
330
1F
100
AcDbEntity
  8
2
100
AcDbLine
 10
253.9921036080102
 20
-35.99448000000007
 30
0.0
 11
247.4921536080103
 21
-39.74722999999995
 31
0.0
  0
LINE
  5
BAC
330
1F
100
AcDbEntity
  8
2
100
AcDbLine
 10
248.792099870142
 20
-0.0000700000000506
 30
0.0
 11
219.1921198701418
 21
-0.0000700000000506
 31
0.0
  0
LINE
  5
BAD
330
1F
100
AcDbEntity
  8
2
100
AcDbLine
 10
248.792099870142
 20
-0.0000700000000506
 30
0.0
 11
248.792099870142
 21
-2.00007000000005
 31
0.0
  0
LINE
  5
BAE
330
1F
100
AcDbEntity
  8
2
100
AcDbLine
 10
247.4921636080103
 20
-39.7472600000001
 30
0.0
 11
247.4921636080103
 21
-47.25280999999995
 31
0.0
  0
LINE
  5
BAF
330
1F
100
AcDbEntity
  8
2
100
AcDbLine
 10
219.1921198701418
 20
-87.00003999999996
 30
0.0
 11
219.1921198701418
 21
-85.00003999999995
 31
0.0
  0
LINE
  5
BB0
330
1F
100
AcDbEntity
  8
2
100
AcDbLine
 10
248.792099870142
 20
-87.00003999999996
 30
0.0
 11
248.792099870142
 21
-85.00003999999995
 31
0.0
  0
LINE
  5
BB1
330
1F
100
AcDbEntity
  8
2
100
AcDbLine
 10
219.1921198701418
 20
-0.0000700000000506
 30
0.0
 11
219.1921198701418
 21
-2.00007000000005
 31
0.0
  0
LINE
  5
BB2
330
1F
100
AcDbEntity
  8
2
100
AcDbLine
 10
203.1921198701418
 20
-67.74888000000004
 30
0.0
 11
203.1921198701418
 21
-86.00003999999996
 31
0.0
  0
LINE
  5
BB3
330
1F
100
AcDbEntity
  8
2
100
AcDbLine
 10
216.1920798701419
 20
0.0
 30
0.0
 11
218.1920298701418
 21
-1.9999600000001
 31
0.0
  0
LINE
  5
BB4
330
1F
100
AcDbEntity
  8
2
100
AcDbLine
 10
251.792099870142
 20
0.0000600000000759
 30
0.0
 11
249.792099870142
 21
-1.999949999999898
 31
0.0
  0
LINE
  5
BB5
330
1F
100
AcDbEntity
  8
2
100
AcDbLine
 10
218.1920998701419
 20
-84.99999999999994
 30
0.0
 11
216.1920998701419
 21
-87.00000999999991
 31
0.0
  0
LINE
  5
BB6
330
1F
100
AcDbEntity
  8
2
100
AcDbLine
 10
216.1921198701418
 20
-0.0000700000000506
 30
0.0
 11
204.1921198701418
 21
-0.0000700000000506
 31
0.0
  0
LINE
  5
BB7
330
1F
100
AcDbEntity
  8
2
100
AcDbLine
 10
263.7920998701418
 20
-0.0000700000000506
 30
0.0
 11
251.792099870142
 21
-0.0000700000000506
 31
0.0
  0
LINE
  5
BB8
330
1F
100
AcDbEntity
  8
2
100
AcDbLine
 10
249.792099870142
 20
-2.00007000000005
 30
0.0
 11
218.1921198701418
 21
-2.00007000000005
 31
0.0
  0
LINE
  5
BB9
330
1F
100
AcDbEntity
  8
2
100
AcDbLine
 10
203.1921198701418
 20
-1.00007000000005
 30
0.0
 11
203.1921198701418
 21
-19.25126
 31
0.0
  0
LINE
  5
BBA
330
1F
100
AcDbEntity
  8
2
100
AcDbLine
 10
264.7920998701418
 20
-1.00007000000005
 30
0.0
 11
264.7920998701418
 21
-19.25141000000008
 31
0.0
  0
LINE
  5
BBB
330
1F
100
AcDbEntity
  8
2
100
AcDbLine
 10
249.792099870142
 20
-85.00003999999995
 30
0.0
 11
218.1921198701418
 21
-85.00003999999995
 31
0.0
  0
LINE
  5
BBC
330
1F
100
AcDbEntity
  8
2
100
AcDbLine
 10
264.7920998701418
 20
-67.74868999999984
 30
0.0
 11
264.7920998701418
 21
-86.00003999999996
 31
0.0
  0
LINE
  5
BBD
330
1F
100
AcDbEntity
  8
2
100
AcDbLine
 10
211.0884498701419
 20
-84.77353999999996
 30
0.0
 11
206.0884498701418
 21
-81.88678999999996
 31
0.0
  0
LINE
  5
BBE
330
1F
100
AcDbEntity
  8
2
100
AcDbLine
 10
206.0884498701418
 20
-81.88682
 30
0.0
 11
206.0884498701418
 21
-76.11328999999995
 31
0.0
  0
LINE
  5
BBF
330
1F
100
AcDbEntity
  8
2
100
AcDbLine
 10
206.0884398701421
 20
-76.11331000000001
 30
0.0
 11
211.0884398701419
 21
-73.22656000000001
 31
0.0
  0
LINE
  5
BC0
330
1F
100
AcDbEntity
  8
2
100
AcDbLine
 10
211.0884498701419
 20
-73.22653999999994
 30
0.0
 11
216.0884398701419
 21
-76.11328999999995
 31
0.0
  0
LINE
  5
BC1
330
1F
100
AcDbEntity
  8
2
100
AcDbLine
 10
216.0884498701419
 20
-81.88682
 30
0.0
 11
216.0884498701419
 21
-76.11328999999995
 31
0.0
  0
LINE
  5
BC2
330
1F
100
AcDbEntity
  8
2
100
AcDbLine
 10
211.0884398701419
 20
-84.77354999999993
 30
0.0
 11
216.0884398701419
 21
-81.88679999999994
 31
0.0
  0
LINE
  5
BC3
330
1F
100
AcDbEntity
  8
2
100
AcDbLine
 10
256.8955198701419
 20
-2.226490000000012
 30
0.0
 11
261.8955198701419
 21
-5.11322999999993
 31
0.0
  0
LINE
  5
BC4
330
1F
100
AcDbEntity
  8
2
100
AcDbLine
 10
261.8955198701419
 20
-5.11320999999998
 30
0.0
 11
261.8955398701421
 21
-10.88673999999992
 31
0.0
  0
LINE
  5
BC5
330
1F
100
AcDbEntity
  8
2
100
AcDbLine
 10
261.8955398701421
 20
-10.88671999999997
 30
0.0
 11
256.8955498701419
 21
-13.77349000000004
 31
0.0
  0
LINE
  5
BC6
330
1F
100
AcDbEntity
  8
2
100
AcDbLine
 10
256.8955498701419
 20
-13.77350000000001
 30
0.0
 11
251.8955398701419
 21
-10.88676000000009
 31
0.0
  0
LINE
  5
BC7
330
1F
100
AcDbEntity
  8
2
100
AcDbLine
 10
251.8955398701419
 20
-5.113239999999905
 30
0.0
 11
251.8955498701418
 21
-10.88676000000009
 31
0.0
  0
LINE
  5
BC8
330
1F
100
AcDbEntity
  8
2
100
AcDbLine
 10
256.8955098701419
 20
-2.226490000000012
 30
0.0
 11
251.8955198701419
 21
-5.113260000000082
 31
0.0
  0
LINE
  5
BC9
330
1F
100
AcDbEntity
  8
2
100
AcDbLine
 10
256.895759870142
 20
-84.7734799999999
 30
0.0
 11
261.8957398701421
 21
-81.88670999999994
 31
0.0
  0
LINE
  5
BCA
330
1F
100
AcDbEntity
  8
2
100
AcDbLine
 10
261.8957498701418
 20
-81.88673999999997
 30
0.0
 11
261.8957298701419
 21
-76.11320999999993
 31
0.0
  0
LINE
  5
BCB
330
1F
100
AcDbEntity
  8
2
100
AcDbLine
 10
261.8957398701421
 20
-76.11322000000001
 30
0.0
 11
256.8957298701418
 21
-73.22647999999998
 31
0.0
  0
LINE
  5
BCC
330
1F
100
AcDbEntity
  8
2
100
AcDbLine
 10
256.8957198701421
 20
-73.22647999999998
 30
0.0
 11
251.8957298701419
 21
-76.11323999999996
 31
0.0
  0
LINE
  5
BCD
330
1F
100
AcDbEntity
  8
2
100
AcDbLine
 10
251.895759870142
 20
-81.88675999999992
 30
0.0
 11
251.895749870142
 21
-76.11323999999996
 31
0.0
  0
LINE
  5
BCE
330
1F
100
AcDbEntity
  8
2
100
AcDbLine
 10
256.895749870142
 20
-84.7734799999999
 30
0.0
 11
251.895749870142
 21
-81.88674999999994
 31
0.0
  0
ARC
  5
BCF
330
1F
100
AcDbEntity
  8
2
100
AcDbCircle
 10
263.7920999002329
 20
-1.000069969908963
 30
0.0
 40
0.9999999699089702
100
AcDbArc
 50
359.999998275911
 51
90.00000172409228
  0
ARC
  5
BD0
330
1F
100
AcDbEntity
  8
2
100
AcDbCircle
 10
204.1921198400507
 20
-1.000069969908963
 30
0.0
 40
0.9999999699089986
100
AcDbArc
 50
89.99999827590771
 51
180.000001724089
  0
ARC
  5
BD1
330
1F
100
AcDbEntity
  8
2
100
AcDbCircle
 10
233.9920455442386
 20
-43.50006499999994
 30
0.0
 40
39.19999955941212
100
AcDbArc
 50
141.7866144964791
 51
218.2133855035208
  0
ARC
  5
BD2
330
1F
100
AcDbEntity
  8
2
100
AcDbCircle
 10
233.9920467402397
 20
-43.50006499999994
 30
0.0
 40
39.20000691471665
100
AcDbArc
 50
321.7869019984554
 51
38.21309800154465
  0
ARC
  5
BD3
330
1F
100
AcDbEntity
  8
2
100
AcDbCircle
 10
263.7920999514461
 20
-86.00004008130412
 30
0.0
 40
0.9999999186957955
100
AcDbArc
 50
269.999995341608
 51
0.0000046583887784
  0
LINE
  5
BD4
330
1F
100
AcDbEntity
  8
2
100
AcDbLine
 10
264.792089870142
 20
-19.25142000000005
 30
0.0
 11
264.8012261182419
 21
-19.24734916479997
 31
0.0
  0
CIRCLE
  5
BD5
330
1F
100
AcDbEntity
  8
2
100
AcDbCircle
 10
213.9921636080103
 20
-43.50007000000005
 30
0.0
 40
4.283000000000015
  0
CIRCLE
  5
BD6
330
1F
100
AcDbEntity
  8
2
100
AcDbCircle
 10
213.9921636080103
 20
-43.50007000000005
 30
0.0
 40
4.864000000000004
  0
CIRCLE
  5
BD7
330
1F
100
AcDbEntity
  8
2
100
AcDbCircle
 10
256.895739870142
 20
-78.99997999999988
 30
0.0
 40
5.0
  0
CIRCLE
  5
BD8
330
1F
100
AcDbEntity
  8
2
100
AcDbCircle
 10
256.8955198701419
 20
-7.99998000000005
 30
0.0
 40
4.999999999999985
  0
CIRCLE
  5
BD9
330
1F
100
AcDbEntity
  8
2
100
AcDbCircle
 10
211.0884498701419
 20
-79.00006999999999
 30
0.0
 40
5.0
  0
CIRCLE
  5
BDA
330
1F
100
AcDbEntity
  8
2
100
AcDbCircle
 10
211.0884498701419
 20
-8.00007000000005
 30
0.0
 40
5.0
  0
CIRCLE
  5
BDB
330
1F
100
AcDbEntity
  8
2
100
AcDbCircle
 10
256.895739870142
 20
-78.99997999999988
 30
0.0
 40
6.0
  0
CIRCLE
  5
BDC
330
1F
100
AcDbEntity
  8
2
100
AcDbCircle
 10
256.8955198701419
 20
-7.99998000000005
 30
0.0
 40
5.999999999999985
  0
CIRCLE
  5
BDD
330
1F
100
AcDbEntity
  8
2
100
AcDbCircle
 10
211.0884498701419
 20
-79.00006999999999
 30
0.0
 40
6.0
  0
CIRCLE
  5
BDE
330
1F
100
AcDbEntity
  8
2
100
AcDbCircle
 10
211.0884498701419
 20
-8.00007000000005
 30
0.0
 40
6.0
  0
CIRCLE
  5
BDF
330
1F
100
AcDbEntity
  8
2
100
AcDbCircle
 10
253.9921636080103
 20
-43.50007000000005
 30
0.0
 40
6.5
  0
CIRCLE
  5
BE0
330
1F
100
AcDbEntity
  8
2
100
AcDbCircle
 10
253.9921636080103
 20
-43.50007000000005
 30
0.0
 40
7.5
  0
LINE
  5
BE1
330
1F
100
AcDbEntity
  8
2
100
AcDbLine
 10
263.7920998701422
 20
-87.00004000000001
 30
0.0
 11
204.1921198701418
 21
-87.00004000000001
 31
0.0
  0
ARC
  5
BE2
330
1F
100
AcDbEntity
  8
2
100
AcDbCircle
 10
204.1921198400507
 20
-86.00004003009104
 30
0.0
 40
0.9999999699089702
100
AcDbArc
 50
179.999998275911
 51
270.0000017240923
  0
VIEWPORT
  5
71
330
55
100
AcDbEntity
 67
     1
  8
0
100
AcDbViewport
 10
133.3499908447266
 20
101.5999970436096
 30
0.0
 40
381.3957395593835
 41
218.2856291881582
 68
     1
 69
     1
 12
133.3499908447266
 22
101.5999970436096
 13
0.0
 23
0.0
 14
10.0
 24
10.0
 15
10.0
 25
10.0
 16
0.0
 26
0.0
 36
1.0
 17
0.0
 27
0.0
 37
0.0
 42
50.0
 43
0.0
 44
0.0
 45
218.2856291881582
 50
0.0
 51
0.0
 72
   100
 90
    32800
  1

281
     0
 71
     1
 74
     0
110
0.0
120
0.0
130
0.0
111
1.0
121
0.0
131
0.0
112
0.0
122
1.0
132
0.0
 79
     0
146
0.0
170
     0
 61
     5
348
C09
292
     1
282
     1
141
0.0
142
0.0
 63
   250
421
  3355443
  0
VIEWPORT
  5
73
330
55
100
AcDbEntity
 67
     1
  8
0
100
AcDbViewport
 10
133.3499939441681
 20
101.5999939441681
 30
0.0
 40
213.3599903106689
 41
162.5599903106689
 68
     2
 69
     2
 12
210.0
 22
148.5
 13
0.0
 23
0.0
 14
10.0
 24
10.0
 15
10.0
 25
10.0
 16
0.0
 26
0.0
 36
1.0
 17
0.0
 27
0.0
 37
0.0
 42
50.0
 43
0.0
 44
0.0
 45
324.0677920111345
 50
0.0
 51
0.0
 72
   100
 90
    32864
  1

281
     0
 71
     1
 74
     0
110
0.0
120
0.0
130
0.0
111
1.0
121
0.0
131
0.0
112
0.0
122
1.0
132
0.0
 79
     0
146
0.0
170
     0
 61
     5
348
C09
292
     1
282
     1
141
0.0
142
0.0
 63
   250
421
  3355443
  0
ENDSEC
  0
SECTION
  2
OBJECTS
  0
DICTIONARY
  5
C
330
0
100
AcDbDictionary
281
     1
  3
ACAD_COLOR
350
C17
  3
ACAD_GROUP
350
D
  3
ACAD_LAYOUT
350
1A
  3
ACAD_MATERIAL
350
BEA
  3
ACAD_MLEADERSTYLE
350
C2C
  3
ACAD_MLINESTYLE
350
17
  3
ACAD_PLOTSETTINGS
350
19
  3
ACAD_PLOTSTYLENAME
350
E
  3
ACAD_SCALELIST
350
C1A
  3
ACAD_TABLESTYLE
350
C18
  3
ACAD_VISUALSTYLE
350
C03
  3
ACDB_RECOMPOSE_DATA
350
C3B
  3
AcDbVariableDictionary
350
5E
  0
DICTIONARY
  5
93
330
2
100
AcDbDictionary
280
     1
281
     1
  3
ACAD_LAYERSTATES
360
94
  0
DICTIONARY
  5
C30
330
10
100
AcDbDictionary
280
     1
281
     1
  3
ADSK_XREC_LAYER_RECONCILED
360
C31
  0
DICTIONARY
  5
8C
330
8B
100
AcDbDictionary
280
     1
281
     1
  3
ADSK_XREC_LAYER_RECONCILED
360
8D
  0
DICTIONARY
  5
8F
330
8E
100
AcDbDictionary
280
     1
281
     1
  3
ADSK_XREC_LAYER_RECONCILED
360
90
  0
DICTIONARY
  5
C17
102
{ACAD_REACTORS
330
C
102
}
330
C
100
AcDbDictionary
281
     1
  0
DICTIONARY
  5
D
102
{ACAD_REACTORS
330
C
102
}
330
C
100
AcDbDictionary
281
     1
  0
DICTIONARY
  5
1A
102
{ACAD_REACTORS
330
C
102
}
330
C
100
AcDbDictionary
281
     1
  3
Model
350
22
  3
ﾚｲｱｳﾄ1
350
51
  3
ﾚｲｱｳﾄ2
350
56
  0
DICTIONARY
  5
BEA
102
{ACAD_REACTORS
330
C
102
}
330
C
100
AcDbDictionary
281
     1
  3
ByBlock
350
BF3
  3
ByLayer
350
BEB
  3
Global
350
BFB
  0
DICTIONARY
  5
C2C
102
{ACAD_REACTORS
330
C
102
}
330
C
100
AcDbDictionary
281
     1
  3
Standard
350
C2D
  0
DICTIONARY
  5
17
102
{ACAD_REACTORS
330
C
102
}
330
C
100
AcDbDictionary
281
     1
  3
Standard
350
18
  0
DICTIONARY
  5
19
102
{ACAD_REACTORS
330
C
102
}
330
C
100
AcDbDictionary
281
     1
  0
ACDBDICTIONARYWDFLT
  5
E
102
{ACAD_REACTORS
330
C
102
}
330
C
100
AcDbDictionary
281
     1
  3
Normal
350
F
100
AcDbDictionaryWithDefault
340
F
  0
DICTIONARY
  5
C1A
102
{ACAD_REACTORS
330
C
102
}
330
C
100
AcDbDictionary
281
     1
  3
A0
350
C1B
  3
A1
350
C1C
  3
A2
350
C1D
  3
A3
350
C1E
  3
A4
350
C1F
  3
A5
350
C20
  3
A6
350
C21
  3
A7
350
C22
  3
A8
350
C23
  3
A9
350
C24
  3
B0
350
C25
  3
B1
350
C26
  3
B2
350
C27
  3
B3
350
C28
  3
B4
350
C29
  3
B5
350
C2A
  3
B6
350
C2B
  0
DICTIONARY
  5
C18
102
{ACAD_REACTORS
330
C
102
}
330
C
100
AcDbDictionary
281
     1
  3
Standard
350
C19
  0
DICTIONARY
  5
C03
102
{ACAD_REACTORS
330
C
102
}
330
C
100
AcDbDictionary
281
     1
  3
2dWireframe
350
C09
  3
3D Hidden
350
C0B
  3
3dWireframe
350
C0A
  3
Basic
350
C08
  3
Brighten
350
C0F
  3
ColorChange
350
C13
  3
Conceptual
350
C0C
  3
Dim
350
C0E
  3
EdgeColorOff
350
C16
  3
Facepattern
350
C12
  3
Flat
350
C04
  3
FlatWithEdges
350
C05
  3
Gouraud
350
C06
  3
GouraudWithEdges
350
C07
  3
JitterOff
350
C14
  3
Linepattern
350
C11
  3
OverhangOff
350
C15
  3
Realistic
350
C0D
  3
Thicken
350
C10
  0
XRECORD
  5
C3B
102
{ACAD_REACTORS
330
C
102
}
330
C
100
AcDbXrecord
280
     1
 90
        1
330
C19
  0
DICTIONARY
  5
5E
102
{ACAD_REACTORS
330
C
102
}
330
C
100
AcDbDictionary
281
     1
  3
CANNOSCALE
350
C35
  3
CMLEADERSTYLE
350
C33
  3
CTABLESTYLE
350
C32
  3
DIMASSOC
350
5F
  3
HIDETEXT
350
63
  3
LAYEREVAL
350
C37
  3
LAYERNOTIFY
350
C38
  3
LIGHTINGUNITS
350
C36
  3
MSLTSCALE
350
C34
  0
DICTIONARY
  5
94
102
{ACAD_REACTORS
330
93
102
}
330
93
100
AcDbDictionary
281
     1
  0
XRECORD
  5
C31
102
{ACAD_REACTORS
330
C30
102
}
330
C30
100
AcDbXrecord
280
     1
290
     1
  0
XRECORD
  5
8D
102
{ACAD_REACTORS
330
8C
102
}
330
8C
100
AcDbXrecord
280
     1
290
     1
  0
XRECORD
  5
90
102
{ACAD_REACTORS
330
8F
102
}
330
8F
100
AcDbXrecord
280
     1
290
     1
  0
LAYOUT
  5
22
102
{ACAD_REACTORS
330
1A
102
}
330
1A
100
AcDbPlotSettings
  1

  2
none_device
  4
ANSI_A_(8.50_x_11.00_Inches)
  6

 40
6.349999904632568
 41
19.04999923706055
 42
6.350006103515625
 43
19.04998779296875
 44
215.8999938964844
 45
279.3999938964844
 46
0.0
 47
0.0
 48
0.0
 49
0.0
140
0.0
141
0.0
142
1.0
143
78.436453180766
 70
 11952
 72
     0
 73
     1
 74
     0
  7

 75
     0
147
0.0127491741332998
 76
     0
 77
     2
 78
   300
148
0.0
149
0.0
100
AcDbLayout
  1
Model
 70
     1
 71
     0
 10
0.0
 20
0.0
 11
12.0
 21
9.0
 12
0.0
 22
0.0
 32
0.0
 14
0.0
 24
0.0
 34
0.0
 15
0.0
 25
0.0
 35
0.0
146
0.0
 13
0.0
 23
0.0
 33
0.0
 16
1.0
 26
0.0
 36
0.0
 17
0.0
 27
1.0
 37
0.0
 76
     0
330
1F
331
BE8
  0
LAYOUT
  5
51
102
{ACAD_REACTORS
330
1A
102
}
330
1A
100
AcDbPlotSettings
  1

  2
none_device
  4
Letter_(8.50_x_11.00_Inches)
  6

 40
6.349999904632568
 41
6.349999904632568
 42
6.350006103515625
 43
6.350006103515625
 44
215.8999938964844
 45
279.3999938964844
 46
0.0
 47
0.0
 48
0.0
 49
0.0
140
0.0
141
0.0
142
1.0
143
1.0
 70
   688
 72
     1
 73
     1
 74
     5
  7

 75
    16
147
1.0
 76
     0
 77
     2
 78
   300
148
0.0
149
0.0
100
AcDbLayout
  1
ﾚｲｱｳﾄ1
 70
     1
 71
     1
 10
-6.350006103515625
 20
-6.349999904632568
 11
273.0499877929688
 21
209.5499939918518
 12
0.0
 22
0.0
 32
0.0
 14
26.66076962115563
 24
20.31135699206658
 34
-0.0015258207003583
 15
240.039213369355
 25
182.8886381005154
 35
0.0000000349246037
146
0.0
 13
0.0
 23
0.0
 33
0.0
 16
1.0
 26
0.0
 36
0.0
 17
0.0
 27
1.0
 37
0.0
 76
     0
330
50
331
6B
  0
LAYOUT
  5
56
102
{ACAD_REACTORS
330
1A
102
}
330
1A
100
AcDbPlotSettings
  1

  2
none_device
  4
Letter_(8.50_x_11.00_Inches)
  6

 40
6.349999904632568
 41
6.349999904632568
 42
6.350006103515625
 43
6.350006103515625
 44
215.8999938964844
 45
279.3999938964844
 46
0.0
 47
0.0
 48
0.0
 49
0.0
140
0.0
141
0.0
142
1.0
143
1.0
 70
   688
 72
     1
 73
     1
 74
     5
  7

 75
    16
147
1.0
 76
     0
 77
     2
 78
   300
148
0.0
149
0.0
100
AcDbLayout
  1
ﾚｲｱｳﾄ2
 70
     1
 71
     2
 10
-6.350006103515625
 20
-6.349999904632568
 11
273.0499877929688
 21
209.5499939918518
 12
0.0
 22
0.0
 32
0.0
 14
26.66076962115563
 24
20.31135699206658
 34
-0.0015258207003583
 15
240.039213369355
 25
182.8886381005154
 35
0.0000000349246037
146
0.0
 13
0.0
 23
0.0
 33
0.0
 16
1.0
 26
0.0
 36
0.0
 17
0.0
 27
1.0
 37
0.0
 76
     0
330
55
331
71
  0
MATERIAL
  5
BF3
102
{ACAD_XDICTIONARY
360
BF4
102
}
102
{ACAD_REACTORS
330
BEA
102
}
330
BEA
100
AcDbMaterial
  1
ByBlock
 72
     0
 43
0.0008202099737533
 43
0.0
 43
0.0
 43
0.0
 43
0.0
 43
0.0008202099737533
 43
0.0
 43
0.0
 43
0.0
 43
0.0
 43
1.0
 43
0.0
 43
0.0
 43
0.0
 43
0.0
 43
1.0
 77
     0
 47
0.0008202099737533
 47
0.0
 47
0.0
 47
0.0
 47
0.0
 47
0.0008202099737533
 47
0.0
 47
0.0
 47
0.0
 47
0.0
 47
1.0
 47
0.0
 47
0.0
 47
0.0
 47
0.0
 47
1.0
171
     0
 49
0.0008202099737533
 49
0.0
 49
0.0
 49
0.0
 49
0.0
 49
0.0008202099737533
 49
0.0
 49
0.0
 49
0.0
 49
0.0
 49
1.0
 49
0.0
 49
0.0
 49
0.0
 49
0.0
 49
1.0
175
     0
142
0.0008202099737533
142
0.0
142
0.0
142
0.0
142
0.0
142
0.0008202099737533
142
0.0
142
0.0
142
0.0
142
0.0
142
1.0
142
0.0
142
0.0
142
0.0
142
0.0
142
1.0
179
     0
144
0.0008202099737533
144
0.0
144
0.0
144
0.0
144
0.0
144
0.0008202099737533
144
0.0
144
0.0
144
0.0
144
0.0
144
1.0
144
0.0
144
0.0
144
0.0
144
0.0
144
1.0
147
0.0008202099737533
147
0.0
147
0.0
147
0.0
147
0.0
147
0.0008202099737533
147
0.0
147
0.0
147
0.0
147
0.0
147
1.0
147
0.0
147
0.0
147
0.0
147
0.0
147
1.0
  0
MATERIAL
  5
BEB
102
{ACAD_XDICTIONARY
360
BEC
102
}
102
{ACAD_REACTORS
330
BEA
102
}
330
BEA
100
AcDbMaterial
  1
ByLayer
 72
     0
 43
0.0008202099737533
 43
0.0
 43
0.0
 43
0.0
 43
0.0
 43
0.0008202099737533
 43
0.0
 43
0.0
 43
0.0
 43
0.0
 43
1.0
 43
0.0
 43
0.0
 43
0.0
 43
0.0
 43
1.0
 77
     0
 47
0.0008202099737533
 47
0.0
 47
0.0
 47
0.0
 47
0.0
 47
0.0008202099737533
 47
0.0
 47
0.0
 47
0.0
 47
0.0
 47
1.0
 47
0.0
 47
0.0
 47
0.0
 47
0.0
 47
1.0
171
     0
 49
0.0008202099737533
 49
0.0
 49
0.0
 49
0.0
 49
0.0
 49
0.0008202099737533
 49
0.0
 49
0.0
 49
0.0
 49
0.0
 49
1.0
 49
0.0
 49
0.0
 49
0.0
 49
0.0
 49
1.0
175
     0
142
0.0008202099737533
142
0.0
142
0.0
142
0.0
142
0.0
142
0.0008202099737533
142
0.0
142
0.0
142
0.0
142
0.0
142
1.0
142
0.0
142
0.0
142
0.0
142
0.0
142
1.0
179
     0
144
0.0008202099737533
144
0.0
144
0.0
144
0.0
144
0.0
144
0.0008202099737533
144
0.0
144
0.0
144
0.0
144
0.0
144
1.0
144
0.0
144
0.0
144
0.0
144
0.0
144
1.0
147
0.0008202099737533
147
0.0
147
0.0
147
0.0
147
0.0
147
0.0008202099737533
147
0.0
147
0.0
147
0.0
147
0.0
147
1.0
147
0.0
147
0.0
147
0.0
147
0.0
147
1.0
  0
MATERIAL
  5
BFB
102
{ACAD_XDICTIONARY
360
BFC
102
}
102
{ACAD_REACTORS
330
BEA
102
}
330
BEA
100
AcDbMaterial
  1
Global
 72
     0
 43
0.0008202099737533
 43
0.0
 43
0.0
 43
0.0
 43
0.0
 43
0.0008202099737533
 43
0.0
 43
0.0
 43
0.0
 43
0.0
 43
1.0
 43
0.0
 43
0.0
 43
0.0
 43
0.0
 43
1.0
 77
     0
 47
0.0008202099737533
 47
0.0
 47
0.0
 47
0.0
 47
0.0
 47
0.0008202099737533
 47
0.0
 47
0.0
 47
0.0
 47
0.0
 47
1.0
 47
0.0
 47
0.0
 47
0.0
 47
0.0
 47
1.0
171
     0
 49
0.0008202099737533
 49
0.0
 49
0.0
 49
0.0
 49
0.0
 49
0.0008202099737533
 49
0.0
 49
0.0
 49
0.0
 49
0.0
 49
1.0
 49
0.0
 49
0.0
 49
0.0
 49
0.0
 49
1.0
175
     0
142
0.0008202099737533
142
0.0
142
0.0
142
0.0
142
0.0
142
0.0008202099737533
142
0.0
142
0.0
142
0.0
142
0.0
142
1.0
142
0.0
142
0.0
142
0.0
142
0.0
142
1.0
179
     0
144
0.0008202099737533
144
0.0
144
0.0
144
0.0
144
0.0
144
0.0008202099737533
144
0.0
144
0.0
144
0.0
144
0.0
144
1.0
144
0.0
144
0.0
144
0.0
144
0.0
144
1.0
147
0.0008202099737533
147
0.0
147
0.0
147
0.0
147
0.0
147
0.0008202099737533
147
0.0
147
0.0
147
0.0
147
0.0
147
1.0
147
0.0
147
0.0
147
0.0
147
0.0
147
1.0
  0
MLEADERSTYLE
  5
C2D
102
{ACAD_REACTORS
330
C2C
102
}
330
C2C
100
AcDbMLeaderStyle
179
     2
170
     2
171
     1
172
     0
 90
        2
 40
0.0
 41
0.0
173
     1
 91
-1056964608
340
14
 92
       -2
290
     1
 42
2.0
291
     1
 43
0.36
  3
Standard
 44
4.0
300

342
11
174
     1
178
     6
175
     1
176
     0
 93
-1056964608
 45
4.0
292
     0
297
     0
 46
4.0
 94
-1056964608
 47
1.0
 49
1.0
140
1.0
293
     1
141
0.0
294
     1
177
     0
142
1.0
295
     1
296
     0
143
0.125
271
     0
272
     9
273
     9
  0
MLINESTYLE
  5
18
102
{ACAD_REACTORS
330
17
102
}
330
17
100
AcDbMlineStyle
  2
STANDARD
 70
     0
  3

 62
   256
 51
90.0
 52
90.0
 71
     2
 49
0.5
 62
   256
  6
BYLAYER
 49
-0.5
 62
   256
  6
BYLAYER
  0
ACDBPLACEHOLDER
  5
F
102
{ACAD_REACTORS
330
E
102
}
330
E
  0
SCALE
  5
C1B
102
{ACAD_REACTORS
330
C1A
102
}
330
C1A
100
AcDbScale
 70
     0
300
1:1
140
1.0
141
1.0
290
     1
  0
SCALE
  5
C1C
102
{ACAD_REACTORS
330
C1A
102
}
330
C1A
100
AcDbScale
 70
     0
300
1:2
140
1.0
141
2.0
290
     0
  0
SCALE
  5
C1D
102
{ACAD_REACTORS
330
C1A
102
}
330
C1A
100
AcDbScale
 70
     0
300
1:4
140
1.0
141
4.0
290
     0
  0
SCALE
  5
C1E
102
{ACAD_REACTORS
330
C1A
102
}
330
C1A
100
AcDbScale
 70
     0
300
1:5
140
1.0
141
5.0
290
     0
  0
SCALE
  5
C1F
102
{ACAD_REACTORS
330
C1A
102
}
330
C1A
100
AcDbScale
 70
     0
300
1:8
140
1.0
141
8.0
290
     0
  0
SCALE
  5
C20
102
{ACAD_REACTORS
330
C1A
102
}
330
C1A
100
AcDbScale
 70
     0
300
1:10
140
1.0
141
10.0
290
     0
  0
SCALE
  5
C21
102
{ACAD_REACTORS
330
C1A
102
}
330
C1A
100
AcDbScale
 70
     0
300
1:16
140
1.0
141
16.0
290
     0
  0
SCALE
  5
C22
102
{ACAD_REACTORS
330
C1A
102
}
330
C1A
100
AcDbScale
 70
     0
300
1:20
140
1.0
141
20.0
290
     0
  0
SCALE
  5
C23
102
{ACAD_REACTORS
330
C1A
102
}
330
C1A
100
AcDbScale
 70
     0
300
1:30
140
1.0
141
30.0
290
     0
  0
SCALE
  5
C24
102
{ACAD_REACTORS
330
C1A
102
}
330
C1A
100
AcDbScale
 70
     0
300
1:40
140
1.0
141
40.0
290
     0
  0
SCALE
  5
C25
102
{ACAD_REACTORS
330
C1A
102
}
330
C1A
100
AcDbScale
 70
     0
300
1:50
140
1.0
141
50.0
290
     0
  0
SCALE
  5
C26
102
{ACAD_REACTORS
330
C1A
102
}
330
C1A
100
AcDbScale
 70
     0
300
1:100
140
1.0
141
100.0
290
     0
  0
SCALE
  5
C27
102
{ACAD_REACTORS
330
C1A
102
}
330
C1A
100
AcDbScale
 70
     0
300
2:1
140
2.0
141
1.0
290
     0
  0
SCALE
  5
C28
102
{ACAD_REACTORS
330
C1A
102
}
330
C1A
100
AcDbScale
 70
     0
300
4:1
140
4.0
141
1.0
290
     0
  0
SCALE
  5
C29
102
{ACAD_REACTORS
330
C1A
102
}
330
C1A
100
AcDbScale
 70
     0
300
8:1
140
8.0
141
1.0
290
     0
  0
SCALE
  5
C2A
102
{ACAD_REACTORS
330
C1A
102
}
330
C1A
100
AcDbScale
 70
     0
300
10:1
140
10.0
141
1.0
290
     0
  0
SCALE
  5
C2B
102
{ACAD_REACTORS
330
C1A
102
}
330
C1A
100
AcDbScale
 70
     0
300
100:1
140
100.0
141
1.0
290
     0
  0
TABLESTYLE
  5
C19
102
{ACAD_XDICTIONARY
360
C39
102
}
102
{ACAD_REACTORS
330
C18
102
}
330
C18
100
AcDbTableStyle
280
     0
  3
Standard
 70
     0
 71
     0
 40
1.5
 41
1.5
280
     0
281
     0
  7
Standard
140
4.5
170
     2
 62
     0
 63
     7
283
     0
 90
      512
 91
        0
  1

274
    -2
284
     1
 64
     0
275
    -2
285
     1
 65
     0
276
    -2
286
     1
 66
     0
277
    -2
287
     1
 67
     0
278
    -2
288
     1
 68
     0
279
    -2
289
     1
 69
     0
  7
Standard
140
6.0
170
     5
 62
     0
 63
     7
283
     0
 90
      512
 91
        0
  1

274
    -2
284
     1
 64
     0
275
    -2
285
     1
 65
     0
276
    -2
286
     1
 66
     0
277
    -2
287
     1
 67
     0
278
    -2
288
     1
 68
     0
279
    -2
289
     1
 69
     0
  7
Standard
140
4.5
170
     5
 62
     0
 63
     7
283
     0
 90
      512
 91
        0
  1

274
    -2
284
     1
 64
     0
275
    -2
285
     1
 65
     0
276
    -2
286
     1
 66
     0
277
    -2
287
     1
 67
     0
278
    -2
288
     1
 68
     0
279
    -2
289
     1
 69
     0
  0
VISUALSTYLE
  5
C09
102
{ACAD_REACTORS
330
C03
102
}
330
C03
100
AcDbVisualStyle
  2
2dWireframe
 70
     4
177
     2
291
     0
 71
     0
176
     1
 72
     2
176
     1
 73
     0
176
     1
 90
        0
176
     1
 40
0.6
176
     1
 41
30.0
176
     1
 63
     7
421
 16777215
176
     1
 74
     1
176
     1
 91
        4
176
     1
 64
     7
176
     1
 65
   257
176
     1
 75
     1
176
     1
175
     1
176
     1
 42
1.0
176
     1
 92
        0
176
     1
 66
   257
176
     1
 43
1.0
176
     1
 76
     1
176
     1
 77
     6
176
     1
 78
     2
176
     1
 67
     7
176
     1
 79
     5
176
     1
170
     0
176
     1
171
     0
176
     1
290
     0
176
     1
 93
        1
176
     1
 44
0.0
176
     1
173
     0
176
     1
  0
VISUALSTYLE
  5
C0B
102
{ACAD_REACTORS
330
C03
102
}
330
C03
100
AcDbVisualStyle
  2
3D Hidden
 70
     6
177
     2
291
     0
 71
     1
176
     1
 72
     2
176
     1
 73
     2
176
     1
 90
        0
176
     1
 40
0.6
176
     1
 41
30.0
176
     1
 63
     7
421
 16777215
176
     1
 74
     2
176
     1
 91
        2
176
     1
 64
     7
176
     1
 65
   257
176
     1
 75
     2
176
     1
175
     1
176
     1
 42
179.0
176
     1
 92
        0
176
     1
 66
   257
176
     1
 43
1.0
176
     1
 76
     1
176
     1
 77
     6
176
     1
 78
     2
176
     1
 67
     7
176
     1
 79
     3
176
     1
170
     0
176
     1
171
     0
176
     1
290
     0
176
     1
 93
        1
176
     1
 44
0.0
176
     1
173
     0
176
     1
  0
VISUALSTYLE
  5
C0A
102
{ACAD_REACTORS
330
C03
102
}
330
C03
100
AcDbVisualStyle
  2
3dWireframe
 70
     5
177
     2
291
     0
 71
     0
176
     1
 72
     2
176
     1
 73
     0
176
     1
 90
        0
176
     1
 40
0.6
176
     1
 41
30.0
176
     1
 63
     7
421
 16777215
176
     1
 74
     1
176
     1
 91
        4
176
     1
 64
     7
176
     1
 65
   257
176
     1
 75
     1
176
     1
175
     1
176
     1
 42
1.0
176
     1
 92
        0
176
     1
 66
   257
176
     1
 43
1.0
176
     1
 76
     1
176
     1
 77
     6
176
     1
 78
     2
176
     1
 67
     7
176
     1
 79
     5
176
     1
170
     0
176
     1
171
     0
176
     1
290
     0
176
     1
 93
        1
176
     1
 44
0.0
176
     1
173
     0
176
     1
  0
VISUALSTYLE
  5
C08
102
{ACAD_REACTORS
330
C03
102
}
330
C03
100
AcDbVisualStyle
  2
Basic
 70
     7
177
     2
291
     1
 71
     1
176
     1
 72
     0
176
     1
 73
     1
176
     1
 90
        0
176
     1
 40
0.6
176
     1
 41
30.0
176
     1
 63
     7
421
 16777215
176
     1
 74
     0
176
     1
 91
        4
176
     1
 64
     7
176
     1
 65
   257
176
     1
 75
     1
176
     1
175
     1
176
     1
 42
1.0
176
     1
 92
        8
176
     1
 66
     7
176
     1
 43
1.0
176
     1
 76
     1
176
     1
 77
     6
176
     1
 78
     2
176
     1
 67
     7
176
     1
 79
     5
176
     1
170
     0
176
     1
171
     0
176
     1
290
     0
176
     1
 93
        1
176
     1
 44
0.0
176
     1
173
     0
176
     1
  0
VISUALSTYLE
  5
C0F
102
{ACAD_REACTORS
330
C03
102
}
330
C03
100
AcDbVisualStyle
  2
Brighten
 70
    12
177
     2
291
     1
 71
     2
176
     1
 72
     2
176
     1
 73
     0
176
     1
 90
        0
176
     1
 40
0.6
176
     1
 41
30.0
176
     1
 63
     7
421
 16777215
176
     1
 74
     1
176
     1
 91
        4
176
     1
 64
     7
176
     1
 65
   257
176
     1
 75
     1
176
     1
175
     1
176
     1
 42
1.0
176
     1
 92
        8
176
     1
 66
     7
176
     1
 43
1.0
176
     1
 76
     1
176
     1
 77
     6
176
     1
 78
     2
176
     1
 67
     7
176
     1
 79
     5
176
     1
170
     0
176
     1
171
     0
176
     1
290
     0
176
     1
 93
        1
176
     1
 44
50.0
176
     1
173
     0
176
     1
  0
VISUALSTYLE
  5
C13
102
{ACAD_REACTORS
330
C03
102
}
330
C03
100
AcDbVisualStyle
  2
ColorChange
 70
    16
177
     2
291
     1
 71
     2
176
     1
 72
     2
176
     1
 73
     3
176
     1
 90
        0
176
     1
 40
0.6
176
     1
 41
30.0
176
     1
 63
     8
421
  8421504
176
     1
 74
     1
176
     1
 91
        4
176
     1
 64
     7
176
     1
 65
   257
176
     1
 75
     1
176
     1
175
     1
176
     1
 42
1.0
176
     1
 92
        8
176
     1
 66
     8
424
  8421504
176
     1
 43
1.0
176
     1
 76
     1
176
     1
 77
     6
176
     1
 78
     2
176
     1
 67
     7
176
     1
 79
     5
176
     1
170
     0
176
     1
171
     0
176
     1
290
     0
176
     1
 93
        1
176
     1
 44
0.0
176
     1
173
     0
176
     1
  0
VISUALSTYLE
  5
C0C
102
{ACAD_REACTORS
330
C03
102
}
330
C03
100
AcDbVisualStyle
  2
Conceptual
 70
     9
177
     2
291
     0
 71
     3
176
     1
 72
     2
176
     1
 73
     0
176
     1
 90
        0
176
     1
 40
0.6
176
     1
 41
30.0
176
     1
 63
     7
421
 16777215
176
     1
 74
     2
176
     1
 91
        2
176
     1
 64
     7
176
     1
 65
   257
176
     1
 75
     1
176
     1
175
     1
176
     1
 42
179.0
176
     1
 92
        8
176
     1
 66
     7
176
     1
 43
1.0
176
     1
 76
     1
176
     1
 77
     6
176
     1
 78
     2
176
     1
 67
     7
176
     1
 79
     3
176
     1
170
     0
176
     1
171
     0
176
     1
290
     0
176
     1
 93
        1
176
     1
 44
0.0
176
     1
173
     0
176
     1
  0
VISUALSTYLE
  5
C0E
102
{ACAD_REACTORS
330
C03
102
}
330
C03
100
AcDbVisualStyle
  2
Dim
 70
    11
177
     2
291
     1
 71
     2
176
     1
 72
     2
176
     1
 73
     0
176
     1
 90
        0
176
     1
 40
0.6
176
     1
 41
30.0
176
     1
 63
     7
421
 16777215
176
     1
 74
     1
176
     1
 91
        4
176
     1
 64
     7
176
     1
 65
   257
176
     1
 75
     1
176
     1
175
     1
176
     1
 42
1.0
176
     1
 92
        8
176
     1
 66
     7
176
     1
 43
1.0
176
     1
 76
     1
176
     1
 77
     6
176
     1
 78
     2
176
     1
 67
     7
176
     1
 79
     5
176
     1
170
     0
176
     1
171
     0
176
     1
290
     0
176
     1
 93
        1
176
     1
 44
-50.0
176
     1
173
     0
176
     1
  0
VISUALSTYLE
  5
C16
102
{ACAD_REACTORS
330
C03
102
}
330
C03
100
AcDbVisualStyle
  2
EdgeColorOff
 70
    22
177
     2
291
     1
 71
     2
176
     0
 72
     2
176
     0
 73
     0
176
     0
 90
        0
176
     0
 40
0.6
176
     0
 41
30.0
176
     0
 63
     7
421
 16777215
176
     0
 74
     1
176
     0
 91
        4
176
     0
 64
     7
176
     0
 65
   257
176
     0
 75
     1
176
     0
175
     1
176
     0
 42
1.0
176
     0
 92
        8
176
     2
 66
     7
176
     0
 43
1.0
176
     0
 76
     1
176
     0
 77
     6
176
     0
 78
     2
176
     0
 67
     7
176
     0
 79
     5
176
     0
170
     0
176
     0
171
     0
176
     0
290
     0
176
     0
 93
        1
176
     0
 44
0.0
176
     0
173
     0
176
     0
  0
VISUALSTYLE
  5
C12
102
{ACAD_REACTORS
330
C03
102
}
330
C03
100
AcDbVisualStyle
  2
Facepattern
 70
    15
177
     2
291
     1
 71
     2
176
     1
 72
     2
176
     1
 73
     0
176
     1
 90
        0
176
     1
 40
0.6
176
     1
 41
30.0
176
     1
 63
     7
421
 16777215
176
     1
 74
     1
176
     1
 91
        4
176
     1
 64
     7
176
     1
 65
   257
176
     1
 75
     1
176
     1
175
     1
176
     1
 42
1.0
176
     1
 92
        8
176
     1
 66
     7
176
     1
 43
1.0
176
     1
 76
     1
176
     1
 77
     6
176
     1
 78
     2
176
     1
 67
     7
176
     1
 79
     5
176
     1
170
     0
176
     1
171
     0
176
     1
290
     0
176
     1
 93
        1
176
     1
 44
0.0
176
     1
173
     0
176
     1
  0
VISUALSTYLE
  5
C04
102
{ACAD_REACTORS
330
C03
102
}
330
C03
100
AcDbVisualStyle
  2
Flat
 70
     0
177
     2
291
     1
 71
     2
176
     1
 72
     1
176
     1
 73
     1
176
     1
 90
        2
176
     1
 40
0.6
176
     1
 41
30.0
176
     1
 63
     7
421
 16777215
176
     1
 74
     0
176
     1
 91
        4
176
     1
 64
     7
176
     1
 65
   257
176
     1
 75
     1
176
     1
175
     1
176
     1
 42
1.0
176
     1
 92
        8
176
     1
 66
     7
176
     1
 43
1.0
176
     1
 76
     1
176
     1
 77
     6
176
     1
 78
     2
176
     1
 67
     7
176
     1
 79
     5
176
     1
170
     0
176
     1
171
     0
176
     1
290
     0
176
     1
 93
       13
176
     1
 44
0.0
176
     1
173
     0
176
     1
  0
VISUALSTYLE
  5
C05
102
{ACAD_REACTORS
330
C03
102
}
330
C03
100
AcDbVisualStyle
  2
FlatWithEdges
 70
     1
177
     2
291
     1
 71
     2
176
     1
 72
     1
176
     1
 73
     1
176
     1
 90
        2
176
     1
 40
0.6
176
     1
 41
30.0
176
     1
 63
     7
421
 16777215
176
     1
 74
     1
176
     1
 91
        4
176
     1
 64
     7
176
     1
 65
   257
176
     1
 75
     1
176
     1
175
     1
176
     1
 42
1.0
176
     1
 92
        0
176
     1
 66
   257
176
     1
 43
1.0
176
     1
 76
     1
176
     1
 77
     6
176
     1
 78
     2
176
     1
 67
     7
176
     1
 79
     5
176
     1
170
     0
176
     1
171
     0
176
     1
290
     0
176
     1
 93
       13
176
     1
 44
0.0
176
     1
173
     0
176
     1
  0
VISUALSTYLE
  5
C06
102
{ACAD_REACTORS
330
C03
102
}
330
C03
100
AcDbVisualStyle
  2
Gouraud
 70
     2
177
     2
291
     1
 71
     2
176
     1
 72
     2
176
     1
 73
     1
176
     1
 90
        2
176
     1
 40
0.6
176
     1
 41
30.0
176
     1
 63
     7
421
 16777215
176
     1
 74
     0
176
     1
 91
        4
176
     1
 64
     7
176
     1
 65
   257
176
     1
 75
     1
176
     1
175
     1
176
     1
 42
1.0
176
     1
 92
        0
176
     1
 66
     7
176
     1
 43
1.0
176
     1
 76
     1
176
     1
 77
     6
176
     1
 78
     2
176
     1
 67
     7
176
     1
 79
     5
176
     1
170
     0
176
     1
171
     0
176
     1
290
     0
176
     1
 93
       13
176
     1
 44
0.0
176
     1
173
     0
176
     1
  0
VISUALSTYLE
  5
C07
102
{ACAD_REACTORS
330
C03
102
}
330
C03
100
AcDbVisualStyle
  2
GouraudWithEdges
 70
     3
177
     2
291
     1
 71
     2
176
     1
 72
     2
176
     1
 73
     1
176
     1
 90
        2
176
     1
 40
0.6
176
     1
 41
30.0
176
     1
 63
     7
421
 16777215
176
     1
 74
     1
176
     1
 91
        4
176
     1
 64
     7
176
     1
 65
   257
176
     1
 75
     1
176
     1
175
     1
176
     1
 42
1.0
176
     1
 92
        0
176
     1
 66
   257
176
     1
 43
1.0
176
     1
 76
     1
176
     1
 77
     6
176
     1
 78
     2
176
     1
 67
     7
176
     1
 79
     5
176
     1
170
     0
176
     1
171
     0
176
     1
290
     0
176
     1
 93
       13
176
     1
 44
0.0
176
     1
173
     0
176
     1
  0
VISUALSTYLE
  5
C14
102
{ACAD_REACTORS
330
C03
102
}
330
C03
100
AcDbVisualStyle
  2
JitterOff
 70
    20
177
     2
291
     1
 71
     2
176
     0
 72
     2
176
     0
 73
     0
176
     0
 90
        0
176
     0
 40
0.6
176
     0
 41
30.0
176
     0
 63
     7
421
 16777215
176
     0
 74
     1
176
     0
 91
        4
176
     0
 64
     7
176
     0
 65
   257
176
     0
 75
     1
176
     0
175
     1
176
     0
 42
1.0
176
     0
 92
       10
176
     2
 66
     7
176
     0
 43
1.0
176
     0
 76
     1
176
     0
 77
     6
176
     0
 78
     2
176
     0
 67
     7
176
     0
 79
     5
176
     0
170
     0
176
     0
171
     0
176
     0
290
     0
176
     0
 93
        1
176
     0
 44
0.0
176
     0
173
     0
176
     0
  0
VISUALSTYLE
  5
C11
102
{ACAD_REACTORS
330
C03
102
}
330
C03
100
AcDbVisualStyle
  2
Linepattern
 70
    14
177
     2
291
     1
 71
     2
176
     1
 72
     2
176
     1
 73
     0
176
     1
 90
        0
176
     1
 40
0.6
176
     1
 41
30.0
176
     1
 63
     7
421
 16777215
176
     1
 74
     1
176
     1
 91
        4
176
     1
 64
     7
176
     1
 65
   257
176
     1
 75
     7
176
     1
175
     7
176
     1
 42
1.0
176
     1
 92
        8
176
     1
 66
     7
176
     1
 43
1.0
176
     1
 76
     1
176
     1
 77
     6
176
     1
 78
     2
176
     1
 67
     7
176
     1
 79
     5
176
     1
170
     0
176
     1
171
     0
176
     1
290
     0
176
     1
 93
        1
176
     1
 44
0.0
176
     1
173
     0
176
     1
  0
VISUALSTYLE
  5
C15
102
{ACAD_REACTORS
330
C03
102
}
330
C03
100
AcDbVisualStyle
  2
OverhangOff
 70
    21
177
     2
291
     1
 71
     2
176
     0
 72
     2
176
     0
 73
     0
176
     0
 90
        0
176
     0
 40
0.6
176
     0
 41
30.0
176
     0
 63
     7
421
 16777215
176
     0
 74
     1
176
     0
 91
        4
176
     0
 64
     7
176
     0
 65
   257
176
     0
 75
     1
176
     0
175
     1
176
     0
 42
1.0
176
     0
 92
        9
176
     2
 66
     7
176
     0
 43
1.0
176
     0
 76
     1
176
     0
 77
     6
176
     0
 78
     2
176
     0
 67
     7
176
     0
 79
     5
176
     0
170
     0
176
     0
171
     0
176
     0
290
     0
176
     0
 93
        1
176
     0
 44
0.0
176
     0
173
     0
176
     0
  0
VISUALSTYLE
  5
C0D
102
{ACAD_REACTORS
330
C03
102
}
330
C03
100
AcDbVisualStyle
  2
Realistic
 70
     8
177
     2
291
     0
 71
     2
176
     1
 72
     2
176
     1
 73
     0
176
     1
 90
        0
176
     1
 40
0.6
176
     1
 41
30.0
176
     1
 63
     7
421
 16777215
176
     1
 74
     1
176
     1
 91
        0
176
     1
 64
     7
176
     1
 65
   257
176
     1
 75
     1
176
     1
175
     1
176
     1
 42
1.0
176
     1
 92
        8
176
     1
 66
     8
424
  7895160
176
     1
 43
1.0
176
     1
 76
     1
176
     1
 77
     6
176
     1
 78
     2
176
     1
 67
     7
176
     1
 79
     5
176
     1
170
     0
176
     1
171
     0
176
     1
290
     0
176
     1
 93
       13
176
     1
 44
0.0
176
     1
173
     0
176
     1
  0
VISUALSTYLE
  5
C10
102
{ACAD_REACTORS
330
C03
102
}
330
C03
100
AcDbVisualStyle
  2
Thicken
 70
    13
177
     2
291
     1
 71
     2
176
     1
 72
     2
176
     1
 73
     0
176
     1
 90
        0
176
     1
 40
0.6
176
     1
 41
30.0
176
     1
 63
     7
421
 16777215
176
     1
 74
     1
176
     1
 91
        4
176
     1
 64
     7
176
     1
 65
   257
176
     1
 75
     1
176
     1
175
     1
176
     1
 42
1.0
176
     1
 92
       12
176
     1
 66
     7
176
     1
 43
1.0
176
     1
 76
     1
176
     1
 77
     6
176
     1
 78
     2
176
     1
 67
     7
176
     1
 79
     5
176
     1
170
     0
176
     1
171
     0
176
     1
290
     0
176
     1
 93
        1
176
     1
 44
0.0
176
     1
173
     0
176
     1
  0
DICTIONARYVAR
  5
C35
102
{ACAD_REACTORS
330
5E
102
}
330
5E
100
DictionaryVariables
280
     0
  1
1:1
  0
DICTIONARYVAR
  5
C33
102
{ACAD_REACTORS
330
5E
102
}
330
5E
100
DictionaryVariables
280
     0
  1
STANDARD
  0
DICTIONARYVAR
  5
C32
102
{ACAD_REACTORS
330
5E
102
}
330
5E
100
DictionaryVariables
280
     0
  1
STANDARD
  0
DICTIONARYVAR
  5
5F
102
{ACAD_REACTORS
330
5E
102
}
330
5E
100
DictionaryVariables
280
     0
  1
2
  0
DICTIONARYVAR
  5
63
102
{ACAD_REACTORS
330
5E
102
}
330
5E
100
DictionaryVariables
280
     0
  1
1
  0
DICTIONARYVAR
  5
C37
102
{ACAD_REACTORS
330
5E
102
}
330
5E
100
DictionaryVariables
280
     0
  1
1
  0
DICTIONARYVAR
  5
C38
102
{ACAD_REACTORS
330
5E
102
}
330
5E
100
DictionaryVariables
280
     0
  1
15
  0
DICTIONARYVAR
  5
C36
102
{ACAD_REACTORS
330
5E
102
}
330
5E
100
DictionaryVariables
280
     0
  1
0
  0
DICTIONARYVAR
  5
C34
102
{ACAD_REACTORS
330
5E
102
}
330
5E
100
DictionaryVariables
280
     0
  1
0
  0
DICTIONARY
  5
BF4
330
BF3
100
AcDbDictionary
280
     1
281
     1
  3
BUMPTILE
360
BF6
  3
DIFFUSETILE
360
BF5
  3
OPACITYTILE
360
BF9
  3
REFLECTIONTILE
360
BF8
  3
REFRACTIONTILE
360
BFA
  3
SPECULARTILE
360
BF7
  0
DICTIONARY
  5
BEC
330
BEB
100
AcDbDictionary
280
     1
281
     1
  3
BUMPTILE
360
BEE
  3
DIFFUSETILE
360
BED
  3
OPACITYTILE
360
BF1
  3
REFLECTIONTILE
360
BF0
  3
REFRACTIONTILE
360
BF2
  3
SPECULARTILE
360
BEF
  0
DICTIONARY
  5
BFC
330
BFB
100
AcDbDictionary
280
     1
281
     1
  3
BUMPTILE
360
BFE
  3
DIFFUSETILE
360
BFD
  3
OPACITYTILE
360
C01
  3
REFLECTIONTILE
360
C00
  3
REFRACTIONTILE
360
C02
  3
SPECULARTILE
360
BFF
  0
DICTIONARY
  5
C39
330
C19
100
AcDbDictionary
280
     1
281
     1
  3
ACAD_ROUNDTRIP_2008_TABLESTYLE_CELLSTYLEMAP
360
C3A
  0
XRECORD
  5
BF6
102
{ACAD_REACTORS
330
BF4
102
}
330
BF4
100
AcDbXrecord
280
     1
270
     1
271
     1
  0
XRECORD
  5
BF5
102
{ACAD_REACTORS
330
BF4
102
}
330
BF4
100
AcDbXrecord
280
     1
270
     1
271
     1
  0
XRECORD
  5
BF9
102
{ACAD_REACTORS
330
BF4
102
}
330
BF4
100
AcDbXrecord
280
     1
270
     1
271
     1
  0
XRECORD
  5
BF8
102
{ACAD_REACTORS
330
BF4
102
}
330
BF4
100
AcDbXrecord
280
     1
270
     1
271
     1
  0
XRECORD
  5
BFA
102
{ACAD_REACTORS
330
BF4
102
}
330
BF4
100
AcDbXrecord
280
     1
270
     1
271
     1
  0
XRECORD
  5
BF7
102
{ACAD_REACTORS
330
BF4
102
}
330
BF4
100
AcDbXrecord
280
     1
270
     1
271
     1
  0
XRECORD
  5
BEE
102
{ACAD_REACTORS
330
BEC
102
}
330
BEC
100
AcDbXrecord
280
     1
270
     1
271
     1
  0
XRECORD
  5
BED
102
{ACAD_REACTORS
330
BEC
102
}
330
BEC
100
AcDbXrecord
280
     1
270
     1
271
     1
  0
XRECORD
  5
BF1
102
{ACAD_REACTORS
330
BEC
102
}
330
BEC
100
AcDbXrecord
280
     1
270
     1
271
     1
  0
XRECORD
  5
BF0
102
{ACAD_REACTORS
330
BEC
102
}
330
BEC
100
AcDbXrecord
280
     1
270
     1
271
     1
  0
XRECORD
  5
BF2
102
{ACAD_REACTORS
330
BEC
102
}
330
BEC
100
AcDbXrecord
280
     1
270
     1
271
     1
  0
XRECORD
  5
BEF
102
{ACAD_REACTORS
330
BEC
102
}
330
BEC
100
AcDbXrecord
280
     1
270
     1
271
     1
  0
XRECORD
  5
BFE
102
{ACAD_REACTORS
330
BFC
102
}
330
BFC
100
AcDbXrecord
280
     1
270
     1
271
     1
  0
XRECORD
  5
BFD
102
{ACAD_REACTORS
330
BFC
102
}
330
BFC
100
AcDbXrecord
280
     1
270
     1
271
     1
  0
XRECORD
  5
C01
102
{ACAD_REACTORS
330
BFC
102
}
330
BFC
100
AcDbXrecord
280
     1
270
     1
271
     1
  0
XRECORD
  5
C00
102
{ACAD_REACTORS
330
BFC
102
}
330
BFC
100
AcDbXrecord
280
     1
270
     1
271
     1
  0
XRECORD
  5
C02
102
{ACAD_REACTORS
330
BFC
102
}
330
BFC
100
AcDbXrecord
280
     1
270
     1
271
     1
  0
XRECORD
  5
BFF
102
{ACAD_REACTORS
330
BFC
102
}
330
BFC
100
AcDbXrecord
280
     1
270
     1
271
     1
  0
CELLSTYLEMAP
  5
C3A
102
{ACAD_REACTORS
330
C39
102
}
330
C39
100
AcDbCellStyleMap
 90
        3
300
CELLSTYLE
  1
TABLEFORMAT_BEGIN
 90
        5
170
     1
 91
        0
 92
    32768
 62
   257
 93
        1
300
CONTENTFORMAT
  1
CONTENTFORMAT_BEGIN
 90
        0
 91
        0
 92
      512
 93
        0
300

 40
0.0
140
1.0
 94
        5
 62
     0
340
11
144
6.0
309
CONTENTFORMAT_END
171
     1
301
MARGIN
  1
CELLMARGIN_BEGIN
 40
1.5
 40
1.5
 40
1.5
 40
1.5
 40
4.5
 40
4.5
309
CELLMARGIN_END
 94
        6
 95
        1
302
GRIDFORMAT
  1
GRIDFORMAT_BEGIN
 90
        0
 91
        1
 62
     0
 92
       -2
340
0
 93
        0
 40
1.125
309
GRIDFORMAT_END
 95
        2
302
GRIDFORMAT
  1
GRIDFORMAT_BEGIN
 90
        0
 91
        1
 62
     0
 92
       -2
340
0
 93
        0
 40
1.125
309
GRIDFORMAT_END
 95
        4
302
GRIDFORMAT
  1
GRIDFORMAT_BEGIN
 90
        0
 91
        1
 62
     0
 92
       -2
340
0
 93
        0
 40
1.125
309
GRIDFORMAT_END
 95
        8
302
GRIDFORMAT
  1
GRIDFORMAT_BEGIN
 90
        0
 91
        1
 62
     0
 92
       -2
340
0
 93
        0
 40
1.125
309
GRIDFORMAT_END
 95
       16
302
GRIDFORMAT
  1
GRIDFORMAT_BEGIN
 90
        0
 91
        1
 62
     0
 92
       -2
340
0
 93
        0
 40
1.125
309
GRIDFORMAT_END
 95
       32
302
GRIDFORMAT
  1
GRIDFORMAT_BEGIN
 90
        0
 91
        1
 62
     0
 92
       -2
340
0
 93
        0
 40
1.125
309
GRIDFORMAT_END
309
TABLEFORMAT_END
  1
CELLSTYLE_BEGIN
 90
        1
 91
        1
300
_TITLE
309
CELLSTYLE_END
300
CELLSTYLE
  1
TABLEFORMAT_BEGIN
 90
        5
170
     1
 91
        0
 92
        0
 62
   257
 93
        1
300
CONTENTFORMAT
  1
CONTENTFORMAT_BEGIN
 90
        0
 91
        0
 92
      512
 93
        0
300

 40
0.0
140
1.0
 94
        5
 62
     0
340
11
144
4.5
309
CONTENTFORMAT_END
171
     1
301
MARGIN
  1
CELLMARGIN_BEGIN
 40
1.5
 40
1.5
 40
1.5
 40
1.5
 40
4.5
 40
4.5
309
CELLMARGIN_END
 94
        6
 95
        1
302
GRIDFORMAT
  1
GRIDFORMAT_BEGIN
 90
        0
 91
        1
 62
     0
 92
       -2
340
0
 93
        0
 40
1.125
309
GRIDFORMAT_END
 95
        2
302
GRIDFORMAT
  1
GRIDFORMAT_BEGIN
 90
        0
 91
        1
 62
     0
 92
       -2
340
0
 93
        0
 40
1.125
309
GRIDFORMAT_END
 95
        4
302
GRIDFORMAT
  1
GRIDFORMAT_BEGIN
 90
        0
 91
        1
 62
     0
 92
       -2
340
0
 93
        0
 40
1.125
309
GRIDFORMAT_END
 95
        8
302
GRIDFORMAT
  1
GRIDFORMAT_BEGIN
 90
        0
 91
        1
 62
     0
 92
       -2
340
0
 93
        0
 40
1.125
309
GRIDFORMAT_END
 95
       16
302
GRIDFORMAT
  1
GRIDFORMAT_BEGIN
 90
        0
 91
        1
 62
     0
 92
       -2
340
0
 93
        0
 40
1.125
309
GRIDFORMAT_END
 95
       32
302
GRIDFORMAT
  1
GRIDFORMAT_BEGIN
 90
        0
 91
        1
 62
     0
 92
       -2
340
0
 93
        0
 40
1.125
309
GRIDFORMAT_END
309
TABLEFORMAT_END
  1
CELLSTYLE_BEGIN
 90
        2
 91
        1
300
_HEADER
309
CELLSTYLE_END
300
CELLSTYLE
  1
TABLEFORMAT_BEGIN
 90
        5
170
     1
 91
        0
 92
        0
 62
   257
 93
        1
300
CONTENTFORMAT
  1
CONTENTFORMAT_BEGIN
 90
        0
 91
        0
 92
      512
 93
        0
300

 40
0.0
140
1.0
 94
        2
 62
     0
340
11
144
4.5
309
CONTENTFORMAT_END
171
     1
301
MARGIN
  1
CELLMARGIN_BEGIN
 40
1.5
 40
1.5
 40
1.5
 40
1.5
 40
4.5
 40
4.5
309
CELLMARGIN_END
 94
        6
 95
        1
302
GRIDFORMAT
  1
GRIDFORMAT_BEGIN
 90
        0
 91
        1
 62
     0
 92
       -2
340
0
 93
        0
 40
1.125
309
GRIDFORMAT_END
 95
        2
302
GRIDFORMAT
  1
GRIDFORMAT_BEGIN
 90
        0
 91
        1
 62
     0
 92
       -2
340
0
 93
        0
 40
1.125
309
GRIDFORMAT_END
 95
        4
302
GRIDFORMAT
  1
GRIDFORMAT_BEGIN
 90
        0
 91
        1
 62
     0
 92
       -2
340
0
 93
        0
 40
1.125
309
GRIDFORMAT_END
 95
        8
302
GRIDFORMAT
  1
GRIDFORMAT_BEGIN
 90
        0
 91
        1
 62
     0
 92
       -2
340
0
 93
        0
 40
1.125
309
GRIDFORMAT_END
 95
       16
302
GRIDFORMAT
  1
GRIDFORMAT_BEGIN
 90
        0
 91
        1
 62
     0
 92
       -2
340
0
 93
        0
 40
1.125
309
GRIDFORMAT_END
 95
       32
302
GRIDFORMAT
  1
GRIDFORMAT_BEGIN
 90
        0
 91
        1
 62
     0
 92
       -2
340
0
 93
        0
 40
1.125
309
GRIDFORMAT_END
309
TABLEFORMAT_END
  1
CELLSTYLE_BEGIN
 90
        3
 91
        2
300
_DATA
309
CELLSTYLE_END
  0
ENDSEC
  0
EOF
