  0
SECTION
  2
HEADER
  9
$ACADVER
  1
AC1015
  9
$ACADMAINTVER
 70
    14
  9
$DWGCODEPAGE
  3
ANSI_932
  9
$INSBASE
 10
0.0
 20
0.0
 30
0.0
  9
$EXTMIN
 10
6.825594322893039
 20
113.8052384743825
 30
-0.0000000000000058
  9
$EXTMAX
 10
794.5571581078125
 20
857.9969627167589
 30
0.0000000000000104
  9
$LIMMIN
 10
0.0
 20
0.0
  9
$LIMMAX
 10
12.0
 20
9.0
  9
$ORTHOMODE
 70
     0
  9
$REGENMODE
 70
     1
  9
$FILLMODE
 70
     1
  9
$QTEXTMODE
 70
     0
  9
$MIRRTEXT
 70
     1
  9
$LTSCALE
 40
1.0
  9
$ATTMODE
 70
     1
  9
$TEXTSIZE
 40
0.2
  9
$TRACEWID
 40
0.05
  9
$TEXTSTYLE
  7
STANDARD
  9
$CLAYER
  8
0
  9
$CELTYPE
  6
CONTINUOUS
  9
$CECOLOR
 62
   256
  9
$CELTSCALE
 40
1.0
  9
$DISPSILH
 70
     0
  9
$DIMSCALE
 40
1.0
  9
$DIMASZ
 40
0.18
  9
$DIMEXO
 40
0.0625
  9
$DIMDLI
 40
0.38
  9
$DIMRND
 40
0.0
  9
$DIMDLE
 40
0.0
  9
$DIMEXE
 40
0.18
  9
$DIMTP
 40
0.0
  9
$DIMTM
 40
0.0
  9
$DIMTXT
 40
0.18
  9
$DIMCEN
 40
0.09
  9
$DIMTSZ
 40
0.0
  9
$DIMTOL
 70
     0
  9
$DIMLIM
 70
     0
  9
$DIMTIH
 70
     1
  9
$DIMTOH
 70
     1
  9
$DIMSE1
 70
     0
  9
$DIMSE2
 70
     0
  9
$DIMTAD
 70
     0
  9
$DIMZIN
 70
     0
  9
$DIMBLK
  1

  9
$DIMASO
 70
     1
  9
$DIMSHO
 70
     0
  9
$DIMPOST
  1

  9
$DIMAPOST
  1

  9
$DIMALT
 70
     0
  9
$DIMALTD
 70
     2
  9
$DIMALTF
 40
25.4
  9
$DIMLFAC
 40
1.0
  9
$DIMTOFL
 70
     0
  9
$DIMTVP
 40
0.0
  9
$DIMTIX
 70
     0
  9
$DIMSOXD
 70
     0
  9
$DIMSAH
 70
     0
  9
$DIMBLK1
  1

  9
$DIMBLK2
  1

  9
$DIMSTYLE
  2
STANDARD
  9
$DIMCLRD
 70
     0
  9
$DIMCLRE
 70
     0
  9
$DIMCLRT
 70
     0
  9
$DIMTFAC
 40
1.0
  9
$DIMGAP
 40
0.09
  9
$DIMJUST
 70
     0
  9
$DIMSD1
 70
     0
  9
$DIMSD2
 70
     0
  9
$DIMTOLJ
 70
     1
  9
$DIMTZIN
 70
     0
  9
$DIMALTZ
 70
     0
  9
$DIMALTTZ
 70
     0
  9
$DIMUPT
 70
     0
  9
$DIMDEC
 70
     4
  9
$DIMTDEC
 70
     4
  9
$DIMALTU
 70
     2
  9
$DIMALTTD
 70
     2
  9
$DIMTXSTY
  7
STANDARD
  9
$DIMAUNIT
 70
     0
  9
$DIMADEC
 70
     0
  9
$DIMALTRND
 40
0.0
  9
$DIMAZIN
 70
     0
  9
$DIMDSEP
 70
    46
  9
$DIMATFIT
 70
     3
  9
$DIMFRAC
 70
     0
  9
$DIMLDRBLK
  1

  9
$DIMLUNIT
 70
     2
  9
$DIMLWD
 70
    -2
  9
$DIMLWE
 70
    -2
  9
$DIMTMOVE
 70
     2
  9
$LUNITS
 70
     2
  9
$LUPREC
 70
     4
  9
$SKETCHINC
 40
0.1
  9
$FILLETRAD
 40
0.0
  9
$AUNITS
 70
     0
  9
$AUPREC
 70
     0
  9
$MENU
  1
.
  9
$ELEVATION
 40
0.0
  9
$PELEVATION
 40
0.0
  9
$THICKNESS
 40
0.0
  9
$LIMCHECK
 70
     0
  9
$CHAMFERA
 40
0.0
  9
$CHAMFERB
 40
0.0
  9
$CHAMFERC
 40
0.0
  9
$CHAMFERD
 40
0.0
  9
$SKPOLY
 70
     0
  9
$TDCREATE
 40
2452488.423138738
  9
$TDUCREATE
 40
2452488.048138738
  9
$TDUPDATE
 40
2456899.667393819
  9
$TDUUPDATE
 40
2456899.292393819
  9
$TDINDWG
 40
0.2326112616
  9
$TDUSRTIMER
 40
0.2326112616
  9
$USRTIMER
 70
     1
  9
$ANGBASE
 50
0.0
  9
$ANGDIR
 70
     0
  9
$PDMODE
 70
     3
  9
$PDSIZE
 40
0.0
  9
$PLINEWID
 40
0.0
  9
$SPLFRAME
 70
     0
  9
$SPLINETYPE
 70
     6
  9
$SPLINESEGS
 70
     8
  9
$HANDSEED
  5
25D2
  9
$SURFTAB1
 70
     6
  9
$SURFTAB2
 70
     6
  9
$SURFTYPE
 70
     6
  9
$SURFU
 70
     6
  9
$SURFV
 70
     6
  9
$UCSBASE
  2

  9
$UCSNAME
  2

  9
$UCSORG
 10
0.0
 20
0.0
 30
0.0
  9
$UCSXDIR
 10
1.0
 20
0.0
 30
0.0
  9
$UCSYDIR
 10
0.0
 20
1.0
 30
0.0
  9
$UCSORTHOREF
  2

  9
$UCSORTHOVIEW
 70
     0
  9
$UCSORGTOP
 10
0.0
 20
0.0
 30
0.0
  9
$UCSORGBOTTOM
 10
0.0
 20
0.0
 30
0.0
  9
$UCSORGLEFT
 10
0.0
 20
0.0
 30
0.0
  9
$UCSORGRIGHT
 10
0.0
 20
0.0
 30
0.0
  9
$UCSORGFRONT
 10
0.0
 20
0.0
 30
0.0
  9
$UCSORGBACK
 10
0.0
 20
0.0
 30
0.0
  9
$PUCSBASE
  2

  9
$PUCSNAME
  2

  9
$PUCSORG
 10
0.0
 20
0.0
 30
0.0
  9
$PUCSXDIR
 10
1.0
 20
0.0
 30
0.0
  9
$PUCSYDIR
 10
0.0
 20
1.0
 30
0.0
  9
$PUCSORTHOREF
  2

  9
$PUCSORTHOVIEW
 70
     0
  9
$PUCSORGTOP
 10
0.0
 20
0.0
 30
0.0
  9
$PUCSORGBOTTOM
 10
0.0
 20
0.0
 30
0.0
  9
$PUCSORGLEFT
 10
0.0
 20
0.0
 30
0.0
  9
$PUCSORGRIGHT
 10
0.0
 20
0.0
 30
0.0
  9
$PUCSORGFRONT
 10
0.0
 20
0.0
 30
0.0
  9
$PUCSORGBACK
 10
0.0
 20
0.0
 30
0.0
  9
$USERI1
 70
     0
  9
$USERI2
 70
     0
  9
$USERI3
 70
     0
  9
$USERI4
 70
     0
  9
$USERI5
 70
     0
  9
$USERR1
 40
0.0
  9
$USERR2
 40
0.0
  9
$USERR3
 40
0.0
  9
$USERR4
 40
0.0
  9
$USERR5
 40
0.0
  9
$WORLDVIEW
 70
     1
  9
$SHADEDGE
 70
     3
  9
$SHADEDIF
 70
    70
  9
$TILEMODE
 70
     1
  9
$MAXACTVP
 70
    48
  9
$PINSBASE
 10
0.0
 20
0.0
 30
0.0
  9
$PLIMCHECK
 70
     0
  9
$PEXTMIN
 10
1.000000000000000E+20
 20
1.000000000000000E+20
 30
1.000000000000000E+20
  9
$PEXTMAX
 10
-1.000000000000000E+20
 20
-1.000000000000000E+20
 30
-1.000000000000000E+20
  9
$PLIMMIN
 10
0.0
 20
0.0
  9
$PLIMMAX
 10
12.0
 20
9.0
  9
$UNITMODE
 70
     0
  9
$VISRETAIN
 70
     1
  9
$PLINEGEN
 70
     0
  9
$PSLTSCALE
 70
     1
  9
$TREEDEPTH
 70
  3020
  9
$CMLSTYLE
  2
Standard
  9
$CMLJUST
 70
     0
  9
$CMLSCALE
 40
1.0
  9
$PROXYGRAPHICS
 70
     1
  9
$MEASUREMENT
 70
     0
  9
$CELWEIGHT
370
    -1
  9
$ENDCAPS
280
     0
  9
$JOINSTYLE
280
     0
  9
$LWDISPLAY
290
     0
  9
$INSUNITS
 70
     0
  9
$HYPERLINKBASE
  1

  9
$STYLESHEET
  1

  9
$XEDIT
290
     1
  9
$CEPSNTYPE
380
     0
  9
$PSTYLEMODE
290
     1
  9
$FINGERPRINTGUID
  2
{92F164B6-AA2D-4FE8-AD9E-D05B36335868}
  9
$VERSIONGUID
  2
{8DDD5071-98C2-4AF5-BD50-1F1ACC44E517}
  9
$EXTNAMES
290
     1
  9
$PSVPSCALE
 40
0.0
  9
$OLESTARTUP
290
     0
  0
ENDSEC
  0
SECTION
  2
CLASSES
  0
CLASS
  1
ACDBDICTIONARYWDFLT
  2
AcDbDictionaryWithDefault
  3
AutoCAD 2000
 90
        0
280
     0
281
     0
  0
CLASS
  1
ACDBPLACEHOLDER
  2
AcDbPlaceHolder
  3
AutoCAD 2000
 90
        0
280
     0
281
     0
  0
CLASS
  1
LAYOUT
  2
AcDbLayout
  3
AutoCAD 2000
 90
        0
280
     0
281
     0
  0
CLASS
  1
DICTIONARYVAR
  2
AcDbDictionaryVar
  3
AutoCAD 2000
 90
        0
280
     0
281
     0
  0
CLASS
  1
LONG_TRANSACTION
  2
AcDbLongTransaction
  3
AutoCAD 2000
 90
    32768
280
     0
281
     0
  0
CLASS
  1
LWPOLYLINE
  2
AcDbPolyline
  3
AutoCAD 2000
 90
    32768
280
     0
281
     1
  0
CLASS
  1
HATCH
  2
AcDbHatch
  3
AutoCAD 2000
 90
    32768
280
     0
281
     1
  0
CLASS
  1
XRECORD
  2
AcDbXrecord
  3
AutoCAD 2000
 90
    32768
280
     0
281
     0
  0
CLASS
  1
MATERIAL
  2
AcDbMaterial
  3
ObjectDBX Classes
 90
     1153
280
     0
281
     0
  0
CLASS
  1
VISUALSTYLE
  2
AcDbVisualStyle
  3
ObjectDBX Classes
 90
     4095
280
     0
281
     0
  0
CLASS
  1
TABLESTYLE
  2
AcDbTableStyle
  3
ObjectDBX Classes
 90
     4095
280
     0
281
     0
  0
CLASS
  1
SCALE
  2
AcDbScale
  3
ObjectDBX Classes
 90
     1153
280
     0
281
     0
  0
CLASS
  1
MLEADERSTYLE
  2
AcDbMLeaderStyle
  3
ACDB_MLEADERSTYLE_CLASS
 90
     4095
280
     0
281
     0
  0
CLASS
  1
ACME_DOCUMENT
  2
AcMeDbDoc
  3
AcMeServices
 90
    33792
280
     0
281
     0
  0
CLASS
  1
AMGSETTINGSOBJ
  2
AmgSettingsObj
  3
"AcadM|Product Description: AutoCAD Mechanical|Company: Autodesk, Inc."
 90
    33792
280
     0
281
     0
  0
CLASS
  1
ACMESCOPE
  2
AcMeScope
  3
AcMeServices
 90
    33792
280
     0
281
     0
  0
CLASS
  1
ACMECOMMANDHISTORY
  2
AcMeCommandHistory
  3
AcMeServices
 90
    33792
280
     0
281
     0
  0
CLASS
  1
ACIMSYSVARMAN
  2
AcImSysVarManager
  3
AcMeServices
 90
     1024
280
     0
281
     0
  0
CLASS
  1
ACIMINTSYSVAR
  2
AcImIntSysVar
  3
AcMeServices
 90
    33792
280
     0
281
     0
  0
CLASS
  1
ACMEDRAWINGMAN
  2
AcMeDrawingMan
  3
AcMeServices
 90
    33792
280
     0
281
     0
  0
CLASS
  1
ACMEVIEW
  2
AcMeView
  3
AcMeServices
 90
    33792
280
     0
281
     0
  0
CLASS
  1
ACDBENTITYCACHE
  2
AcMeEntityCache
  3
AcMeServices
 90
    33792
280
     0
281
     0
  0
CLASS
  1
GSMANAGER
  2
AcMeGSManager
  3
AcMeServices
 90
    33792
280
     0
281
     0
  0
CLASS
  1
AMDTINTERNALREACTOR
  2
AmdtInternalReactor
  3
AcMeServices
 90
    33792
280
     0
281
     0
  0
CLASS
  1
ACMESTATEMGR
  2
AcMeStateMgr
  3
AcMeServices
 90
    33792
280
     0
281
     0
  0
CLASS
  1
ACGREFMASTER
  2
AcGrefMaster
  3
AcAttribServices
 90
    33792
280
     0
281
     0
  0
CLASS
  1
AM_DRAWING_MGR
  2
AcDmDwgMgr
  3
AcMechDwgViewMgmt
 90
    33792
280
     0
281
     0
  0
CLASS
  1
AM_DWG_DOCUMENT
  2
AcDmDwgDocument
  3
AcMechDwgViewMgmt
 90
    33792
280
     0
281
     0
  0
CLASS
  1
AM_DWG_SHEET
  2
AcDmSheet
  3
AcMechDwgViewMgmt
 90
    33792
280
     0
281
     0
  0
CLASS
  1
AM_VIEWDIMPARMAP
  2
AcDmViewDimParMap
  3
AcMechDwgViewMgmt
 90
    33792
280
     0
281
     0
  0
CLASS
  1
ACIMREALSYSVAR
  2
AcImRealSysVar
  3
AcMeServices
 90
    33792
280
     0
281
     0
  0
CLASS
  1
AM_DWGMGR_NAME
  2
AcDmDwgMgrName
  3
AcMechDwgViewMgmt
 90
    33792
280
     0
281
     0
  0
CLASS
  1
ACME_DATABASE
  2
AcMeDbDatabase
  3
AcMeServices
 90
    33792
280
     0
281
     0
  0
CLASS
  1
ACRFINSADJUSTERMGR
  2
AcRfInsAdjusterMgr
  3
AcMeServices
 90
    33792
280
     0
281
     0
  0
CLASS
  1
ACGREFACADMASTER
  2
AcGrefacadMaster
  3
AcGrefServices
 90
    33792
280
     0
281
     0
  0
CLASS
  1
AMDTMENUSTATEMGR
  2
AmdtMenuStateMgr
  3
McadcomServices
 90
    33792
280
     0
281
     0
  0
CLASS
  1
AMDTMCOMMENUSTATE
  2
AmdtMcomMenuState
  3
McadcomServices
 90
    33792
280
     0
281
     0
  0
CLASS
  1
AMIMASTER
  2
AmiMaster
  3
AmiServices
 90
    33792
280
     0
281
     0
  0
CLASS
  1
MAPIAMMOUDLE
  2
MApiAmModule
  3
MApiAmServices
 90
    33792
280
     0
281
     0
  0
CLASS
  1
ACIMSTRSYSVAR
  2
AcImStrSysVar
  3
AcMeServices
 90
    33792
280
     0
281
     0
  0
CLASS
  1
AMDTADMENUSTATE
  2
AmdtAdMenuState
  3
DesignerServices
 90
    33792
280
     0
281
     0
  0
CLASS
  1
ADAPPL
  2
AcAdAppl
  3
DesignerServices
 90
    33792
280
     0
281
     0
  0
CLASS
  1
DEPMGR
  2
AcAdDepMgr
  3
DesignerServices
 90
    33792
280
     0
281
     0
  0
CLASS
  1
PARAMMGR
  2
AcAdParamMgr
  3
DesignerServices
 90
    33792
280
     0
281
     0
  0
CLASS
  1
PARAMSCOPE
  2
AcAdParamScope
  3
DesignerServices
 90
    33792
280
     0
281
     0
  0
CLASS
  1
NAMEDAPPL
  2
AcAdNamedAppl
  3
DesignerServices
 90
    33792
280
     0
281
     0
  0
CLASS
  1
AMDTDMMENUSTATE
  2
AmdtDmMenuState
  3
AcMechDwgViewMgmt
 90
    33792
280
     0
281
     0
  0
CLASS
  1
AMDTAMMENUSTATE
  2
AmdtAmMenuState
  3
DesignerAssemblies
 90
    33792
280
     0
281
     0
  0
CLASS
  1
ACAMPROJECT
  2
AcAmProject
  3
DesignerAssemblies
 90
    33792
280
     0
281
     0
  0
CLASS
  1
ACAMGRCOMPDEF
  2
AcAmGrCompDef
  3
DesignerAssemblies
 90
    33792
280
     0
281
     0
  0
CLASS
  1
ACCMCONTEXT
  2
AcCmContext
  3
DesignerAssemblies
 90
    33792
280
     0
281
     0
  0
CLASS
  1
ACAMCOMPDEF
  2
AcAmCompDef
  3
DesignerAssemblies
 90
    33792
280
     0
281
     0
  0
CLASS
  1
ACAMCOMPDEFMGR
  2
AcAmCompDefMgr
  3
DesignerAssemblies
 90
    33792
280
     0
281
     0
  0
CLASS
  1
AMCONTEXTMGR
  2
AcAmContextMgr
  3
DesignerAssemblies
 90
    33792
280
     0
281
     0
  0
CLASS
  1
ACAMCONTEXTMODELER
  2
AcAmContextModeler
  3
DesignerAssemblies
 90
    33792
280
     0
281
     0
  0
CLASS
  1
ACMDATADICTIONARY
  2
AcmDataDictionary
  3
"AcmSymBB|Product Description: AutoCAD Mechanical|Company: Autodesk, Inc."
 90
    33792
280
     0
281
     0
  0
CLASS
  1
CATALOGSTATE
  2
AcAmCatalogState
  3
DesignerAssemblies
 90
    33792
280
     0
281
     0
  0
CLASS
  1
ACAMGRCOMPDEFSET
  2
AcAmGrCompDefSet
  3
DesignerAssemblies
 90
    33792
280
     0
281
     0
  0
CLASS
  1
AMDTBROWSERDBTAB
  2
AmdtBrowserDbTab
  3
McadcomServices
 90
    33792
280
     0
281
     0
  0
CLASS
  1
CBROWSERAPPOBJECT
  2
CBrowserAppObject
  3
McadcomServices
 90
    33792
280
     0
281
     0
  0
CLASS
  1
DM_PLACEHOLDER
  2
AcDmSelsetPlaceholder
  3
AcMechDwgViewMgmt
 90
    33792
280
     0
281
     0
  0
CLASS
  1
EXACXREFPANELOBJECT
  2
ExAcXREFPanelObject
  3
EXAC_ESW
 90
    33793
280
     0
281
     0
  0
CLASS
  1
NPOCOLLECTION
  2
AcDbImpNonPersistentObjectsCollection
  3
ObjectDBX Classes
 90
    33921
280
     0
281
     0
  0
CLASS
  1
ACMSTANDARDANSI
  2
AcmStandardANSI
  3
"Amdt_StdImp|Product Description: AutoCAD Mechanical|Company: Autodesk, Inc."
 90
    33792
280
     0
281
     0
  0
CLASS
  1
ACMSURFSTANDARDANSI
  2
AcmSurfTextStdANSI
  3
"Amdt_StdImp|Product Description: AutoCAD Mechanical|Company: Autodesk, Inc."
 90
    33792
280
     0
281
     0
  0
CLASS
  1
ACMFCFSTANDARDANSI
  2
AcmFCFStdANSI
  3
"Amdt_StdImp|Product Description: AutoCAD Mechanical|Company: Autodesk, Inc."
 90
    33792
280
     0
281
     0
  0
CLASS
  1
ACMWELDSTANDARDANSI
  2
AcmWeldingStdANSI
  3
"Amdt_StdImp|Product Description: AutoCAD Mechanical|Company: Autodesk, Inc."
 90
    33792
280
     0
281
     0
  0
CLASS
  1
ACMIDSTANDARDANSI
  2
AcmIdStdANSI
  3
"Amdt_StdImp|Product Description: AutoCAD Mechanical|Company: Autodesk, Inc."
 90
    33792
280
     0
281
     0
  0
CLASS
  1
ACMDATUMSTANDARDANSI
  2
AcmDatumStdANSI
  3
"Amdt_StdImp|Product Description: AutoCAD Mechanical|Company: Autodesk, Inc."
 90
    33792
280
     0
281
     0
  0
CLASS
  1
ACMBOMSTANDARDANSI
  2
AcmBOMStdANSI
  3
"Amdt_StdImp|Product Description: AutoCAD Mechanical|Company: Autodesk, Inc."
 90
    33792
280
     0
281
     0
  0
CLASS
  1
ACMDETAILSTANDARDANSI
  2
AmdtDetailSymStdANSI
  3
"Amdt_StdImp|Product Description: AutoCAD Mechanical|Company: Autodesk, Inc."
 90
    33792
280
     0
281
     0
  0
CLASS
  1
ACMSECTIONSTANDARDANSI
  2
AmdtSectionSymStdANSI
  3
"Amdt_StdImp|Product Description: AutoCAD Mechanical|Company: Autodesk, Inc."
 90
    33792
280
     0
281
     0
  0
CLASS
  1
ACMCENTERLINESTANDARDANSI
  2
AmdtCenterLineStdANSI
  3
"Amdt_StdImp|Product Description: AutoCAD Mechanical|Company: Autodesk, Inc."
 90
    33792
280
     0
281
     0
  0
CLASS
  1
ACMTHREADLINESTANDARDANSI
  2
AmdtThreadLineStdANSI
  3
"Amdt_StdImp|Product Description: AutoCAD Mechanical|Company: Autodesk, Inc."
 90
    33792
280
     0
281
     0
  0
CLASS
  1
ACMNOTESTANDARDANSI
  2
AmdtNoteStdANSI
  3
"Amdt_StdImp|Product Description: AutoCAD Mechanical|Company: Autodesk, Inc."
 90
    33792
280
     0
281
     0
  0
CLASS
  1
ACMTAPERSTANDARDANSI
  2
AcmTaperStdANSI
  3
"Amdt_StdImp|Product Description: AutoCAD Mechanical|Company: Autodesk, Inc."
 90
    33792
280
     0
281
     0
  0
CLASS
  1
ACMANOOTATIONVIEWSTANDARDANSI
  2
AmdtAnViewStdANSI
  3
"Amdt_StdImp|Product Description: AutoCAD Mechanical|Company: Autodesk, Inc."
 90
    33792
280
     0
281
     0
  0
CLASS
  1
ACAMGLAYSTD
  2
AcAmgLayStd
  3
"AmgLay|Product Description: AutoCAD Mechanical|Company: Autodesk, Inc."
 90
    33792
280
     0
281
     0
  0
CLASS
  1
ACAMGDIMSTD
  2
AcAmgDimStd
  3
"AmgDim|Product Description: AutoCAD Mechanical|Company: Autodesk, Inc."
 90
    33792
280
     0
281
     0
  0
CLASS
  1
AMGOBJPROPCFG
  2
AmgObjPropCfg
  3
"AmgLay|Product Description: AutoCAD Mechanical|Company: Autodesk, Inc."
 90
    33793
280
     0
281
     0
  0
CLASS
  1
ACAMGHOLECHARTSTDANSI
  2
AcAmgHoleChartStdANSI
  3
AmgDim|Product Description: AutoCAD Mechanical|Company: Autodesk, Inc.
 90
    33792
280
     0
281
     0
  0
CLASS
  1
ACAMGTITLESTD
  2
AcAmgTitleStd
  3
"AmgTitle|Product Description: AutoCAD Mechanical|Company: Autodesk, Inc."
 90
    36863
280
     0
281
     0
  0
CLASS
  1
AMDTNOTETEMPLATEDB
  2
AmdtNoteTemplateDB
  3
AcmSymBB|Product Description: AutoCAD Mechanical|Company: Autodesk, Inc.
 90
    33792
280
     0
281
     0
  0
CLASS
  1
ACAMGFILTERDAT
  2
AcAmgFilterDat
  3
"AcadM|Product Description: AutoCAD Mechanical|Company: Autodesk, Inc."
 90
    33792
280
     0
281
     0
  0
CLASS
  1
SORTENTSTABLE
  2
AcDbSortentsTable
  3
AutoCAD 2000
 90
        0
280
     0
281
     0
  0
CLASS
  1
ACMSTANDARDJIS
  2
AcmStandardJIS
  3
"Amdt_StdImp|Product Description: AutoCAD Mechanical|Company: Autodesk, Inc."
 90
    33792
280
     0
281
     0
  0
CLASS
  1
ACMSURFSTANDARDJIS
  2
AcmSurfTextStdJIS
  3
"Amdt_StdImp|Product Description: AutoCAD Mechanical|Company: Autodesk, Inc."
 90
    33792
280
     0
281
     0
  0
CLASS
  1
ACMFCFSTANDARDJIS98
  2
AcmFCFStdJIS98
  3
"Amdt_StdImp|Product Description: AutoCAD Mechanical|Company: Autodesk, Inc."
 90
    33792
280
     0
281
     0
  0
CLASS
  1
ACMWELDSTANDARDJIS
  2
AcmWeldingStdJIS
  3
"Amdt_StdImp|Product Description: AutoCAD Mechanical|Company: Autodesk, Inc."
 90
    33792
280
     0
281
     0
  0
CLASS
  1
ACMIDSTANDARDJIS
  2
AcmIdStdJIS
  3
"Amdt_StdImp|Product Description: AutoCAD Mechanical|Company: Autodesk, Inc."
 90
    33792
280
     0
281
     0
  0
CLASS
  1
ACMDATUMSTANDARDJIS
  2
AcmDatumStdJIS
  3
"Amdt_StdImp|Product Description: AutoCAD Mechanical|Company: Autodesk, Inc."
 90
    33792
280
     0
281
     0
  0
CLASS
  1
ACMBOMSTANDARDJIS
  2
AcmBOMStdJIS
  3
"Amdt_StdImp|Product Description: AutoCAD Mechanical|Company: Autodesk, Inc."
 90
    33792
280
     0
281
     0
  0
CLASS
  1
ACMDETAILSTANDARDJIS
  2
AmdtDetailSymStdJIS
  3
"Amdt_StdImp|Product Description: AutoCAD Mechanical|Company: Autodesk, Inc."
 90
    33792
280
     0
281
     0
  0
CLASS
  1
ACMSECTIONSTANDARDJIS
  2
AmdtSectionSymStdJIS
  3
"Amdt_StdImp|Product Description: AutoCAD Mechanical|Company: Autodesk, Inc."
 90
    33792
280
     0
281
     0
  0
CLASS
  1
ACMCENTERLINESTANDARDJIS
  2
AmdtCenterLineStdJIS
  3
"Amdt_StdImp|Product Description: AutoCAD Mechanical|Company: Autodesk, Inc."
 90
    33792
280
     0
281
     0
  0
CLASS
  1
ACMNOTESTANDARDJIS
  2
AmdtNoteStdJIS
  3
"Amdt_StdImp|Product Description: AutoCAD Mechanical|Company: Autodesk, Inc."
 90
    33792
280
     0
281
     0
  0
CLASS
  1
ACAMGHOLECHARTSTDJIS
  2
AcAmgHoleChartStdJIS
  3
AmgDim|Product Description: AutoCAD Mechanical|Company: Autodesk, Inc.
 90
    33792
280
     0
281
     0
  0
CLASS
  1
ACMTHREADLINESTANDARDJIS
  2
AmdtThreadLineStdJIS
  3
"Amdt_StdImp|Product Description: AutoCAD Mechanical|Company: Autodesk, Inc."
 90
    33792
280
     0
281
     0
  0
CLASS
  1
ACMTAPERSTANDARDJIS
  2
AcmTaperStdJIS
  3
"Amdt_StdImp|Product Description: AutoCAD Mechanical|Company: Autodesk, Inc."
 90
    33792
280
     0
281
     0
  0
CLASS
  1
ACMANOOTATIONVIEWSTANDARDJIS
  2
AmdtAnViewStdJIS
  3
"Amdt_StdImp|Product Description: AutoCAD Mechanical|Company: Autodesk, Inc."
 90
    33792
280
     0
281
     0
  0
CLASS
  1
AMDTEDGESTANDARDJIS
  2
AmdtEdgeStdJIS
  3
"Amdt_StdImp|Product Description: AutoCAD Mechanical|Company: Autodesk, Inc."
 90
    33792
280
     0
281
     0
  0
CLASS
  1
ACMDATAENTRYBLOCK
  2
AcmDataEntryBlock
  3
AcmSymBB|Product Description: AutoCAD Mechanical|Company: Autodesk, Inc.
 90
    33792
280
     0
281
     0
  0
CLASS
  1
CELLSTYLEMAP
  2
AcDbCellStyleMap
  3
ObjectDBX Classes
 90
     1152
280
     0
281
     0
  0
CLASS
  1
ACAD_PROXY_OBJECT_WRAPPER
  2
AcDbProxyObjectWrapper
  3
AutoCAD 2000
 90
    32768
280
     0
281
     0
  0
CLASS
  1
LONG_TRANSACTION
  2
AcDbLongTransaction
  3
AutoCAD 2000
 90
    32768
280
     0
281
     0
  0
CLASS
  1
LWPOLYLINE
  2
AcDbPolyline
  3
AutoCAD 2000
 90
    32768
280
     0
281
     1
  0
CLASS
  1
HATCH
  2
AcDbHatch
  3
AutoCAD 2000
 90
    32768
280
     0
281
     1
  0
CLASS
  1
XRECORD
  2
AcDbXrecord
  3
AutoCAD 2000
 90
    32768
280
     0
281
     0
  0
ENDSEC
  0
SECTION
  2
TABLES
  0
TABLE
  2
VPORT
  5
1F9E
102
{ACAD_XDICTIONARY
360
242C
102
}
330
0
100
AcDbSymbolTable
 70
     2
  0
VPORT
  5
25D1
330
1F9E
100
AcDbSymbolTableRecord
100
AcDbViewportTableRecord
  2
*Active
 70
     0
 10
0.0
 20
0.0
 11
1.0
 21
1.0
 12
400.6913762153527
 22
485.9011005955706
 13
0.0
 23
0.0
 14
1.0
 24
1.0
 15
0.0
 25
0.0
 16
0.0
 26
0.0
 36
1.0
 17
0.0
 27
0.0
 37
0.0
 40
748.9167510629627
 41
1.592161016949152
 42
50.0
 43
0.0
 44
0.0
 50
0.0
 51
0.0
 71
     0
 72
   100
 73
     1
 74
     3
 75
     0
 76
     0
 77
     0
 78
     0
281
     0
 65
     1
110
0.0
120
0.0
130
0.0
111
1.0
121
0.0
131
0.0
112
0.0
122
1.0
132
0.0
 79
     0
146
0.0
  0
ENDTAB
  0
TABLE
  2
LTYPE
  5
1F9B
330
0
100
AcDbSymbolTable
 70
     2
  0
LTYPE
  5
1FA9
330
1F9B
100
AcDbSymbolTableRecord
100
AcDbLinetypeTableRecord
  2
ByBlock
 70
     0
  3

 72
    65
 73
     0
 40
0.0
  0
LTYPE
  5
1FAA
330
1F9B
100
AcDbSymbolTableRecord
100
AcDbLinetypeTableRecord
  2
ByLayer
 70
     0
  3

 72
    65
 73
     0
 40
0.0
  0
LTYPE
  5
1FAB
330
1F9B
100
AcDbSymbolTableRecord
100
AcDbLinetypeTableRecord
  2
CONTINUOUS
 70
     0
  3
Solid line
 72
    65
 73
     0
 40
0.0
  0
LTYPE
  5
25B3
330
1F9B
100
AcDbSymbolTableRecord
100
AcDbLinetypeTableRecord
  2
CENTER
 70
     0
  3
__ . __
 72
    65
 73
     4
 40
7.0
 49
4.0
 74
     0
 49
-1.0
 74
     0
 49
1.0
 74
     0
 49
-1.0
 74
     0
  0
ENDTAB
  0
TABLE
  2
LAYER
  5
1F98
102
{ACAD_XDICTIONARY
360
25B4
102
}
330
0
100
AcDbSymbolTable
 70
     1
  0
LAYER
  5
1FA6
102
{ACAD_XDICTIONARY
360
2420
102
}
330
1F98
100
AcDbSymbolTableRecord
100
AcDbLayerTableRecord
  2
0
 70
     0
 62
     7
  6
CONTINUOUS
370
    -3
390
1FA5
  0
ENDTAB
  0
TABLE
  2
STYLE
  5
1F99
330
0
100
AcDbSymbolTable
 70
     1
  0
STYLE
  5
1FA7
330
1F99
100
AcDbSymbolTableRecord
100
AcDbTextStyleTableRecord
  2
STANDARD
 70
     0
 40
0.0
 41
1.0
 50
0.0
 71
     0
 42
0.2
  3
txt
  4
BIGFONT
  0
ENDTAB
  0
TABLE
  2
VIEW
  5
1F9C
330
0
100
AcDbSymbolTable
 70
     1
  0
VIEW
  5
1FC7
102
{ACAD_XDICTIONARY
360
2557
102
}
330
1F9C
100
AcDbSymbolTableRecord
100
AcDbViewTableRecord
  2
OLE1
 70
     0
 40
3692.141019219747
 10
1914.591370701856
 20
1272.206200738182
 41
4595.022665841169
 11
0.0
 21
0.0
 31
1.0
 12
0.0
 22
0.0
 32
0.0
 42
50.0
 43
0.0
 44
0.0
 50
0.0
 71
     0
281
     0
 72
     1
110
0.0
120
0.0
130
0.0
111
1.0
121
0.0
131
0.0
112
0.0
122
1.0
132
0.0
 79
     0
146
0.0
  0
ENDTAB
  0
TABLE
  2
UCS
  5
1F9D
330
0
100
AcDbSymbolTable
 70
     0
  0
ENDTAB
  0
TABLE
  2
APPID
  5
1F9F
330
0
100
AcDbSymbolTable
 70
    26
  0
APPID
  5
1FA8
330
1F9F
100
AcDbSymbolTableRecord
100
AcDbRegAppTableRecord
  2
ACAD
 70
     0
  0
APPID
  5
1FC8
330
1F9F
100
AcDbSymbolTableRecord
100
AcDbRegAppTableRecord
  2
MCAD_NO_VIS
 70
     0
  0
APPID
  5
1FC9
330
1F9F
100
AcDbSymbolTableRecord
100
AcDbRegAppTableRecord
  2
ACAD_TEMP_GRAPHIC
 70
     0
  0
APPID
  5
1FCA
330
1F9F
100
AcDbSymbolTableRecord
100
AcDbRegAppTableRecord
  2
ACATTRIBSERVICES
 70
     0
  0
APPID
  5
2076
330
1F9F
100
AcDbSymbolTableRecord
100
AcDbRegAppTableRecord
  2
ACAD_MLEADERVER
 70
     0
  0
APPID
  5
20B1
330
1F9F
100
AcDbSymbolTableRecord
100
AcDbRegAppTableRecord
  2
AD_DRAW
 70
     0
  0
APPID
  5
20D4
330
1F9F
100
AcDbSymbolTableRecord
100
AcDbRegAppTableRecord
  2
DESIGNERASSEMBLIES
 70
     0
  0
APPID
  5
20DA
330
1F9F
100
AcDbSymbolTableRecord
100
AcDbRegAppTableRecord
  2
ACADM_DIM_EDIT
 70
     0
  0
APPID
  5
20DB
330
1F9F
100
AcDbSymbolTableRecord
100
AcDbRegAppTableRecord
  2
AMDT_DM_ADJ
 70
     0
  0
APPID
  5
213A
330
1F9F
100
AcDbSymbolTableRecord
100
AcDbRegAppTableRecord
  2
ACAD_DSTYLE_DIMJOGGED_JOGANGLE_SYMBOL
 70
     0
  0
APPID
  5
213B
330
1F9F
100
AcDbSymbolTableRecord
100
AcDbRegAppTableRecord
  2
ACAD_DSTYLE_DIMJAG
 70
     0
  0
APPID
  5
213C
330
1F9F
100
AcDbSymbolTableRecord
100
AcDbRegAppTableRecord
  2
ACAD_DSTYLE_DIMTALN
 70
     0
  0
APPID
  5
213D
330
1F9F
100
AcDbSymbolTableRecord
100
AcDbRegAppTableRecord
  2
ACAD_PSEXT
 70
     0
  0
APPID
  5
2438
330
1F9F
100
AcDbSymbolTableRecord
100
AcDbRegAppTableRecord
  2
ACAD_DSTYLE_DIMARC_LENGTH_SYMBOL
 70
     0
  0
APPID
  5
2439
330
1F9F
100
AcDbSymbolTableRecord
100
AcDbRegAppTableRecord
  2
ACAD_DSTYLE_DIM_LINETYPE
 70
     0
  0
APPID
  5
243A
330
1F9F
100
AcDbSymbolTableRecord
100
AcDbRegAppTableRecord
  2
ACAD_DSTYLE_DIM_EXT1_LINETYPE
 70
     0
  0
APPID
  5
243B
330
1F9F
100
AcDbSymbolTableRecord
100
AcDbRegAppTableRecord
  2
ACAD_DSTYLE_DIM_EXT2_LINETYPE
 70
     0
  0
APPID
  5
24A9
330
1F9F
100
AcDbSymbolTableRecord
100
AcDbRegAppTableRecord
  2
ACAD_EXEMPT_FROM_CAD_STANDARDS
 70
     0
  0
APPID
  5
253F
330
1F9F
100
AcDbSymbolTableRecord
100
AcDbRegAppTableRecord
  2
AcadAnnotative
 70
     0
  0
APPID
  5
2540
330
1F9F
100
AcDbSymbolTableRecord
100
AcDbRegAppTableRecord
  2
GENIUS_GENODEF_13
 70
     0
  0
APPID
  5
2541
330
1F9F
100
AcDbSymbolTableRecord
100
AcDbRegAppTableRecord
  2
GENIUS_GENOBJ-N-FIL_13
 70
     0
  0
APPID
  5
2542
330
1F9F
100
AcDbSymbolTableRecord
100
AcDbRegAppTableRecord
  2
GENIUS_GENOBJ-N-CEN_13
 70
     0
  0
APPID
  5
2543
330
1F9F
100
AcDbSymbolTableRecord
100
AcDbRegAppTableRecord
  2
GENIUS_GENCEN_19
 70
     0
  0
APPID
  5
2544
330
1F9F
100
AcDbSymbolTableRecord
100
AcDbRegAppTableRecord
  2
GENIUS_GENSCREG_15
 70
     0
  0
APPID
  5
2545
330
1F9F
100
AcDbSymbolTableRecord
100
AcDbRegAppTableRecord
  2
GENIUS_GENOBJ-N-SDF_13
 70
     0
  0
APPID
  5
2546
330
1F9F
100
AcDbSymbolTableRecord
100
AcDbRegAppTableRecord
  2
AcAecLayerStandard
 70
     0
  0
ENDTAB
  0
TABLE
  2
DIMSTYLE
  5
1FA0
330
0
100
AcDbSymbolTable
 70
     1
100
AcDbDimStyleTable
 71
     0
  0
DIMSTYLE
105
1FCB
330
1FA0
100
AcDbSymbolTableRecord
100
AcDbDimStyleTableRecord
  2
STANDARD
 70
     0
279
     2
340
1FA7
  0
ENDTAB
  0
TABLE
  2
BLOCK_RECORD
  5
1F97
330
0
100
AcDbSymbolTable
 70
     0
  0
BLOCK_RECORD
  5
1FB4
102
{ACAD_XDICTIONARY
360
1FE0
102
}
330
1F97
100
AcDbSymbolTableRecord
100
AcDbBlockTableRecord
  2
*Model_Space
340
1FB7
  0
BLOCK_RECORD
  5
1FB0
102
{ACAD_XDICTIONARY
360
1FE2
102
}
330
1F97
100
AcDbSymbolTableRecord
100
AcDbBlockTableRecord
  2
*Paper_Space
340
1FB3
  0
ENDTAB
  0
ENDSEC
  0
SECTION
  2
BLOCKS
  0
BLOCK
  5
1FB5
330
1FB4
100
AcDbEntity
  8
0
100
AcDbBlockBegin
  2
*Model_Space
 70
     0
 10
0.0
 20
0.0
 30
0.0
  3
*Model_Space
  1

  0
ENDBLK
  5
1FB6
330
1FB4
100
AcDbEntity
  8
0
100
AcDbBlockEnd
  0
BLOCK
  5
1FB1
330
1FB0
100
AcDbEntity
 67
     1
  8
0
100
AcDbBlockBegin
  2
*Paper_Space
 70
     0
 10
0.0
 20
0.0
 30
0.0
  3
*Paper_Space
  1

  0
ENDBLK
  5
1FB2
330
1FB0
100
AcDbEntity
 67
     1
  8
0
100
AcDbBlockEnd
  0
ENDSEC
  0
SECTION
  2
ENTITIES
  0
TEXT
  5
11D3
330
1FB4
100
AcDbEntity
  8
0
  6
Continuous
100
AcDbText
 10
6.843500723057331
 20
809.9576797388536
 30
0.0
 40
48.000002
  1
BVP__T60J10 4S
 41
1.268809999999999
100
AcDbText
  0
LINE
  5
120A
330
1FB4
100
AcDbEntity
  8
0
  6
Continuous
100
AcDbLine
 10
313.6106826290933
 20
292.9565336246343
 30
0.0
 11
359.4268556290932
 21
292.9565336246343
 31
0.0
  0
LINE
  5
120B
330
1FB4
100
AcDbEntity
  8
0
  6
Continuous
100
AcDbLine
 10
304.5187516290933
 20
341.9565536246342
 30
0.0
 11
368.5187676290934
 21
341.9565536246342
 31
0.0
  0
LINE
  5
120C
330
1FB4
100
AcDbEntity
  8
0
  6
Continuous
100
AcDbLine
 10
368.5187676290934
 20
341.9565536246342
 30
0.0
 11
368.5187676290934
 21
317.9363926246344
 31
0.0
  0
LINE
  5
120D
330
1FB4
100
AcDbEntity
  8
0
  6
Continuous
100
AcDbLine
 10
304.5187516290933
 20
341.9565536246342
 30
0.0
 11
304.5187516290933
 21
317.9363926246344
 31
0.0
  0
LINE
  5
120E
330
1FB4
100
AcDbEntity
  8
0
  6
Continuous
100
AcDbLine
 10
368.5187726290932
 20
317.9363896246342
 30
0.0
 11
359.4268426290934
 21
292.9565186246343
 31
0.0
  0
LINE
  5
120F
330
1FB4
100
AcDbEntity
  8
0
  6
Continuous
100
AcDbLine
 10
304.5187716290932
 20
317.9363496246343
 30
0.0
 11
313.6106756290931
 21
292.9565506246343
 31
0.0
  0
LINE
  5
1210
330
1FB4
100
AcDbEntity
  8
0
  6
Continuous
100
AcDbLine
 10
316.5187596290933
 20
135.6565386246342
 30
0.0
 11
316.5187596290933
 21
292.9565336246343
 31
0.0
  0
LINE
  5
1211
330
1FB4
100
AcDbEntity
  8
0
  6
Continuous
100
AcDbLine
 10
356.5187596290933
 20
135.6565386246342
 30
0.0
 11
356.5187596290933
 21
292.9565336246343
 31
0.0
  0
LINE
  5
1212
330
1FB4
100
AcDbEntity
  8
0
  6
Continuous
100
AcDbLine
 10
356.5187596290933
 20
135.6565386246342
 30
0.0
 11
316.5187596290933
 21
135.6565386246342
 31
0.0
  0
LINE
  5
1255
330
1FB4
100
AcDbEntity
  8
0
  6
Continuous
100
AcDbLine
 10
546.5187596290934
 20
341.9565836246343
 30
0.0
 11
546.5187596290934
 21
292.9565716246343
 31
0.0
  0
LINE
  5
1256
330
1FB4
100
AcDbEntity
  8
0
  6
Continuous
100
AcDbLine
 10
626.5187596290934
 20
341.9565836246343
 30
0.0
 11
626.5187596290934
 21
292.9565716246343
 31
0.0
  0
LINE
  5
1257
330
1FB4
100
AcDbEntity
  8
0
  6
Continuous
100
AcDbLine
 10
626.5187596290934
 20
341.9565836246343
 30
0.0
 11
546.5187596290934
 21
341.9565836246343
 31
0.0
  0
LINE
  5
1258
330
1FB4
100
AcDbEntity
  8
0
  6
Continuous
100
AcDbLine
 10
599.5187906290935
 20
337.4565836246342
 30
0.0
 11
599.5187906290935
 21
297.4565796246343
 31
0.0
  0
LINE
  5
1259
330
1FB4
100
AcDbEntity
  8
0
  6
Continuous
100
AcDbLine
 10
573.5187286290932
 20
337.4565836246342
 30
0.0
 11
573.5187286290932
 21
297.4565796246343
 31
0.0
  0
LINE
  5
125A
330
1FB4
100
AcDbEntity
  8
0
  6
Continuous
100
AcDbLine
 10
627.5444556290931
 20
292.9565716246343
 30
0.0
 11
545.4930636290932
 21
292.9565716246343
 31
0.0
  0
LINE
  5
125B
330
1FB4
100
AcDbEntity
  8
0
  6
Continuous
100
AcDbLine
 10
622.0187906290933
 20
337.4565836246342
 30
0.0
 11
622.0187906290933
 21
297.4565796246343
 31
0.0
  0
LINE
  5
125C
330
1FB4
100
AcDbEntity
  8
0
  6
Continuous
100
AcDbLine
 10
622.0187906290933
 20
337.4565836246342
 30
0.0
 11
551.0187286290934
 21
337.4565836246342
 31
0.0
  0
LINE
  5
125D
330
1FB4
100
AcDbEntity
  8
0
  6
Continuous
100
AcDbLine
 10
622.0187906290933
 20
297.4565796246343
 30
0.0
 11
551.0187286290934
 21
297.4565796246343
 31
0.0
  0
LINE
  5
125E
330
1FB4
100
AcDbEntity
  8
0
  6
Continuous
100
AcDbLine
 10
551.0187286290934
 20
337.4565836246342
 30
0.0
 11
551.0187286290934
 21
297.4565796246343
 31
0.0
  0
ARC
  5
125F
330
1FB4
100
AcDbEntity
  8
0
  6
Continuous
100
AcDbCircle
 10
586.5187596290934
 20
219.6565536246342
 30
0.0
 40
84.0
100
AcDbArc
 50
119.2355500000002
 51
60.76443299999958
  0
LINE
  5
1576
330
1FB4
100
AcDbEntity
  8
0
  6
Continuous
100
AcDbLine
 10
555.0187656290936
 20
341.9565836246343
 30
0.0
 11
618.0187536290932
 21
341.9565836246343
 31
0.0
  0
LINE
  5
1595
330
1FB4
100
AcDbEntity
  8
0
  6
Continuous
100
AcDbLine
 10
305.0187656290934
 20
341.9565536246342
 30
0.0
 11
368.0187536290933
 21
341.9565536246342
 31
0.0
  0
LINE
  5
1CD6
330
1FB4
100
AcDbEntity
  8
0
  6
Continuous
100
AcDbLine
 10
399.0187596290934
 20
160.1565536246344
 30
0.0
 11
396.1687606290934
 21
160.1565536246344
 31
0.0
  0
LINE
  5
1CD7
330
1FB4
100
AcDbEntity
  8
0
  6
Continuous
100
AcDbLine
 10
396.1687609290935
 20
160.1565526246344
 30
0.0
 11
393.0022198290932
 21
168.8565526246343
 31
0.0
  0
LINE
  5
1CD8
330
1FB4
100
AcDbEntity
  8
0
  6
Continuous
100
AcDbLine
 10
393.0022191290934
 20
168.8565546246342
 30
0.0
 11
356.5187596290933
 21
168.8565546246342
 31
0.0
  0
LINE
  5
1CD9
330
1FB4
100
AcDbEntity
  8
0
  6
Continuous
100
AcDbLine
 10
399.0187596290934
 20
279.1565536246344
 30
0.0
 11
399.0187596290934
 21
160.1565536246344
 31
0.0
  0
LINE
  5
1CDA
330
1FB4
100
AcDbEntity
  8
0
  6
Continuous
100
AcDbLine
 10
393.0022191290934
 20
270.4565526246343
 30
0.0
 11
356.5187596290933
 21
270.4565526246343
 31
0.0
  0
LINE
  5
1CDB
330
1FB4
100
AcDbEntity
  8
0
  6
Continuous
100
AcDbLine
 10
396.1687609290935
 20
279.1565546246344
 30
0.0
 11
393.0022198290932
 21
270.4565546246342
 31
0.0
  0
LINE
  5
1CDC
330
1FB4
100
AcDbEntity
  8
0
  6
Continuous
100
AcDbLine
 10
399.0187596290934
 20
279.1565536246344
 30
0.0
 11
396.1687606290934
 21
279.1565536246344
 31
0.0
  0
LINE
  5
1CDE
330
1FB4
100
AcDbEntity
  8
0
  6
Continuous
100
AcDbLine
 10
393.0022191290934
 20
168.8565546246342
 30
0.0
 11
393.0022191290934
 21
270.4565526246343
 31
0.0
  0
LINE
  5
1CE2
330
1FB4
100
AcDbEntity
  8
0
  6
Continuous
100
AcDbLine
 10
274.0187596290933
 20
279.1565536246344
 30
0.0
 11
276.8687586290933
 21
279.1565536246344
 31
0.0
  0
LINE
  5
1CE3
330
1FB4
100
AcDbEntity
  8
0
  6
Continuous
100
AcDbLine
 10
276.8687583290934
 20
279.1565546246344
 30
0.0
 11
280.0352994290932
 21
270.4565546246344
 31
0.0
  0
LINE
  5
1CE4
330
1FB4
100
AcDbEntity
  8
0
  6
Continuous
100
AcDbLine
 10
280.0353001290933
 20
270.4565526246343
 30
0.0
 11
316.5187596290933
 21
270.4565526246343
 31
0.0
  0
LINE
  5
1CE5
330
1FB4
100
AcDbEntity
  8
0
  6
Continuous
100
AcDbLine
 10
274.0187596290933
 20
160.1565536246344
 30
0.0
 11
274.0187596290933
 21
279.1565536246344
 31
0.0
  0
LINE
  5
1CE6
330
1FB4
100
AcDbEntity
  8
0
  6
Continuous
100
AcDbLine
 10
280.0353001290933
 20
168.8565546246344
 30
0.0
 11
316.5187596290933
 21
168.8565546246344
 31
0.0
  0
LINE
  5
1CE7
330
1FB4
100
AcDbEntity
  8
0
  6
Continuous
100
AcDbLine
 10
276.8687583290934
 20
160.1565526246344
 30
0.0
 11
280.0352994290932
 21
168.8565526246343
 31
0.0
  0
LINE
  5
1CE8
330
1FB4
100
AcDbEntity
  8
0
  6
Continuous
100
AcDbLine
 10
274.0187596290933
 20
160.1565536246344
 30
0.0
 11
276.8687586290933
 21
160.1565536246344
 31
0.0
  0
LINE
  5
1CEA
330
1FB4
100
AcDbEntity
  8
0
  6
Continuous
100
AcDbLine
 10
280.0353001290933
 20
270.4565526246343
 30
0.0
 11
280.0353001290933
 21
168.8565546246344
 31
0.0
  0
CIRCLE
  5
1D64
330
1FB4
100
AcDbEntity
  8
0
  6
Continuous
100
AcDbCircle
 10
586.5187596290934
 20
219.6565536246342
 30
0.0
 40
59.5
  0
CIRCLE
  5
1D65
330
1FB4
100
AcDbEntity
  8
0
  6
Continuous
100
AcDbCircle
 10
586.5187596290934
 20
219.6565536246342
 30
0.0
 40
50.799999
  0
LINE
  5
22B0
330
1FB4
100
AcDbEntity
  8
0
  6
Continuous
100
AcDbLine
 10
404.018912896095
 20
442.9565536246335
 30
0.0
 11
404.0189128960938
 21
341.9565536246334
 31
0.0
  0
LINE
  5
22B1
330
1FB4
100
AcDbEntity
  8
0
  6
Continuous
100
AcDbLine
 10
410.0189128960949
 20
441.9565536246334
 30
0.0
 11
410.0189128960939
 21
342.9565536246335
 31
0.0
  0
LINE
  5
22B2
330
1FB4
100
AcDbEntity
  8
0
  6
Continuous
100
AcDbLine
 10
249.0187596290946
 20
442.9565536246344
 30
0.0
 11
249.0187596290935
 21
341.9565536246353
 31
0.0
  0
LINE
  5
22B3
330
1FB4
100
AcDbEntity
  8
0
  6
Continuous
100
AcDbLine
 10
243.0187596290946
 20
441.9565536246344
 30
0.0
 11
243.0187596290935
 21
342.9565536246353
 31
0.0
  0
LINE
  5
22B4
330
1FB4
100
AcDbEntity
  8
0
  6
Continuous
100
AcDbLine
 10
409.0189128960949
 20
442.9565536246335
 30
0.0
 11
244.0187596290946
 21
442.9565536246344
 31
0.0
  0
LINE
  5
22B5
330
1FB4
100
AcDbEntity
  8
0
  6
Continuous
100
AcDbLine
 10
409.0189128960938
 20
341.9565536246334
 30
0.0
 11
244.0187596290935
 21
341.9565536246353
 31
0.0
  0
LINE
  5
22B6
330
1FB4
100
AcDbEntity
  8
0
  6
Continuous
100
AcDbLine
 10
236.4186619728442
 20
398.9565764828176
 30
0.0
 11
236.418661972844
 21
385.9565764828176
 31
0.0
  0
LINE
  5
22B7
330
1FB4
100
AcDbEntity
  8
0
  6
Continuous
100
AcDbLine
 10
236.9987400978442
 20
399.9622527523488
 30
0.0
 11
240.8380955665942
 21
399.9622527523488
 31
0.0
  0
LINE
  5
22B8
330
1FB4
100
AcDbEntity
  8
0
  6
Continuous
100
AcDbLine
 10
236.9992283790942
 20
396.2095061703176
 30
0.0
 11
240.8376728862839
 21
396.2095061703176
 31
0.0
  0
LINE
  5
22B9
330
1FB4
100
AcDbEntity
  8
0
  6
Continuous
100
AcDbLine
 10
236.4189445761929
 20
398.9570463367718
 30
0.0
 11
236.9995109824439
 21
399.9626168315172
 31
0.0
  0
LINE
  5
22BA
330
1FB4
100
AcDbEntity
  8
0
  6
Continuous
100
AcDbLine
 10
240.8380955665939
 20
384.9512053890676
 30
0.0
 11
236.998740097844
 21
384.9512053890676
 31
0.0
  0
LINE
  5
22BB
330
1FB4
100
AcDbEntity
  8
0
  6
Continuous
100
AcDbLine
 10
240.8372519924104
 20
388.7041350765676
 30
0.0
 11
236.9992283790942
 21
388.7041350765676
 31
0.0
  0
ARC
  5
22BC
330
1FB4
100
AcDbEntity
  8
0
  6
Continuous
100
AcDbCircle
 10
239.741415879094
 20
386.8276702328176
 30
0.0
 40
3.322566986083984
100
AcDbArc
 50
145.6156973218406
 51
180.0
  0
ARC
  5
22BD
330
1FB4
100
AcDbEntity
  8
0
  6
Continuous
100
AcDbCircle
 10
248.8380955665942
 20
392.4565764828173
 30
0.0
 40
12.41944122314453
100
AcDbArc
 50
162.4120613966387
 51
197.587972754297
  0
LINE
  5
22BE
330
1FB4
100
AcDbEntity
  8
0
  6
Continuous
100
AcDbLine
 10
243.0187596290942
 20
400.4563933773487
 30
0.0
 11
241.4186619728442
 21
400.4563933773488
 31
0.0
  0
LINE
  5
22BF
330
1FB4
100
AcDbEntity
  8
0
  6
Continuous
100
AcDbLine
 10
243.018759629094
 20
384.4565764828174
 30
0.0
 11
241.418661972844
 21
384.4565764828176
 31
0.0
  0
LINE
  5
22C0
330
1FB4
100
AcDbEntity
  8
0
  6
Continuous
100
AcDbLine
 10
236.4194575179295
 20
385.9570220431151
 30
0.0
 11
237.0000239241795
 21
384.9514515483706
 31
0.0
  0
ARC
  5
22C1
330
1FB4
100
AcDbEntity
  8
0
  6
Continuous
100
AcDbCircle
 10
239.7414158790942
 20
398.0859710140676
 30
0.0
 40
3.322566986083984
100
AcDbArc
 50
180.0
 51
214.3843026781595
  0
LINE
  5
22C2
330
1FB4
100
AcDbEntity
  8
0
  6
Continuous
100
AcDbLine
 10
241.4186619728442
 20
400.4563933773488
 30
0.0
 11
241.418661972844
 21
384.4565764828176
 31
0.0
  0
LINE
  5
22C3
330
1FB4
100
AcDbEntity
  8
0
  6
Continuous
100
AcDbLine
 10
241.4198220865654
 20
398.957268938646
 30
0.0
 11
240.8392709391045
 21
399.962813004393
 31
0.0
  0
LINE
  5
22C4
330
1FB4
100
AcDbEntity
  8
0
  6
Continuous
100
AcDbLine
 10
241.4193396624119
 20
385.9568522992367
 30
0.0
 11
240.8387732561619
 21
384.9512818044914
 31
0.0
  0
LINE
  5
22C5
330
1FB4
100
AcDbEntity
  8
0
  6
Continuous
100
AcDbLine
 10
236.4186619728442
 20
388.4565764828176
 30
0.0
 11
228.5192479103433
 21
388.4565764828176
 31
0.0
  0
LINE
  5
22C6
330
1FB4
100
AcDbEntity
  8
0
  6
Continuous
100
AcDbLine
 10
236.4186619728442
 20
389.2568694515676
 30
0.0
 11
228.5192479103433
 21
389.2568694515676
 31
0.0
  0
LINE
  5
22C7
330
1FB4
100
AcDbEntity
  8
0
  6
Continuous
100
AcDbLine
 10
236.4186619728442
 20
395.6567717953176
 30
0.0
 11
228.5192479103433
 21
395.6567717953176
 31
0.0
  0
LINE
  5
22C8
330
1FB4
100
AcDbEntity
  8
0
  6
Continuous
100
AcDbLine
 10
236.4186619728442
 20
396.4565764828176
 30
0.0
 11
228.5192479103433
 21
396.4565764828176
 31
0.0
  0
LINE
  5
22C9
330
1FB4
100
AcDbEntity
  8
0
  6
Continuous
100
AcDbLine
 10
223.5193026230432
 20
385.9563941518672
 30
0.0
 11
224.0998690292923
 21
384.9508236571237
 31
0.0
  0
LINE
  5
22CA
330
1FB4
100
AcDbEntity
  8
0
  6
Continuous
100
AcDbLine
 10
228.5192479103431
 20
384.9510540062274
 30
0.0
 11
224.099814316593
 21
384.9510540062274
 31
0.0
  0
ARC
  5
22CB
330
1FB4
100
AcDbEntity
  8
0
  6
Continuous
100
AcDbCircle
 10
226.842490097843
 20
386.8273052269305
 30
0.0
 40
3.322566986083984
100
AcDbArc
 50
145.6156973218406
 51
180.0
  0
LINE
  5
22CC
330
1FB4
100
AcDbEntity
  8
0
  6
Continuous
100
AcDbLine
 10
228.5192479103433
 20
388.7037395531024
 30
0.0
 11
224.1003025978433
 21
388.7037395531024
 31
0.0
  0
ARC
  5
22CD
330
1FB4
100
AcDbEntity
  8
0
  6
Continuous
100
AcDbCircle
 10
235.9391697853433
 20
392.4565776878681
 30
0.0
 40
12.41944122314453
100
AcDbArc
 50
162.4120613966387
 51
197.587972754297
  0
LINE
  5
22CE
330
1FB4
100
AcDbEntity
  8
0
  6
Continuous
100
AcDbLine
 10
223.5197361915933
 20
398.9565776878681
 30
0.0
 11
223.519736191593
 21
385.9564250999774
 31
0.0
  0
LINE
  5
22CF
330
1FB4
100
AcDbEntity
  8
0
  6
Continuous
100
AcDbLine
 10
228.5192479103431
 20
384.9510540062274
 30
0.0
 11
228.5192479103433
 21
399.9619487816181
 31
0.0
  0
LINE
  5
22D0
330
1FB4
100
AcDbEntity
  8
0
  6
Continuous
100
AcDbLine
 10
224.1003025978433
 20
396.2095073753681
 30
0.0
 11
228.5192479103433
 21
396.2095073753681
 31
0.0
  0
ARC
  5
22D1
330
1FB4
100
AcDbEntity
  8
0
  6
Continuous
100
AcDbCircle
 10
226.8424900978433
 20
398.0859722191181
 30
0.0
 40
3.322566986083984
100
AcDbArc
 50
180.0
 51
214.3843026781595
  0
LINE
  5
22D2
330
1FB4
100
AcDbEntity
  8
0
  6
Continuous
100
AcDbLine
 10
223.5193992713829
 20
398.9565348172846
 30
0.0
 11
224.0999656776328
 21
399.9621053120291
 31
0.0
  0
LINE
  5
22D3
330
1FB4
100
AcDbEntity
  8
0
  6
Continuous
100
AcDbLine
 10
224.0998143165933
 20
399.9619487816181
 30
0.0
 11
228.5192479103433
 21
399.9619487816181
 31
0.0
  0
LINE
  5
22D4
330
1FB4
100
AcDbEntity
  8
0
  6
Continuous
100
AcDbLine
 10
410.0189128960948
 20
423.8788387102211
 30
0.0
 11
243.0187596290944
 21
423.8788387102229
 31
0.0
  0
LINE
  5
22D5
330
1FB4
100
AcDbEntity
  8
0
  6
Continuous
100
AcDbLine
 10
410.018912896094
 20
361.0342685390449
 30
0.0
 11
243.0187596290938
 21
361.0342685390458
 31
0.0
  0
ARC
  5
22D8
330
1FB4
100
AcDbEntity
  8
0
  6
Continuous
100
AcDbCircle
 10
586.5187596290934
 20
392.4565836246343
 30
0.0
 40
44.0
100
AcDbArc
 50
139.5845609785563
 51
220.4154390214438
  0
ARC
  5
22D9
330
1FB4
100
AcDbEntity
  8
0
  6
Continuous
100
AcDbCircle
 10
586.5187596290934
 20
392.4565836246343
 30
0.0
 40
44.0
100
AcDbArc
 50
319.5845609785562
 51
40.41543902144363
  0
LINE
  5
22DA
330
1FB4
100
AcDbEntity
  8
0
  6
Continuous
100
AcDbLine
 10
620.0187596290934
 20
363.9302799734428
 30
0.0
 11
620.0187596290934
 21
344.9565836246343
 31
0.0
  0
LINE
  5
22DB
330
1FB4
100
AcDbEntity
  8
0
  6
Continuous
100
AcDbLine
 10
553.0187596290934
 20
363.9302799734419
 30
0.0
 11
553.0187596290934
 21
344.9565836246343
 31
0.0
  0
LINE
  5
22DC
330
1FB4
100
AcDbEntity
  8
0
  6
Continuous
100
AcDbLine
 10
604.6734601674724
 20
442.9565836246343
 30
0.0
 11
617.0187596290934
 21
442.9565836246343
 31
0.0
  0
LINE
  5
22DD
330
1FB4
100
AcDbEntity
  8
0
  6
Continuous
100
AcDbLine
 10
604.6734601674724
 20
341.9565836246343
 30
0.0
 11
617.0187596290934
 21
341.9565836246343
 31
0.0
  0
ARC
  5
22DE
330
1FB4
100
AcDbEntity
  8
0
  6
Continuous
100
AcDbCircle
 10
617.0187596290934
 20
439.9565836246343
 30
0.0
 40
3.0
100
AcDbArc
 50
0.0
 51
90.0
  0
ARC
  5
22DF
330
1FB4
100
AcDbEntity
  8
0
  6
Continuous
100
AcDbCircle
 10
556.0187596290934
 20
439.9565836246343
 30
0.0
 40
3.0
100
AcDbArc
 50
90.0
 51
180.0
  0
ARC
  5
22E0
330
1FB4
100
AcDbEntity
  8
0
  6
Continuous
100
AcDbCircle
 10
556.0187596290934
 20
344.9565836246343
 30
0.0
 40
3.0
100
AcDbArc
 50
180.0
 51
270.0
  0
ARC
  5
22E1
330
1FB4
100
AcDbEntity
  8
0
  6
Continuous
100
AcDbCircle
 10
617.0187596290934
 20
344.9565836246343
 30
0.0
 40
3.0
100
AcDbArc
 50
270.0
 51
0.0
  0
LINE
  5
22E2
330
1FB4
100
AcDbEntity
  8
0
  6
Continuous
100
AcDbLine
 10
553.0187596290934
 20
439.9565836246343
 30
0.0
 11
553.0187596290934
 21
420.9828872758258
 31
0.0
  0
LINE
  5
22E3
330
1FB4
100
AcDbEntity
  8
0
  6
Continuous
100
AcDbLine
 10
620.0187596290934
 20
439.9565836246343
 30
0.0
 11
620.0187596290934
 21
420.9828872758249
 31
0.0
  0
LINE
  5
22E4
330
1FB4
100
AcDbEntity
  8
0
  6
Continuous
100
AcDbLine
 10
611.5187596290934
 20
342.9510301251689
 30
0.0
 11
618.0187596290934
 21
346.7038068749012
 31
0.0
  0
LINE
  5
22E5
330
1FB4
100
AcDbEntity
  8
0
  6
Continuous
100
AcDbLine
 10
618.0187596290934
 20
354.2093603743665
 30
0.0
 11
618.0187596290934
 21
346.7038068749021
 31
0.0
  0
LINE
  5
22E6
330
1FB4
100
AcDbEntity
  8
0
  6
Continuous
100
AcDbLine
 10
611.5187596290943
 20
357.9621371240996
 30
0.0
 11
618.0187596290934
 21
354.2093603743674
 31
0.0
  0
LINE
  5
22E7
330
1FB4
100
AcDbEntity
  8
0
  6
Continuous
100
AcDbLine
 10
605.0187596290934
 20
354.2093603743665
 30
0.0
 11
611.5187596290934
 21
357.9621371240996
 31
0.0
  0
LINE
  5
22E8
330
1FB4
100
AcDbEntity
  8
0
  6
Continuous
100
AcDbLine
 10
605.0187596290934
 20
354.2093603743674
 30
0.0
 11
605.0187596290934
 21
346.7038068749021
 31
0.0
  0
LINE
  5
22E9
330
1FB4
100
AcDbEntity
  8
0
  6
Continuous
100
AcDbLine
 10
605.0187596290943
 20
346.7038068749021
 30
0.0
 11
611.5187596290943
 21
342.9510301251689
 31
0.0
  0
LINE
  5
22EA
330
1FB4
100
AcDbEntity
  8
0
  6
Continuous
100
AcDbLine
 10
561.5187596290943
 20
342.9510301251689
 30
0.0
 11
568.0187596290934
 21
346.7038068749012
 31
0.0
  0
LINE
  5
22EB
330
1FB4
100
AcDbEntity
  8
0
  6
Continuous
100
AcDbLine
 10
568.0187596290934
 20
354.2093603743665
 30
0.0
 11
568.0187596290934
 21
346.7038068749021
 31
0.0
  0
LINE
  5
22EC
330
1FB4
100
AcDbEntity
  8
0
  6
Continuous
100
AcDbLine
 10
561.5187596290943
 20
357.9621371240996
 30
0.0
 11
568.0187596290934
 21
354.2093603743674
 31
0.0
  0
LINE
  5
22ED
330
1FB4
100
AcDbEntity
  8
0
  6
Continuous
100
AcDbLine
 10
555.0187596290934
 20
354.2093603743665
 30
0.0
 11
561.5187596290934
 21
357.9621371240996
 31
0.0
  0
LINE
  5
22EE
330
1FB4
100
AcDbEntity
  8
0
  6
Continuous
100
AcDbLine
 10
555.0187596290934
 20
354.2093603743674
 30
0.0
 11
555.0187596290934
 21
346.7038068749021
 31
0.0
  0
LINE
  5
22EF
330
1FB4
100
AcDbEntity
  8
0
  6
Continuous
100
AcDbLine
 10
555.0187596290943
 20
346.7038068749021
 30
0.0
 11
561.5187596290943
 21
342.9510301251689
 31
0.0
  0
LINE
  5
22F0
330
1FB4
100
AcDbEntity
  8
0
  6
Continuous
100
AcDbLine
 10
611.5187596290934
 20
426.9510301251689
 30
0.0
 11
618.0187596290934
 21
430.7038068749012
 31
0.0
  0
LINE
  5
22F1
330
1FB4
100
AcDbEntity
  8
0
  6
Continuous
100
AcDbLine
 10
618.0187596290934
 20
438.2093603743665
 30
0.0
 11
618.0187596290934
 21
430.7038068749021
 31
0.0
  0
LINE
  5
22F2
330
1FB4
100
AcDbEntity
  8
0
  6
Continuous
100
AcDbLine
 10
611.5187596290943
 20
441.9621371240997
 30
0.0
 11
618.0187596290934
 21
438.2093603743674
 31
0.0
  0
LINE
  5
22F3
330
1FB4
100
AcDbEntity
  8
0
  6
Continuous
100
AcDbLine
 10
605.0187596290934
 20
438.2093603743665
 30
0.0
 11
611.5187596290934
 21
441.9621371240997
 31
0.0
  0
LINE
  5
22F4
330
1FB4
100
AcDbEntity
  8
0
  6
Continuous
100
AcDbLine
 10
605.0187596290934
 20
438.2093603743674
 30
0.0
 11
605.0187596290934
 21
430.7038068749021
 31
0.0
  0
LINE
  5
22F5
330
1FB4
100
AcDbEntity
  8
0
  6
Continuous
100
AcDbLine
 10
605.0187596290943
 20
430.7038068749021
 30
0.0
 11
611.5187596290943
 21
426.9510301251689
 31
0.0
  0
LINE
  5
22F6
330
1FB4
100
AcDbEntity
  8
0
  6
Continuous
100
AcDbLine
 10
561.5187596290943
 20
426.9510301251689
 30
0.0
 11
568.0187596290934
 21
430.7038068749012
 31
0.0
  0
LINE
  5
22F7
330
1FB4
100
AcDbEntity
  8
0
  6
Continuous
100
AcDbLine
 10
568.0187596290934
 20
438.2093603743665
 30
0.0
 11
568.0187596290934
 21
430.7038068749021
 31
0.0
  0
LINE
  5
22F8
330
1FB4
100
AcDbEntity
  8
0
  6
Continuous
100
AcDbLine
 10
561.5187596290943
 20
441.9621371240997
 30
0.0
 11
568.0187596290943
 21
438.2093603743674
 31
0.0
  0
LINE
  5
22F9
330
1FB4
100
AcDbEntity
  8
0
  6
Continuous
100
AcDbLine
 10
555.0187596290934
 20
438.2093603743665
 30
0.0
 11
561.5187596290934
 21
441.9621371240997
 31
0.0
  0
LINE
  5
22FA
330
1FB4
100
AcDbEntity
  8
0
  6
Continuous
100
AcDbLine
 10
555.0187596290934
 20
438.2093603743674
 30
0.0
 11
555.0187596290934
 21
430.7038068749021
 31
0.0
  0
LINE
  5
22FB
330
1FB4
100
AcDbEntity
  8
0
  6
Continuous
100
AcDbLine
 10
555.0187596290943
 20
430.7038068749021
 30
0.0
 11
561.5187596290943
 21
426.9510301251689
 31
0.0
  0
LINE
  5
22FC
330
1FB4
100
AcDbEntity
  8
0
  6
Continuous
100
AcDbLine
 10
569.5187596290934
 20
343.9565836246343
 30
0.0
 11
603.5187596290934
 21
343.9565836246343
 31
0.0
  0
LINE
  5
22FD
330
1FB4
100
AcDbEntity
  8
0
  6
Continuous
100
AcDbLine
 10
569.5187596290934
 20
440.9565836246343
 30
0.0
 11
603.5187596290934
 21
440.9565836246343
 31
0.0
  0
LINE
  5
22FE
330
1FB4
100
AcDbEntity
  8
0
  6
Continuous
100
AcDbLine
 10
568.3640590907144
 20
341.9565836246343
 30
0.0
 11
569.5187596290934
 21
343.9565836246343
 31
0.0
  0
LINE
  5
22FF
330
1FB4
100
AcDbEntity
  8
0
  6
Continuous
100
AcDbLine
 10
603.5187596290934
 20
440.9565836246343
 30
0.0
 11
604.6734601674724
 21
442.9565836246343
 31
0.0
  0
LINE
  5
2300
330
1FB4
100
AcDbEntity
  8
0
  6
Continuous
100
AcDbLine
 10
568.3640590907144
 20
442.9565836246343
 30
0.0
 11
569.5187596290934
 21
440.9565836246343
 31
0.0
  0
LINE
  5
2301
330
1FB4
100
AcDbEntity
  8
0
  6
Continuous
100
AcDbLine
 10
603.5187596290934
 20
343.9565836246343
 30
0.0
 11
604.6734601674724
 21
341.9565836246343
 31
0.0
  0
LINE
  5
2302
330
1FB4
100
AcDbEntity
  8
0
  6
Continuous
100
AcDbLine
 10
556.0187596290934
 20
341.9565836246343
 30
0.0
 11
568.3640590907144
 21
341.9565836246343
 31
0.0
  0
LINE
  5
2303
330
1FB4
100
AcDbEntity
  8
0
  6
Continuous
100
AcDbLine
 10
556.0187596290934
 20
442.9565836246343
 30
0.0
 11
568.3640590907144
 21
442.9565836246343
 31
0.0
  0
LINE
  5
2304
330
1FB4
100
AcDbEntity
  8
0
  6
Continuous
100
AcDbLine
 10
570.0187596290934
 20
442.9565836246343
 30
0.0
 11
603.0187596290934
 21
442.9565836246343
 31
0.0
  0
LINE
  5
2305
330
1FB4
100
AcDbEntity
  8
0
  6
Continuous
100
AcDbLine
 10
570.0187596290934
 20
341.9565836246343
 30
0.0
 11
603.0187596290934
 21
341.9565836246343
 31
0.0
  0
LINE
  5
2306
330
1FB4
100
AcDbEntity
  8
0
  6
Continuous
100
AcDbLine
 10
603.0187596290934
 20
343.9565836246343
 30
0.0
 11
603.0187596290934
 21
341.9565836246343
 31
0.0
  0
LINE
  5
2307
330
1FB4
100
AcDbEntity
  8
0
  6
Continuous
100
AcDbLine
 10
570.0187596290934
 20
343.9565836246343
 30
0.0
 11
570.0187596290934
 21
341.9565836246343
 31
0.0
  0
LINE
  5
2308
330
1FB4
100
AcDbEntity
  8
0
  6
Continuous
100
AcDbLine
 10
570.0187596290934
 20
442.9565836246343
 30
0.0
 11
570.0187596290934
 21
440.9565836246343
 31
0.0
  0
LINE
  5
2309
330
1FB4
100
AcDbEntity
  8
0
  6
Continuous
100
AcDbLine
 10
603.0187596290934
 20
442.9565836246343
 30
0.0
 11
603.0187596290934
 21
440.9565836246343
 31
0.0
  0
ARC
  5
230A
330
1FB4
100
AcDbEntity
  8
0
  6
Continuous
100
AcDbCircle
 10
238.0954197853442
 20
398.0857879085979
 30
0.0
 40
3.322566986083984
100
AcDbArc
 50
325.6156973218404
 51
0.0
  0
ARC
  5
230B
330
1FB4
100
AcDbEntity
  8
0
  6
Continuous
100
AcDbCircle
 10
228.9987400978442
 20
392.456881658598
 30
0.0
 40
12.41944122314453
100
AcDbArc
 50
342.4120613966385
 51
17.58797275429729
  0
ARC
  5
230C
330
1FB4
100
AcDbEntity
  8
0
  6
Continuous
100
AcDbCircle
 10
238.095419785344
 20
386.8274871273479
 30
0.0
 40
3.322566986083984
100
AcDbArc
 50
0.0
 51
34.38430267815937
  0
ARC
  5
230D
330
1FB4
100
AcDbEntity
  8
0
  6
Continuous
100
AcDbCircle
 10
244.0187596290946
 20
441.9565536246344
 30
0.0
 40
1.0
100
AcDbArc
 50
90.0
 51
180.0
  0
ARC
  5
230E
330
1FB4
100
AcDbEntity
  8
0
  6
Continuous
100
AcDbCircle
 10
409.0189128960949
 20
441.9565536246334
 30
0.0
 40
1.0
100
AcDbArc
 50
0.0
 51
90.0
  0
ARC
  5
230F
330
1FB4
100
AcDbEntity
  8
0
  6
Continuous
100
AcDbCircle
 10
409.0189128960938
 20
342.9565536246335
 30
0.0
 40
1.0
100
AcDbArc
 50
270.0
 51
0.0
  0
ARC
  5
2310
330
1FB4
100
AcDbEntity
  8
0
  6
Continuous
100
AcDbCircle
 10
244.0187596290935
 20
342.9565536246353
 30
0.0
 40
1.0
100
AcDbArc
 50
180.0
 51
270.0
  0
LINE
  5
2311
330
1FB4
100
AcDbEntity
  8
0
  6
Continuous
100
AcDbLine
 10
241.4187458137734
 20
442.4565536246355
 30
0.0
 11
241.4187734444116
 21
426.4565536246355
 31
0.0
  0
LINE
  5
2312
330
1FB4
100
AcDbEntity
  8
0
  6
Continuous
100
AcDbLine
 10
236.4188255670591
 20
427.9563630675038
 30
0.0
 11
236.9993937098428
 21
426.95079357535
 31
0.0
  0
LINE
  5
2313
330
1FB4
100
AcDbEntity
  8
0
  6
Continuous
100
AcDbLine
 10
241.4187725904906
 20
426.9510315563457
 30
0.0
 11
236.999338996747
 21
426.95102392436
 31
0.0
  0
ARC
  5
2314
330
1FB4
100
AcDbEntity
  8
0
  6
Continuous
100
AcDbCircle
 10
239.7420115378666
 20
428.8272798814278
 30
0.0
 40
3.322566986083984
100
AcDbArc
 50
145.6156973218406
 51
180.0
  0
LINE
  5
2315
330
1FB4
100
AcDbEntity
  8
0
  6
Continuous
100
AcDbLine
 10
241.4187661099216
 20
430.7037171032153
 30
0.0
 11
236.999820797428
 21
430.7037094720727
 31
0.0
  0
ARC
  5
2316
330
1FB4
100
AcDbEntity
  8
0
  6
Continuous
100
AcDbCircle
 10
248.8386815040779
 20
434.4565680515486
 30
0.0
 40
12.41944122314453
100
AcDbArc
 50
162.4120613966387
 51
197.587972754297
  0
LINE
  5
2317
330
1FB4
100
AcDbEntity
  8
0
  6
Continuous
100
AcDbLine
 10
236.4192366853998
 20
440.9565466042341
 30
0.0
 11
236.4192591355571
 21
427.9563940163625
 31
0.0
  0
LINE
  5
2318
330
1FB4
100
AcDbEntity
  8
0
  6
Continuous
100
AcDbLine
 10
236.999807835606
 20
438.2094772943265
 30
0.0
 11
241.4187531480996
 21
438.209484925469
 31
0.0
  0
ARC
  5
2319
330
1FB4
100
AcDbEntity
  8
0
  6
Continuous
100
AcDbCircle
 10
239.7419920951073
 20
440.085946873599
 30
0.0
 40
3.322566986083984
100
AcDbArc
 50
180.0
 51
214.3843026781595
  0
LINE
  5
231A
330
1FB4
100
AcDbEntity
  8
0
  6
Continuous
100
AcDbLine
 10
236.4188997652621
 20
440.9565037330685
 30
0.0
 11
236.9994644349766
 21
441.9620752304009
 31
0.0
  0
LINE
  5
231B
330
1FB4
100
AcDbEntity
  8
0
  6
Continuous
100
AcDbLine
 10
236.999313074209
 20
441.9619186997279
 30
0.0
 11
241.4187466679526
 21
441.9619263317136
 31
0.0
  0
LINE
  5
231C
330
1FB4
100
AcDbEntity
  8
0
  6
Continuous
100
AcDbLine
 10
243.0187458137755
 20
442.4565536246353
 30
0.0
 11
241.4187458137734
 21
442.4565536246355
 31
0.0
  0
LINE
  5
231D
330
1FB4
100
AcDbEntity
  8
0
  6
Continuous
100
AcDbLine
 10
243.0187734444138
 20
426.4565536246353
 30
0.0
 11
241.4187734444116
 21
426.4565536246355
 31
0.0
  0
LINE
  5
231E
330
1FB4
100
AcDbEntity
  8
0
  6
Continuous
100
AcDbLine
 10
241.4187458137724
 20
358.4565536246355
 30
0.0
 11
241.4187734444104
 21
342.4565536246355
 31
0.0
  0
LINE
  5
231F
330
1FB4
100
AcDbEntity
  8
0
  6
Continuous
100
AcDbLine
 10
236.4188255670589
 20
343.9563630675039
 30
0.0
 11
236.9993937098425
 21
342.95079357535
 31
0.0
  0
LINE
  5
2320
330
1FB4
100
AcDbEntity
  8
0
  6
Continuous
100
AcDbLine
 10
241.4187725904895
 20
342.9510315563457
 30
0.0
 11
236.9993389967459
 21
342.95102392436
 31
0.0
  0
ARC
  5
2321
330
1FB4
100
AcDbEntity
  8
0
  6
Continuous
100
AcDbCircle
 10
239.7420115378655
 20
344.8272798814278
 30
0.0
 40
3.322566986083984
100
AcDbArc
 50
145.6156973218406
 51
180.0
  0
LINE
  5
2322
330
1FB4
100
AcDbEntity
  8
0
  6
Continuous
100
AcDbLine
 10
241.4187661099205
 20
346.7037171032153
 30
0.0
 11
236.9998207974268
 21
346.7037094720727
 31
0.0
  0
ARC
  5
2323
330
1FB4
100
AcDbEntity
  8
0
  6
Continuous
100
AcDbCircle
 10
248.838681504077
 20
350.4565680515477
 30
0.0
 40
12.41944122314453
100
AcDbArc
 50
162.4120613966387
 51
197.587972754297
  0
LINE
  5
2324
330
1FB4
100
AcDbEntity
  8
0
  6
Continuous
100
AcDbLine
 10
236.4192366853998
 20
356.9565466042341
 30
0.0
 11
236.4192591355569
 21
343.9563940163626
 31
0.0
  0
LINE
  5
2325
330
1FB4
100
AcDbEntity
  8
0
  6
Continuous
100
AcDbLine
 10
236.9998078356051
 20
354.2094772943265
 30
0.0
 11
241.4187531480987
 21
354.2094849254691
 31
0.0
  0
ARC
  5
2326
330
1FB4
100
AcDbEntity
  8
0
  6
Continuous
100
AcDbCircle
 10
239.7419920951064
 20
356.0859468735989
 30
0.0
 40
3.322566986083984
100
AcDbArc
 50
180.0
 51
214.3843026781595
  0
LINE
  5
2327
330
1FB4
100
AcDbEntity
  8
0
  6
Continuous
100
AcDbLine
 10
236.4188997652612
 20
356.9565037330685
 30
0.0
 11
236.9994644349757
 21
357.9620752303999
 31
0.0
  0
LINE
  5
2328
330
1FB4
100
AcDbEntity
  8
0
  6
Continuous
100
AcDbLine
 10
236.999313074209
 20
357.9619186997279
 30
0.0
 11
241.4187466679517
 21
357.9619263317136
 31
0.0
  0
LINE
  5
2329
330
1FB4
100
AcDbEntity
  8
0
  6
Continuous
100
AcDbLine
 10
243.0187458137746
 20
358.4565536246353
 30
0.0
 11
241.4187458137724
 21
358.4565536246355
 31
0.0
  0
LINE
  5
232A
330
1FB4
100
AcDbEntity
  8
0
  6
Continuous
100
AcDbLine
 10
243.0187734444126
 20
342.4565536246353
 30
0.0
 11
241.4187734444104
 21
342.4565536246355
 31
0.0
  0
LINE
  5
232B
330
1FB4
100
AcDbEntity
  8
0
  6
Continuous
100
AcDbLine
 10
411.6189267114163
 20
426.4565536246335
 30
0.0
 11
411.6188990807789
 21
442.4565536246334
 31
0.0
  0
LINE
  5
232C
330
1FB4
100
AcDbEntity
  8
0
  6
Continuous
100
AcDbLine
 10
416.6188469581296
 20
440.9567441817649
 30
0.0
 11
416.038278815346
 21
441.9623136739188
 31
0.0
  0
LINE
  5
232D
330
1FB4
100
AcDbEntity
  8
0
  6
Continuous
100
AcDbLine
 10
411.6188999346999
 20
441.9620756929242
 30
0.0
 11
416.0383335284435
 21
441.9620833249096
 31
0.0
  0
ARC
  5
232E
330
1FB4
100
AcDbEntity
  8
0
  6
Continuous
100
AcDbCircle
 10
413.295660987323
 20
440.0858273678411
 30
0.0
 40
3.322566986083984
100
AcDbArc
 50
325.6157962667912
 51
0.000098944934685
  0
LINE
  5
232F
330
1FB4
100
AcDbEntity
  8
0
  6
Continuous
100
AcDbLine
 10
411.618906415268
 20
438.2093901460546
 30
0.0
 11
416.0378517277607
 21
438.209397777197
 31
0.0
  0
ARC
  5
2330
330
1FB4
100
AcDbEntity
  8
0
  6
Continuous
100
AcDbCircle
 10
404.1989910211108
 20
434.456539197721
 30
0.0
 40
12.41944122314453
100
AcDbArc
 50
342.4121603415759
 51
17.58807169925085
  0
LINE
  5
2331
330
1FB4
100
AcDbEntity
  8
0
  6
Continuous
100
AcDbLine
 10
416.6184358397889
 20
427.9565606450346
 30
0.0
 11
416.6184133896316
 21
440.9567132329062
 31
0.0
  0
LINE
  5
2332
330
1FB4
100
AcDbEntity
  8
0
  6
Continuous
100
AcDbLine
 10
416.0378646895827
 20
430.7036299549422
 30
0.0
 11
411.61891937709
 21
430.7036223237999
 31
0.0
  0
ARC
  5
2333
330
1FB4
100
AcDbEntity
  8
0
  6
Continuous
100
AcDbCircle
 10
413.2956804300823
 20
428.827160375671
 30
0.0
 40
3.322566986083984
100
AcDbArc
 50
0.000098944934685
 51
34.38440162309591
  0
LINE
  5
2334
330
1FB4
100
AcDbEntity
  8
0
  6
Continuous
100
AcDbLine
 10
416.6187727599275
 20
427.9566035162002
 30
0.0
 11
416.038208090213
 21
426.9510320188688
 31
0.0
  0
LINE
  5
2335
330
1FB4
100
AcDbEntity
  8
0
  6
Continuous
100
AcDbLine
 10
416.0383594509807
 20
426.9511885495409
 30
0.0
 11
411.6189258572379
 21
426.9511809175553
 31
0.0
  0
LINE
  5
2336
330
1FB4
100
AcDbEntity
  8
0
  6
Continuous
100
AcDbLine
 10
410.018926711414
 20
426.4565536246335
 30
0.0
 11
411.6189267114163
 21
426.4565536246335
 31
0.0
  0
LINE
  5
2337
330
1FB4
100
AcDbEntity
  8
0
  6
Continuous
100
AcDbLine
 10
410.0188990807758
 20
442.4565536246334
 30
0.0
 11
411.618899080778
 21
442.4565536246334
 31
0.0
  0
LINE
  5
2338
330
1FB4
100
AcDbEntity
  8
0
  6
Continuous
100
AcDbLine
 10
411.618926711416
 20
342.4565536246335
 30
0.0
 11
411.618899080778
 21
358.4565536246334
 31
0.0
  0
LINE
  5
2339
330
1FB4
100
AcDbEntity
  8
0
  6
Continuous
100
AcDbLine
 10
416.6188469581296
 20
356.9567441817649
 30
0.0
 11
416.038278815346
 21
357.9623136739188
 31
0.0
  0
LINE
  5
233A
330
1FB4
100
AcDbEntity
  8
0
  6
Continuous
100
AcDbLine
 10
411.618899934699
 20
357.9620756929242
 30
0.0
 11
416.0383335284417
 21
357.9620833249096
 31
0.0
  0
ARC
  5
233B
330
1FB4
100
AcDbEntity
  8
0
  6
Continuous
100
AcDbCircle
 10
413.2956609873221
 20
356.0858273678412
 30
0.0
 40
3.322566986083984
100
AcDbArc
 50
325.6157962667912
 51
0.000098944934685
  0
LINE
  5
233C
330
1FB4
100
AcDbEntity
  8
0
  6
Continuous
100
AcDbLine
 10
411.6189064152671
 20
354.2093901460546
 30
0.0
 11
416.0378517277598
 21
354.2093977771969
 31
0.0
  0
ARC
  5
233D
330
1FB4
100
AcDbEntity
  8
0
  6
Continuous
100
AcDbCircle
 10
404.1989910211099
 20
350.456539197721
 30
0.0
 40
12.41944122314453
100
AcDbArc
 50
342.4121603415759
 51
17.58807169925085
  0
LINE
  5
233E
330
1FB4
100
AcDbEntity
  8
0
  6
Continuous
100
AcDbLine
 10
416.6184358397887
 20
343.9565606450347
 30
0.0
 11
416.6184133896316
 21
356.9567132329062
 31
0.0
  0
LINE
  5
233F
330
1FB4
100
AcDbEntity
  8
0
  6
Continuous
100
AcDbLine
 10
416.0378646895816
 20
346.7036299549423
 30
0.0
 11
411.6189193770889
 21
346.7036223237999
 31
0.0
  0
ARC
  5
2340
330
1FB4
100
AcDbEntity
  8
0
  6
Continuous
100
AcDbCircle
 10
413.2956804300812
 20
344.827160375671
 30
0.0
 40
3.322566986083984
100
AcDbArc
 50
0.000098944934685
 51
34.38440162309591
  0
LINE
  5
2341
330
1FB4
100
AcDbEntity
  8
0
  6
Continuous
100
AcDbLine
 10
416.6187727599264
 20
343.9566035162002
 30
0.0
 11
416.0382080902119
 21
342.9510320188688
 31
0.0
  0
LINE
  5
2342
330
1FB4
100
AcDbEntity
  8
0
  6
Continuous
100
AcDbLine
 10
416.0383594509795
 20
342.9511885495408
 30
0.0
 11
411.6189258572359
 21
342.9511809175554
 31
0.0
  0
LINE
  5
2343
330
1FB4
100
AcDbEntity
  8
0
  6
Continuous
100
AcDbLine
 10
410.018926711413
 20
342.4565536246335
 30
0.0
 11
411.6189267114151
 21
342.4565536246335
 31
0.0
  0
LINE
  5
2344
330
1FB4
100
AcDbEntity
  8
0
  6
Continuous
100
AcDbLine
 10
410.0188990807749
 20
358.4565536246334
 30
0.0
 11
411.6188990807772
 21
358.4565536246334
 31
0.0
  0
LINE
  5
2347
330
1FB4
100
AcDbEntity
  8
0
  6
Continuous
100
AcDbLine
 10
249.018759629095
 20
572.0815586856105
 30
0.0
 11
249.018759629095
 21
660.0815586856104
 31
0.0
  0
LINE
  5
2348
330
1FB4
100
AcDbEntity
  8
0
  6
Continuous
100
AcDbLine
 10
404.0189128960953
 20
572.0815785453968
 30
0.0
 11
404.0189128960953
 21
660.0815785453959
 31
0.0
  0
LINE
  5
2349
330
1FB4
100
AcDbEntity
  8
0
  6
Continuous
100
AcDbLine
 10
409.0189127727933
 20
660.0815787921009
 30
0.0
 11
377.018751629095
 21
660.0815748447981
 31
0.0
  0
LINE
  5
234A
330
1FB4
100
AcDbEntity
  8
0
  6
Continuous
100
AcDbLine
 10
359.0187216290948
 20
660.0815726244478
 30
0.0
 11
244.0187595057393
 21
660.0815584389046
 31
0.0
  0
LINE
  5
234B
330
1FB4
100
AcDbEntity
  8
0
  6
Continuous
100
AcDbLine
 10
409.0189130194983
 20
572.0815787921009
 30
0.0
 11
244.0187597524443
 21
572.0815584389046
 31
0.0
  0
LINE
  5
234C
330
1FB4
100
AcDbEntity
  8
0
  6
Continuous
100
AcDbLine
 10
410.0189128961235
 20
582.7820678639171
 30
0.0
 11
377.0964980549072
 21
582.7820111841086
 31
0.0
  0
LINE
  5
234D
330
1FB4
100
AcDbEntity
  8
0
  6
Continuous
100
AcDbLine
 10
295.9412291161836
 20
582.7818714657695
 30
0.0
 11
243.0187596290668
 21
582.7817803535152
 31
0.0
  0
LINE
  5
234E
330
1FB4
100
AcDbEntity
  8
0
  6
Continuous
100
AcDbLine
 10
410.0189128961235
 20
649.3820678640166
 30
0.0
 11
377.018751629095
 21
649.3820110503587
 31
0.0
  0
LINE
  5
234F
330
1FB4
100
AcDbEntity
  8
0
  6
Continuous
100
AcDbLine
 10
359.0187216290951
 20
649.3819800611903
 30
0.0
 11
243.0187596290668
 21
649.3817803536147
 31
0.0
  0
LINE
  5
2350
330
1FB4
100
AcDbEntity
  8
0
  6
Continuous
100
AcDbLine
 10
410.0189128961235
 20
597.9272759364656
 30
0.0
 11
381.5187596290948
 21
597.9272268701002
 31
0.0
  0
LINE
  5
2351
330
1FB4
100
AcDbEntity
  8
0
  6
Continuous
100
AcDbLine
 10
291.518759629095
 20
597.927071924517
 30
0.0
 11
243.0187596290668
 21
597.9269884260637
 31
0.0
  0
LINE
  5
2352
330
1FB4
100
AcDbEntity
  8
0
  6
Continuous
100
AcDbLine
 10
410.0189128961235
 20
599.0819799286745
 30
0.0
 11
381.5187596290948
 21
599.0819308623091
 31
0.0
  0
LINE
  5
2353
330
1FB4
100
AcDbEntity
  8
0
  6
Continuous
100
AcDbLine
 10
291.518759629095
 20
599.0817759167258
 30
0.0
 11
243.0187596290668
 21
599.0816924182726
 31
0.0
  0
LINE
  5
2354
330
1FB4
100
AcDbEntity
  8
0
  6
Continuous
100
AcDbLine
 10
410.0189128961235
 20
634.2366770132238
 30
0.0
 11
381.5187596290948
 21
634.2366279468584
 31
0.0
  0
LINE
  5
2355
330
1FB4
100
AcDbEntity
  8
0
  6
Continuous
100
AcDbLine
 10
291.518759629095
 20
634.2364730012751
 30
0.0
 11
243.0187596290668
 21
634.2363895028219
 31
0.0
  0
LINE
  5
2356
330
1FB4
100
AcDbEntity
  8
0
  6
Continuous
100
AcDbLine
 10
410.0189128961235
 20
633.0819799286745
 30
0.0
 11
381.5187596290948
 21
633.0819308623091
 31
0.0
  0
LINE
  5
2357
330
1FB4
100
AcDbEntity
  8
0
  6
Continuous
100
AcDbLine
 10
291.518759629095
 20
633.0817759167258
 30
0.0
 11
243.0187596290668
 21
633.0816924182726
 31
0.0
  0
LINE
  5
2358
330
1FB4
100
AcDbEntity
  8
0
  6
Continuous
100
AcDbLine
 10
416.6190105523445
 20
398.9565764828153
 30
0.0
 11
416.6190105523443
 21
385.9565764828153
 31
0.0
  0
LINE
  5
2359
330
1FB4
100
AcDbEntity
  8
0
  6
Continuous
100
AcDbLine
 10
416.0389324273445
 20
399.9622527523466
 30
0.0
 11
412.1995769585945
 21
399.9622527523468
 31
0.0
  0
LINE
  5
235A
330
1FB4
100
AcDbEntity
  8
0
  6
Continuous
100
AcDbLine
 10
416.0384441460945
 20
396.2095061703153
 30
0.0
 11
412.1999996389048
 21
396.2095061703156
 31
0.0
  0
LINE
  5
235B
330
1FB4
100
AcDbEntity
  8
0
  6
Continuous
100
AcDbLine
 10
416.6187279489949
 20
398.9570463367704
 30
0.0
 11
416.0381615427448
 21
399.9626168315149
 31
0.0
  0
LINE
  5
235C
330
1FB4
100
AcDbEntity
  8
0
  6
Continuous
100
AcDbLine
 10
412.1995769585943
 20
384.9512053890656
 30
0.0
 11
416.0389324273443
 21
384.9512053890653
 31
0.0
  0
LINE
  5
235D
330
1FB4
100
AcDbEntity
  8
0
  6
Continuous
100
AcDbLine
 10
412.2004205327774
 20
388.7041350765656
 30
0.0
 11
416.0384441460945
 21
388.7041350765653
 31
0.0
  0
ARC
  5
235E
330
1FB4
100
AcDbEntity
  8
0
  6
Continuous
100
AcDbCircle
 10
413.2962566460943
 20
386.8276702328155
 30
0.0
 40
3.322566986083984
100
AcDbArc
 50
0.0
 51
34.38430267815937
  0
ARC
  5
235F
330
1FB4
100
AcDbEntity
  8
0
  6
Continuous
100
AcDbCircle
 10
404.1995769585945
 20
392.4565764828156
 30
0.0
 40
12.41944122314453
100
AcDbArc
 50
342.4120272457029
 51
17.58793860336125
  0
LINE
  5
2360
330
1FB4
100
AcDbEntity
  8
0
  6
Continuous
100
AcDbLine
 10
410.0189128960945
 20
400.4563933773468
 30
0.0
 11
411.6190105523445
 21
400.4563933773468
 31
0.0
  0
LINE
  5
2361
330
1FB4
100
AcDbEntity
  8
0
  6
Continuous
100
AcDbLine
 10
410.0189128960943
 20
384.4565764828156
 30
0.0
 11
411.6190105523442
 21
384.4565764828156
 31
0.0
  0
LINE
  5
2362
330
1FB4
100
AcDbEntity
  8
0
  6
Continuous
100
AcDbLine
 10
416.6182150072587
 20
385.9570220431129
 30
0.0
 11
416.0376486010087
 21
384.9514515483684
 31
0.0
  0
ARC
  5
2363
330
1FB4
100
AcDbEntity
  8
0
  6
Continuous
100
AcDbCircle
 10
413.2962566460945
 20
398.0859710140656
 30
0.0
 40
3.322566986083984
100
AcDbArc
 50
325.6156973218404
 51
0.0
  0
LINE
  5
2364
330
1FB4
100
AcDbEntity
  8
0
  6
Continuous
100
AcDbLine
 10
411.6190105523445
 20
400.4563933773468
 30
0.0
 11
411.6190105523442
 21
384.4565764828156
 31
0.0
  0
LINE
  5
2365
330
1FB4
100
AcDbEntity
  8
0
  6
Continuous
100
AcDbLine
 10
411.6178504386233
 20
398.9572689386439
 30
0.0
 11
412.1984015860842
 21
399.9628130043909
 31
0.0
  0
LINE
  5
2366
330
1FB4
100
AcDbEntity
  8
0
  6
Continuous
100
AcDbLine
 10
411.6183328627754
 20
385.9568522992347
 30
0.0
 11
412.1988992690263
 21
384.9512818044893
 31
0.0
  0
LINE
  5
2367
330
1FB4
100
AcDbEntity
  8
0
  6
Continuous
100
AcDbLine
 10
416.6190105523445
 20
388.4565764828153
 30
0.0
 11
424.5184246148718
 21
388.4565764828153
 31
0.0
  0
LINE
  5
2368
330
1FB4
100
AcDbEntity
  8
0
  6
Continuous
100
AcDbLine
 10
416.6190105523445
 20
389.2568694515653
 30
0.0
 11
424.5184246148718
 21
389.2568694515653
 31
0.0
  0
LINE
  5
2369
330
1FB4
100
AcDbEntity
  8
0
  6
Continuous
100
AcDbLine
 10
416.6190105523445
 20
395.6567717953153
 30
0.0
 11
424.5184246148718
 21
395.6567717953153
 31
0.0
  0
LINE
  5
236A
330
1FB4
100
AcDbEntity
  8
0
  6
Continuous
100
AcDbLine
 10
416.6190105523445
 20
396.4565764828153
 30
0.0
 11
424.5184246148718
 21
396.4565764828153
 31
0.0
  0
LINE
  5
236B
330
1FB4
100
AcDbEntity
  8
0
  6
Continuous
100
AcDbLine
 10
429.5183699021723
 20
385.956394151865
 30
0.0
 11
428.9378034959224
 21
384.9508236571214
 31
0.0
  0
LINE
  5
236C
330
1FB4
100
AcDbEntity
  8
0
  6
Continuous
100
AcDbLine
 10
424.5184246148715
 20
384.9510540062252
 30
0.0
 11
428.9378582086215
 21
384.9510540062252
 31
0.0
  0
ARC
  5
236D
330
1FB4
100
AcDbEntity
  8
0
  6
Continuous
100
AcDbCircle
 10
426.1951824273715
 20
386.8273052269283
 30
0.0
 40
3.322566986083984
100
AcDbArc
 50
0.0
 51
34.38430267815937
  0
LINE
  5
236E
330
1FB4
100
AcDbEntity
  8
0
  6
Continuous
100
AcDbLine
 10
424.5184246148718
 20
388.7037395531002
 30
0.0
 11
428.9373699273718
 21
388.7037395531002
 31
0.0
  0
ARC
  5
236F
330
1FB4
100
AcDbEntity
  8
0
  6
Continuous
100
AcDbCircle
 10
417.0985027398718
 20
392.4565776878658
 30
0.0
 40
12.41944122314453
100
AcDbArc
 50
342.4120272457029
 51
17.58793860336125
  0
LINE
  5
2370
330
1FB4
100
AcDbEntity
  8
0
  6
Continuous
100
AcDbLine
 10
429.5179363336218
 20
398.9565776878658
 30
0.0
 11
429.5179363336216
 21
385.9564250999752
 31
0.0
  0
LINE
  5
2371
330
1FB4
100
AcDbEntity
  8
0
  6
Continuous
100
AcDbLine
 10
424.5184246148715
 20
384.9510540062252
 30
0.0
 11
424.5184246148718
 21
399.9619487816158
 31
0.0
  0
LINE
  5
2372
330
1FB4
100
AcDbEntity
  8
0
  6
Continuous
100
AcDbLine
 10
428.9373699273718
 20
396.2095073753658
 30
0.0
 11
424.5184246148718
 21
396.2095073753658
 31
0.0
  0
ARC
  5
2373
330
1FB4
100
AcDbEntity
  8
0
  6
Continuous
100
AcDbCircle
 10
426.1951824273718
 20
398.0859722191158
 30
0.0
 40
3.322566986083984
100
AcDbArc
 50
325.6156973218404
 51
0.0
  0
LINE
  5
2374
330
1FB4
100
AcDbEntity
  8
0
  6
Continuous
100
AcDbLine
 10
429.5182732538331
 20
398.9565348172833
 30
0.0
 11
428.9377068475832
 21
399.9621053120268
 31
0.0
  0
LINE
  5
2375
330
1FB4
100
AcDbEntity
  8
0
  6
Continuous
100
AcDbLine
 10
428.9378582086218
 20
399.9619487816158
 30
0.0
 11
424.5184246148718
 21
399.9619487816158
 31
0.0
  0
ARC
  5
2376
330
1FB4
100
AcDbEntity
  8
0
  6
Continuous
100
AcDbCircle
 10
414.9422527398445
 20
398.0857879085966
 30
0.0
 40
3.322566986083984
100
AcDbArc
 50
180.0
 51
214.3843026781595
  0
ARC
  5
2377
330
1FB4
100
AcDbEntity
  8
0
  6
Continuous
100
AcDbCircle
 10
424.0389324273445
 20
392.4568816585966
 30
0.0
 40
12.41944122314453
100
AcDbArc
 50
162.4120272457027
 51
197.5879386033614
  0
ARC
  5
2378
330
1FB4
100
AcDbEntity
  8
0
  6
Continuous
100
AcDbCircle
 10
414.9422527398443
 20
386.8274871273466
 30
0.0
 40
3.322566986083984
100
AcDbArc
 50
145.6156973218406
 51
180.0
  0
LINE
  5
2379
330
1FB4
100
AcDbEntity
  8
0
  6
Continuous
100
AcDbLine
 10
617.0243131285587
 20
392.4565836246343
 30
0.0
 11
613.2715363788265
 21
385.9565836246343
 31
0.0
  0
LINE
  5
237A
330
1FB4
100
AcDbEntity
  8
0
  6
Continuous
100
AcDbLine
 10
605.7659828793612
 20
385.9565836246343
 30
0.0
 11
613.2715363788256
 21
385.9565836246343
 31
0.0
  0
LINE
  5
237B
330
1FB4
100
AcDbEntity
  8
0
  6
Continuous
100
AcDbLine
 10
602.013206129629
 20
392.4565836246343
 30
0.0
 11
605.7659828793603
 21
385.9565836246343
 31
0.0
  0
LINE
  5
237C
330
1FB4
100
AcDbEntity
  8
0
  6
Continuous
100
AcDbLine
 10
605.7659828793612
 20
398.9565836246343
 30
0.0
 11
602.0132061296281
 21
392.4565836246343
 31
0.0
  0
LINE
  5
237D
330
1FB4
100
AcDbEntity
  8
0
  6
Continuous
100
AcDbLine
 10
605.7659828793603
 20
398.9565836246343
 30
0.0
 11
613.2715363788256
 21
398.9565836246343
 31
0.0
  0
LINE
  5
237E
330
1FB4
100
AcDbEntity
  8
0
  6
Continuous
100
AcDbLine
 10
613.2715363788265
 20
398.9565836246343
 30
0.0
 11
617.0243131285587
 21
392.4565836246343
 31
0.0
  0
LINE
  5
237F
330
1FB4
100
AcDbEntity
  8
0
  6
Continuous
100
AcDbLine
 10
243.0187596290668
 20
631.0819476296718
 30
0.0
 11
241.4186619728168
 21
631.0819476296718
 31
0.0
  0
LINE
  5
2380
330
1FB4
100
AcDbEntity
  8
0
  6
Continuous
100
AcDbLine
 10
241.4186619728168
 20
631.0819476296718
 30
0.0
 11
241.4187327312053
 21
648.9140054826865
 31
0.0
  0
LINE
  5
2381
330
1FB4
100
AcDbEntity
  8
0
  6
Continuous
100
AcDbLine
 10
234.0192411559671
 20
643.0817679780329
 30
0.0
 11
228.5192479103168
 21
643.0817679780329
 31
0.0
  0
LINE
  5
2382
330
1FB4
100
AcDbEntity
  8
0
  6
Continuous
100
AcDbLine
 10
234.0192439200425
 20
642.2814750092828
 30
0.0
 11
228.5192479103168
 21
642.2814750092828
 31
0.0
  0
LINE
  5
2383
330
1FB4
100
AcDbEntity
  8
0
  6
Continuous
100
AcDbLine
 10
234.0192660242152
 20
635.8815726655328
 30
0.0
 11
228.5192479103168
 21
635.8815726655328
 31
0.0
  0
LINE
  5
2384
330
1FB4
100
AcDbEntity
  8
0
  6
Continuous
100
AcDbLine
 10
234.0193344093838
 20
584.7495365535222
 30
0.0
 11
234.0193344093838
 21
597.7495365535413
 31
0.0
  0
LINE
  5
2385
330
1FB4
100
AcDbEntity
  8
0
  6
Continuous
100
AcDbLine
 10
239.0188461281338
 20
599.2495479503385
 30
0.0
 11
239.0188461281338
 21
583.2495479503148
 31
0.0
  0
LINE
  5
2386
330
1FB4
100
AcDbEntity
  8
0
  6
Continuous
100
AcDbLine
 10
243.0187596290668
 20
583.2495548578252
 30
0.0
 11
239.0188461281338
 21
583.2495479503157
 31
0.0
  0
LINE
  5
2387
330
1FB4
100
AcDbEntity
  8
0
  6
Continuous
100
AcDbLine
 10
243.0187596290668
 20
599.2495548578489
 30
0.0
 11
239.0188461281338
 21
599.2495479503385
 31
0.0
  0
LINE
  5
2388
330
1FB4
100
AcDbEntity
  8
0
  6
Continuous
100
AcDbLine
 10
224.0997489985616
 20
639.0817528921141
 30
0.0
 11
228.5192479103168
 21
639.0817605242126
 31
0.0
  0
LINE
  5
2389
330
1FB4
100
AcDbEntity
  8
0
  6
Continuous
100
AcDbLine
 10
241.4188461281335
 20
599.2495479503385
 30
0.0
 11
241.4188461281335
 21
583.2495479503148
 31
0.0
  0
LINE
  5
238A
330
1FB4
100
AcDbEntity
  8
0
  6
Continuous
100
AcDbLine
 10
243.0187596290668
 20
573.0817601404895
 30
0.0
 11
243.0187596290668
 21
659.0817601404896
 31
0.0
  0
ARC
  5
238B
330
1FB4
100
AcDbEntity
  8
0
  6
Continuous
100
AcDbCircle
 10
244.0187596290668
 20
573.0817601404895
 30
0.0
 40
1.0
100
AcDbArc
 50
180.0
 51
270.0
  0
LINE
  5
238C
330
1FB4
100
AcDbEntity
  8
0
  6
Continuous
100
AcDbLine
 10
239.0188461281338
 20
584.7495451872527
 30
0.0
 11
234.0193344093838
 21
584.7495365535222
 31
0.0
  0
LINE
  5
238D
330
1FB4
100
AcDbEntity
  8
0
  6
Continuous
100
AcDbLine
 10
239.0188461281338
 20
597.7495451872727
 30
0.0
 11
234.0193344093838
 21
597.7495365535413
 31
0.0
  0
LINE
  5
238E
330
1FB4
100
AcDbEntity
  8
0
  6
Continuous
100
AcDbLine
 10
239.0188461281386
 20
591.2495451872624
 30
0.0
 11
234.5993472163779
 21
591.2495375551642
 31
0.0
  0
ARC
  5
238F
330
1FB4
100
AcDbEntity
  8
0
  6
Continuous
100
AcDbCircle
 10
243.4146579035284
 20
587.9995527784502
 30
0.0
 40
9.395323494156341
100
AcDbArc
 50
159.7623298033373
 51
200.2378680865043
  0
ARC
  5
2390
330
1FB4
100
AcDbEntity
  8
0
  6
Continuous
100
AcDbCircle
 10
243.4146579035284
 20
594.4995223318782
 30
0.0
 40
9.395323494156341
100
AcDbArc
 50
159.7621319134956
 51
200.2376701966626
  0
ARC
  5
2391
330
1FB4
100
AcDbEntity
  8
0
  6
Continuous
100
AcDbCircle
 10
244.0187596290668
 20
659.0817601404896
 30
0.0
 40
1.0
100
AcDbArc
 50
90.0
 51
180.0
  0
ARC
  5
2392
330
1FB4
100
AcDbEntity
  8
0
  6
Continuous
100
AcDbCircle
 10
245.8144737482105
 20
635.8317980236887
 30
0.0
 40
9.395323494156341
100
AcDbArc
 50
188.679382918127
 51
200.2378680865043
  0
LINE
  5
2393
330
1FB4
100
AcDbEntity
  8
0
  6
Continuous
100
AcDbLine
 10
241.4186619728168
 20
632.5817904324911
 30
0.0
 11
236.4191502540668
 21
632.5817817987598
 31
0.0
  0
ARC
  5
2394
330
1FB4
100
AcDbEntity
  8
0
  6
Continuous
100
AcDbCircle
 10
232.0233384786722
 20
635.8317970220558
 30
0.0
 40
9.395323494156341
100
AcDbArc
 50
339.7621319134956
 51
341.9071154525128
  0
LINE
  5
2395
330
1FB4
100
AcDbEntity
  8
0
  6
Continuous
100
AcDbLine
 10
228.5192479103168
 20
645.5817605242217
 30
0.0
 11
223.5197361915659
 21
645.5817518904913
 31
0.0
  0
LINE
  5
2396
330
1FB4
100
AcDbEntity
  8
0
  6
Continuous
100
AcDbLine
 10
228.5192479103168
 20
632.5817605242026
 30
0.0
 11
228.5192479103168
 21
645.5817605242217
 31
0.0
  0
LINE
  5
2397
330
1FB4
100
AcDbEntity
  8
0
  6
Continuous
100
AcDbLine
 10
228.5192479103168
 20
632.5817605242026
 30
0.0
 11
223.5197361915668
 21
632.5817518904713
 31
0.0
  0
LINE
  5
2398
330
1FB4
100
AcDbEntity
  8
0
  6
Continuous
100
AcDbLine
 10
223.5197361915659
 20
632.5817518904713
 30
0.0
 11
223.5197361915659
 21
645.5817518904904
 31
0.0
  0
ARC
  5
2399
330
1FB4
100
AcDbEntity
  8
0
  6
Continuous
100
AcDbCircle
 10
232.9150596857104
 20
635.8317681154002
 30
0.0
 40
9.395323494156341
100
AcDbArc
 50
159.7623298033373
 51
200.2378680865043
  0
ARC
  5
239A
330
1FB4
100
AcDbEntity
  8
0
  6
Continuous
100
AcDbCircle
 10
232.9150596857104
 20
642.3317376688281
 30
0.0
 40
9.395323494156341
100
AcDbArc
 50
159.7621319134956
 51
200.2376701966626
  0
LINE
  5
239B
330
1FB4
100
AcDbEntity
  8
0
  6
Continuous
100
AcDbLine
 10
234.0192687865908
 20
635.0817720665044
 30
0.0
 11
228.5192479103168
 21
635.0817530703688
 31
0.0
  0
LINE
  5
239C
330
1FB4
100
AcDbEntity
  8
0
  6
Continuous
100
AcDbLine
 10
234.0192261932049
 20
647.4139913228344
 30
0.0
 11
234.019271092992
 21
634.4139913228927
 31
0.0
  0
LINE
  5
239D
330
1FB4
100
AcDbEntity
  8
0
  6
Continuous
100
AcDbLine
 10
239.0187879924958
 20
632.9139971935664
 30
0.0
 11
239.0187327312203
 21
648.9139971934945
 31
0.0
  0
LINE
  5
239E
330
1FB4
100
AcDbEntity
  8
0
  6
Continuous
100
AcDbLine
 10
243.0186462321523
 20
648.914004101004
 30
0.0
 11
239.0187327312203
 21
648.9139971934945
 31
0.0
  0
LINE
  5
239F
330
1FB4
100
AcDbEntity
  8
0
  6
Continuous
100
AcDbLine
 10
243.0187014934288
 20
632.9140041010767
 30
0.0
 11
239.0187879924967
 21
632.9139971935664
 31
0.0
  0
LINE
  5
23A0
330
1FB4
100
AcDbEntity
  8
0
  6
Continuous
100
AcDbLine
 10
239.018737911955
 20
647.4139999565657
 30
0.0
 11
234.0192261932059
 21
647.4139913228344
 31
0.0
  0
LINE
  5
23A1
330
1FB4
100
AcDbEntity
  8
0
  6
Continuous
100
AcDbLine
 10
239.018782811742
 20
634.413999956624
 30
0.0
 11
234.019271092992
 21
634.4139913228927
 31
0.0
  0
LINE
  5
23A2
330
1FB4
100
AcDbEntity
  8
0
  6
Continuous
100
AcDbLine
 10
239.0187603618721
 20
640.9139999565947
 30
0.0
 11
234.5992614500926
 21
640.9139923244964
 31
0.0
  0
ARC
  5
23A3
330
1FB4
100
AcDbEntity
  8
0
  6
Continuous
100
AcDbCircle
 10
243.4145609122958
 20
644.1640075477724
 30
0.0
 40
9.395323494156341
100
AcDbArc
 50
159.7623298033373
 51
200.2378680865315
  0
ARC
  5
23A4
330
1FB4
100
AcDbEntity
  8
0
  6
Continuous
100
AcDbCircle
 10
243.4145833620839
 20
637.6640379943836
 30
0.0
 40
9.395323494156341
100
AcDbArc
 50
159.762527693205
 51
200.2380659763796
  0
LINE
  5
23A5
330
1FB4
100
AcDbEntity
  8
0
  6
Continuous
100
AcDbLine
 10
236.4191551508472
 20
634.4139954672881
 30
0.0
 11
236.4191614790004
 21
632.5817817987798
 31
0.0
  0
LINE
  5
23A6
330
1FB4
100
AcDbEntity
  8
0
  6
Continuous
100
AcDbLine
 10
410.0189128961235
 20
631.0819476296718
 30
0.0
 11
411.6190105523735
 21
631.0819476296718
 31
0.0
  0
LINE
  5
23A7
330
1FB4
100
AcDbEntity
  8
0
  6
Continuous
100
AcDbLine
 10
411.6190105523735
 20
631.0819476296718
 30
0.0
 11
411.618939793984
 21
648.9140054826865
 31
0.0
  0
LINE
  5
23A8
330
1FB4
100
AcDbEntity
  8
0
  6
Continuous
100
AcDbLine
 10
419.0184313692232
 20
643.0817679780329
 30
0.0
 11
424.5184246148735
 21
643.0817679780329
 31
0.0
  0
LINE
  5
23A9
330
1FB4
100
AcDbEntity
  8
0
  6
Continuous
100
AcDbLine
 10
419.0184286051469
 20
642.2814750092828
 30
0.0
 11
424.5184246148735
 21
642.2814750092828
 31
0.0
  0
LINE
  5
23AA
330
1FB4
100
AcDbEntity
  8
0
  6
Continuous
100
AcDbLine
 10
419.0184065009741
 20
635.8815726655328
 30
0.0
 11
424.5184246148735
 21
635.8815726655328
 31
0.0
  0
LINE
  5
23AB
330
1FB4
100
AcDbEntity
  8
0
  6
Continuous
100
AcDbLine
 10
419.0183381158065
 20
584.7495365535222
 30
0.0
 11
419.0183381158065
 21
597.7495365535413
 31
0.0
  0
LINE
  5
23AC
330
1FB4
100
AcDbEntity
  8
0
  6
Continuous
100
AcDbLine
 10
414.0188263970564
 20
599.2495479503385
 30
0.0
 11
414.0188263970564
 21
583.2495479503148
 31
0.0
  0
LINE
  5
23AD
330
1FB4
100
AcDbEntity
  8
0
  6
Continuous
100
AcDbLine
 10
410.0189128961235
 20
583.2495548578252
 30
0.0
 11
414.0188263970564
 21
583.2495479503157
 31
0.0
  0
LINE
  5
23AE
330
1FB4
100
AcDbEntity
  8
0
  6
Continuous
100
AcDbLine
 10
410.0189128961235
 20
599.2495548578489
 30
0.0
 11
414.0188263970555
 21
599.2495479503385
 31
0.0
  0
LINE
  5
23AF
330
1FB4
100
AcDbEntity
  8
0
  6
Continuous
100
AcDbLine
 10
428.9379235266287
 20
639.0817528921141
 30
0.0
 11
424.5184246148735
 21
639.0817605242126
 31
0.0
  0
LINE
  5
23B0
330
1FB4
100
AcDbEntity
  8
0
  6
Continuous
100
AcDbLine
 10
411.6188263970559
 20
599.2495479503385
 30
0.0
 11
411.6188263970559
 21
583.2495479503148
 31
0.0
  0
LINE
  5
23B1
330
1FB4
100
AcDbEntity
  8
0
  6
Continuous
100
AcDbLine
 10
410.0189128961235
 20
573.0817601404895
 30
0.0
 11
410.0189128961235
 21
659.0817601404896
 31
0.0
  0
ARC
  5
23B2
330
1FB4
100
AcDbEntity
  8
0
  6
Continuous
100
AcDbCircle
 10
409.0189128961235
 20
573.0817601404895
 30
0.0
 40
1.0
100
AcDbArc
 50
270.0
 51
0.0
  0
LINE
  5
23B3
330
1FB4
100
AcDbEntity
  8
0
  6
Continuous
100
AcDbLine
 10
414.0188263970564
 20
584.7495451872527
 30
0.0
 11
419.0183381158055
 21
584.7495365535222
 31
0.0
  0
LINE
  5
23B4
330
1FB4
100
AcDbEntity
  8
0
  6
Continuous
100
AcDbLine
 10
414.0188263970564
 20
597.7495451872727
 30
0.0
 11
419.0183381158055
 21
597.7495365535413
 31
0.0
  0
LINE
  5
23B5
330
1FB4
100
AcDbEntity
  8
0
  6
Continuous
100
AcDbLine
 10
414.0188263970424
 20
591.2495451872628
 30
0.0
 11
418.4383253088115
 21
591.2495375551642
 31
0.0
  0
ARC
  5
23B6
330
1FB4
100
AcDbEntity
  8
0
  6
Continuous
100
AcDbCircle
 10
409.6230146216619
 20
587.9995527784502
 30
0.0
 40
9.395323494156341
100
AcDbArc
 50
339.7621319134956
 51
20.23767019666268
  0
ARC
  5
23B7
330
1FB4
100
AcDbEntity
  8
0
  6
Continuous
100
AcDbCircle
 10
409.6230146216619
 20
594.4995223318782
 30
0.0
 40
9.395323494156341
100
AcDbArc
 50
339.7623298033373
 51
20.23786808650434
  0
ARC
  5
23B8
330
1FB4
100
AcDbEntity
  8
0
  6
Continuous
100
AcDbCircle
 10
409.0189128961235
 20
659.0817601404896
 30
0.0
 40
1.0
100
AcDbArc
 50
0.0
 51
90.0
  0
ARC
  5
23B9
330
1FB4
100
AcDbEntity
  8
0
  6
Continuous
100
AcDbCircle
 10
407.2231987769798
 20
635.8317980236887
 30
0.0
 40
9.395323494156341
100
AcDbArc
 50
339.7621319134956
 51
351.3206170818729
  0
LINE
  5
23BA
330
1FB4
100
AcDbEntity
  8
0
  6
Continuous
100
AcDbLine
 10
411.6190105523735
 20
632.5817904324911
 30
0.0
 11
416.6185222711235
 21
632.5817817987598
 31
0.0
  0
ARC
  5
23BB
330
1FB4
100
AcDbEntity
  8
0
  6
Continuous
100
AcDbCircle
 10
421.0143340465172
 20
635.8317970220558
 30
0.0
 40
9.395323494156341
100
AcDbArc
 50
198.0928845474871
 51
200.2378680865043
  0
LINE
  5
23BC
330
1FB4
100
AcDbEntity
  8
0
  6
Continuous
100
AcDbLine
 10
424.5184246148735
 20
645.5817605242217
 30
0.0
 11
429.5179363336235
 21
645.5817518904913
 31
0.0
  0
LINE
  5
23BD
330
1FB4
100
AcDbEntity
  8
0
  6
Continuous
100
AcDbLine
 10
424.5184246148735
 20
632.5817605242026
 30
0.0
 11
424.5184246148735
 21
645.5817605242217
 31
0.0
  0
LINE
  5
23BE
330
1FB4
100
AcDbEntity
  8
0
  6
Continuous
100
AcDbLine
 10
424.5184246148735
 20
632.5817605242026
 30
0.0
 11
429.5179363336235
 21
632.5817518904713
 31
0.0
  0
ARC
  5
23BF
330
1FB4
100
AcDbEntity
  8
0
  6
Continuous
100
AcDbCircle
 10
420.1226128394798
 20
635.8317681154002
 30
0.0
 40
9.395323494156341
100
AcDbArc
 50
339.7621319134956
 51
20.23767019666268
  0
LINE
  5
23C0
330
1FB4
100
AcDbEntity
  8
0
  6
Continuous
100
AcDbLine
 10
429.5179363336235
 20
632.5817518904713
 30
0.0
 11
429.5179363336235
 21
645.5817518904904
 31
0.0
  0
ARC
  5
23C1
330
1FB4
100
AcDbEntity
  8
0
  6
Continuous
100
AcDbCircle
 10
420.1226128394798
 20
642.3317376688281
 30
0.0
 40
9.395323494156341
100
AcDbArc
 50
339.7623298033373
 51
20.23786808650434
  0
LINE
  5
23C2
330
1FB4
100
AcDbEntity
  8
0
  6
Continuous
100
AcDbLine
 10
419.0184037385995
 20
635.0817720665044
 30
0.0
 11
424.5184246148735
 21
635.0817530703688
 31
0.0
  0
LINE
  5
23C3
330
1FB4
100
AcDbEntity
  8
0
  6
Continuous
100
AcDbLine
 10
419.0184463319853
 20
647.4139913228344
 30
0.0
 11
419.0184014321983
 21
634.4139913228927
 31
0.0
  0
LINE
  5
23C4
330
1FB4
100
AcDbEntity
  8
0
  6
Continuous
100
AcDbLine
 10
414.0188845326945
 20
632.9139971935664
 30
0.0
 11
414.01893979397
 21
648.9139971934945
 31
0.0
  0
LINE
  5
23C5
330
1FB4
100
AcDbEntity
  8
0
  6
Continuous
100
AcDbLine
 10
410.019026293038
 20
648.914004101004
 30
0.0
 11
414.01893979397
 21
648.9139971934945
 31
0.0
  0
LINE
  5
23C6
330
1FB4
100
AcDbEntity
  8
0
  6
Continuous
100
AcDbLine
 10
410.0189710317615
 20
632.9140041010767
 30
0.0
 11
414.0188845326936
 21
632.9139971935664
 31
0.0
  0
LINE
  5
23C7
330
1FB4
100
AcDbEntity
  8
0
  6
Continuous
100
AcDbLine
 10
414.0189346132344
 20
647.4139999565657
 30
0.0
 11
419.0184463319845
 21
647.4139913228344
 31
0.0
  0
LINE
  5
23C8
330
1FB4
100
AcDbEntity
  8
0
  6
Continuous
100
AcDbLine
 10
414.0188897134483
 20
634.413999956624
 30
0.0
 11
419.0184014321974
 21
634.4139913228927
 31
0.0
  0
LINE
  5
23C9
330
1FB4
100
AcDbEntity
  8
0
  6
Continuous
100
AcDbLine
 10
414.018912163337
 20
640.9139999565947
 30
0.0
 11
418.4384110750977
 21
640.9139923244964
 31
0.0
  0
ARC
  5
23CA
330
1FB4
100
AcDbEntity
  8
0
  6
Continuous
100
AcDbCircle
 10
409.6231116128945
 20
644.1640075477724
 30
0.0
 40
9.395323494156341
100
AcDbArc
 50
339.7621319134684
 51
20.23767019666268
  0
ARC
  5
23CB
330
1FB4
100
AcDbEntity
  8
0
  6
Continuous
100
AcDbCircle
 10
409.6230891631064
 20
637.6640379943836
 30
0.0
 40
9.395323494156341
100
AcDbArc
 50
339.76193402362
 51
20.23747230679493
  0
LINE
  5
23CC
330
1FB4
100
AcDbEntity
  8
0
  6
Continuous
100
AcDbLine
 10
416.6185173743431
 20
634.4139954672881
 30
0.0
 11
416.618511046189
 21
632.5817817987798
 31
0.0
  0
CIRCLE
  5
23CD
330
1FB4
100
AcDbEntity
  8
0
  6
Continuous
100
AcDbCircle
 10
611.5187596290934
 20
350.4565836246343
 30
0.0
 40
7.5
  0
CIRCLE
  5
23CE
330
1FB4
100
AcDbEntity
  8
0
  6
Continuous
100
AcDbCircle
 10
611.5187596290934
 20
350.4565836246343
 30
0.0
 40
6.5
  0
CIRCLE
  5
23CF
330
1FB4
100
AcDbEntity
  8
0
  6
Continuous
100
AcDbCircle
 10
561.5187596290934
 20
350.4565836246343
 30
0.0
 40
7.5
  0
CIRCLE
  5
23D0
330
1FB4
100
AcDbEntity
  8
0
  6
Continuous
100
AcDbCircle
 10
561.5187596290934
 20
350.4565836246343
 30
0.0
 40
6.5
  0
CIRCLE
  5
23D1
330
1FB4
100
AcDbEntity
  8
0
  6
Continuous
100
AcDbCircle
 10
611.5187596290934
 20
434.4565836246343
 30
0.0
 40
7.5
  0
CIRCLE
  5
23D2
330
1FB4
100
AcDbEntity
  8
0
  6
Continuous
100
AcDbCircle
 10
611.5187596290934
 20
434.4565836246343
 30
0.0
 40
6.5
  0
CIRCLE
  5
23D3
330
1FB4
100
AcDbEntity
  8
0
  6
Continuous
100
AcDbCircle
 10
561.5187596290934
 20
434.4565836246343
 30
0.0
 40
7.5
  0
CIRCLE
  5
23D4
330
1FB4
100
AcDbEntity
  8
0
  6
Continuous
100
AcDbCircle
 10
561.5187596290934
 20
434.4565836246343
 30
0.0
 40
6.5
  0
CIRCLE
  5
23D5
330
1FB4
100
AcDbEntity
  8
0
  6
Continuous
100
AcDbCircle
 10
609.5187596290934
 20
392.4565836246343
 30
0.0
 40
7.5
  0
CIRCLE
  5
23D6
330
1FB4
100
AcDbEntity
  8
0
  6
Continuous
100
AcDbCircle
 10
609.5187596290934
 20
392.4565836246343
 30
0.0
 40
6.5
  0
CIRCLE
  5
23D7
330
1FB4
100
AcDbEntity
  8
0
  6
Continuous
100
AcDbCircle
 10
566.5187596290934
 20
392.4565836246343
 30
0.0
 40
4.25
  0
CIRCLE
  5
23D8
330
1FB4
100
AcDbEntity
  8
0
  6
Continuous
100
AcDbCircle
 10
566.5187596290934
 20
392.4565836246343
 30
0.0
 40
3.399999999999999
  0
LINE
  5
23D9
330
1FB4
100
AcDbEntity
  8
0
  6
Continuous
100
AcDbLine
 10
381.518759629094
 20
442.9565536246339
 30
0.0
 11
291.518759629094
 21
442.9565536246339
 31
0.0
  0
LINE
  5
23DA
330
1FB4
100
AcDbEntity
  8
0
  6
Continuous
100
AcDbLine
 10
351.518759629094
 20
476.956568624634
 30
0.0
 11
351.518759629094
 21
447.4565231246341
 31
0.0
  0
LINE
  5
23DB
330
1FB4
100
AcDbEntity
  8
0
  6
Continuous
100
AcDbLine
 10
321.5187596290939
 20
476.956568624634
 30
0.0
 11
321.5187596290939
 21
447.4565231246341
 31
0.0
  0
LINE
  5
23DC
330
1FB4
100
AcDbEntity
  8
0
  6
Continuous
100
AcDbLine
 10
351.518759629094
 20
476.956568624634
 30
0.0
 11
321.5187596290939
 21
476.956568624634
 31
0.0
  0
LINE
  5
23DD
330
1FB4
100
AcDbEntity
  8
0
  6
Continuous
100
AcDbLine
 10
291.518759629094
 20
482.9565536246339
 30
0.0
 11
291.518759629094
 21
442.9565536246339
 31
0.0
  0
LINE
  5
23DE
330
1FB4
100
AcDbEntity
  8
0
  6
Continuous
100
AcDbLine
 10
381.518759629094
 20
482.9565536246339
 30
0.0
 11
381.518759629094
 21
442.9565536246339
 31
0.0
  0
LINE
  5
23DF
330
1FB4
100
AcDbEntity
  8
0
  6
Continuous
100
AcDbLine
 10
371.5187596290939
 20
492.9565536246339
 30
0.0
 11
301.518759629094
 21
492.9565536246339
 31
0.0
  0
LINE
  5
23E0
330
1FB4
100
AcDbEntity
  8
0
  6
Continuous
100
AcDbLine
 10
291.518759629094
 20
447.4565231246341
 30
0.0
 11
381.518759629094
 21
447.4565231246341
 31
0.0
  0
ARC
  5
23E1
330
1FB4
100
AcDbEntity
  8
0
  6
Continuous
100
AcDbCircle
 10
371.5187596290939
 20
482.9565536246339
 30
0.0
 40
10.0
100
AcDbArc
 50
0.0
 51
90.00000299998466
  0
CIRCLE
  5
23E2
330
1FB4
100
AcDbEntity
  8
0
  6
Continuous
100
AcDbCircle
 10
368.0187746290936
 20
477.9565536246339
 30
0.0
 40
9.000030499999997
  0
ARC
  5
23E3
330
1FB4
100
AcDbEntity
  8
0
  6
Continuous
100
AcDbCircle
 10
301.518759629094
 20
482.9565536246339
 30
0.0
 40
10.0
100
AcDbArc
 50
90.00000299998466
 51
180.000010000001
  0
LINE
  5
23E4
330
1FB4
100
AcDbEntity
  8
0
  6
Continuous
100
AcDbLine
 10
305.018755629094
 20
442.9565536246339
 30
0.0
 11
368.0187406290939
 21
442.9565536246339
 31
0.0
  0
LINE
  5
23E5
330
1FB4
100
AcDbEntity
  8
0
  6
Continuous
100
AcDbLine
 10
359.0187216290948
 20
632.9819349460534
 30
0.0
 11
377.018751629095
 21
632.9819349460534
 31
0.0
  0
LINE
  5
23E6
330
1FB4
100
AcDbEntity
  8
0
  6
Continuous
100
AcDbLine
 10
359.0187216290948
 20
632.9819349460534
 30
0.0
 11
359.0187216290948
 21
639.5819409460536
 31
0.0
  0
LINE
  5
23E7
330
1FB4
100
AcDbEntity
  8
0
  6
Continuous
100
AcDbLine
 10
377.018751629095
 20
632.9819349460534
 30
0.0
 11
377.018751629095
 21
639.5819409460536
 31
0.0
  0
LINE
  5
23E8
330
1FB4
100
AcDbEntity
  8
0
  6
Continuous
100
AcDbLine
 10
359.0187216290948
 20
644.0819409460535
 30
0.0
 11
359.0187216290948
 21
674.1819169460535
 31
0.0
  0
LINE
  5
23E9
330
1FB4
100
AcDbEntity
  8
0
  6
Continuous
100
AcDbLine
 10
377.018751629095
 20
644.0819409460535
 30
0.0
 11
377.018751629095
 21
674.1819169460535
 31
0.0
  0
LINE
  5
23EA
330
1FB4
100
AcDbEntity
  8
0
  6
Continuous
100
AcDbLine
 10
359.0187216290948
 20
674.1819169460535
 30
0.0
 11
377.018751629095
 21
674.1819169460535
 31
0.0
  0
LINE
  5
23EB
330
1FB4
100
AcDbEntity
  8
0
  6
Continuous
100
AcDbLine
 10
291.518759629095
 20
644.0819409460535
 30
0.0
 11
381.518759629095
 21
644.0819409460535
 31
0.0
  0
LINE
  5
23EC
330
1FB4
100
AcDbEntity
  8
0
  6
Continuous
100
AcDbLine
 10
381.518759629095
 20
591.0819409460535
 30
0.0
 11
381.518759629095
 21
644.0819409460535
 31
0.0
  0
LINE
  5
23ED
330
1FB4
100
AcDbEntity
  8
0
  6
Continuous
100
AcDbLine
 10
291.518759629095
 20
591.0819409460535
 30
0.0
 11
291.518759629095
 21
644.0819409460535
 31
0.0
  0
LINE
  5
23EE
330
1FB4
100
AcDbEntity
  8
0
  6
Continuous
100
AcDbLine
 10
371.518759629095
 20
581.0819409460536
 30
0.0
 11
301.518759629095
 21
581.0819409460536
 31
0.0
  0
LINE
  5
23EF
330
1FB4
100
AcDbEntity
  8
0
  6
Continuous
100
AcDbLine
 10
291.518759629095
 20
639.5819409460536
 30
0.0
 11
381.518759629095
 21
639.5819409460536
 31
0.0
  0
CIRCLE
  5
23F0
330
1FB4
100
AcDbEntity
  8
0
  6
Continuous
100
AcDbCircle
 10
336.518759629095
 20
616.0819409460535
 30
0.0
 40
15.0
  0
ARC
  5
23F1
330
1FB4
100
AcDbEntity
  8
0
  6
Continuous
100
AcDbCircle
 10
301.518759629095
 20
591.0819409460535
 30
0.0
 40
10.0
100
AcDbArc
 50
180.000010000001
 51
270.0
  0
ARC
  5
23F2
330
1FB4
100
AcDbEntity
  8
0
  6
Continuous
100
AcDbCircle
 10
371.518759629095
 20
591.0819409460535
 30
0.0
 40
10.0
100
AcDbArc
 50
269.999989999999
 51
0.0000006832429909
  0
LINE
  5
23F3
330
1FB4
100
AcDbEntity
  8
0
  6
Continuous
100
AcDbLine
 10
610.0187446290938
 20
492.9565456246342
 30
0.0
 11
614.5187906290934
 21
492.9565456246342
 31
0.0
  0
LINE
  5
23F4
330
1FB4
100
AcDbEntity
  8
0
  6
Continuous
100
AcDbLine
 10
614.5187906290934
 20
492.9565456246342
 30
0.0
 11
614.5187906290934
 21
442.9565836246343
 31
0.0
  0
LINE
  5
23F5
330
1FB4
100
AcDbEntity
  8
0
  6
Continuous
100
AcDbLine
 10
614.5187906290934
 20
442.9565836246343
 30
0.0
 11
551.5187596290934
 21
442.9565836246343
 31
0.0
  0
LINE
  5
23F6
330
1FB4
100
AcDbEntity
  8
0
  6
Continuous
100
AcDbLine
 10
551.5187596290934
 20
447.4565912246344
 30
0.0
 11
551.5187596290934
 21
442.9565836246343
 31
0.0
  0
LINE
  5
23F7
330
1FB4
100
AcDbEntity
  8
0
  6
Continuous
100
AcDbLine
 10
601.5187596290934
 20
476.9565986246344
 30
0.0
 11
601.5187596290934
 21
447.4565912246344
 31
0.0
  0
LINE
  5
23F8
330
1FB4
100
AcDbEntity
  8
0
  6
Continuous
100
AcDbLine
 10
571.5187596290934
 20
476.9565986246344
 30
0.0
 11
571.5187596290934
 21
447.4565912246344
 31
0.0
  0
LINE
  5
23F9
330
1FB4
100
AcDbEntity
  8
0
  6
Continuous
100
AcDbLine
 10
601.5187596290934
 20
476.9565986246344
 30
0.0
 11
571.5187596290934
 21
476.9565986246344
 31
0.0
  0
LINE
  5
23FA
330
1FB4
100
AcDbEntity
  8
0
  6
Continuous
100
AcDbLine
 10
603.4187836290934
 20
485.9565756246343
 30
0.0
 11
603.4187836290934
 21
467.9565456246342
 31
0.0
  0
LINE
  5
23FB
330
1FB4
100
AcDbEntity
  8
0
  6
Continuous
100
AcDbLine
 10
603.4187836290934
 20
485.9565756246343
 30
0.0
 11
610.0187446290938
 21
485.9565756246343
 31
0.0
  0
LINE
  5
23FC
330
1FB4
100
AcDbEntity
  8
0
  6
Continuous
100
AcDbLine
 10
603.4187836290934
 20
467.9565456246342
 30
0.0
 11
610.0187446290938
 21
467.9565456246342
 31
0.0
  0
LINE
  5
23FD
330
1FB4
100
AcDbEntity
  8
0
  6
Continuous
100
AcDbLine
 10
614.5187906290934
 20
485.9565756246343
 30
0.0
 11
644.6187356290939
 21
485.9565756246343
 31
0.0
  0
LINE
  5
23FE
330
1FB4
100
AcDbEntity
  8
0
  6
Continuous
100
AcDbLine
 10
614.5187906290934
 20
467.9565456246342
 30
0.0
 11
644.6187356290939
 21
467.9565456246342
 31
0.0
  0
LINE
  5
23FF
330
1FB4
100
AcDbEntity
  8
0
  6
Continuous
100
AcDbLine
 10
644.6187356290939
 20
485.9565756246343
 30
0.0
 11
644.6187356290939
 21
467.9565456246342
 31
0.0
  0
LINE
  5
2400
330
1FB4
100
AcDbEntity
  8
0
  6
Continuous
100
AcDbLine
 10
551.5187596290934
 20
447.4565912246344
 30
0.0
 11
610.0187446290938
 21
447.4565912246344
 31
0.0
  0
LINE
  5
2401
330
1FB4
100
AcDbEntity
  8
0
  6
Continuous
100
AcDbLine
 10
610.0187446290938
 20
492.9565456246342
 30
0.0
 11
610.0187446290938
 21
447.4565912246344
 31
0.0
  0
LINE
  5
2405
330
1FB4
100
AcDbEntity
  8
0
  6
Continuous
100
AcDbLine
 10
316.5187596290957
 20
532.0819259460535
 30
0.0
 11
316.5187596290957
 21
572.0815673819673
 31
0.0
  0
LINE
  5
2406
330
1FB4
100
AcDbEntity
  8
0
  6
Continuous
100
AcDbLine
 10
356.5187596290957
 20
532.0819259460535
 30
0.0
 11
356.5187596290957
 21
572.0815723160709
 31
0.0
  0
LINE
  5
2407
330
1FB4
100
AcDbEntity
  8
0
  6
Continuous
100
AcDbLine
 10
356.5187596290957
 20
532.0819259460535
 30
0.0
 11
316.5187596290957
 21
532.0819259460535
 31
0.0
  0
LINE
  5
2408
330
1FB4
100
AcDbEntity
  8
0
  6
Continuous
100
AcDbLine
 10
399.0187596290957
 20
556.5819409460536
 30
0.0
 11
396.1687606290956
 21
556.5819409460536
 31
0.0
  0
LINE
  5
2409
330
1FB4
100
AcDbEntity
  8
0
  6
Continuous
100
AcDbLine
 10
396.1687609290957
 20
556.5819399460536
 30
0.0
 11
393.0022198290955
 21
565.2819399460536
 31
0.0
  0
LINE
  5
240A
330
1FB4
100
AcDbEntity
  8
0
  6
Continuous
100
AcDbLine
 10
393.0022191290957
 20
565.2819419460536
 30
0.0
 11
356.5187596290957
 21
565.2819419460536
 31
0.0
  0
LINE
  5
240B
330
1FB4
100
AcDbEntity
  8
0
  6
Continuous
100
AcDbLine
 10
399.0187596290957
 20
572.0815775585561
 30
0.0
 11
399.0187596290957
 21
556.5819409460536
 31
0.0
  0
LINE
  5
240C
330
1FB4
100
AcDbEntity
  8
0
  6
Continuous
100
AcDbLine
 10
393.0022191290957
 20
565.2819419460536
 30
0.0
 11
393.0022191290954
 21
572.0815768164002
 31
0.0
  0
LINE
  5
240D
330
1FB4
100
AcDbEntity
  8
0
  6
Continuous
100
AcDbLine
 10
274.0187596290957
 20
556.5819409460536
 30
0.0
 11
274.0187596290957
 21
572.0815621394823
 31
0.0
  0
LINE
  5
240E
330
1FB4
100
AcDbEntity
  8
0
  6
Continuous
100
AcDbLine
 10
280.0353001290957
 20
565.2819419460537
 30
0.0
 11
316.5187596290957
 21
565.2819419460537
 31
0.0
  0
LINE
  5
240F
330
1FB4
100
AcDbEntity
  8
0
  6
Continuous
100
AcDbLine
 10
276.8687583290957
 20
556.5819399460536
 30
0.0
 11
280.0352994290956
 21
565.2819399460537
 31
0.0
  0
LINE
  5
2410
330
1FB4
100
AcDbEntity
  8
0
  6
Continuous
100
AcDbLine
 10
274.0187596290957
 20
556.5819409460536
 30
0.0
 11
276.8687586290957
 21
556.5819409460536
 31
0.0
  0
LINE
  5
2411
330
1FB4
100
AcDbEntity
  8
0
  6
Continuous
100
AcDbLine
 10
280.0353001290957
 20
572.0815628816381
 30
0.0
 11
280.0353001290957
 21
565.2819419460537
 31
0.0
  0
LINE
  5
2412
330
1FB4
100
AcDbEntity
  8
0
  6
Continuous
100
AcDbLine
 10
316.5184695074647
 20
700.0818868689574
 30
0.0
 11
316.518607659416
 21
660.0822454332822
 31
0.0
  0
LINE
  5
2413
330
1FB4
100
AcDbEntity
  8
0
  6
Continuous
100
AcDbLine
 10
356.5184695072261
 20
700.0820250221472
 30
0.0
 11
356.5186076591945
 21
660.0823786523684
 31
0.0
  0
LINE
  5
2414
330
1FB4
100
AcDbEntity
  8
0
  6
Continuous
100
AcDbLine
 10
356.5184695072261
 20
700.0820250221472
 30
0.0
 11
316.5184695074647
 21
700.0818868689574
 31
0.0
  0
LINE
  5
2415
330
1FB4
100
AcDbEntity
  8
0
  6
Continuous
100
AcDbLine
 10
399.0185541258531
 20
675.5821568100574
 30
0.0
 11
396.1685551258701
 21
675.582146966646
 31
0.0
  0
LINE
  5
2416
330
1FB4
100
AcDbEntity
  8
0
  6
Continuous
100
AcDbLine
 10
396.1685554258668
 20
675.5821479666471
 30
0.0
 11
393.0020443742043
 21
666.8821370300052
 31
0.0
  0
LINE
  5
2417
330
1FB4
100
AcDbEntity
  8
0
  6
Continuous
100
AcDbLine
 10
393.0020436742113
 20
666.8821350300028
 30
0.0
 11
377.018751629095
 21
666.8820798264333
 31
0.0
  0
LINE
  5
2418
330
1FB4
100
AcDbEntity
  8
0
  6
Continuous
100
AcDbLine
 10
399.0186076589591
 20
660.0825201976475
 30
0.0
 11
399.0185541258531
 21
675.5821568100574
 31
0.0
  0
LINE
  5
2419
330
1FB4
100
AcDbEntity
  8
0
  6
Continuous
100
AcDbLine
 10
393.0020436742113
 20
666.8821350300028
 30
0.0
 11
393.0020671589923
 21
660.0825001596968
 31
0.0
  0
LINE
  5
241A
330
1FB4
100
AcDbEntity
  8
0
  6
Continuous
100
AcDbLine
 10
274.0185541265988
 20
675.5817250813394
 30
0.0
 11
274.0186076596514
 21
660.0821038880032
 31
0.0
  0
LINE
  5
241B
330
1FB4
100
AcDbEntity
  8
0
  6
Continuous
100
AcDbLine
 10
280.035124674885
 20
666.8817448614977
 30
0.0
 11
316.5185841746674
 21
666.8818708691553
 31
0.0
  0
LINE
  5
241C
330
1FB4
100
AcDbEntity
  8
0
  6
Continuous
100
AcDbLine
 10
276.8685528265783
 20
675.5817359247497
 30
0.0
 11
280.0351239748781
 21
666.8817468614953
 31
0.0
  0
LINE
  5
241D
330
1FB4
100
AcDbEntity
  8
0
  6
Continuous
100
AcDbLine
 10
274.0185541265988
 20
675.5817250813394
 30
0.0
 11
276.8685531265818
 21
675.5817349247507
 31
0.0
  0
LINE
  5
241E
330
1FB4
100
AcDbEntity
  8
0
  6
Continuous
100
AcDbLine
 10
280.0351481596182
 20
660.082123925954
 30
0.0
 11
280.035124674885
 21
666.8817448614977
 31
0.0
  0
LINE
  5
241F
330
1FB4
100
AcDbEntity
  8
0
  6
Continuous
100
AcDbLine
 10
359.018721629095
 20
666.8820176573943
 30
0.0
 11
356.5185841744289
 21
666.8820090223452
 31
0.0
  0
LINE
  5
25C0
330
1FB4
100
AcDbEntity
  8
0
  6
CENTER
100
AcDbLine
 10
256.4924950010722
 20
219.6565536246343
 30
0.0
 11
416.5450432571143
 21
219.6565536246343
 31
0.0
  0
LINE
  5
25C1
330
1FB4
100
AcDbEntity
  8
0
  6
CENTER
100
AcDbLine
 10
336.5187691290933
 20
119.546081341962
 30
0.0
 11
336.5187691290933
 21
504.8265259040924
 31
0.0
  0
LINE
  5
25C2
330
1FB4
100
AcDbEntity
  8
0
  6
CENTER
100
AcDbLine
 10
494.2811644023545
 20
219.6565536246343
 30
0.0
 11
678.7563548558323
 21
219.6565536246343
 31
0.0
  0
LINE
  5
25C3
330
1FB4
100
AcDbEntity
  8
0
  6
CENTER
100
AcDbLine
 10
586.5187596290934
 20
113.8482004630348
 30
0.0
 11
586.5187596290934
 21
498.5660313320952
 31
0.0
  0
LINE
  5
25C4
330
1FB4
100
AcDbEntity
  8
0
  6
CENTER
100
AcDbLine
 10
214.9846404795646
 20
616.0819409460535
 30
0.0
 11
430.5271043949044
 21
616.0819409460535
 31
0.0
  0
LINE
  5
25C5
330
1FB4
100
AcDbEntity
  8
0
  6
CENTER
100
AcDbLine
 10
336.518759629095
 20
526.1375254361148
 30
0.0
 11
336.518759629095
 21
706.0263564559924
 31
0.0
  0
ENDSEC
  0
SECTION
  2
OBJECTS
  0
DICTIONARY
  5
1FA2
330
0
100
AcDbDictionary
281
     1
  3
ACAD_2007HEADERVARS_RT
350
254D
  3
ACAD_COLOR
350
204F
  3
ACAD_GROUP
350
1FA3
  3
ACAD_LAYOUT
350
1FAF
  3
ACAD_MATERIAL
350
2025
  3
ACAD_MLEADERSTYLE
350
2074
  3
ACAD_MLINESTYLE
350
1FAC
  3
ACAD_PLOTSETTINGS
350
1FAE
  3
ACAD_PLOTSTYLENAME
350
1FA4
  3
ACAD_SCALELIST
350
2052
  3
ACAD_TABLESTYLE
350
2050
  3
ACAD_VISUALSTYLE
350
203E
  3
ACDB_RECOMPOSE_DATA
350
2425
  3
AcDbVariableDictionary
350
2022
  3
AcmDictionary
350
20D5
  3
AcmSystemVariableManager
350
255D
  3
AMG
350
207E
  3
AMGSNAPSETTINGS
350
210B
  3
DWGPROPS
350
254C
  0
DICTIONARY
  5
242C
330
1F9E
100
AcDbDictionary
280
     1
281
     1
  3
ACAD_XREC_ROUNDTRIP
360
2552
  0
DICTIONARY
  5
25B4
330
1F98
100
AcDbDictionary
280
     1
281
     1
  3
ACAD_LAYERSTATES
360
25B5
  0
DICTIONARY
  5
2420
330
1FA6
100
AcDbDictionary
280
     1
281
     1
  3
ADSK_XREC_LAYER_RECONCILED
360
2421
  0
DICTIONARY
  5
2557
330
1FC7
100
AcDbDictionary
280
     1
281
     1
  3
ACAD_XREC_ROUNDTRIP
360
2558
  0
DICTIONARY
  5
1FE0
330
1FB4
100
AcDbDictionary
280
     1
281
     1
  3
ACAD_LAYOUTSELFREF
360
25A0
  3
ACAD_SORTENTS
360
2404
  0
DICTIONARY
  5
1FE2
330
1FB0
100
AcDbDictionary
280
     1
281
     1
  3
ACAD_LAYOUTSELFREF
360
259F
  0
DICTIONARY
  5
254D
102
{ACAD_REACTORS
330
1FA2
102
}
330
1FA2
100
AcDbDictionary
281
     1
  3
DIMARCSYM
350
254E
  3
DIMLTEX1
350
2550
  3
DIMLTEX2
350
2551
  3
DIMLTYPE
350
254F
  0
DICTIONARY
  5
204F
102
{ACAD_REACTORS
330
1FA2
102
}
330
1FA2
100
AcDbDictionary
281
     1
  0
DICTIONARY
  5
1FA3
102
{ACAD_REACTORS
330
1FA2
102
}
330
1FA2
100
AcDbDictionary
281
     1
  0
DICTIONARY
  5
1FAF
102
{ACAD_REACTORS
330
1FA2
102
}
330
1FA2
100
AcDbDictionary
281
     1
  3
Model
350
1FB7
  3
ﾚｲｱｳﾄ1
350
1FB3
  0
DICTIONARY
  5
2025
102
{ACAD_REACTORS
330
1FA2
102
}
330
1FA2
100
AcDbDictionary
281
     1
  3
ByBlock
350
202E
  3
ByLayer
350
2026
  3
Global
350
2036
  0
DICTIONARY
  5
2074
102
{ACAD_REACTORS
330
1FA2
102
}
330
1FA2
100
AcDbDictionary
281
     1
  3
Standard
350
2075
  0
DICTIONARY
  5
1FAC
102
{ACAD_REACTORS
330
1FA2
102
}
330
1FA2
100
AcDbDictionary
281
     1
  3
Standard
350
1FAD
  0
DICTIONARY
  5
1FAE
102
{ACAD_REACTORS
330
1FA2
102
}
330
1FA2
100
AcDbDictionary
281
     1
  0
ACDBDICTIONARYWDFLT
  5
1FA4
102
{ACAD_REACTORS
330
1FA2
102
}
330
1FA2
100
AcDbDictionary
281
     1
  3
Normal
350
1FA5
100
AcDbDictionaryWithDefault
340
1FA5
  0
DICTIONARY
  5
2052
102
{ACAD_REACTORS
330
1FA2
102
}
330
1FA2
100
AcDbDictionary
281
     1
  3
A0
350
2053
  3
A1
350
2054
  3
A2
350
2055
  3
A3
350
2056
  3
A4
350
2057
  3
A5
350
2058
  3
A6
350
2059
  3
A7
350
205A
  3
A8
350
205B
  3
A9
350
205C
  3
B0
350
205D
  3
B1
350
205E
  3
B2
350
205F
  3
B3
350
2060
  3
B4
350
2061
  3
B5
350
2062
  3
B6
350
2063
  3
B7
350
2064
  3
B8
350
2065
  3
B9
350
2066
  3
C0
350
2067
  3
C1
350
2068
  3
C2
350
2069
  3
C3
350
206A
  3
C4
350
206B
  3
C5
350
206C
  3
C6
350
206D
  3
C7
350
206E
  3
C8
350
206F
  3
C9
350
2070
  3
D0
350
2071
  3
D1
350
2072
  3
D2
350
2073
  0
DICTIONARY
  5
2050
102
{ACAD_REACTORS
330
1FA2
102
}
330
1FA2
100
AcDbDictionary
281
     1
  3
Standard
350
2051
  0
DICTIONARY
  5
203E
102
{ACAD_REACTORS
330
1FA2
102
}
330
1FA2
100
AcDbDictionary
281
     1
  3
2dWireframe
350
2044
  3
3D Hidden
350
2046
  3
3dWireframe
350
2045
  3
Basic
350
2043
  3
Brighten
350
204A
  3
ColorChange
350
204E
  3
Conceptual
350
2047
  3
Dim
350
2049
  3
Facepattern
350
204D
  3
Flat
350
203F
  3
FlatWithEdges
350
2040
  3
Gouraud
350
2041
  3
GouraudWithEdges
350
2042
  3
Linepattern
350
204C
  3
Realistic
350
2048
  3
Thicken
350
204B
  0
XRECORD
  5
2425
102
{ACAD_REACTORS
330
1FA2
102
}
330
1FA2
100
AcDbXrecord
280
     1
 90
        1
330
2051
  0
DICTIONARY
  5
2022
102
{ACAD_REACTORS
330
1FA2
102
}
330
1FA2
100
AcDbDictionary
281
     1
  3
CANNOSCALE
350
2440
  3
CMLEADERSTYLE
350
243F
  3
CTABLESTYLE
350
243E
  3
DIMASSOC
350
2023
  3
INDEXCTL
350
2442
  3
SORTENTS
350
2441
  0
DICTIONARY
  5
20D5
102
{ACAD_REACTORS
330
1FA2
102
}
330
1FA2
100
AcDbDictionary
281
     1
  3
AcmStdDictionary
350
20E2
  0
ACAD_PROXY_OBJECT
  5
255D
102
{ACAD_REACTORS
330
1FA2
102
}
330
1FA2
100
AcDbProxyObject
 90
      499
 91
      517
 95
   917527
 70
     0
 93
       32
310
9014220035
330
0
 94
        0
  0
DICTIONARY
  5
207E
102
{ACAD_REACTORS
330
1FA2
102
}
330
1FA2
100
AcDbDictionary
281
     1
  0
DICTIONARY
  5
210B
102
{ACAD_REACTORS
330
1FA2
102
}
330
1FA2
100
AcDbDictionary
281
     1
  0
XRECORD
  5
254C
102
{ACAD_REACTORS
330
1FA2
102
}
330
1FA2
100
AcDbXrecord
280
     1
  1
DWGPROPS COOKIE
  2

  3

  4

  6

  7

  8
m
  9

300
=
301
=
302
=
303
=
304
=
305
=
306
=
307
=
308
=
309
=
 40
0.2312836111111111
 41
2452488.423138738
 42
2454750.480420463
  1

 90
        0
  0
XRECORD
  5
2552
102
{ACAD_REACTORS
330
242C
102
}
330
242C
100
AcDbXrecord
280
     1
102
VTR_0.000_0.000_1.000_1.000_VISUALSTYLE
340
2044
102
VTR_0.000_0.000_1.000_1.000_GRIDDISPLAY
 70
     3
102
VTR_0.000_0.000_1.000_1.000_GRIDMAJOR
 70
     5
102
VTR_0.000_0.000_1.000_1.000_DEFAULTLIGHTING
280
     1
102
VTR_0.000_0.000_1.000_1.000_DEFAULTLIGHTINGTYPE
 70
     1
102
VTR_0.000_0.000_1.000_1.000_BRIGHTNESS
141
0.0
102
VTR_0.000_0.000_1.000_1.000_CONTRAST
142
0.0
  0
DICTIONARY
  5
25B5
102
{ACAD_REACTORS
330
25B4
102
}
330
25B4
100
AcDbDictionary
281
     1
  0
XRECORD
  5
2421
102
{ACAD_REACTORS
330
2420
102
}
330
2420
100
AcDbXrecord
280
     1
290
     1
  0
XRECORD
  5
2558
102
{ACAD_REACTORS
330
2557
102
}
330
2557
100
AcDbXrecord
280
     1
102
CAMERAPLOTTABLE
 70
     0
102
VISUALSTYLE
340
2044
  0
XRECORD
  5
25A0
102
{ACAD_REACTORS
330
1FE0
102
}
330
1FE0
100
AcDbXrecord
280
     1
340
1FB4
  0
SORTENTSTABLE
  5
2404
102
{ACAD_REACTORS
330
1FE0
102
}
330
1FE0
100
AcDbSortentsTable
330
1FB4
331
125B
  5
125B
331
23C2
  5
23C3
331
234C
  5
234D
331
230D
  5
230E
331
2383
  5
2384
331
23F9
  5
23FA
331
23CA
  5
23CB
331
2354
  5
2355
331
2315
  5
2316
331
22DE
  5
22DF
331
238B
  5
238C
331
2401
  5
2403
331
23D2
  5
23D3
331
231D
  5
231E
331
22E6
  5
22E7
331
235C
  5
235D
331
2393
  5
2394
331
2409
  5
2409
331
2325
  5
2326
331
239B
  5
239C
331
2411
  5
2411
331
1CDB
  5
1CDC
331
1CE3
  5
1CE4
331
120C
  5
120C
331
2419
  5
241A
331
23A3
  5
23A4
331
22EE
  5
22EF
331
22B7
  5
22B8
331
232D
  5
232E
331
2364
  5
2365
331
23DA
  5
23DB
331
2335
  5
2336
331
22F6
  5
22F7
331
22BF
  5
22C0
331
236C
  5
236D
331
23AB
  5
23AC
331
23E2
  5
23E3
331
23B3
  5
23B4
331
233D
  5
233E
331
22FE
  5
22FF
331
22C7
  5
22C8
331
2374
  5
2375
331
23EA
  5
23EB
331
23BB
  5
23BC
331
2306
  5
2307
331
22CF
  5
22D0
331
237C
  5
237D
331
23F2
  5
23F3
331
125C
  5
125C
331
23C3
  5
23C4
331
230E
  5
230F
331
234D
  5
234E
331
2384
  5
2385
331
23FA
  5
23FB
331
2355
  5
2356
331
22DF
  5
22E0
331
2316
  5
2317
331
238C
  5
238D
331
23CB
  5
23CC
331
23D3
  5
23D4
331
235D
  5
235E
331
231E
  5
231F
331
22E7
  5
22E8
331
2394
  5
2395
331
240A
  5
240A
331
2326
  5
2327
331
239C
  5
239D
331
2412
  5
2412
331
1CDC
  5
1CDE
331
22B0
  5
22B1
331
120D
  5
120D
331
1CE4
  5
1CE5
331
23A4
  5
23A5
331
232E
  5
232F
331
22EF
  5
22F0
331
22B8
  5
22B9
331
2365
  5
2366
331
23DB
  5
23DC
331
241A
  5
241B
331
23AC
  5
23AD
331
22F7
  5
22F8
331
22C0
  5
22C1
331
1D64
  5
1D65
331
1255
  5
1255
331
2336
  5
2337
331
236D
  5
236E
331
23E3
  5
23E4
331
23B4
  5
23B5
331
22FF
  5
2300
331
22C8
  5
22C9
331
233E
  5
233F
331
2375
  5
2376
331
23EB
  5
23EC
331
2307
  5
2308
331
237D
  5
237E
331
23BC
  5
23BD
331
23F3
  5
23F4
331
125D
  5
125D
331
22D0
  5
22D1
331
23C4
  5
23C5
331
234E
  5
234F
331
230F
  5
2310
331
22D8
  5
22D9
331
1595
  5
1595
331
2385
  5
2386
331
23FB
  5
23FC
331
23CC
  5
23CD
331
2356
  5
2357
331
2317
  5
2318
331
22E0
  5
22E1
331
238D
  5
238E
331
23D4
  5
23D5
331
231F
  5
2320
331
235E
  5
235F
331
2395
  5
2396
331
240B
  5
240B
331
2327
  5
2328
331
239D
  5
239E
331
2413
  5
2413
331
22E8
  5
22E9
331
22B1
  5
22B2
331
1CE5
  5
1CE6
331
120E
  5
120E
331
241B
  5
241C
331
232F
  5
2330
331
22F0
  5
22F1
331
22B9
  5
22BA
331
2366
  5
2367
331
23A5
  5
23A6
331
23DC
  5
23DD
331
2337
  5
2338
331
22F8
  5
22F9
331
22C1
  5
22C2
331
1256
  5
1256
331
1D65
  5
1D6A
331
236E
  5
236F
331
23AD
  5
23AE
331
23E4
  5
23E5
331
23B5
  5
23B6
331
233F
  5
2340
331
2300
  5
2301
331
22C9
  5
22CA
331
2376
  5
2377
331
23EC
  5
23ED
331
23BD
  5
23BE
331
2347
  5
2348
331
237E
  5
237F
331
23F4
  5
23F5
331
125E
  5
125E
331
2308
  5
2309
331
22D1
  5
22D2
331
1576
  5
1576
331
23C5
  5
23C6
331
2310
  5
2311
331
22D9
  5
22DA
331
234F
  5
2350
331
2386
  5
2387
331
23FC
  5
23FD
331
2357
  5
2358
331
2318
  5
2319
331
22E1
  5
22E2
331
1CD6
  5
1CD6
331
238E
  5
238F
331
23CD
  5
23CE
331
23D5
  5
23D6
331
235F
  5
2360
331
2320
  5
2321
331
2396
  5
2397
331
240C
  5
240C
331
239E
  5
239F
331
2414
  5
2414
331
1CDE
  5
1CE2
331
2328
  5
2329
331
22E9
  5
22EA
331
22B2
  5
22B3
331
120F
  5
120F
331
1CE6
  5
1CE7
331
241C
  5
241D
331
23A6
  5
23A7
331
2330
  5
2331
331
22F1
  5
22F2
331
22BA
  5
22BB
331
2367
  5
2368
331
23DD
  5
23DE
331
23AE
  5
23AF
331
22F9
  5
22FA
331
22C2
  5
22C3
331
1257
  5
1257
331
2338
  5
2339
331
236F
  5
2370
331
23E5
  5
23E6
331
2301
  5
2302
331
22CA
  5
22CB
331
2340
  5
2341
331
2377
  5
2378
331
23B6
  5
23B7
331
23ED
  5
23EE
331
237F
  5
2380
331
23BE
  5
23BF
331
23F5
  5
23F6
331
125F
  5
125F
331
2348
  5
2349
331
2309
  5
230A
331
22D2
  5
22D3
331
23FD
  5
23FE
331
23C6
  5
23C7
331
2350
  5
2351
331
2311
  5
2312
331
22DA
  5
22DB
331
2387
  5
2388
331
2405
  5
2405
331
23CE
  5
23CF
331
2319
  5
231A
331
1CD7
  5
1CD7
331
22E2
  5
22E3
331
2358
  5
2359
331
238F
  5
2390
331
240D
  5
240D
331
23D6
  5
23D7
331
2321
  5
2322
331
2397
  5
2398
331
2415
  5
2415
331
239F
  5
23A0
331
2329
  5
232A
331
22EA
  5
22EB
331
1CE7
  5
1CE8
331
1210
  5
1210
331
22B3
  5
22B4
331
2360
  5
2361
331
241D
  5
241E
331
23DE
  5
23DF
331
2331
  5
2332
331
22F2
  5
22F3
331
22BB
  5
22BC
331
2368
  5
2369
331
23A7
  5
23A8
331
23E6
  5
23E7
331
2339
  5
233A
331
22FA
  5
22FB
331
22C3
  5
22C4
331
2370
  5
2371
331
23AF
  5
23B0
331
23EE
  5
23EF
331
23B7
  5
23B8
331
2341
  5
2342
331
2302
  5
2303
331
22CB
  5
22CC
331
2378
  5
2379
331
23F6
  5
23F7
331
23BF
  5
23C0
331
1258
  5
1258
331
230A
  5
230B
331
22D3
  5
22D4
331
2349
  5
234A
331
2380
  5
2381
331
23FE
  5
23FF
331
2312
  5
2313
331
22DB
  5
22DC
331
2351
  5
2352
331
2388
  5
2389
331
23C7
  5
23C8
331
2406
  5
2406
331
2359
  5
235A
331
231A
  5
231B
331
22E3
  5
22E4
331
2390
  5
2391
331
23CF
  5
23D0
331
240E
  5
240E
331
23D7
  5
23D8
331
2322
  5
2323
331
2398
  5
2399
331
2416
  5
2416
331
1CD8
  5
1CD8
331
23A0
  5
23A1
331
232A
  5
232B
331
22EB
  5
22EC
331
1211
  5
1211
331
1CE8
  5
1CEA
331
22B4
  5
22B5
331
2361
  5
2362
331
241E
  5
241F
331
23DF
  5
23E0
331
23A8
  5
23A9
331
2332
  5
2333
331
22F3
  5
22F4
331
22BC
  5
22BD
331
2369
  5
236A
331
23E7
  5
23E8
331
23B0
  5
23B1
331
22FB
  5
22FC
331
22C4
  5
22C5
331
233A
  5
233B
331
2371
  5
2372
331
23EF
  5
23F0
331
2342
  5
2343
331
2303
  5
2304
331
22CC
  5
22CD
331
2379
  5
237A
331
23B8
  5
23B9
331
23F7
  5
23F8
331
1259
  5
1259
331
234A
  5
234B
331
230B
  5
230C
331
22D4
  5
22D5
331
2381
  5
2382
331
23C0
  5
23C1
331
23FF
  5
2400
331
23C8
  5
23C9
331
2352
  5
2353
331
2313
  5
2314
331
22DC
  5
22DD
331
2389
  5
238A
331
2407
  5
2407
331
23D0
  5
23D1
331
231B
  5
231C
331
22E4
  5
22E5
331
235A
  5
235B
331
2391
  5
2392
331
240F
  5
240F
331
2323
  5
2324
331
2399
  5
239A
331
2417
  5
2417
331
1CD9
  5
1CD9
331
120A
  5
120A
331
23D8
  5
23D9
331
23A1
  5
23A2
331
22EC
  5
22ED
331
1212
  5
1212
331
22B5
  5
22B6
331
232B
  5
232C
331
2362
  5
2363
331
241F
  5
2418
331
23E0
  5
23E1
331
2333
  5
2334
331
22BD
  5
22BE
331
22F4
  5
22F5
331
236A
  5
236B
331
23A9
  5
23AA
331
23E8
  5
23E9
331
23B1
  5
23B2
331
233B
  5
233C
331
22FC
  5
22FD
331
22C5
  5
22C6
331
2372
  5
2373
331
23F0
  5
23F1
331
23B9
  5
23BA
331
2343
  5
2344
331
2304
  5
2305
331
22CD
  5
22CE
331
237A
  5
237B
331
125A
  5
125A
331
23F8
  5
23F9
331
23C1
  5
23C2
331
230C
  5
230D
331
22D5
  5
22D6
331
234B
  5
234C
331
2382
  5
2383
331
2400
  5
2401
331
2353
  5
2354
331
22DD
  5
22DE
331
2314
  5
2315
331
238A
  5
238B
331
23C9
  5
23CA
331
2408
  5
2408
331
235B
  5
235C
331
231C
  5
231D
331
22E5
  5
22E6
331
2392
  5
2393
331
23D1
  5
23D2
331
2410
  5
2410
331
2324
  5
2325
331
239A
  5
239B
331
1CDA
  5
1CDA
331
11D3
  5
11D3
331
120B
  5
120B
331
1CE2
  5
1CE3
331
23D9
  5
23DA
331
23A2
  5
23A3
331
232C
  5
232D
331
22ED
  5
22EE
331
1CEA
  5
1D64
331
22B6
  5
22B7
331
2363
  5
2364
331
2418
  5
2419
331
23E1
  5
23E2
331
23AA
  5
23AB
331
2334
  5
2335
331
22F5
  5
22F6
331
22BE
  5
22BF
331
236B
  5
236C
331
23E9
  5
23EA
331
23B2
  5
23B3
331
22FD
  5
22FE
331
22C6
  5
22C7
331
233C
  5
233D
331
2373
  5
2374
331
23F1
  5
23F2
331
2344
  5
2345
331
22CE
  5
22CF
331
2305
  5
2306
331
237B
  5
237C
331
23BA
  5
23BB
  0
XRECORD
  5
259F
102
{ACAD_REACTORS
330
1FE2
102
}
330
1FE2
100
AcDbXrecord
280
     1
340
1FB0
  0
XRECORD
  5
254E
102
{ACAD_REACTORS
330
254D
102
}
330
254D
100
AcDbXrecord
280
     1
 70
     1
  0
XRECORD
  5
2550
102
{ACAD_REACTORS
330
254D
102
}
330
254D
100
AcDbXrecord
280
     1
340
1FA9
  0
XRECORD
  5
2551
102
{ACAD_REACTORS
330
254D
102
}
330
254D
100
AcDbXrecord
280
     1
340
1FA9
  0
XRECORD
  5
254F
102
{ACAD_REACTORS
330
254D
102
}
330
254D
100
AcDbXrecord
280
     1
340
1FA9
  0
LAYOUT
  5
1FB7
102
{ACAD_XDICTIONARY
360
2555
102
}
102
{ACAD_REACTORS
330
1FAF
102
}
330
1FAF
100
AcDbPlotSettings
  1

  2
SII LP-2150 (D-SCAN C2)
  4

  6

 40
0.0
 41
0.0
 42
0.0
 43
0.0
 44
0.0
 45
0.0
 46
0.0
 47
0.0
 48
0.0
 49
0.0
140
0.0
141
0.0
142
1.0
143
1.0
 70
  1712
 72
     0
 73
     0
 74
     0
  7

 75
     0
147
1.0
148
0.0
149
0.0
100
AcDbLayout
  1
Model
 70
     1
 71
     0
 10
0.0
 20
0.0
 11
12.0
 21
9.0
 12
0.0
 22
0.0
 32
0.0
 14
0.0
 24
0.0
 34
0.0
 15
0.0
 25
0.0
 35
0.0
146
0.0
 13
0.0
 23
0.0
 33
0.0
 16
1.0
 26
0.0
 36
0.0
 17
0.0
 27
1.0
 37
0.0
 76
     0
330
1FB4
  0
LAYOUT
  5
1FB3
102
{ACAD_XDICTIONARY
360
2553
102
}
102
{ACAD_REACTORS
330
1FAF
102
}
330
1FAF
100
AcDbPlotSettings
  1

  2
SII LP-2150 (D-SCAN C2)
  4

  6

 40
0.0
 41
0.0
 42
0.0
 43
0.0
 44
0.0
 45
0.0
 46
0.0
 47
0.0
 48
0.0
 49
0.0
140
0.0
141
0.0
142
1.0
143
1.0
 70
   688
 72
     0
 73
     0
 74
     5
  7

 75
    16
147
1.0
148
0.0
149
0.0
100
AcDbLayout
  1
ﾚｲｱｳﾄ1
 70
     1
 71
     1
 10
0.0
 20
0.0
 11
12.0
 21
9.0
 12
0.0
 22
0.0
 32
0.0
 14
1.000000000000000E+20
 24
1.000000000000000E+20
 34
1.000000000000000E+20
 15
-1.000000000000000E+20
 25
-1.000000000000000E+20
 35
-1.000000000000000E+20
146
0.0
 13
0.0
 23
0.0
 33
0.0
 16
1.0
 26
0.0
 36
0.0
 17
0.0
 27
1.0
 37
0.0
 76
     0
330
1FB0
  0
ACAD_PROXY_OBJECT
  5
202E
102
{ACAD_XDICTIONARY
360
202F
102
}
102
{ACAD_REACTORS
330
2025
102
}
330
2025
100
AcDbProxyObject
 90
      499
 91
      508
 95
   917527
 70
     0
 93
     1340
310
42109E509B1BD8DAC02004014080404555555555555953FAA155555555555654FEA9AA400014080404555555555555953FAA155555555555654FEA9AA400000000000000E03F4080404555555555555953FAA155555555555654FEA9AA4014080404555555555555953FAA155555555555654FEA9AA4010201011555555555
310
55654FEA8555555555555953FAA6A9005020101155555555555654FEA8555555555555953FAA6A9000
 94
        0
  0
ACAD_PROXY_OBJECT
  5
2026
102
{ACAD_XDICTIONARY
360
2027
102
}
102
{ACAD_REACTORS
330
2025
102
}
330
2025
100
AcDbProxyObject
 90
      499
 91
      508
 95
   917527
 70
     0
 93
     1340
310
42109E53185E595C802004014080404555555555555953FAA155555555555654FEA9AA400014080404555555555555953FAA155555555555654FEA9AA400000000000000E03F4080404555555555555953FAA155555555555654FEA9AA4014080404555555555555953FAA155555555555654FEA9AA4010201011555555555
310
55654FEA8555555555555953FAA6A9005020101155555555555654FEA8555555555555953FAA6A9000
 94
        0
  0
ACAD_PROXY_OBJECT
  5
2036
102
{ACAD_XDICTIONARY
360
2037
102
}
102
{ACAD_REACTORS
330
2025
102
}
330
2025
100
AcDbProxyObject
 90
      499
 91
      508
 95
   917527
 70
     0
 93
     1332
310
41D1DB1BD8985B002004014080404555555555555953FAA155555555555654FEA9AA400014080404555555555555953FAA155555555555654FEA9AA400000000000000E03F4080404555555555555953FAA155555555555654FEA9AA4014080404555555555555953FAA155555555555654FEA9AA401020101155555555555
310
654FEA8555555555555953FAA6A9005020101155555555555654FEA8555555555555953FAA6A9000
 94
        0
  0
ACAD_PROXY_OBJECT
  5
2075
102
{ACAD_REACTORS
330
2074
102
}
330
2074
100
AcDbProxyObject
 90
      499
 91
      512
 95
   917527
 70
     0
 93
      618
310
40901902A4063FBFFFFFE056BD1B81E855B9FC0AD7A3703D0AD73F4254DD185B99185C990000AD7A3703D0AC73F90141901A02B5E8DC0F42B1CFC02B5E8DC0F42B1CFE5764000000000000300FC6
340
1FA9
340
0
340
1FA7
340
0
 94
        0
1001
ACAD_MLEADERVER
1070
     2
  0
MLINESTYLE
  5
1FAD
102
{ACAD_REACTORS
330
1FAC
102
}
330
1FAC
100
AcDbMlineStyle
  2
STANDARD
 70
     0
  3

 62
   256
 51
90.0
 52
90.0
 71
     2
 49
0.5
 62
   256
  6
BYLAYER
 49
-0.5
 62
   256
  6
BYLAYER
  0
ACDBPLACEHOLDER
  5
1FA5
102
{ACAD_REACTORS
330
1FA4
102
}
330
1FA4
  0
ACAD_PROXY_OBJECT
  5
2053
102
{ACAD_REACTORS
330
2052
102
}
330
2052
100
AcDbProxyObject
 90
      499
 91
      511
 95
   917527
 70
     0
 93
       49
310
904313A31005B8
 94
        0
  0
ACAD_PROXY_OBJECT
  5
2054
102
{ACAD_REACTORS
330
2052
102
}
330
2052
100
AcDbProxyObject
 90
      499
 91
      511
 95
   917527
 70
     0
 93
      113
310
904313A3200400000000000000406B
 94
        0
  0
ACAD_PROXY_OBJECT
  5
2055
102
{ACAD_REACTORS
330
2052
102
}
330
2052
100
AcDbProxyObject
 90
      499
 91
      511
 95
   917527
 70
     0
 93
      113
310
904313A34004000000000000104042
 94
        0
  0
ACAD_PROXY_OBJECT
  5
2056
102
{ACAD_REACTORS
330
2052
102
}
330
2052
100
AcDbProxyObject
 90
      499
 91
      511
 95
   917527
 70
     0
 93
      113
310
904313A3500400000000000014406B
 94
        0
  0
ACAD_PROXY_OBJECT
  5
2057
102
{ACAD_REACTORS
330
2052
102
}
330
2052
100
AcDbProxyObject
 90
      499
 91
      511
 95
   917527
 70
     0
 93
      113
310
904313A38004000000000000204042
 94
        0
  0
ACAD_PROXY_OBJECT
  5
2058
102
{ACAD_REACTORS
330
2052
102
}
330
2052
100
AcDbProxyObject
 90
      499
 91
      511
 95
   917527
 70
     0
 93
      121
310
905313A3130004000000000000244051
 94
        0
  0
ACAD_PROXY_OBJECT
  5
2059
102
{ACAD_REACTORS
330
2052
102
}
330
2052
100
AcDbProxyObject
 90
      499
 91
      511
 95
   917527
 70
     0
 93
      121
310
905313A3136004000000000000304009
 94
        0
  0
ACAD_PROXY_OBJECT
  5
205A
102
{ACAD_REACTORS
330
2052
102
}
330
2052
100
AcDbProxyObject
 90
      499
 91
      511
 95
   917527
 70
     0
 93
      121
310
905313A3230004000000000000344051
 94
        0
  0
ACAD_PROXY_OBJECT
  5
205B
102
{ACAD_REACTORS
330
2052
102
}
330
2052
100
AcDbProxyObject
 90
      499
 91
      511
 95
   917527
 70
     0
 93
      121
310
905313A33300040000000000003E4009
 94
        0
  0
ACAD_PROXY_OBJECT
  5
205C
102
{ACAD_REACTORS
330
2052
102
}
330
2052
100
AcDbProxyObject
 90
      499
 91
      511
 95
   917527
 70
     0
 93
      121
310
905313A3430004000000000000444051
 94
        0
  0
ACAD_PROXY_OBJECT
  5
205D
102
{ACAD_REACTORS
330
2052
102
}
330
2052
100
AcDbProxyObject
 90
      499
 91
      511
 95
   917527
 70
     0
 93
      121
310
905313A3530004000000000000494009
 94
        0
  0
ACAD_PROXY_OBJECT
  5
205E
102
{ACAD_REACTORS
330
2052
102
}
330
2052
100
AcDbProxyObject
 90
      499
 91
      511
 95
   917527
 70
     0
 93
      129
310
906313A313030004000000000000594038
 94
        0
  0
ACAD_PROXY_OBJECT
  5
205F
102
{ACAD_REACTORS
330
2052
102
}
330
2052
100
AcDbProxyObject
 90
      499
 91
      511
 95
   917527
 70
     0
 93
      113
310
904323A31000000000000000010140
 94
        0
  0
ACAD_PROXY_OBJECT
  5
2060
102
{ACAD_REACTORS
330
2052
102
}
330
2052
100
AcDbProxyObject
 90
      499
 91
      511
 95
   917527
 70
     0
 93
      113
310
904343A31000000000000000410159
 94
        0
  0
ACAD_PROXY_OBJECT
  5
2061
102
{ACAD_REACTORS
330
2052
102
}
330
2052
100
AcDbProxyObject
 90
      499
 91
      511
 95
   917527
 70
     0
 93
      113
310
904383A31000000000000000810140
 94
        0
  0
ACAD_PROXY_OBJECT
  5
2062
102
{ACAD_REACTORS
330
2052
102
}
330
2052
100
AcDbProxyObject
 90
      499
 91
      511
 95
   917527
 70
     0
 93
      121
310
90531303A31000000000000000910140
 94
        0
  0
ACAD_PROXY_OBJECT
  5
2063
102
{ACAD_REACTORS
330
2052
102
}
330
2052
100
AcDbProxyObject
 90
      499
 91
      511
 95
   917527
 70
     0
 93
      129
310
9063130303A31000000000000001650102
 94
        0
  0
ACAD_PROXY_OBJECT
  5
2064
102
{ACAD_REACTORS
330
2052
102
}
330
2052
100
AcDbProxyObject
 90
      499
 91
      511
 95
   917527
 70
     0
 93
      265
310
90F312F31323822203D2031272D302200000000000000200FC00000000000028402B
 94
        0
  0
ACAD_PROXY_OBJECT
  5
2065
102
{ACAD_REACTORS
330
2052
102
}
330
2052
100
AcDbProxyObject
 90
      499
 91
      511
 95
   917527
 70
     0
 93
      257
310
90E312F363422203D2031272D302200000000000000240FC000000000000284000
 94
        0
  0
ACAD_PROXY_OBJECT
  5
2066
102
{ACAD_REACTORS
330
2052
102
}
330
2052
100
AcDbProxyObject
 90
      499
 91
      511
 95
   917527
 70
     0
 93
      257
310
90E312F333222203D2031272D302200000000000000280FC000000000000284040
 94
        0
  0
ACAD_PROXY_OBJECT
  5
2067
102
{ACAD_REACTORS
330
2052
102
}
330
2052
100
AcDbProxyObject
 90
      499
 91
      511
 95
   917527
 70
     0
 93
      257
310
90E312F313622203D2031272D3022000000000000002C0FC000000000000284000
 94
        0
  0
ACAD_PROXY_OBJECT
  5
2068
102
{ACAD_REACTORS
330
2052
102
}
330
2052
100
AcDbProxyObject
 90
      499
 91
      511
 95
   917527
 70
     0
 93
      257
310
90E332F333222203D2031272D3022000000000000002E0FC000000000000284040
 94
        0
  0
ACAD_PROXY_OBJECT
  5
2069
102
{ACAD_REACTORS
330
2052
102
}
330
2052
100
AcDbProxyObject
 90
      499
 91
      511
 95
   917527
 70
     0
 93
      249
310
90D312F3822203D2031272D302200000000000000300FC000000000000284040
 94
        0
  0
ACAD_PROXY_OBJECT
  5
206A
102
{ACAD_REACTORS
330
2052
102
}
330
2052
100
AcDbProxyObject
 90
      499
 91
      511
 95
   917527
 70
     0
 93
      257
310
90E332F313622203D2031272D302200000000000000320FC000000000000284040
 94
        0
  0
ACAD_PROXY_OBJECT
  5
206B
102
{ACAD_REACTORS
330
2052
102
}
330
2052
100
AcDbProxyObject
 90
      499
 91
      511
 95
   917527
 70
     0
 93
      249
310
90D312F3422203D2031272D302200000000000000340FC000000000000284040
 94
        0
  0
ACAD_PROXY_OBJECT
  5
206C
102
{ACAD_REACTORS
330
2052
102
}
330
2052
100
AcDbProxyObject
 90
      499
 91
      511
 95
   917527
 70
     0
 93
      249
310
90D332F3822203D2031272D302200000000000000360FC000000000000284040
 94
        0
  0
ACAD_PROXY_OBJECT
  5
206D
102
{ACAD_REACTORS
330
2052
102
}
330
2052
100
AcDbProxyObject
 90
      499
 91
      511
 95
   917527
 70
     0
 93
      249
310
90D312F3222203D2031272D302200000000000000380FC000000000000284040
 94
        0
  0
ACAD_PROXY_OBJECT
  5
206E
102
{ACAD_REACTORS
330
2052
102
}
330
2052
100
AcDbProxyObject
 90
      499
 91
      511
 95
   917527
 70
     0
 93
      249
310
90D332F3422203D2031272D3022000000000000003A0FC000000000000284040
 94
        0
  0
ACAD_PROXY_OBJECT
  5
206F
102
{ACAD_REACTORS
330
2052
102
}
330
2052
100
AcDbProxyObject
 90
      499
 91
      511
 95
   917527
 70
     0
 93
      169
310
90B3122203D2031272D3022004000000000000284000
 94
        0
  0
ACAD_PROXY_OBJECT
  5
2070
102
{ACAD_REACTORS
330
2052
102
}
330
2052
100
AcDbProxyObject
 90
      499
 91
      511
 95
   917527
 70
     0
 93
      265
310
90F312D312F3222203D2031272D3022000000000000003E0FC00000000000028402B
 94
        0
  0
ACAD_PROXY_OBJECT
  5
2071
102
{ACAD_REACTORS
330
2052
102
}
330
2052
100
AcDbProxyObject
 90
      499
 91
      511
 95
   917527
 70
     0
 93
      233
310
90B3322203D2031272D30220000000000000002100000000000000284028
 94
        0
  0
ACAD_PROXY_OBJECT
  5
2072
102
{ACAD_REACTORS
330
2052
102
}
330
2052
100
AcDbProxyObject
 90
      499
 91
      511
 95
   917527
 70
     0
 93
      233
310
90B3622203D2031272D30220000000000000006100000000000000284000
 94
        0
  0
ACAD_PROXY_OBJECT
  5
2073
102
{ACAD_REACTORS
330
2052
102
}
330
2052
100
AcDbProxyObject
 90
      499
 91
      511
 95
   917527
 70
     0
 93
      257
310
90E31272D3022203D2031272D3022000000000000000A100000000000000284000
 94
        0
  0
ACAD_PROXY_OBJECT
  5
2051
102
{ACAD_XDICTIONARY
360
2423
102
}
102
{ACAD_REACTORS
330
2050
102
}
330
2050
100
AcDbProxyObject
 90
      499
 91
      510
 95
   917527
 70
     0
 93
     1849
310
4254DD185B99185C990028B81E85EB51B8AE3F2E07A17AD46E2B8FC02B5E8DC0F42B1CFD028000000C1008070000C3001FDFF8000000C1003FBFF000000182007F7FE00000030400FEFFC00000060801FDFF8000000C1003FBFF00000018200000000000000681FA0B0000001820100E000186003FBFF000000182007F7FE0
310
0000030400FEFFC00000060801FDFF8000000C1003FBFF000000182007F7FE000000304000AD7A3703D0AC73F4160000003040201C00030C007F7FE00000030400FEFFC00000060801FDFF8000000C1003FBFF000000182007F7FE00000030400FEFFC000000608000
340
1FA7
340
1FA7
340
1FA7
 94
        0
  0
ACAD_PROXY_OBJECT
  5
2044
102
{ACAD_REACTORS
330
203E
102
}
330
203E
100
AcDbProxyObject
 90
      499
 91
      509
 95
   917527
 70
     0
 93
      444
310
430C9915DA5C99599C985B59401049028333333333333E3BF0000000000000FB0107901411070040501600405405064090741402480A0340
 94
        0
1001
ACAD
1000
AcDbSavedByObjectVersion
1070
     0
  0
ACAD_PROXY_OBJECT
  5
2046
102
{ACAD_REACTORS
330
203E
102
}
330
203E
100
AcDbProxyObject
 90
      499
 91
      509
 95
   917527
 70
     0
 93
      508
310
428CD108121A5919195B8010640502408333333333333E3BF0000000000000FB01079024090700405020000000000001110200405405064090740C02480A0340
 94
        0
1001
ACAD
1000
AcDbSavedByObjectVersion
1070
     0
  0
ACAD_PROXY_OBJECT
  5
2045
102
{ACAD_REACTORS
330
203E
102
}
330
203E
100
AcDbProxyObject
 90
      499
 91
      509
 95
   917527
 70
     0
 93
      444
310
430CD915DA5C99599C985B59401059028333333333333E3BF0000000000000FB0107901411070040501600405405064090741402480A0345
 94
        0
1001
ACAD
1000
AcDbSavedByObjectVersion
1070
     0
  0
ACAD_PROXY_OBJECT
  5
2043
102
{ACAD_REACTORS
330
203E
102
}
330
203E
100
AcDbProxyObject
 90
      499
 91
      509
 95
   917527
 70
     0
 93
      396
310
4190985CDA58C0107406404333333333333E3BF0000000000000FB0107A41107004050150841D405064090741402480A0358
 94
        0
1001
ACAD
1000
AcDbSavedByObjectVersion
1070
     0
  0
ACAD_PROXY_OBJECT
  5
204A
102
{ACAD_REACTORS
330
203E
102
}
330
203E
100
AcDbProxyObject
 90
      499
 91
      509
 95
   917527
 70
     0
 93
      436
310
42509C9A59DA1D195B8010C409028333333333333E3BF0000000000000FB010790141107004050150841D405064090741402480A029956
 94
        0
1001
ACAD
1000
AcDbSavedByObjectVersion
1070
     0
  0
ACAD_PROXY_OBJECT
  5
204E
102
{ACAD_REACTORS
330
203E
102
}
330
203E
100
AcDbProxyObject
 90
      499
 91
      509
 95
   917527
 70
     0
 93
      460
310
4310DBDB1BDC90DA185B99D9401104090240C333333333333E3BF0000000000000FB0108901411070040501508421405064090741402480A0354
 94
        0
1001
ACAD
1000
AcDbSavedByObjectVersion
1070
     0
  0
ACAD_PROXY_OBJECT
  5
2047
102
{ACAD_REACTORS
330
203E
102
}
330
203E
100
AcDbProxyObject
 90
      499
 91
      509
 95
   917527
 70
     0
 93
      508
310
42D0DBDB98D95C1D1D585B0010940D028333333333333E3BF0000000000000FB0107902409070040501000000000000111010841D405064090740C02480A0340
 94
        0
1001
ACAD
1000
AcDbSavedByObjectVersion
1070
     0
  0
ACAD_PROXY_OBJECT
  5
2049
102
{ACAD_REACTORS
330
203E
102
}
330
203E
100
AcDbProxyObject
 90
      499
 91
      509
 95
   917527
 70
     0
 93
      420
310
41111A5B4010B409028333333333333E3BF0000000000000FB010790141107004050150841D405064090741402480A02677FFFFFD4
 94
        0
1001
ACAD
1000
AcDbSavedByObjectVersion
1070
     0
  0
ACAD_PROXY_OBJECT
  5
204D
102
{ACAD_REACTORS
330
203E
102
}
330
203E
100
AcDbProxyObject
 90
      499
 91
      509
 95
   917527
 70
     0
 93
      452
310
43119858D95C185D1D195C9B8010F409028333333333333E3BF0000000000000FB010790141107004050150841D405064090741402480A0350
 94
        0
1001
ACAD
1000
AcDbSavedByObjectVersion
1070
     0
  0
ACAD_PROXY_OBJECT
  5
203F
102
{ACAD_REACTORS
330
203E
102
}
330
203E
100
AcDbProxyObject
 90
      499
 91
      509
 95
   917527
 70
     0
 93
      396
310
41519B185D00240901404333333333333E3BF0000000000000F9010740A41107004050150841D405064090741402480A1B5A
 94
        0
1001
ACAD
1000
AcDbSavedByObjectVersion
1070
     0
  0
ACAD_PROXY_OBJECT
  5
2040
102
{ACAD_REACTORS
330
203E
102
}
330
203E
100
AcDbProxyObject
 90
      499
 91
      509
 95
   917527
 70
     0
 93
      484
310
43919B185D15DA5D1A115919D95CC010140901404333333333333E3BF0000000000000F9010740901411070040501600405405064090741402480A1B50
 94
        0
1001
ACAD
1000
AcDbSavedByObjectVersion
1070
     0
  0
ACAD_PROXY_OBJECT
  5
2041
102
{ACAD_REACTORS
330
203E
102
}
330
203E
100
AcDbProxyObject
 90
      499
 91
      509
 95
   917527
 70
     0
 93
      420
310
4211DBDD5C985D590010240902404333333333333E3BF0000000000000F9010740A411070040501641D405064090741402480A1B55
 94
        0
1001
ACAD
1000
AcDbSavedByObjectVersion
1070
     0
  0
ACAD_PROXY_OBJECT
  5
2042
102
{ACAD_REACTORS
330
203E
102
}
330
203E
100
AcDbProxyObject
 90
      499
 91
      509
 95
   917527
 70
     0
 93
      508
310
4451DBDD5C985D5915DA5D1A115919D95CC010340902404333333333333E3BF0000000000000F9010740901411070040501600405405064090741402480A1B50
 94
        0
1001
ACAD
1000
AcDbSavedByObjectVersion
1070
     0
  0
ACAD_PROXY_OBJECT
  5
204C
102
{ACAD_REACTORS
330
203E
102
}
330
203E
100
AcDbProxyObject
 90
      499
 91
      509
 95
   917527
 70
     0
 93
      452
310
43131A5B995C185D1D195C9B8010E409028333333333333E3BF0000000000000FB010790141107004050750841D405064090741402483A0350
 94
        0
1001
ACAD
1000
AcDbSavedByObjectVersion
1070
     0
  0
ACAD_PROXY_OBJECT
  5
2048
102
{ACAD_REACTORS
330
203E
102
}
330
203E
100
AcDbProxyObject
 90
      499
 91
      509
 95
   917527
 70
     0
 93
      428
310
429499585B1A5CDD1A58C0108409028333333333333E3BF0000000000000FB01079019070040501508421405064090741402480A1B45
 94
        0
1001
ACAD
1000
AcDbSavedByObjectVersion
1070
     0
  0
ACAD_PROXY_OBJECT
  5
204B
102
{ACAD_REACTORS
330
203E
102
}
330
203E
100
AcDbProxyObject
 90
      499
 91
      509
 95
   917527
 70
     0
 93
      420
310
42151A1A58DAD95B8010D409028333333333333E3BF0000000000000FB010790141107004050150C41D405064090741402480A0354
 94
        0
1001
ACAD
1000
AcDbSavedByObjectVersion
1070
     0
  0
DICTIONARYVAR
  5
2440
102
{ACAD_REACTORS
330
2022
102
}
330
2022
100
DictionaryVariables
280
     0
  1
1:1
  0
DICTIONARYVAR
  5
243F
102
{ACAD_REACTORS
330
2022
102
}
330
2022
100
DictionaryVariables
280
     0
  1
STANDARD
  0
DICTIONARYVAR
  5
243E
102
{ACAD_REACTORS
330
2022
102
}
330
2022
100
DictionaryVariables
280
     0
  1
STANDARD
  0
DICTIONARYVAR
  5
2023
102
{ACAD_REACTORS
330
2022
102
}
330
2022
100
DictionaryVariables
280
     0
  1
1
  0
DICTIONARYVAR
  5
2442
102
{ACAD_REACTORS
330
2022
102
}
330
2022
100
DictionaryVariables
280
     0
  1
0
  0
DICTIONARYVAR
  5
2441
102
{ACAD_REACTORS
330
2022
102
}
330
2022
100
DictionaryVariables
280
     0
  1
127
  0
DICTIONARY
  5
20E2
102
{ACAD_REACTORS
330
20D5
102
}
330
20D5
100
AcDbDictionary
281
     1
  0
DICTIONARY
  5
2555
330
1FB7
100
AcDbDictionary
280
     1
281
     1
  3
ACAD_XREC_ROUNDTRIP
360
2556
  0
DICTIONARY
  5
2553
330
1FB3
100
AcDbDictionary
280
     1
281
     1
  3
ACAD_XREC_ROUNDTRIP
360
2554
  0
DICTIONARY
  5
202F
330
202E
100
AcDbDictionary
280
     1
281
     1
  3
ACAD_XREC_ROUNDTRIP
360
255A
  3
BUMPTILE
360
2031
  3
DIFFUSETILE
360
2030
  3
OPACITYTILE
360
2034
  3
REFLECTIONTILE
360
2033
  3
REFRACTIONTILE
360
2035
  3
SPECULARTILE
360
2032
  0
DICTIONARY
  5
2027
330
2026
100
AcDbDictionary
280
     1
281
     1
  3
ACAD_XREC_ROUNDTRIP
360
2559
  3
BUMPTILE
360
2029
  3
DIFFUSETILE
360
2028
  3
OPACITYTILE
360
202C
  3
REFLECTIONTILE
360
202B
  3
REFRACTIONTILE
360
202D
  3
SPECULARTILE
360
202A
  0
DICTIONARY
  5
2037
330
2036
100
AcDbDictionary
280
     1
281
     1
  3
ACAD_XREC_ROUNDTRIP
360
255B
  3
BUMPTILE
360
2039
  3
DIFFUSETILE
360
2038
  3
OPACITYTILE
360
203C
  3
REFLECTIONTILE
360
203B
  3
REFRACTIONTILE
360
203D
  3
SPECULARTILE
360
203A
  0
DICTIONARY
  5
2423
330
2051
100
AcDbDictionary
280
     1
281
     1
  3
ACAD_ROUNDTRIP_2008_TABLESTYLE_CELLSTYLEMAP
360
254B
  3
ACAD_XREC_ROUNDTRIP
360
255C
  0
XRECORD
  5
2556
102
{ACAD_REACTORS
330
2555
102
}
330
2555
100
AcDbXrecord
280
     1
102
SHADEPLOT
 70
     0
102
SHADEPLOTRESLEVEL
 70
     2
102
SHADEPLOTCUSTOMDPI
 70
   300
  0
XRECORD
  5
2554
102
{ACAD_REACTORS
330
2553
102
}
330
2553
100
AcDbXrecord
280
     1
102
SHADEPLOT
 70
     0
102
SHADEPLOTRESLEVEL
 70
     2
102
SHADEPLOTCUSTOMDPI
 70
   300
  0
XRECORD
  5
255A
102
{ACAD_REACTORS
330
202F
102
}
330
202F
100
AcDbXrecord
280
     1
102
MATERIAL
148
0.0
149
0.0
149
0.0
 93
        0
 94
      127
282
     0
 72
     0
 77
     0
171
     0
175
     0
179
     0
273
     0
  0
XRECORD
  5
2031
102
{ACAD_REACTORS
330
202F
102
}
330
202F
100
AcDbXrecord
280
     1
270
     1
271
     1
  0
XRECORD
  5
2030
102
{ACAD_REACTORS
330
202F
102
}
330
202F
100
AcDbXrecord
280
     1
270
     1
271
     1
  0
XRECORD
  5
2034
102
{ACAD_REACTORS
330
202F
102
}
330
202F
100
AcDbXrecord
280
     1
270
     1
271
     1
  0
XRECORD
  5
2033
102
{ACAD_REACTORS
330
202F
102
}
330
202F
100
AcDbXrecord
280
     1
270
     1
271
     1
  0
XRECORD
  5
2035
102
{ACAD_REACTORS
330
202F
102
}
330
202F
100
AcDbXrecord
280
     1
270
     1
271
     1
  0
XRECORD
  5
2032
102
{ACAD_REACTORS
330
202F
102
}
330
202F
100
AcDbXrecord
280
     1
270
     1
271
     1
  0
XRECORD
  5
2559
102
{ACAD_REACTORS
330
2027
102
}
330
2027
100
AcDbXrecord
280
     1
102
MATERIAL
148
0.0
149
0.0
149
0.0
 93
        0
 94
      127
282
     0
 72
     0
 77
     0
171
     0
175
     0
179
     0
273
     0
  0
XRECORD
  5
2029
102
{ACAD_REACTORS
330
2027
102
}
330
2027
100
AcDbXrecord
280
     1
270
     1
271
     1
  0
XRECORD
  5
2028
102
{ACAD_REACTORS
330
2027
102
}
330
2027
100
AcDbXrecord
280
     1
270
     1
271
     1
  0
XRECORD
  5
202C
102
{ACAD_REACTORS
330
2027
102
}
330
2027
100
AcDbXrecord
280
     1
270
     1
271
     1
  0
XRECORD
  5
202B
102
{ACAD_REACTORS
330
2027
102
}
330
2027
100
AcDbXrecord
280
     1
270
     1
271
     1
  0
XRECORD
  5
202D
102
{ACAD_REACTORS
330
2027
102
}
330
2027
100
AcDbXrecord
280
     1
270
     1
271
     1
  0
XRECORD
  5
202A
102
{ACAD_REACTORS
330
2027
102
}
330
2027
100
AcDbXrecord
280
     1
270
     1
271
     1
  0
XRECORD
  5
255B
102
{ACAD_REACTORS
330
2037
102
}
330
2037
100
AcDbXrecord
280
     1
102
MATERIAL
148
0.0
149
0.0
149
0.0
 93
        0
 94
      127
282
     0
 72
     0
 77
     0
171
     0
175
     0
179
     0
273
     0
  0
XRECORD
  5
2039
102
{ACAD_REACTORS
330
2037
102
}
330
2037
100
AcDbXrecord
280
     1
270
     1
271
     1
  0
XRECORD
  5
2038
102
{ACAD_REACTORS
330
2037
102
}
330
2037
100
AcDbXrecord
280
     1
270
     1
271
     1
  0
XRECORD
  5
203C
102
{ACAD_REACTORS
330
2037
102
}
330
2037
100
AcDbXrecord
280
     1
270
     1
271
     1
  0
XRECORD
  5
203B
102
{ACAD_REACTORS
330
2037
102
}
330
2037
100
AcDbXrecord
280
     1
270
     1
271
     1
  0
XRECORD
  5
203D
102
{ACAD_REACTORS
330
2037
102
}
330
2037
100
AcDbXrecord
280
     1
270
     1
271
     1
  0
XRECORD
  5
203A
102
{ACAD_REACTORS
330
2037
102
}
330
2037
100
AcDbXrecord
280
     1
270
     1
271
     1
  0
ACAD_PROXY_OBJECT
  5
254B
102
{ACAD_REACTORS
330
2423
102
}
330
2423
100
AcDbProxyObject
 90
      499
 91
      602
 95
   917527
 70
     0
 93
     1044
310
40D054060020000020000003200101A000080002A5058000000C100000000000000340FE901405075F5449544C450041501A8000000C800406800020000A9416000000304000AD7A3703D0AC73FA409014217D2115051115480105406A0000003200101A000080002A5028000000C10002B5E8DC0F42B1CFE903409065F444
310
15441005
340
1FA7
340
1FA7
340
1FA7
 94
        0
  0
XRECORD
  5
255C
102
{ACAD_REACTORS
330
2423
102
}
330
2423
100
AcDbXrecord
280
     1
102
ACAD_ROUNDTRIP_PRE2007_TABLESTYLE
 90
      512
 91
        0
  1

 92
      512
 93
        0
  2

 94
      512
 95
        0
  3

  0
ENDSEC
  0
EOF
