  0
SECTION
  2
HEADER
  9
$ACADVER
  1
AC1015
  9
$ACADMAINTVER
 70
    14
  9
$DWGCODEPAGE
  3
ANSI_932
  9
$INSBASE
 10
0.0
 20
0.0
 30
0.0
  9
$EXTMIN
 10
-111.429162927078
 20
32.12766499226154
 30
-0.0000000000000058
  9
$EXTMAX
 10
671.0268947339561
 20
708.2350496622607
 30
0.0000000000000104
  9
$LIMMIN
 10
0.0
 20
0.0
  9
$LIMMAX
 10
12.0
 20
9.0
  9
$ORTHOMODE
 70
     0
  9
$REGENMODE
 70
     1
  9
$FILLMODE
 70
     1
  9
$QTEXTMODE
 70
     0
  9
$MIRRTEXT
 70
     1
  9
$LTSCALE
 40
1.0
  9
$ATTMODE
 70
     1
  9
$TEXTSIZE
 40
0.2
  9
$TRACEWID
 40
0.05
  9
$TEXTSTYLE
  7
STANDARD
  9
$CLAYER
  8
0
  9
$CELTYPE
  6
CONTINUOUS
  9
$CECOLOR
 62
   256
  9
$CELTSCALE
 40
1.0
  9
$DISPSILH
 70
     0
  9
$DIMSCALE
 40
1.0
  9
$DIMASZ
 40
0.18
  9
$DIMEXO
 40
0.0625
  9
$DIMDLI
 40
0.38
  9
$DIMRND
 40
0.0
  9
$DIMDLE
 40
0.0
  9
$DIMEXE
 40
0.18
  9
$DIMTP
 40
0.0
  9
$DIMTM
 40
0.0
  9
$DIMTXT
 40
0.18
  9
$DIMCEN
 40
0.09
  9
$DIMTSZ
 40
0.0
  9
$DIMTOL
 70
     0
  9
$DIMLIM
 70
     0
  9
$DIMTIH
 70
     1
  9
$DIMTOH
 70
     1
  9
$DIMSE1
 70
     0
  9
$DIMSE2
 70
     0
  9
$DIMTAD
 70
     0
  9
$DIMZIN
 70
     0
  9
$DIMBLK
  1

  9
$DIMASO
 70
     1
  9
$DIMSHO
 70
     0
  9
$DIMPOST
  1

  9
$DIMAPOST
  1

  9
$DIMALT
 70
     0
  9
$DIMALTD
 70
     2
  9
$DIMALTF
 40
25.4
  9
$DIMLFAC
 40
1.0
  9
$DIMTOFL
 70
     0
  9
$DIMTVP
 40
0.0
  9
$DIMTIX
 70
     0
  9
$DIMSOXD
 70
     0
  9
$DIMSAH
 70
     0
  9
$DIMBLK1
  1

  9
$DIMBLK2
  1

  9
$DIMSTYLE
  2
STANDARD
  9
$DIMCLRD
 70
     0
  9
$DIMCLRE
 70
     0
  9
$DIMCLRT
 70
     0
  9
$DIMTFAC
 40
1.0
  9
$DIMGAP
 40
0.09
  9
$DIMJUST
 70
     0
  9
$DIMSD1
 70
     0
  9
$DIMSD2
 70
     0
  9
$DIMTOLJ
 70
     1
  9
$DIMTZIN
 70
     0
  9
$DIMALTZ
 70
     0
  9
$DIMALTTZ
 70
     0
  9
$DIMUPT
 70
     0
  9
$DIMDEC
 70
     4
  9
$DIMTDEC
 70
     4
  9
$DIMALTU
 70
     2
  9
$DIMALTTD
 70
     2
  9
$DIMTXSTY
  7
STANDARD
  9
$DIMAUNIT
 70
     0
  9
$DIMADEC
 70
     0
  9
$DIMALTRND
 40
0.0
  9
$DIMAZIN
 70
     0
  9
$DIMDSEP
 70
    46
  9
$DIMATFIT
 70
     3
  9
$DIMFRAC
 70
     0
  9
$DIMLDRBLK
  1

  9
$DIMLUNIT
 70
     2
  9
$DIMLWD
 70
    -2
  9
$DIMLWE
 70
    -2
  9
$DIMTMOVE
 70
     2
  9
$LUNITS
 70
     2
  9
$LUPREC
 70
     4
  9
$SKETCHINC
 40
0.1
  9
$FILLETRAD
 40
0.0
  9
$AUNITS
 70
     0
  9
$AUPREC
 70
     0
  9
$MENU
  1
.
  9
$ELEVATION
 40
0.0
  9
$PELEVATION
 40
0.0
  9
$THICKNESS
 40
0.0
  9
$LIMCHECK
 70
     0
  9
$CHAMFERA
 40
0.0
  9
$CHAMFERB
 40
0.0
  9
$CHAMFERC
 40
0.0
  9
$CHAMFERD
 40
0.0
  9
$SKPOLY
 70
     0
  9
$TDCREATE
 40
2452488.423138738
  9
$TDUCREATE
 40
2452488.048138738
  9
$TDUPDATE
 40
2456899.667522210
  9
$TDUUPDATE
 40
2456899.292522210
  9
$TDINDWG
 40
0.2326157639
  9
$TDUSRTIMER
 40
0.2326157639
  9
$USRTIMER
 70
     1
  9
$ANGBASE
 50
0.0
  9
$ANGDIR
 70
     0
  9
$PDMODE
 70
     3
  9
$PDSIZE
 40
0.0
  9
$PLINEWID
 40
0.0
  9
$SPLFRAME
 70
     0
  9
$SPLINETYPE
 70
     6
  9
$SPLINESEGS
 70
     8
  9
$HANDSEED
  5
25B1
  9
$SURFTAB1
 70
     6
  9
$SURFTAB2
 70
     6
  9
$SURFTYPE
 70
     6
  9
$SURFU
 70
     6
  9
$SURFV
 70
     6
  9
$UCSBASE
  2

  9
$UCSNAME
  2

  9
$UCSORG
 10
0.0
 20
0.0
 30
0.0
  9
$UCSXDIR
 10
1.0
 20
0.0
 30
0.0
  9
$UCSYDIR
 10
0.0
 20
1.0
 30
0.0
  9
$UCSORTHOREF
  2

  9
$UCSORTHOVIEW
 70
     0
  9
$UCSORGTOP
 10
0.0
 20
0.0
 30
0.0
  9
$UCSORGBOTTOM
 10
0.0
 20
0.0
 30
0.0
  9
$UCSORGLEFT
 10
0.0
 20
0.0
 30
0.0
  9
$UCSORGRIGHT
 10
0.0
 20
0.0
 30
0.0
  9
$UCSORGFRONT
 10
0.0
 20
0.0
 30
0.0
  9
$UCSORGBACK
 10
0.0
 20
0.0
 30
0.0
  9
$PUCSBASE
  2

  9
$PUCSNAME
  2

  9
$PUCSORG
 10
0.0
 20
0.0
 30
0.0
  9
$PUCSXDIR
 10
1.0
 20
0.0
 30
0.0
  9
$PUCSYDIR
 10
0.0
 20
1.0
 30
0.0
  9
$PUCSORTHOREF
  2

  9
$PUCSORTHOVIEW
 70
     0
  9
$PUCSORGTOP
 10
0.0
 20
0.0
 30
0.0
  9
$PUCSORGBOTTOM
 10
0.0
 20
0.0
 30
0.0
  9
$PUCSORGLEFT
 10
0.0
 20
0.0
 30
0.0
  9
$PUCSORGRIGHT
 10
0.0
 20
0.0
 30
0.0
  9
$PUCSORGFRONT
 10
0.0
 20
0.0
 30
0.0
  9
$PUCSORGBACK
 10
0.0
 20
0.0
 30
0.0
  9
$USERI1
 70
     0
  9
$USERI2
 70
     0
  9
$USERI3
 70
     0
  9
$USERI4
 70
     0
  9
$USERI5
 70
     0
  9
$USERR1
 40
0.0
  9
$USERR2
 40
0.0
  9
$USERR3
 40
0.0
  9
$USERR4
 40
0.0
  9
$USERR5
 40
0.0
  9
$WORLDVIEW
 70
     1
  9
$SHADEDGE
 70
     3
  9
$SHADEDIF
 70
    70
  9
$TILEMODE
 70
     1
  9
$MAXACTVP
 70
    48
  9
$PINSBASE
 10
0.0
 20
0.0
 30
0.0
  9
$PLIMCHECK
 70
     0
  9
$PEXTMIN
 10
1.000000000000000E+20
 20
1.000000000000000E+20
 30
1.000000000000000E+20
  9
$PEXTMAX
 10
-1.000000000000000E+20
 20
-1.000000000000000E+20
 30
-1.000000000000000E+20
  9
$PLIMMIN
 10
0.0
 20
0.0
  9
$PLIMMAX
 10
12.0
 20
9.0
  9
$UNITMODE
 70
     0
  9
$VISRETAIN
 70
     1
  9
$PLINEGEN
 70
     0
  9
$PSLTSCALE
 70
     1
  9
$TREEDEPTH
 70
  3020
  9
$CMLSTYLE
  2
Standard
  9
$CMLJUST
 70
     0
  9
$CMLSCALE
 40
1.0
  9
$PROXYGRAPHICS
 70
     1
  9
$MEASUREMENT
 70
     0
  9
$CELWEIGHT
370
    -1
  9
$ENDCAPS
280
     0
  9
$JOINSTYLE
280
     0
  9
$LWDISPLAY
290
     0
  9
$INSUNITS
 70
     0
  9
$HYPERLINKBASE
  1

  9
$STYLESHEET
  1

  9
$XEDIT
290
     1
  9
$CEPSNTYPE
380
     0
  9
$PSTYLEMODE
290
     1
  9
$FINGERPRINTGUID
  2
{379D82AF-47DE-4A5C-BBC5-0E48CB1034E0}
  9
$VERSIONGUID
  2
{26BD912E-2D13-4754-95CF-43C7C6BD2DB8}
  9
$EXTNAMES
290
     1
  9
$PSVPSCALE
 40
0.0
  9
$OLESTARTUP
290
     0
  0
ENDSEC
  0
SECTION
  2
CLASSES
  0
CLASS
  1
ACDBDICTIONARYWDFLT
  2
AcDbDictionaryWithDefault
  3
AutoCAD 2000
 90
        0
280
     0
281
     0
  0
CLASS
  1
ACDBPLACEHOLDER
  2
AcDbPlaceHolder
  3
AutoCAD 2000
 90
        0
280
     0
281
     0
  0
CLASS
  1
LAYOUT
  2
AcDbLayout
  3
AutoCAD 2000
 90
        0
280
     0
281
     0
  0
CLASS
  1
DICTIONARYVAR
  2
AcDbDictionaryVar
  3
AutoCAD 2000
 90
        0
280
     0
281
     0
  0
CLASS
  1
LONG_TRANSACTION
  2
AcDbLongTransaction
  3
AutoCAD 2000
 90
    32768
280
     0
281
     0
  0
CLASS
  1
LWPOLYLINE
  2
AcDbPolyline
  3
AutoCAD 2000
 90
    32768
280
     0
281
     1
  0
CLASS
  1
HATCH
  2
AcDbHatch
  3
AutoCAD 2000
 90
    32768
280
     0
281
     1
  0
CLASS
  1
XRECORD
  2
AcDbXrecord
  3
AutoCAD 2000
 90
    32768
280
     0
281
     0
  0
CLASS
  1
MATERIAL
  2
AcDbMaterial
  3
ObjectDBX Classes
 90
     1153
280
     0
281
     0
  0
CLASS
  1
VISUALSTYLE
  2
AcDbVisualStyle
  3
ObjectDBX Classes
 90
     4095
280
     0
281
     0
  0
CLASS
  1
TABLESTYLE
  2
AcDbTableStyle
  3
ObjectDBX Classes
 90
     4095
280
     0
281
     0
  0
CLASS
  1
SCALE
  2
AcDbScale
  3
ObjectDBX Classes
 90
     1153
280
     0
281
     0
  0
CLASS
  1
MLEADERSTYLE
  2
AcDbMLeaderStyle
  3
ACDB_MLEADERSTYLE_CLASS
 90
     4095
280
     0
281
     0
  0
CLASS
  1
ACME_DOCUMENT
  2
AcMeDbDoc
  3
AcMeServices
 90
    33792
280
     0
281
     0
  0
CLASS
  1
AMGSETTINGSOBJ
  2
AmgSettingsObj
  3
"AcadM|Product Description: AutoCAD Mechanical|Company: Autodesk, Inc."
 90
    33792
280
     0
281
     0
  0
CLASS
  1
ACMESCOPE
  2
AcMeScope
  3
AcMeServices
 90
    33792
280
     0
281
     0
  0
CLASS
  1
ACMECOMMANDHISTORY
  2
AcMeCommandHistory
  3
AcMeServices
 90
    33792
280
     0
281
     0
  0
CLASS
  1
ACIMSYSVARMAN
  2
AcImSysVarManager
  3
AcMeServices
 90
     1024
280
     0
281
     0
  0
CLASS
  1
ACIMINTSYSVAR
  2
AcImIntSysVar
  3
AcMeServices
 90
    33792
280
     0
281
     0
  0
CLASS
  1
ACMEDRAWINGMAN
  2
AcMeDrawingMan
  3
AcMeServices
 90
    33792
280
     0
281
     0
  0
CLASS
  1
ACMEVIEW
  2
AcMeView
  3
AcMeServices
 90
    33792
280
     0
281
     0
  0
CLASS
  1
ACDBENTITYCACHE
  2
AcMeEntityCache
  3
AcMeServices
 90
    33792
280
     0
281
     0
  0
CLASS
  1
GSMANAGER
  2
AcMeGSManager
  3
AcMeServices
 90
    33792
280
     0
281
     0
  0
CLASS
  1
AMDTINTERNALREACTOR
  2
AmdtInternalReactor
  3
AcMeServices
 90
    33792
280
     0
281
     0
  0
CLASS
  1
ACMESTATEMGR
  2
AcMeStateMgr
  3
AcMeServices
 90
    33792
280
     0
281
     0
  0
CLASS
  1
ACGREFMASTER
  2
AcGrefMaster
  3
AcAttribServices
 90
    33792
280
     0
281
     0
  0
CLASS
  1
AM_DRAWING_MGR
  2
AcDmDwgMgr
  3
AcMechDwgViewMgmt
 90
    33792
280
     0
281
     0
  0
CLASS
  1
AM_DWG_DOCUMENT
  2
AcDmDwgDocument
  3
AcMechDwgViewMgmt
 90
    33792
280
     0
281
     0
  0
CLASS
  1
AM_DWG_SHEET
  2
AcDmSheet
  3
AcMechDwgViewMgmt
 90
    33792
280
     0
281
     0
  0
CLASS
  1
AM_VIEWDIMPARMAP
  2
AcDmViewDimParMap
  3
AcMechDwgViewMgmt
 90
    33792
280
     0
281
     0
  0
CLASS
  1
ACIMREALSYSVAR
  2
AcImRealSysVar
  3
AcMeServices
 90
    33792
280
     0
281
     0
  0
CLASS
  1
AM_DWGMGR_NAME
  2
AcDmDwgMgrName
  3
AcMechDwgViewMgmt
 90
    33792
280
     0
281
     0
  0
CLASS
  1
ACME_DATABASE
  2
AcMeDbDatabase
  3
AcMeServices
 90
    33792
280
     0
281
     0
  0
CLASS
  1
ACRFINSADJUSTERMGR
  2
AcRfInsAdjusterMgr
  3
AcMeServices
 90
    33792
280
     0
281
     0
  0
CLASS
  1
ACGREFACADMASTER
  2
AcGrefacadMaster
  3
AcGrefServices
 90
    33792
280
     0
281
     0
  0
CLASS
  1
AMDTMENUSTATEMGR
  2
AmdtMenuStateMgr
  3
McadcomServices
 90
    33792
280
     0
281
     0
  0
CLASS
  1
AMDTMCOMMENUSTATE
  2
AmdtMcomMenuState
  3
McadcomServices
 90
    33792
280
     0
281
     0
  0
CLASS
  1
AMIMASTER
  2
AmiMaster
  3
AmiServices
 90
    33792
280
     0
281
     0
  0
CLASS
  1
MAPIAMMOUDLE
  2
MApiAmModule
  3
MApiAmServices
 90
    33792
280
     0
281
     0
  0
CLASS
  1
ACIMSTRSYSVAR
  2
AcImStrSysVar
  3
AcMeServices
 90
    33792
280
     0
281
     0
  0
CLASS
  1
AMDTADMENUSTATE
  2
AmdtAdMenuState
  3
DesignerServices
 90
    33792
280
     0
281
     0
  0
CLASS
  1
ADAPPL
  2
AcAdAppl
  3
DesignerServices
 90
    33792
280
     0
281
     0
  0
CLASS
  1
DEPMGR
  2
AcAdDepMgr
  3
DesignerServices
 90
    33792
280
     0
281
     0
  0
CLASS
  1
PARAMMGR
  2
AcAdParamMgr
  3
DesignerServices
 90
    33792
280
     0
281
     0
  0
CLASS
  1
PARAMSCOPE
  2
AcAdParamScope
  3
DesignerServices
 90
    33792
280
     0
281
     0
  0
CLASS
  1
NAMEDAPPL
  2
AcAdNamedAppl
  3
DesignerServices
 90
    33792
280
     0
281
     0
  0
CLASS
  1
AMDTDMMENUSTATE
  2
AmdtDmMenuState
  3
AcMechDwgViewMgmt
 90
    33792
280
     0
281
     0
  0
CLASS
  1
AMDTAMMENUSTATE
  2
AmdtAmMenuState
  3
DesignerAssemblies
 90
    33792
280
     0
281
     0
  0
CLASS
  1
ACAMPROJECT
  2
AcAmProject
  3
DesignerAssemblies
 90
    33792
280
     0
281
     0
  0
CLASS
  1
ACAMGRCOMPDEF
  2
AcAmGrCompDef
  3
DesignerAssemblies
 90
    33792
280
     0
281
     0
  0
CLASS
  1
ACCMCONTEXT
  2
AcCmContext
  3
DesignerAssemblies
 90
    33792
280
     0
281
     0
  0
CLASS
  1
ACAMCOMPDEF
  2
AcAmCompDef
  3
DesignerAssemblies
 90
    33792
280
     0
281
     0
  0
CLASS
  1
ACAMCOMPDEFMGR
  2
AcAmCompDefMgr
  3
DesignerAssemblies
 90
    33792
280
     0
281
     0
  0
CLASS
  1
AMCONTEXTMGR
  2
AcAmContextMgr
  3
DesignerAssemblies
 90
    33792
280
     0
281
     0
  0
CLASS
  1
ACAMCONTEXTMODELER
  2
AcAmContextModeler
  3
DesignerAssemblies
 90
    33792
280
     0
281
     0
  0
CLASS
  1
ACMDATADICTIONARY
  2
AcmDataDictionary
  3
"AcmSymBB|Product Description: AutoCAD Mechanical|Company: Autodesk, Inc."
 90
    33792
280
     0
281
     0
  0
CLASS
  1
CATALOGSTATE
  2
AcAmCatalogState
  3
DesignerAssemblies
 90
    33792
280
     0
281
     0
  0
CLASS
  1
ACAMGRCOMPDEFSET
  2
AcAmGrCompDefSet
  3
DesignerAssemblies
 90
    33792
280
     0
281
     0
  0
CLASS
  1
AMDTBROWSERDBTAB
  2
AmdtBrowserDbTab
  3
McadcomServices
 90
    33792
280
     0
281
     0
  0
CLASS
  1
CBROWSERAPPOBJECT
  2
CBrowserAppObject
  3
McadcomServices
 90
    33792
280
     0
281
     0
  0
CLASS
  1
DM_PLACEHOLDER
  2
AcDmSelsetPlaceholder
  3
AcMechDwgViewMgmt
 90
    33792
280
     0
281
     0
  0
CLASS
  1
EXACXREFPANELOBJECT
  2
ExAcXREFPanelObject
  3
EXAC_ESW
 90
    33793
280
     0
281
     0
  0
CLASS
  1
NPOCOLLECTION
  2
AcDbImpNonPersistentObjectsCollection
  3
ObjectDBX Classes
 90
    33921
280
     0
281
     0
  0
CLASS
  1
ACMSTANDARDANSI
  2
AcmStandardANSI
  3
"Amdt_StdImp|Product Description: AutoCAD Mechanical|Company: Autodesk, Inc."
 90
    33792
280
     0
281
     0
  0
CLASS
  1
ACMSURFSTANDARDANSI
  2
AcmSurfTextStdANSI
  3
"Amdt_StdImp|Product Description: AutoCAD Mechanical|Company: Autodesk, Inc."
 90
    33792
280
     0
281
     0
  0
CLASS
  1
ACMFCFSTANDARDANSI
  2
AcmFCFStdANSI
  3
"Amdt_StdImp|Product Description: AutoCAD Mechanical|Company: Autodesk, Inc."
 90
    33792
280
     0
281
     0
  0
CLASS
  1
ACMWELDSTANDARDANSI
  2
AcmWeldingStdANSI
  3
"Amdt_StdImp|Product Description: AutoCAD Mechanical|Company: Autodesk, Inc."
 90
    33792
280
     0
281
     0
  0
CLASS
  1
ACMIDSTANDARDANSI
  2
AcmIdStdANSI
  3
"Amdt_StdImp|Product Description: AutoCAD Mechanical|Company: Autodesk, Inc."
 90
    33792
280
     0
281
     0
  0
CLASS
  1
ACMDATUMSTANDARDANSI
  2
AcmDatumStdANSI
  3
"Amdt_StdImp|Product Description: AutoCAD Mechanical|Company: Autodesk, Inc."
 90
    33792
280
     0
281
     0
  0
CLASS
  1
ACMBOMSTANDARDANSI
  2
AcmBOMStdANSI
  3
"Amdt_StdImp|Product Description: AutoCAD Mechanical|Company: Autodesk, Inc."
 90
    33792
280
     0
281
     0
  0
CLASS
  1
ACMDETAILSTANDARDANSI
  2
AmdtDetailSymStdANSI
  3
"Amdt_StdImp|Product Description: AutoCAD Mechanical|Company: Autodesk, Inc."
 90
    33792
280
     0
281
     0
  0
CLASS
  1
ACMSECTIONSTANDARDANSI
  2
AmdtSectionSymStdANSI
  3
"Amdt_StdImp|Product Description: AutoCAD Mechanical|Company: Autodesk, Inc."
 90
    33792
280
     0
281
     0
  0
CLASS
  1
ACMCENTERLINESTANDARDANSI
  2
AmdtCenterLineStdANSI
  3
"Amdt_StdImp|Product Description: AutoCAD Mechanical|Company: Autodesk, Inc."
 90
    33792
280
     0
281
     0
  0
CLASS
  1
ACMTHREADLINESTANDARDANSI
  2
AmdtThreadLineStdANSI
  3
"Amdt_StdImp|Product Description: AutoCAD Mechanical|Company: Autodesk, Inc."
 90
    33792
280
     0
281
     0
  0
CLASS
  1
ACMNOTESTANDARDANSI
  2
AmdtNoteStdANSI
  3
"Amdt_StdImp|Product Description: AutoCAD Mechanical|Company: Autodesk, Inc."
 90
    33792
280
     0
281
     0
  0
CLASS
  1
ACMTAPERSTANDARDANSI
  2
AcmTaperStdANSI
  3
"Amdt_StdImp|Product Description: AutoCAD Mechanical|Company: Autodesk, Inc."
 90
    33792
280
     0
281
     0
  0
CLASS
  1
ACMANOOTATIONVIEWSTANDARDANSI
  2
AmdtAnViewStdANSI
  3
"Amdt_StdImp|Product Description: AutoCAD Mechanical|Company: Autodesk, Inc."
 90
    33792
280
     0
281
     0
  0
CLASS
  1
ACAMGLAYSTD
  2
AcAmgLayStd
  3
"AmgLay|Product Description: AutoCAD Mechanical|Company: Autodesk, Inc."
 90
    33792
280
     0
281
     0
  0
CLASS
  1
ACAMGDIMSTD
  2
AcAmgDimStd
  3
"AmgDim|Product Description: AutoCAD Mechanical|Company: Autodesk, Inc."
 90
    33792
280
     0
281
     0
  0
CLASS
  1
AMGOBJPROPCFG
  2
AmgObjPropCfg
  3
"AmgLay|Product Description: AutoCAD Mechanical|Company: Autodesk, Inc."
 90
    33793
280
     0
281
     0
  0
CLASS
  1
ACAMGHOLECHARTSTDANSI
  2
AcAmgHoleChartStdANSI
  3
AmgDim|Product Description: AutoCAD Mechanical|Company: Autodesk, Inc.
 90
    33792
280
     0
281
     0
  0
CLASS
  1
ACAMGTITLESTD
  2
AcAmgTitleStd
  3
"AmgTitle|Product Description: AutoCAD Mechanical|Company: Autodesk, Inc."
 90
    36863
280
     0
281
     0
  0
CLASS
  1
AMDTNOTETEMPLATEDB
  2
AmdtNoteTemplateDB
  3
AcmSymBB|Product Description: AutoCAD Mechanical|Company: Autodesk, Inc.
 90
    33792
280
     0
281
     0
  0
CLASS
  1
SORTENTSTABLE
  2
AcDbSortentsTable
  3
AutoCAD 2000
 90
        0
280
     0
281
     0
  0
CLASS
  1
ACMSTANDARDJIS
  2
AcmStandardJIS
  3
"Amdt_StdImp|Product Description: AutoCAD Mechanical|Company: Autodesk, Inc."
 90
    33792
280
     0
281
     0
  0
CLASS
  1
ACMSURFSTANDARDJIS
  2
AcmSurfTextStdJIS
  3
"Amdt_StdImp|Product Description: AutoCAD Mechanical|Company: Autodesk, Inc."
 90
    33792
280
     0
281
     0
  0
CLASS
  1
ACMFCFSTANDARDJIS98
  2
AcmFCFStdJIS98
  3
"Amdt_StdImp|Product Description: AutoCAD Mechanical|Company: Autodesk, Inc."
 90
    33792
280
     0
281
     0
  0
CLASS
  1
ACMWELDSTANDARDJIS
  2
AcmWeldingStdJIS
  3
"Amdt_StdImp|Product Description: AutoCAD Mechanical|Company: Autodesk, Inc."
 90
    33792
280
     0
281
     0
  0
CLASS
  1
ACMIDSTANDARDJIS
  2
AcmIdStdJIS
  3
"Amdt_StdImp|Product Description: AutoCAD Mechanical|Company: Autodesk, Inc."
 90
    33792
280
     0
281
     0
  0
CLASS
  1
ACMDATUMSTANDARDJIS
  2
AcmDatumStdJIS
  3
"Amdt_StdImp|Product Description: AutoCAD Mechanical|Company: Autodesk, Inc."
 90
    33792
280
     0
281
     0
  0
CLASS
  1
ACMBOMSTANDARDJIS
  2
AcmBOMStdJIS
  3
"Amdt_StdImp|Product Description: AutoCAD Mechanical|Company: Autodesk, Inc."
 90
    33792
280
     0
281
     0
  0
CLASS
  1
ACMDETAILSTANDARDJIS
  2
AmdtDetailSymStdJIS
  3
"Amdt_StdImp|Product Description: AutoCAD Mechanical|Company: Autodesk, Inc."
 90
    33792
280
     0
281
     0
  0
CLASS
  1
ACMSECTIONSTANDARDJIS
  2
AmdtSectionSymStdJIS
  3
"Amdt_StdImp|Product Description: AutoCAD Mechanical|Company: Autodesk, Inc."
 90
    33792
280
     0
281
     0
  0
CLASS
  1
ACMCENTERLINESTANDARDJIS
  2
AmdtCenterLineStdJIS
  3
"Amdt_StdImp|Product Description: AutoCAD Mechanical|Company: Autodesk, Inc."
 90
    33792
280
     0
281
     0
  0
CLASS
  1
ACMNOTESTANDARDJIS
  2
AmdtNoteStdJIS
  3
"Amdt_StdImp|Product Description: AutoCAD Mechanical|Company: Autodesk, Inc."
 90
    33792
280
     0
281
     0
  0
CLASS
  1
ACAMGHOLECHARTSTDJIS
  2
AcAmgHoleChartStdJIS
  3
AmgDim|Product Description: AutoCAD Mechanical|Company: Autodesk, Inc.
 90
    33792
280
     0
281
     0
  0
CLASS
  1
ACMTHREADLINESTANDARDJIS
  2
AmdtThreadLineStdJIS
  3
"Amdt_StdImp|Product Description: AutoCAD Mechanical|Company: Autodesk, Inc."
 90
    33792
280
     0
281
     0
  0
CLASS
  1
ACMTAPERSTANDARDJIS
  2
AcmTaperStdJIS
  3
"Amdt_StdImp|Product Description: AutoCAD Mechanical|Company: Autodesk, Inc."
 90
    33792
280
     0
281
     0
  0
CLASS
  1
ACMANOOTATIONVIEWSTANDARDJIS
  2
AmdtAnViewStdJIS
  3
"Amdt_StdImp|Product Description: AutoCAD Mechanical|Company: Autodesk, Inc."
 90
    33792
280
     0
281
     0
  0
CLASS
  1
AMDTEDGESTANDARDJIS
  2
AmdtEdgeStdJIS
  3
"Amdt_StdImp|Product Description: AutoCAD Mechanical|Company: Autodesk, Inc."
 90
    33792
280
     0
281
     0
  0
CLASS
  1
ACMDATAENTRYBLOCK
  2
AcmDataEntryBlock
  3
AcmSymBB|Product Description: AutoCAD Mechanical|Company: Autodesk, Inc.
 90
    33792
280
     0
281
     0
  0
CLASS
  1
ACAMGFILTERDAT
  2
AcAmgFilterDat
  3
"AcadM|Product Description: AutoCAD Mechanical|Company: Autodesk, Inc."
 90
    33792
280
     0
281
     0
  0
CLASS
  1
CELLSTYLEMAP
  2
AcDbCellStyleMap
  3
ObjectDBX Classes
 90
     1152
280
     0
281
     0
  0
CLASS
  1
ACAD_PROXY_OBJECT_WRAPPER
  2
AcDbProxyObjectWrapper
  3
AutoCAD 2000
 90
    32768
280
     0
281
     0
  0
CLASS
  1
LONG_TRANSACTION
  2
AcDbLongTransaction
  3
AutoCAD 2000
 90
    32768
280
     0
281
     0
  0
CLASS
  1
LWPOLYLINE
  2
AcDbPolyline
  3
AutoCAD 2000
 90
    32768
280
     0
281
     1
  0
CLASS
  1
HATCH
  2
AcDbHatch
  3
AutoCAD 2000
 90
    32768
280
     0
281
     1
  0
CLASS
  1
XRECORD
  2
AcDbXrecord
  3
AutoCAD 2000
 90
    32768
280
     0
281
     0
  0
ENDSEC
  0
SECTION
  2
TABLES
  0
TABLE
  2
VPORT
  5
1F9E
102
{ACAD_XDICTIONARY
360
240C
102
}
330
0
100
AcDbSymbolTable
 70
     2
  0
VPORT
  5
25B0
330
1F9E
100
AcDbSymbolTableRecord
100
AcDbViewportTableRecord
  2
*Active
 70
     0
 10
0.0
 20
0.0
 11
1.0
 21
1.0
 12
279.798865903439
 22
370.1813573272611
 13
0.0
 23
0.0
 14
1.0
 24
1.0
 15
0.0
 25
0.0
 16
0.0
 26
0.0
 36
1.0
 17
0.0
 27
0.0
 37
0.0
 40
680.4001299694911
 41
1.592161016949152
 42
50.0
 43
0.0
 44
0.0
 50
0.0
 51
0.0
 71
     0
 72
   100
 73
     1
 74
     3
 75
     0
 76
     0
 77
     0
 78
     0
281
     0
 65
     1
110
0.0
120
0.0
130
0.0
111
1.0
121
0.0
131
0.0
112
0.0
122
1.0
132
0.0
 79
     0
146
0.0
  0
ENDTAB
  0
TABLE
  2
LTYPE
  5
1F9B
330
0
100
AcDbSymbolTable
 70
     2
  0
LTYPE
  5
1FA9
330
1F9B
100
AcDbSymbolTableRecord
100
AcDbLinetypeTableRecord
  2
ByBlock
 70
     0
  3

 72
    65
 73
     0
 40
0.0
  0
LTYPE
  5
1FAA
330
1F9B
100
AcDbSymbolTableRecord
100
AcDbLinetypeTableRecord
  2
ByLayer
 70
     0
  3

 72
    65
 73
     0
 40
0.0
  0
LTYPE
  5
1FAB
330
1F9B
100
AcDbSymbolTableRecord
100
AcDbLinetypeTableRecord
  2
CONTINUOUS
 70
     0
  3
Solid line
 72
    65
 73
     0
 40
0.0
  0
LTYPE
  5
2593
330
1F9B
100
AcDbSymbolTableRecord
100
AcDbLinetypeTableRecord
  2
CENTER
 70
     0
  3
__ . __
 72
    65
 73
     4
 40
7.0
 49
4.0
 74
     0
 49
-1.0
 74
     0
 49
1.0
 74
     0
 49
-1.0
 74
     0
  0
ENDTAB
  0
TABLE
  2
LAYER
  5
1F98
102
{ACAD_XDICTIONARY
360
2594
102
}
330
0
100
AcDbSymbolTable
 70
     1
  0
LAYER
  5
1FA6
102
{ACAD_XDICTIONARY
360
2400
102
}
330
1F98
100
AcDbSymbolTableRecord
100
AcDbLayerTableRecord
  2
0
 70
     0
 62
     7
  6
CONTINUOUS
370
    -3
390
1FA5
  0
ENDTAB
  0
TABLE
  2
STYLE
  5
1F99
330
0
100
AcDbSymbolTable
 70
     1
  0
STYLE
  5
1FA7
330
1F99
100
AcDbSymbolTableRecord
100
AcDbTextStyleTableRecord
  2
STANDARD
 70
     0
 40
0.0
 41
1.0
 50
0.0
 71
     0
 42
0.2
  3
txt
  4
BIGFONT
  0
ENDTAB
  0
TABLE
  2
VIEW
  5
1F9C
330
0
100
AcDbSymbolTable
 70
     1
  0
VIEW
  5
1FC7
102
{ACAD_XDICTIONARY
360
2537
102
}
330
1F9C
100
AcDbSymbolTableRecord
100
AcDbViewTableRecord
  2
OLE1
 70
     0
 40
3692.141019219747
 10
1914.591370701856
 20
1272.206200738182
 41
4595.022665841169
 11
0.0
 21
0.0
 31
1.0
 12
0.0
 22
0.0
 32
0.0
 42
50.0
 43
0.0
 44
0.0
 50
0.0
 71
     0
281
     0
 72
     1
110
0.0
120
0.0
130
0.0
111
1.0
121
0.0
131
0.0
112
0.0
122
1.0
132
0.0
 79
     0
146
0.0
  0
ENDTAB
  0
TABLE
  2
UCS
  5
1F9D
330
0
100
AcDbSymbolTable
 70
     0
  0
ENDTAB
  0
TABLE
  2
APPID
  5
1F9F
330
0
100
AcDbSymbolTable
 70
    26
  0
APPID
  5
1FA8
330
1F9F
100
AcDbSymbolTableRecord
100
AcDbRegAppTableRecord
  2
ACAD
 70
     0
  0
APPID
  5
1FC8
330
1F9F
100
AcDbSymbolTableRecord
100
AcDbRegAppTableRecord
  2
MCAD_NO_VIS
 70
     0
  0
APPID
  5
1FC9
330
1F9F
100
AcDbSymbolTableRecord
100
AcDbRegAppTableRecord
  2
ACAD_TEMP_GRAPHIC
 70
     0
  0
APPID
  5
1FCA
330
1F9F
100
AcDbSymbolTableRecord
100
AcDbRegAppTableRecord
  2
ACATTRIBSERVICES
 70
     0
  0
APPID
  5
2076
330
1F9F
100
AcDbSymbolTableRecord
100
AcDbRegAppTableRecord
  2
ACAD_MLEADERVER
 70
     0
  0
APPID
  5
20B1
330
1F9F
100
AcDbSymbolTableRecord
100
AcDbRegAppTableRecord
  2
AD_DRAW
 70
     0
  0
APPID
  5
20D4
330
1F9F
100
AcDbSymbolTableRecord
100
AcDbRegAppTableRecord
  2
DESIGNERASSEMBLIES
 70
     0
  0
APPID
  5
20DA
330
1F9F
100
AcDbSymbolTableRecord
100
AcDbRegAppTableRecord
  2
ACADM_DIM_EDIT
 70
     0
  0
APPID
  5
20DB
330
1F9F
100
AcDbSymbolTableRecord
100
AcDbRegAppTableRecord
  2
AMDT_DM_ADJ
 70
     0
  0
APPID
  5
2133
330
1F9F
100
AcDbSymbolTableRecord
100
AcDbRegAppTableRecord
  2
ACAD_DSTYLE_DIMJOGGED_JOGANGLE_SYMBOL
 70
     0
  0
APPID
  5
2134
330
1F9F
100
AcDbSymbolTableRecord
100
AcDbRegAppTableRecord
  2
ACAD_DSTYLE_DIMJAG
 70
     0
  0
APPID
  5
2135
330
1F9F
100
AcDbSymbolTableRecord
100
AcDbRegAppTableRecord
  2
ACAD_DSTYLE_DIMTALN
 70
     0
  0
APPID
  5
2136
330
1F9F
100
AcDbSymbolTableRecord
100
AcDbRegAppTableRecord
  2
ACAD_PSEXT
 70
     0
  0
APPID
  5
2418
330
1F9F
100
AcDbSymbolTableRecord
100
AcDbRegAppTableRecord
  2
ACAD_DSTYLE_DIMARC_LENGTH_SYMBOL
 70
     0
  0
APPID
  5
2419
330
1F9F
100
AcDbSymbolTableRecord
100
AcDbRegAppTableRecord
  2
ACAD_DSTYLE_DIM_LINETYPE
 70
     0
  0
APPID
  5
241A
330
1F9F
100
AcDbSymbolTableRecord
100
AcDbRegAppTableRecord
  2
ACAD_DSTYLE_DIM_EXT1_LINETYPE
 70
     0
  0
APPID
  5
241B
330
1F9F
100
AcDbSymbolTableRecord
100
AcDbRegAppTableRecord
  2
ACAD_DSTYLE_DIM_EXT2_LINETYPE
 70
     0
  0
APPID
  5
2489
330
1F9F
100
AcDbSymbolTableRecord
100
AcDbRegAppTableRecord
  2
ACAD_EXEMPT_FROM_CAD_STANDARDS
 70
     0
  0
APPID
  5
251F
330
1F9F
100
AcDbSymbolTableRecord
100
AcDbRegAppTableRecord
  2
AcadAnnotative
 70
     0
  0
APPID
  5
2520
330
1F9F
100
AcDbSymbolTableRecord
100
AcDbRegAppTableRecord
  2
GENIUS_GENODEF_13
 70
     0
  0
APPID
  5
2521
330
1F9F
100
AcDbSymbolTableRecord
100
AcDbRegAppTableRecord
  2
GENIUS_GENOBJ-N-FIL_13
 70
     0
  0
APPID
  5
2522
330
1F9F
100
AcDbSymbolTableRecord
100
AcDbRegAppTableRecord
  2
GENIUS_GENOBJ-N-CEN_13
 70
     0
  0
APPID
  5
2523
330
1F9F
100
AcDbSymbolTableRecord
100
AcDbRegAppTableRecord
  2
GENIUS_GENCEN_19
 70
     0
  0
APPID
  5
2524
330
1F9F
100
AcDbSymbolTableRecord
100
AcDbRegAppTableRecord
  2
GENIUS_GENSCREG_15
 70
     0
  0
APPID
  5
2525
330
1F9F
100
AcDbSymbolTableRecord
100
AcDbRegAppTableRecord
  2
GENIUS_GENOBJ-N-SDF_13
 70
     0
  0
APPID
  5
2526
330
1F9F
100
AcDbSymbolTableRecord
100
AcDbRegAppTableRecord
  2
AcAecLayerStandard
 70
     0
  0
ENDTAB
  0
TABLE
  2
DIMSTYLE
  5
1FA0
330
0
100
AcDbSymbolTable
 70
     1
100
AcDbDimStyleTable
 71
     0
  0
DIMSTYLE
105
1FCB
330
1FA0
100
AcDbSymbolTableRecord
100
AcDbDimStyleTableRecord
  2
STANDARD
 70
     0
279
     2
340
1FA7
  0
ENDTAB
  0
TABLE
  2
BLOCK_RECORD
  5
1F97
330
0
100
AcDbSymbolTable
 70
     0
  0
BLOCK_RECORD
  5
1FB4
102
{ACAD_XDICTIONARY
360
1FE0
102
}
330
1F97
100
AcDbSymbolTableRecord
100
AcDbBlockTableRecord
  2
*Model_Space
340
1FB7
  0
BLOCK_RECORD
  5
1FB0
102
{ACAD_XDICTIONARY
360
1FE2
102
}
330
1F97
100
AcDbSymbolTableRecord
100
AcDbBlockTableRecord
  2
*Paper_Space
340
1FB3
  0
ENDTAB
  0
ENDSEC
  0
SECTION
  2
BLOCKS
  0
BLOCK
  5
1FB5
330
1FB4
100
AcDbEntity
  8
0
100
AcDbBlockBegin
  2
*Model_Space
 70
     0
 10
0.0
 20
0.0
 30
0.0
  3
*Model_Space
  1

  0
ENDBLK
  5
1FB6
330
1FB4
100
AcDbEntity
  8
0
100
AcDbBlockEnd
  0
BLOCK
  5
1FB1
330
1FB0
100
AcDbEntity
 67
     1
  8
0
100
AcDbBlockBegin
  2
*Paper_Space
 70
     0
 10
0.0
 20
0.0
 30
0.0
  3
*Paper_Space
  1

  0
ENDBLK
  5
1FB2
330
1FB0
100
AcDbEntity
 67
     1
  8
0
100
AcDbBlockEnd
  0
ENDSEC
  0
SECTION
  2
ENTITIES
  0
LINE
  5
BCD
330
1FB4
100
AcDbEntity
  8
0
  6
Continuous
100
AcDbLine
 10
440.0
 20
192.0000379999999
 30
0.0
 11
440.0
 21
143.000031
 31
0.0
  0
LINE
  5
BCE
330
1FB4
100
AcDbEntity
  8
0
  6
Continuous
100
AcDbLine
 10
360.0
 20
143.000031
 30
0.0
 11
440.0
 21
143.000031
 31
0.0
  0
LINE
  5
BCF
330
1FB4
100
AcDbEntity
  8
0
  6
Continuous
100
AcDbLine
 10
360.0
 20
192.0000379999999
 30
0.0
 11
360.0
 21
143.000031
 31
0.0
  0
LINE
  5
BD0
330
1FB4
100
AcDbEntity
  8
0
  6
Continuous
100
AcDbLine
 10
360.0
 20
192.0000379999999
 30
0.0
 11
440.0
 21
192.0000379999999
 31
0.0
  0
LINE
  5
BD1
330
1FB4
100
AcDbEntity
  8
0
  6
Continuous
100
AcDbLine
 10
413.0000309999999
 20
147.5000339999999
 30
0.0
 11
413.0000309999999
 21
187.500031
 31
0.0
  0
LINE
  5
BD2
330
1FB4
100
AcDbEntity
  8
0
  6
Continuous
100
AcDbLine
 10
386.9999689999999
 20
147.5000339999999
 30
0.0
 11
386.9999689999999
 21
187.500031
 31
0.0
  0
LINE
  5
BD3
330
1FB4
100
AcDbEntity
  8
0
  6
Continuous
100
AcDbLine
 10
364.4999689999999
 20
187.500031
 30
0.0
 11
435.500031
 21
187.500031
 31
0.0
  0
LINE
  5
BD4
330
1FB4
100
AcDbEntity
  8
0
  6
Continuous
100
AcDbLine
 10
364.4999689999999
 20
187.500031
 30
0.0
 11
364.4999689999999
 21
147.5000339999999
 31
0.0
  0
LINE
  5
BD5
330
1FB4
100
AcDbEntity
  8
0
  6
Continuous
100
AcDbLine
 10
364.4999689999999
 20
147.5000339999999
 30
0.0
 11
435.500031
 21
147.5000339999999
 31
0.0
  0
LINE
  5
BD6
330
1FB4
100
AcDbEntity
  8
0
  6
Continuous
100
AcDbLine
 10
435.500031
 20
187.500031
 30
0.0
 11
435.500031
 21
147.5000339999999
 31
0.0
  0
ARC
  5
BD7
330
1FB4
100
AcDbEntity
  8
0
  6
Continuous
100
AcDbCircle
 10
400.0
 20
100.0
 30
0.0
 40
49.0
100
AcDbArc
 50
118.6515700000072
 51
61.34841400000667
  0
LINE
  5
BEA
330
1FB4
100
AcDbEntity
  8
0
  6
Continuous
100
AcDbLine
 10
160.0
 20
479.5453784661254
 30
0.0
 11
160.0
 21
504.9453784661254
 31
0.0
  0
LINE
  5
BEC
330
1FB4
100
AcDbEntity
  8
0
  6
Continuous
100
AcDbLine
 10
240.0
 20
479.5453784661254
 30
0.0
 11
240.0
 21
504.9453784661254
 31
0.0
  0
TEXT
  5
CC6
330
1FB4
100
AcDbEntity
  8
0
  6
Continuous
100
AcDbText
 10
-111.3933576831477
 20
660.2026231123535
 30
0.0
 40
48.000002
  1
BVP__T35J10 2S
 41
1.24425
100
AcDbText
  0
LINE
  5
CCB
330
1FB4
100
AcDbEntity
  8
0
  6
Continuous
100
AcDbLine
 10
218.908081
 20
143.000031
 30
0.0
 11
181.0919189999999
 21
143.000031
 31
0.0
  0
LINE
  5
CCC
330
1FB4
100
AcDbEntity
  8
0
  6
Continuous
100
AcDbLine
 10
167.999992
 20
192.000046
 30
0.0
 11
167.999992
 21
178.9697269999998
 31
0.0
  0
LINE
  5
CCD
330
1FB4
100
AcDbEntity
  8
0
  6
Continuous
100
AcDbLine
 10
168.00001
 20
178.9697649999999
 30
0.0
 11
181.0919229999998
 21
143.0000319999998
 31
0.0
  0
LINE
  5
CCE
330
1FB4
100
AcDbEntity
  8
0
  6
Continuous
100
AcDbLine
 10
232.0000159999999
 20
178.9697799999999
 30
0.0
 11
218.9081019999997
 21
143.0000439999998
 31
0.0
  0
LINE
  5
CCF
330
1FB4
100
AcDbEntity
  8
0
  6
Continuous
100
AcDbLine
 10
232.0000079999998
 20
192.000046
 30
0.0
 11
232.0000079999998
 21
178.9697269999998
 31
0.0
  0
LINE
  5
CD0
330
1FB4
100
AcDbEntity
  8
0
  6
Continuous
100
AcDbLine
 10
167.999992
 20
192.000046
 30
0.0
 11
232.0000079999998
 21
192.000046
 31
0.0
  0
LINE
  5
CD1
330
1FB4
100
AcDbEntity
  8
0
  6
Continuous
100
AcDbLine
 10
184.0
 20
143.0
 30
0.0
 11
184.0
 21
51.0
 31
0.0
  0
LINE
  5
CD4
330
1FB4
100
AcDbEntity
  8
0
  6
Continuous
100
AcDbLine
 10
216.0
 20
143.0
 30
0.0
 11
216.0
 21
51.0
 31
0.0
  0
LINE
  5
CD5
330
1FB4
100
AcDbEntity
  8
0
  6
Continuous
100
AcDbLine
 10
216.0
 20
51.0
 30
0.0
 11
184.0
 21
51.0
 31
0.0
  0
LINE
  5
1670
330
1FB4
100
AcDbEntity
  8
0
  6
Continuous
100
AcDbLine
 10
168.4999769999998
 20
192.000046
 30
0.0
 11
231.499979
 21
192.000046
 31
0.0
  0
LINE
  5
16E1
330
1FB4
100
AcDbEntity
  8
0
  6
Continuous
100
AcDbLine
 10
368.499999
 20
192.0000379999999
 30
0.0
 11
431.5000010000002
 21
192.0000379999999
 31
0.0
  0
LINE
  5
1D45
330
1FB4
100
AcDbEntity
  8
0
  6
Continuous
100
AcDbLine
 10
240.0
 20
68.00000000000022
 30
0.0
 11
237.1500006000001
 21
68.00000000000022
 31
0.0
  0
LINE
  5
1D46
330
1FB4
100
AcDbEntity
  8
0
  6
Continuous
100
AcDbLine
 10
237.1500001999997
 20
68.00000100000032
 30
0.0
 11
234.7477966999999
 21
74.60000000000012
 31
0.0
  0
LINE
  5
1D47
330
1FB4
100
AcDbEntity
  8
0
  6
Continuous
100
AcDbLine
 10
234.7477964999997
 20
74.60000000000012
 30
0.0
 11
216.0
 21
74.60000000000012
 31
0.0
  0
LINE
  5
1D48
330
1FB4
100
AcDbEntity
  8
0
  6
Continuous
100
AcDbLine
 10
240.0
 20
132.0000000000002
 30
0.0
 11
240.0
 21
68.00000000000022
 31
0.0
  0
LINE
  5
1D49
330
1FB4
100
AcDbEntity
  8
0
  6
Continuous
100
AcDbLine
 10
234.7477964999997
 20
125.4000000000003
 30
0.0
 11
216.0
 21
125.4000000000003
 31
0.0
  0
LINE
  5
1D4A
330
1FB4
100
AcDbEntity
  8
0
  6
Continuous
100
AcDbLine
 10
237.1500001999997
 20
131.9999990000001
 30
0.0
 11
234.7477966999999
 21
125.4000000000003
 31
0.0
  0
LINE
  5
1D4B
330
1FB4
100
AcDbEntity
  8
0
  6
Continuous
100
AcDbLine
 10
240.0
 20
132.0000000000002
 30
0.0
 11
237.1500006000001
 21
132.0000000000002
 31
0.0
  0
LINE
  5
1D4D
330
1FB4
100
AcDbEntity
  8
0
  6
Continuous
100
AcDbLine
 10
234.7477964999997
 20
74.60000000000012
 30
0.0
 11
234.7477964999997
 21
125.4000000000003
 31
0.0
  0
LINE
  5
1D50
330
1FB4
100
AcDbEntity
  8
0
  6
Continuous
100
AcDbLine
 10
160.0
 20
132.0
 30
0.0
 11
162.8499993999998
 21
132.0
 31
0.0
  0
LINE
  5
1D51
330
1FB4
100
AcDbEntity
  8
0
  6
Continuous
100
AcDbLine
 10
162.8499998000001
 20
131.9999989999998
 30
0.0
 11
165.2522032999999
 21
125.4
 31
0.0
  0
LINE
  5
1D52
330
1FB4
100
AcDbEntity
  8
0
  6
Continuous
100
AcDbLine
 10
165.2522035
 20
125.4
 30
0.0
 11
184.0
 21
125.4
 31
0.0
  0
LINE
  5
1D53
330
1FB4
100
AcDbEntity
  8
0
  6
Continuous
100
AcDbLine
 10
160.0
 20
68.0
 30
0.0
 11
160.0
 21
132.0
 31
0.0
  0
LINE
  5
1D54
330
1FB4
100
AcDbEntity
  8
0
  6
Continuous
100
AcDbLine
 10
165.2522035
 20
74.59999999999992
 30
0.0
 11
184.0
 21
74.59999999999992
 31
0.0
  0
LINE
  5
1D55
330
1FB4
100
AcDbEntity
  8
0
  6
Continuous
100
AcDbLine
 10
162.8499998000001
 20
68.00000100000011
 30
0.0
 11
165.2522032999999
 21
74.59999999999992
 31
0.0
  0
LINE
  5
1D56
330
1FB4
100
AcDbEntity
  8
0
  6
Continuous
100
AcDbLine
 10
160.0
 20
68.0
 30
0.0
 11
162.8499993999998
 21
68.0
 31
0.0
  0
LINE
  5
1D58
330
1FB4
100
AcDbEntity
  8
0
  6
Continuous
100
AcDbLine
 10
165.2522035
 20
125.4
 30
0.0
 11
165.2522035
 21
74.59999999999992
 31
0.0
  0
CIRCLE
  5
1D5E
330
1FB4
100
AcDbEntity
  8
0
  6
Continuous
100
AcDbCircle
 10
400.0
 20
100.0
 30
0.0
 40
32.0
  0
CIRCLE
  5
1D5F
330
1FB4
100
AcDbEntity
  8
0
  6
Continuous
100
AcDbCircle
 10
400.0
 20
100.0
 30
0.0
 40
25.3999994505043
  0
LINE
  5
22A2
330
1FB4
100
AcDbEntity
  8
0
  6
Continuous
100
AcDbLine
 10
259.4999779999999
 20
279.000046000001
 30
0.0
 11
259.4999779999999
 21
192.000046
 31
0.0
  0
LINE
  5
22A3
330
1FB4
100
AcDbEntity
  8
0
  6
Continuous
100
AcDbLine
 10
120.4999779999999
 20
279.000046000001
 30
0.0
 11
120.4999779999999
 21
192.000046
 31
0.0
  0
LINE
  5
22A4
330
1FB4
100
AcDbEntity
  8
0
  6
Continuous
100
AcDbLine
 10
264.4999779999999
 20
278.000046000001
 30
0.0
 11
264.4999779999999
 21
193.000046
 31
0.0
  0
LINE
  5
22A5
330
1FB4
100
AcDbEntity
  8
0
  6
Continuous
100
AcDbLine
 10
115.4999779999999
 20
278.000046000001
 30
0.0
 11
115.4999779999999
 21
193.000046
 31
0.0
  0
LINE
  5
22A6
330
1FB4
100
AcDbEntity
  8
0
  6
Continuous
100
AcDbLine
 10
116.4999779999999
 20
279.000046000001
 30
0.0
 11
263.4999779999999
 21
279.000046000001
 31
0.0
  0
LINE
  5
22A7
330
1FB4
100
AcDbEntity
  8
0
  6
Continuous
100
AcDbLine
 10
116.4999779999999
 20
192.000046
 30
0.0
 11
263.4999779999999
 21
192.000046
 31
0.0
  0
LINE
  5
22A8
330
1FB4
100
AcDbEntity
  8
0
  6
Continuous
100
AcDbLine
 10
108.8998803437499
 20
242.000046
 30
0.0
 11
108.8998803437499
 21
228.9998934121094
 31
0.0
  0
LINE
  5
22A9
330
1FB4
100
AcDbEntity
  8
0
  6
Continuous
100
AcDbLine
 10
109.4799584687499
 20
243.00541709375
 30
0.0
 11
113.3193139374999
 21
243.00541709375
 31
0.0
  0
LINE
  5
22AA
330
1FB4
100
AcDbEntity
  8
0
  6
Continuous
100
AcDbLine
 10
109.4804467499999
 20
239.2529756875001
 30
0.0
 11
113.3190839621867
 21
239.2529756875001
 31
0.0
  0
LINE
  5
22AB
330
1FB4
100
AcDbEntity
  8
0
  6
Continuous
100
AcDbLine
 10
108.8995434235376
 20
242.0000031294175
 30
0.0
 11
109.4801098297885
 21
243.0055736241629
 31
0.0
  0
LINE
  5
22AC
330
1FB4
100
AcDbEntity
  8
0
  6
Continuous
100
AcDbLine
 10
113.3193139374999
 20
227.9945223183594
 30
0.0
 11
109.4799584687499
 21
227.9945223183594
 31
0.0
  0
LINE
  5
22AD
330
1FB4
100
AcDbEntity
  8
0
  6
Continuous
100
AcDbLine
 10
113.3191048467107
 20
231.7472078652344
 30
0.0
 11
109.4804467499999
 21
231.7472078652344
 31
0.0
  0
ARC
  5
22AE
330
1FB4
100
AcDbEntity
  8
0
  6
Continuous
100
AcDbCircle
 10
112.2226342499999
 20
229.8707735390634
 30
0.0
 40
3.322566986083984
100
AcDbArc
 50
145.6156973218404
 51
180.0
  0
ARC
  5
22AF
330
1FB4
100
AcDbEntity
  8
0
  6
Continuous
100
AcDbCircle
 10
121.3193139374999
 20
235.500046
 30
0.0
 40
12.41944122314453
100
AcDbArc
 50
162.4120613966358
 51
197.587972754297
  0
LINE
  5
22B0
330
1FB4
100
AcDbEntity
  8
0
  6
Continuous
100
AcDbLine
 10
108.8998803437499
 20
239.500046
 30
0.0
 11
104.9999779999999
 21
239.500046
 31
0.0
  0
LINE
  5
22B1
330
1FB4
100
AcDbEntity
  8
0
  6
Continuous
100
AcDbLine
 10
108.8998803437499
 20
238.7002413125
 30
0.0
 11
104.9999779999999
 21
238.7002413125
 31
0.0
  0
LINE
  5
22B2
330
1FB4
100
AcDbEntity
  8
0
  6
Continuous
100
AcDbLine
 10
108.8998803437499
 20
232.2999727578126
 30
0.0
 11
104.9999779999999
 21
232.2999727578126
 31
0.0
  0
LINE
  5
22B3
330
1FB4
100
AcDbEntity
  8
0
  6
Continuous
100
AcDbLine
 10
108.8998803437499
 20
231.4999239296875
 30
0.0
 11
104.9999779999999
 21
231.4999239296875
 31
0.0
  0
LINE
  5
22B4
330
1FB4
100
AcDbEntity
  8
0
  6
Continuous
100
AcDbLine
 10
115.4999779999999
 20
243.500046
 30
0.0
 11
113.8998803437499
 21
243.500046
 31
0.0
  0
LINE
  5
22B5
330
1FB4
100
AcDbEntity
  8
0
  6
Continuous
100
AcDbLine
 10
115.4999779999999
 20
227.4999239296885
 30
0.0
 11
113.8998803437499
 21
227.4999239296885
 31
0.0
  0
LINE
  5
22B6
330
1FB4
100
AcDbEntity
  8
0
  6
Continuous
100
AcDbLine
 10
108.8994467751982
 20
228.9998624640011
 30
0.0
 11
109.4800131814482
 21
227.9942919692557
 31
0.0
  0
ARC
  5
22B7
330
1FB4
100
AcDbEntity
  8
0
  6
Continuous
100
AcDbCircle
 10
112.2226342499999
 20
241.12944053125
 30
0.0
 40
3.322566986083984
100
AcDbArc
 50
180.0
 51
214.3843026781595
  0
LINE
  5
22B8
330
1FB4
100
AcDbEntity
  8
0
  6
Continuous
100
AcDbLine
 10
113.8993920624999
 20
227.4999239296885
 30
0.0
 11
113.8993920624999
 21
243.500046
 31
0.0
  0
LINE
  5
22B9
330
1FB4
100
AcDbEntity
  8
0
  6
Continuous
100
AcDbLine
 10
113.8998266026284
 20
242.0000829305354
 30
0.0
 11
113.3192754551674
 21
243.0056269962824
 31
0.0
  0
ARC
  5
22BA
330
1FB4
100
AcDbEntity
  8
0
  6
Continuous
100
AcDbCircle
 10
110.5771264374999
 20
229.8707735390634
 30
0.0
 40
3.322566986083984
100
AcDbArc
 50
359.9999813306582
 51
34.38523817739032
  0
LINE
  5
22BB
330
1FB4
100
AcDbEntity
  8
0
  6
Continuous
100
AcDbLine
 10
113.8998592227618
 20
228.9998548682487
 30
0.0
 11
113.3192928165118
 21
227.9942843735043
 31
0.0
  0
ARC
  5
22BC
330
1FB4
100
AcDbEntity
  8
0
  6
Continuous
100
AcDbCircle
 10
110.5771264374999
 20
241.12944053125
 30
0.0
 40
3.322566986083984
100
AcDbArc
 50
325.6141241315667
 51
0.0000359721715611
  0
LINE
  5
22BD
330
1FB4
100
AcDbEntity
  8
0
  6
Continuous
100
AcDbLine
 10
100.0000327126991
 20
228.9998624640002
 30
0.0
 11
100.5805991189491
 21
227.9942919692557
 31
0.0
  0
LINE
  5
22BE
330
1FB4
100
AcDbEntity
  8
0
  6
Continuous
100
AcDbLine
 10
104.9999779999999
 20
227.9945223183594
 30
0.0
 11
100.5805444062499
 21
227.9945223183594
 31
0.0
  0
ARC
  5
22BF
330
1FB4
100
AcDbEntity
  8
0
  6
Continuous
100
AcDbCircle
 10
103.3232201874999
 20
229.8707735390634
 30
0.0
 40
3.322566986083984
100
AcDbArc
 50
145.6156973218404
 51
180.0
  0
LINE
  5
22C0
330
1FB4
100
AcDbEntity
  8
0
  6
Continuous
100
AcDbLine
 10
104.9999779999999
 20
231.7472078652344
 30
0.0
 11
100.5810326874999
 21
231.7472078652344
 31
0.0
  0
ARC
  5
22C1
330
1FB4
100
AcDbEntity
  8
0
  6
Continuous
100
AcDbCircle
 10
112.4198998749999
 20
235.500046
 30
0.0
 40
12.41944122314453
100
AcDbArc
 50
162.4120613966358
 51
197.587972754297
  0
LINE
  5
22C2
330
1FB4
100
AcDbEntity
  8
0
  6
Continuous
100
AcDbLine
 10
100.0004662812499
 20
242.000046
 30
0.0
 11
100.0004662812499
 21
228.9998934121094
 31
0.0
  0
LINE
  5
22C3
330
1FB4
100
AcDbEntity
  8
0
  6
Continuous
100
AcDbLine
 10
104.9999779999999
 20
227.9945223183594
 30
0.0
 11
104.9999779999999
 21
243.00541709375
 31
0.0
  0
LINE
  5
22C4
330
1FB4
100
AcDbEntity
  8
0
  6
Continuous
100
AcDbLine
 10
100.5810326874999
 20
239.2529756875001
 30
0.0
 11
104.9999779999999
 21
239.2529756875001
 31
0.0
  0
ARC
  5
22C5
330
1FB4
100
AcDbEntity
  8
0
  6
Continuous
100
AcDbCircle
 10
103.3232201874999
 20
241.12944053125
 30
0.0
 40
3.322566986083984
100
AcDbArc
 50
180.0
 51
214.3843026781595
  0
LINE
  5
22C6
330
1FB4
100
AcDbEntity
  8
0
  6
Continuous
100
AcDbLine
 10
100.0001293610404
 20
242.0000031294175
 30
0.0
 11
100.5806957672904
 21
243.0055736241619
 31
0.0
  0
LINE
  5
22C7
330
1FB4
100
AcDbEntity
  8
0
  6
Continuous
100
AcDbLine
 10
100.5805444062499
 20
243.00541709375
 30
0.0
 11
104.9999779999999
 21
243.00541709375
 31
0.0
  0
LINE
  5
22C8
330
1FB4
100
AcDbEntity
  8
0
  6
Continuous
100
AcDbLine
 10
264.4999779999999
 20
259.4240924804771
 30
0.0
 11
115.4999779999999
 21
259.4240924804771
 31
0.0
  0
LINE
  5
22C9
330
1FB4
100
AcDbEntity
  8
0
  6
Continuous
100
AcDbLine
 10
264.4999779999999
 20
211.5759995195239
 30
0.0
 11
115.4999779999999
 21
211.5759995195239
 31
0.0
  0
ARC
  5
22CB
330
1FB4
100
AcDbEntity
  8
0
  6
Continuous
100
AcDbCircle
 10
400.0
 20
235.5000379999999
 30
0.0
 40
39.0
100
AcDbArc
 50
142.1615560123649
 51
217.838443987635
  0
ARC
  5
22CC
330
1FB4
100
AcDbEntity
  8
0
  6
Continuous
100
AcDbCircle
 10
400.0
 20
235.5000379999999
 30
0.0
 40
39.0
100
AcDbArc
 50
322.161556012365
 51
37.83844398763503
  0
LINE
  5
22CD
330
1FB4
100
AcDbEntity
  8
0
  6
Continuous
100
AcDbLine
 10
430.8000000000001
 20
211.5759915195229
 30
0.0
 11
430.8000000000001
 21
194.0000379999999
 31
0.0
  0
LINE
  5
22CE
330
1FB4
100
AcDbEntity
  8
0
  6
Continuous
100
AcDbLine
 10
369.1999999999998
 20
211.5759915195229
 30
0.0
 11
369.1999999999998
 21
194.0000379999999
 31
0.0
  0
LINE
  5
22CF
330
1FB4
100
AcDbEntity
  8
0
  6
Continuous
100
AcDbLine
 10
369.1999999999998
 20
277.0000379999999
 30
0.0
 11
369.1999999999998
 21
259.424084480476
 31
0.0
  0
LINE
  5
22D0
330
1FB4
100
AcDbEntity
  8
0
  6
Continuous
100
AcDbLine
 10
430.7999999999992
 20
277.0000379999999
 30
0.0
 11
430.7999999999992
 21
259.424084480476
 31
0.0
  0
LINE
  5
22D1
330
1FB4
100
AcDbEntity
  8
0
  6
Continuous
100
AcDbLine
 10
418.0
 20
202.886789345948
 30
0.0
 11
418.0
 21
197.1132866540517
 31
0.0
  0
LINE
  5
22D2
330
1FB4
100
AcDbEntity
  8
0
  6
Continuous
100
AcDbLine
 10
418.0
 20
202.8867893459471
 30
0.0
 11
423.0
 21
205.7735406918953
 31
0.0
  0
LINE
  5
22D3
330
1FB4
100
AcDbEntity
  8
0
  6
Continuous
100
AcDbLine
 10
423.0
 20
194.2265353081036
 30
0.0
 11
428.0
 21
197.1132866540517
 31
0.0
  0
LINE
  5
22D4
330
1FB4
100
AcDbEntity
  8
0
  6
Continuous
100
AcDbLine
 10
418.0
 20
197.1132866540517
 30
0.0
 11
423.0
 21
194.2265353081036
 31
0.0
  0
LINE
  5
22D5
330
1FB4
100
AcDbEntity
  8
0
  6
Continuous
100
AcDbLine
 10
423.0
 20
205.7735406918962
 30
0.0
 11
428.0
 21
202.8867893459471
 31
0.0
  0
LINE
  5
22D6
330
1FB4
100
AcDbEntity
  8
0
  6
Continuous
100
AcDbLine
 10
428.0
 20
202.886789345948
 30
0.0
 11
428.0
 21
197.1132866540517
 31
0.0
  0
LINE
  5
22D7
330
1FB4
100
AcDbEntity
  8
0
  6
Continuous
100
AcDbLine
 10
372.0
 20
202.886789345948
 30
0.0
 11
372.0
 21
197.1132866540517
 31
0.0
  0
LINE
  5
22D8
330
1FB4
100
AcDbEntity
  8
0
  6
Continuous
100
AcDbLine
 10
372.0
 20
202.8867893459471
 30
0.0
 11
377.0
 21
205.7735406918953
 31
0.0
  0
LINE
  5
22D9
330
1FB4
100
AcDbEntity
  8
0
  6
Continuous
100
AcDbLine
 10
377.0
 20
194.2265353081027
 30
0.0
 11
382.0
 21
197.1132866540508
 31
0.0
  0
LINE
  5
22DA
330
1FB4
100
AcDbEntity
  8
0
  6
Continuous
100
AcDbLine
 10
372.0
 20
197.1132866540517
 30
0.0
 11
377.0
 21
194.2265353081036
 31
0.0
  0
LINE
  5
22DB
330
1FB4
100
AcDbEntity
  8
0
  6
Continuous
100
AcDbLine
 10
377.0
 20
205.7735406918962
 30
0.0
 11
382.0
 21
202.8867893459471
 31
0.0
  0
LINE
  5
22DC
330
1FB4
100
AcDbEntity
  8
0
  6
Continuous
100
AcDbLine
 10
382.0
 20
202.886789345948
 30
0.0
 11
382.0
 21
197.1132866540517
 31
0.0
  0
LINE
  5
22DD
330
1FB4
100
AcDbEntity
  8
0
  6
Continuous
100
AcDbLine
 10
372.0
 20
273.886789345948
 30
0.0
 11
372.0
 21
268.1132866540517
 31
0.0
  0
LINE
  5
22DE
330
1FB4
100
AcDbEntity
  8
0
  6
Continuous
100
AcDbLine
 10
372.0
 20
273.886789345948
 30
0.0
 11
377.0
 21
276.7735406918962
 31
0.0
  0
LINE
  5
22DF
330
1FB4
100
AcDbEntity
  8
0
  6
Continuous
100
AcDbLine
 10
377.0
 20
265.2265353081026
 30
0.0
 11
382.0
 21
268.1132866540508
 31
0.0
  0
LINE
  5
22E0
330
1FB4
100
AcDbEntity
  8
0
  6
Continuous
100
AcDbLine
 10
372.0
 20
268.1132866540517
 30
0.0
 11
377.0
 21
265.2265353081036
 31
0.0
  0
LINE
  5
22E1
330
1FB4
100
AcDbEntity
  8
0
  6
Continuous
100
AcDbLine
 10
376.9999999999991
 20
276.7735406918962
 30
0.0
 11
382.0
 21
273.8867893459471
 31
0.0
  0
LINE
  5
22E2
330
1FB4
100
AcDbEntity
  8
0
  6
Continuous
100
AcDbLine
 10
382.0
 20
273.886789345948
 30
0.0
 11
382.0
 21
268.1132866540517
 31
0.0
  0
LINE
  5
22E3
330
1FB4
100
AcDbEntity
  8
0
  6
Continuous
100
AcDbLine
 10
418.0
 20
273.8867893459471
 30
0.0
 11
418.0
 21
268.1132866540517
 31
0.0
  0
LINE
  5
22E4
330
1FB4
100
AcDbEntity
  8
0
  6
Continuous
100
AcDbLine
 10
418.0
 20
273.8867893459471
 30
0.0
 11
423.0
 21
276.7735406918952
 31
0.0
  0
LINE
  5
22E5
330
1FB4
100
AcDbEntity
  8
0
  6
Continuous
100
AcDbLine
 10
423.0
 20
265.2265353081026
 30
0.0
 11
428.0
 21
268.1132866540508
 31
0.0
  0
LINE
  5
22E6
330
1FB4
100
AcDbEntity
  8
0
  6
Continuous
100
AcDbLine
 10
418.0
 20
268.1132866540517
 30
0.0
 11
423.0
 21
265.2265353081026
 31
0.0
  0
LINE
  5
22E7
330
1FB4
100
AcDbEntity
  8
0
  6
Continuous
100
AcDbLine
 10
423.0
 20
276.7735406918952
 30
0.0
 11
428.0
 21
273.8867893459471
 31
0.0
  0
LINE
  5
22E8
330
1FB4
100
AcDbEntity
  8
0
  6
Continuous
100
AcDbLine
 10
428.0
 20
273.8867893459471
 30
0.0
 11
428.0
 21
268.1132866540517
 31
0.0
  0
LINE
  5
22E9
330
1FB4
100
AcDbEntity
  8
0
  6
Continuous
100
AcDbLine
 10
382.0
 20
192.0000379999999
 30
0.0
 11
371.1999999999998
 21
192.0000379999999
 31
0.0
  0
LINE
  5
22EA
330
1FB4
100
AcDbEntity
  8
0
  6
Continuous
100
AcDbLine
 10
382.0
 20
279.0000379999999
 30
0.0
 11
371.1999999999998
 21
279.0000379999999
 31
0.0
  0
ARC
  5
22EB
330
1FB4
100
AcDbEntity
  8
0
  6
Continuous
100
AcDbCircle
 10
428.7999999999993
 20
277.0000379999999
 30
0.0
 40
2.0
100
AcDbArc
 50
0.0
 51
90.0
  0
ARC
  5
22EC
330
1FB4
100
AcDbEntity
  8
0
  6
Continuous
100
AcDbCircle
 10
371.1999999999998
 20
277.0000379999999
 30
0.0
 40
2.0
100
AcDbArc
 50
90.0
 51
180.0
  0
ARC
  5
22ED
330
1FB4
100
AcDbEntity
  8
0
  6
Continuous
100
AcDbCircle
 10
371.1999999999998
 20
194.0000379999999
 30
0.0
 40
2.0
100
AcDbArc
 50
180.0
 51
270.0
  0
ARC
  5
22EE
330
1FB4
100
AcDbEntity
  8
0
  6
Continuous
100
AcDbCircle
 10
428.8000000000002
 20
194.0000379999999
 30
0.0
 40
2.0
100
AcDbArc
 50
270.0
 51
0.0
  0
LINE
  5
22EF
330
1FB4
100
AcDbEntity
  8
0
  6
Continuous
100
AcDbLine
 10
416.0
 20
277.0000379999999
 30
0.0
 11
384.0
 21
277.0000379999999
 31
0.0
  0
LINE
  5
22F0
330
1FB4
100
AcDbEntity
  8
0
  6
Continuous
100
AcDbLine
 10
416.0
 20
194.0000379999999
 30
0.0
 11
384.0
 21
194.0000379999999
 31
0.0
  0
LINE
  5
22F1
330
1FB4
100
AcDbEntity
  8
0
  6
Continuous
100
AcDbLine
 10
416.0
 20
277.0000379999999
 30
0.0
 11
418.0
 21
279.0000379999999
 31
0.0
  0
LINE
  5
22F2
330
1FB4
100
AcDbEntity
  8
0
  6
Continuous
100
AcDbLine
 10
382.0
 20
192.0000379999999
 30
0.0
 11
384.0
 21
194.000037999999
 31
0.0
  0
LINE
  5
22F3
330
1FB4
100
AcDbEntity
  8
0
  6
Continuous
100
AcDbLine
 10
416.0
 20
194.0000379999999
 30
0.0
 11
418.0
 21
192.0000379999999
 31
0.0
  0
LINE
  5
22F4
330
1FB4
100
AcDbEntity
  8
0
  6
Continuous
100
AcDbLine
 10
382.0
 20
279.0000379999999
 30
0.0
 11
384.0
 21
277.0000379999999
 31
0.0
  0
LINE
  5
22F5
330
1FB4
100
AcDbEntity
  8
0
  6
Continuous
100
AcDbLine
 10
428.8000000000002
 20
192.0000379999999
 30
0.0
 11
418.0
 21
192.0000379999999
 31
0.0
  0
LINE
  5
22F6
330
1FB4
100
AcDbEntity
  8
0
  6
Continuous
100
AcDbLine
 10
428.7999999999993
 20
279.0000379999999
 30
0.0
 11
418.0
 21
279.0000379999999
 31
0.0
  0
LINE
  5
22F7
330
1FB4
100
AcDbEntity
  8
0
  6
Continuous
100
AcDbLine
 10
415.5
 20
279.0000379999999
 30
0.0
 11
384.5
 21
279.0000379999999
 31
0.0
  0
LINE
  5
22F8
330
1FB4
100
AcDbEntity
  8
0
  6
Continuous
100
AcDbLine
 10
415.5
 20
192.0000379999999
 30
0.0
 11
384.5
 21
192.0000379999999
 31
0.0
  0
LINE
  5
22F9
330
1FB4
100
AcDbEntity
  8
0
  6
Continuous
100
AcDbLine
 10
415.5
 20
194.0000379999999
 30
0.0
 11
415.5
 21
192.0000379999999
 31
0.0
  0
LINE
  5
22FA
330
1FB4
100
AcDbEntity
  8
0
  6
Continuous
100
AcDbLine
 10
384.5
 20
194.0000379999999
 30
0.0
 11
384.5
 21
192.0000379999999
 31
0.0
  0
LINE
  5
22FB
330
1FB4
100
AcDbEntity
  8
0
  6
Continuous
100
AcDbLine
 10
384.5
 20
279.0000379999999
 30
0.0
 11
384.5
 21
277.0000379999999
 31
0.0
  0
LINE
  5
22FC
330
1FB4
100
AcDbEntity
  8
0
  6
Continuous
100
AcDbLine
 10
415.5
 20
279.0000379999999
 30
0.0
 11
415.5
 21
277.0000379999999
 31
0.0
  0
ARC
  5
22FD
330
1FB4
100
AcDbEntity
  8
0
  6
Continuous
100
AcDbCircle
 10
101.480268795147
 20
235.5001375527344
 30
0.0
 40
12.41944122314453
100
AcDbArc
 50
342.4120613966358
 51
17.5879727542971
  0
ARC
  5
22FE
330
1FB4
100
AcDbEntity
  8
0
  6
Continuous
100
AcDbCircle
 10
116.4999779999999
 20
278.000046000001
 30
0.0
 40
1.0
100
AcDbArc
 50
90.0
 51
180.0
  0
ARC
  5
22FF
330
1FB4
100
AcDbEntity
  8
0
  6
Continuous
100
AcDbCircle
 10
263.4999779999999
 20
278.000046000001
 30
0.0
 40
1.0
100
AcDbArc
 50
0.0
 51
90.0
  0
ARC
  5
2300
330
1FB4
100
AcDbEntity
  8
0
  6
Continuous
100
AcDbCircle
 10
263.4999779999999
 20
193.000046
 30
0.0
 40
1.0
100
AcDbArc
 50
270.0
 51
0.0
  0
ARC
  5
2301
330
1FB4
100
AcDbEntity
  8
0
  6
Continuous
100
AcDbCircle
 10
116.4999779999999
 20
193.000046
 30
0.0
 40
1.0
100
AcDbArc
 50
180.0
 51
270.0
  0
LINE
  5
2302
330
1FB4
100
AcDbEntity
  8
0
  6
Continuous
100
AcDbLine
 10
115.4999779999999
 20
194.250046000001
 30
0.0
 11
108.8329907018925
 21
194.250046000001
 31
0.0
  0
LINE
  5
2303
330
1FB4
100
AcDbEntity
  8
0
  6
Continuous
100
AcDbLine
 10
108.8329907018925
 20
194.250046000001
 30
0.0
 11
108.3999779999995
 21
195.0000460000009
 31
0.0
  0
ARC
  5
2304
330
1FB4
100
AcDbEntity
  8
0
  6
Continuous
100
AcDbCircle
 10
111.0025647603316
 20
195.6875460000009
 30
0.0
 40
2.602586760331519
100
AcDbArc
 50
146.4726419507355
 51
213.5273580492644
  0
ARC
  5
2305
330
1FB4
100
AcDbEntity
  8
0
  6
Continuous
100
AcDbCircle
 10
118.1608059884885
 20
200.000046000001
 30
0.0
 40
9.760827988488358
100
AcDbArc
 50
162.869763324969
 51
197.1302366750309
  0
LINE
  5
2306
330
1FB4
100
AcDbEntity
  8
0
  6
Continuous
100
AcDbLine
 10
112.3999779999995
 20
197.125046000001
 30
0.0
 11
108.8329907018925
 21
197.125046000001
 31
0.0
  0
LINE
  5
2307
330
1FB4
100
AcDbEntity
  8
0
  6
Continuous
100
AcDbLine
 10
112.3999779999995
 20
202.875046000001
 30
0.0
 11
108.8329907018925
 21
202.875046000001
 31
0.0
  0
ARC
  5
2308
330
1FB4
100
AcDbEntity
  8
0
  6
Continuous
100
AcDbCircle
 10
111.0025647603316
 20
204.3125460000009
 30
0.0
 40
2.602586760331519
100
AcDbArc
 50
146.4726419507355
 51
213.5273580492644
  0
LINE
  5
2309
330
1FB4
100
AcDbEntity
  8
0
  6
Continuous
100
AcDbLine
 10
108.3999779999995
 20
205.0000460000009
 30
0.0
 11
108.3999779999995
 21
195.0000460000009
 31
0.0
  0
LINE
  5
230A
330
1FB4
100
AcDbEntity
  8
0
  6
Continuous
100
AcDbLine
 10
108.8329907018916
 20
205.7500460000009
 30
0.0
 11
108.3999779999995
 21
205.0000460000009
 31
0.0
  0
LINE
  5
230B
330
1FB4
100
AcDbEntity
  8
0
  6
Continuous
100
AcDbLine
 10
115.4999779999999
 20
205.7500460000009
 30
0.0
 11
108.8329907018925
 21
205.7500460000009
 31
0.0
  0
LINE
  5
230C
330
1FB4
100
AcDbEntity
  8
0
  6
Continuous
100
AcDbLine
 10
112.3999779999995
 20
205.7500460000009
 30
0.0
 11
112.3999779999995
 21
194.250046000001
 31
0.0
  0
LINE
  5
230D
330
1FB4
100
AcDbEntity
  8
0
  6
Continuous
100
AcDbLine
 10
115.4999779999999
 20
265.250046000001
 30
0.0
 11
108.8329907018925
 21
265.250046000001
 31
0.0
  0
LINE
  5
230E
330
1FB4
100
AcDbEntity
  8
0
  6
Continuous
100
AcDbLine
 10
108.8329907018925
 20
265.250046000001
 30
0.0
 11
108.3999779999995
 21
266.000046000001
 31
0.0
  0
ARC
  5
230F
330
1FB4
100
AcDbEntity
  8
0
  6
Continuous
100
AcDbCircle
 10
111.0025647603316
 20
266.687546000001
 30
0.0
 40
2.602586760331519
100
AcDbArc
 50
146.4726419507355
 51
213.5273580492644
  0
ARC
  5
2310
330
1FB4
100
AcDbEntity
  8
0
  6
Continuous
100
AcDbCircle
 10
118.1608059884885
 20
271.000046000001
 30
0.0
 40
9.760827988488358
100
AcDbArc
 50
162.869763324969
 51
197.1302366750309
  0
LINE
  5
2311
330
1FB4
100
AcDbEntity
  8
0
  6
Continuous
100
AcDbLine
 10
112.3999779999995
 20
268.125046000001
 30
0.0
 11
108.8329907018925
 21
268.125046000001
 31
0.0
  0
LINE
  5
2312
330
1FB4
100
AcDbEntity
  8
0
  6
Continuous
100
AcDbLine
 10
112.3999779999995
 20
273.875046000001
 30
0.0
 11
108.8329907018925
 21
273.875046000001
 31
0.0
  0
ARC
  5
2313
330
1FB4
100
AcDbEntity
  8
0
  6
Continuous
100
AcDbCircle
 10
111.0025647603316
 20
275.312546000001
 30
0.0
 40
2.602586760331519
100
AcDbArc
 50
146.4726419507355
 51
213.5273580492644
  0
LINE
  5
2314
330
1FB4
100
AcDbEntity
  8
0
  6
Continuous
100
AcDbLine
 10
108.3999779999995
 20
276.000046000001
 30
0.0
 11
108.3999779999995
 21
266.000046000001
 31
0.0
  0
LINE
  5
2315
330
1FB4
100
AcDbEntity
  8
0
  6
Continuous
100
AcDbLine
 10
108.8329907018925
 20
276.750046000001
 30
0.0
 11
108.3999779999995
 21
276.000046000001
 31
0.0
  0
LINE
  5
2316
330
1FB4
100
AcDbEntity
  8
0
  6
Continuous
100
AcDbLine
 10
115.4999779999999
 20
276.750046000001
 30
0.0
 11
108.8329907018925
 21
276.750046000001
 31
0.0
  0
LINE
  5
2317
330
1FB4
100
AcDbEntity
  8
0
  6
Continuous
100
AcDbLine
 10
112.3999779999995
 20
276.750046000001
 30
0.0
 11
112.3999779999995
 21
265.250046000001
 31
0.0
  0
LINE
  5
2318
330
1FB4
100
AcDbEntity
  8
0
  6
Continuous
100
AcDbLine
 10
264.4999779999999
 20
276.750046000001
 30
0.0
 11
271.1669652981073
 21
276.750046000001
 31
0.0
  0
LINE
  5
2319
330
1FB4
100
AcDbEntity
  8
0
  6
Continuous
100
AcDbLine
 10
271.1669652981082
 20
276.750046000001
 30
0.0
 11
271.5999780000003
 21
276.000046000001
 31
0.0
  0
ARC
  5
231A
330
1FB4
100
AcDbEntity
  8
0
  6
Continuous
100
AcDbCircle
 10
268.9973912396682
 20
275.312546000001
 30
0.0
 40
2.602586760331519
100
AcDbArc
 50
326.4726419507355
 51
33.52735804926448
  0
ARC
  5
231B
330
1FB4
100
AcDbEntity
  8
0
  6
Continuous
100
AcDbCircle
 10
261.8391500115113
 20
271.000046000001
 30
0.0
 40
9.760827988488358
100
AcDbArc
 50
342.869763324969
 51
17.13023667503095
  0
LINE
  5
231C
330
1FB4
100
AcDbEntity
  8
0
  6
Continuous
100
AcDbLine
 10
267.5999780000003
 20
273.875046000001
 30
0.0
 11
271.1669652981073
 21
273.875046000001
 31
0.0
  0
LINE
  5
231D
330
1FB4
100
AcDbEntity
  8
0
  6
Continuous
100
AcDbLine
 10
267.5999780000003
 20
268.125046000001
 30
0.0
 11
271.1669652981073
 21
268.125046000001
 31
0.0
  0
ARC
  5
231E
330
1FB4
100
AcDbEntity
  8
0
  6
Continuous
100
AcDbCircle
 10
268.9973912396682
 20
266.687546000001
 30
0.0
 40
2.602586760331519
100
AcDbArc
 50
326.4726419507355
 51
33.52735804926448
  0
LINE
  5
231F
330
1FB4
100
AcDbEntity
  8
0
  6
Continuous
100
AcDbLine
 10
271.5999780000003
 20
266.000046000001
 30
0.0
 11
271.5999780000003
 21
276.000046000001
 31
0.0
  0
LINE
  5
2320
330
1FB4
100
AcDbEntity
  8
0
  6
Continuous
100
AcDbLine
 10
271.1669652981082
 20
265.250046000001
 30
0.0
 11
271.5999780000003
 21
266.000046000001
 31
0.0
  0
LINE
  5
2321
330
1FB4
100
AcDbEntity
  8
0
  6
Continuous
100
AcDbLine
 10
264.4999779999999
 20
265.250046000001
 30
0.0
 11
271.1669652981073
 21
265.250046000001
 31
0.0
  0
LINE
  5
2322
330
1FB4
100
AcDbEntity
  8
0
  6
Continuous
100
AcDbLine
 10
267.5999780000003
 20
265.250046000001
 30
0.0
 11
267.5999780000003
 21
276.750046000001
 31
0.0
  0
LINE
  5
2323
330
1FB4
100
AcDbEntity
  8
0
  6
Continuous
100
AcDbLine
 10
264.4999779999999
 20
205.7500460000009
 30
0.0
 11
271.1669652981073
 21
205.7500460000009
 31
0.0
  0
LINE
  5
2324
330
1FB4
100
AcDbEntity
  8
0
  6
Continuous
100
AcDbLine
 10
271.1669652981082
 20
205.7500460000009
 30
0.0
 11
271.5999780000003
 21
205.0000460000009
 31
0.0
  0
ARC
  5
2325
330
1FB4
100
AcDbEntity
  8
0
  6
Continuous
100
AcDbCircle
 10
268.9973912396682
 20
204.3125460000009
 30
0.0
 40
2.602586760331519
100
AcDbArc
 50
326.4726419507355
 51
33.52735804926448
  0
ARC
  5
2326
330
1FB4
100
AcDbEntity
  8
0
  6
Continuous
100
AcDbCircle
 10
261.8391500115113
 20
200.000046000001
 30
0.0
 40
9.760827988488358
100
AcDbArc
 50
342.869763324969
 51
17.13023667503095
  0
LINE
  5
2327
330
1FB4
100
AcDbEntity
  8
0
  6
Continuous
100
AcDbLine
 10
267.5999780000003
 20
202.875046000001
 30
0.0
 11
271.1669652981073
 21
202.875046000001
 31
0.0
  0
LINE
  5
2328
330
1FB4
100
AcDbEntity
  8
0
  6
Continuous
100
AcDbLine
 10
267.5999780000003
 20
197.125046000001
 30
0.0
 11
271.1669652981073
 21
197.125046000001
 31
0.0
  0
ARC
  5
2329
330
1FB4
100
AcDbEntity
  8
0
  6
Continuous
100
AcDbCircle
 10
268.9973912396682
 20
195.6875460000009
 30
0.0
 40
2.602586760331519
100
AcDbArc
 50
326.4726419507355
 51
33.52735804926448
  0
LINE
  5
232A
330
1FB4
100
AcDbEntity
  8
0
  6
Continuous
100
AcDbLine
 10
271.5999780000003
 20
195.0000460000009
 30
0.0
 11
271.5999780000003
 21
205.0000460000009
 31
0.0
  0
LINE
  5
232B
330
1FB4
100
AcDbEntity
  8
0
  6
Continuous
100
AcDbLine
 10
271.1669652981073
 20
194.250046000001
 30
0.0
 11
271.5999780000003
 21
195.0000460000009
 31
0.0
  0
LINE
  5
232C
330
1FB4
100
AcDbEntity
  8
0
  6
Continuous
100
AcDbLine
 10
264.4999779999999
 20
194.250046000001
 30
0.0
 11
271.1669652981073
 21
194.250046000001
 31
0.0
  0
LINE
  5
232D
330
1FB4
100
AcDbEntity
  8
0
  6
Continuous
100
AcDbLine
 10
267.5999780000003
 20
194.250046000001
 30
0.0
 11
267.5999780000003
 21
205.7500460000009
 31
0.0
  0
LINE
  5
2330
330
1FB4
100
AcDbEntity
  8
0
  6
Continuous
100
AcDbLine
 10
120.5000000000002
 20
531.2453784661254
 30
0.0
 11
120.5000000000002
 21
453.2453784661254
 31
0.0
  0
LINE
  5
2331
330
1FB4
100
AcDbEntity
  8
0
  6
Continuous
100
AcDbLine
 10
259.5000000000002
 20
531.2453784661254
 30
0.0
 11
259.5000000000002
 21
453.2453784661254
 31
0.0
  0
LINE
  5
2332
330
1FB4
100
AcDbEntity
  8
0
  6
Continuous
100
AcDbLine
 10
264.5000000000002
 20
524.2453784661254
 30
0.0
 11
240.4999920000006
 21
524.2453784661257
 31
0.0
  0
LINE
  5
2333
330
1FB4
100
AcDbEntity
  8
0
  6
Continuous
100
AcDbLine
 10
222.4999619999998
 20
524.2453784661257
 30
0.0
 11
115.5000000000002
 21
524.2453784661254
 31
0.0
  0
LINE
  5
2334
330
1FB4
100
AcDbEntity
  8
0
  6
Continuous
100
AcDbLine
 10
264.5000000000002
 20
460.2453784661254
 30
0.0
 11
242.1414284285426
 21
460.2453784661254
 31
0.0
  0
LINE
  5
2335
330
1FB4
100
AcDbEntity
  8
0
  6
Continuous
100
AcDbLine
 10
157.8585715714571
 20
460.2453784661254
 30
0.0
 11
115.5000000000002
 21
460.2453784661254
 31
0.0
  0
LINE
  5
2336
330
1FB4
100
AcDbEntity
  8
0
  6
Continuous
100
AcDbLine
 10
263.5000000000002
 20
453.2453784661254
 30
0.0
 11
116.5000000000002
 21
453.2453784661254
 31
0.0
  0
LINE
  5
2337
330
1FB4
100
AcDbEntity
  8
0
  6
Continuous
100
AcDbLine
 10
263.5000000000002
 20
531.2453784661254
 30
0.0
 11
240.4999920000002
 21
531.2453784661252
 31
0.0
  0
LINE
  5
2338
330
1FB4
100
AcDbEntity
  8
0
  6
Continuous
100
AcDbLine
 10
222.4999619999994
 20
531.2453784661252
 30
0.0
 11
116.5000000000002
 21
531.2453784661254
 31
0.0
  0
LINE
  5
2339
330
1FB4
100
AcDbEntity
  8
0
  6
Continuous
100
AcDbLine
 10
264.5000000000002
 20
476.2453784661254
 30
0.0
 11
245.0000000000002
 21
476.2453784661254
 31
0.0
  0
LINE
  5
233A
330
1FB4
100
AcDbEntity
  8
0
  6
Continuous
100
AcDbLine
 10
155.0
 20
476.2453784661254
 30
0.0
 11
115.5000000000002
 21
476.2453784661254
 31
0.0
  0
LINE
  5
233B
330
1FB4
100
AcDbEntity
  8
0
  6
Continuous
100
AcDbLine
 10
264.5000000000002
 20
508.2453784661254
 30
0.0
 11
245.0000000000002
 21
508.2453784661254
 31
0.0
  0
LINE
  5
233C
330
1FB4
100
AcDbEntity
  8
0
  6
Continuous
100
AcDbLine
 10
155.0
 20
508.2453784661254
 30
0.0
 11
115.5000000000002
 21
508.2453784661254
 31
0.0
  0
LINE
  5
233D
330
1FB4
100
AcDbEntity
  8
0
  6
Continuous
100
AcDbLine
 10
264.5000000000002
 20
474.2453784661254
 30
0.0
 11
245.0000000000002
 21
474.2453784661254
 31
0.0
  0
LINE
  5
233E
330
1FB4
100
AcDbEntity
  8
0
  6
Continuous
100
AcDbLine
 10
155.0
 20
474.2453784661254
 30
0.0
 11
115.5000000000002
 21
474.2453784661254
 31
0.0
  0
LINE
  5
233F
330
1FB4
100
AcDbEntity
  8
0
  6
Continuous
100
AcDbLine
 10
264.5000000000002
 20
510.2453784661254
 30
0.0
 11
245.0000000000002
 21
510.2453784661254
 31
0.0
  0
LINE
  5
2340
330
1FB4
100
AcDbEntity
  8
0
  6
Continuous
100
AcDbLine
 10
155.0
 20
510.2453784661254
 30
0.0
 11
115.5000000000002
 21
510.2453784661254
 31
0.0
  0
LINE
  5
2341
330
1FB4
100
AcDbEntity
  8
0
  6
Continuous
100
AcDbLine
 10
271.1000756562499
 20
242.000046
 30
0.0
 11
271.1000756562499
 21
228.9998934121094
 31
0.0
  0
LINE
  5
2342
330
1FB4
100
AcDbEntity
  8
0
  6
Continuous
100
AcDbLine
 10
270.5199975312499
 20
243.00541709375
 30
0.0
 11
266.6806420624999
 21
243.00541709375
 31
0.0
  0
LINE
  5
2343
330
1FB4
100
AcDbEntity
  8
0
  6
Continuous
100
AcDbLine
 10
270.5195092499999
 20
239.2529756875001
 30
0.0
 11
266.6808720378131
 21
239.2529756875001
 31
0.0
  0
LINE
  5
2344
330
1FB4
100
AcDbEntity
  8
0
  6
Continuous
100
AcDbLine
 10
271.1004125764621
 20
242.0000031294184
 30
0.0
 11
270.5198461702112
 21
243.0055736241629
 31
0.0
  0
LINE
  5
2345
330
1FB4
100
AcDbEntity
  8
0
  6
Continuous
100
AcDbLine
 10
266.6806420624999
 20
227.9945223183594
 30
0.0
 11
270.5199975312499
 21
227.9945223183594
 31
0.0
  0
LINE
  5
2346
330
1FB4
100
AcDbEntity
  8
0
  6
Continuous
100
AcDbLine
 10
266.6808511532891
 20
231.7472078652344
 30
0.0
 11
270.5195092499999
 21
231.7472078652344
 31
0.0
  0
ARC
  5
2347
330
1FB4
100
AcDbEntity
  8
0
  6
Continuous
100
AcDbCircle
 10
267.7773217499999
 20
229.8707735390634
 30
0.0
 40
3.322566986083984
100
AcDbArc
 50
0.0
 51
34.38430267815953
  0
ARC
  5
2348
330
1FB4
100
AcDbEntity
  8
0
  6
Continuous
100
AcDbCircle
 10
258.6806420624999
 20
235.500046000001
 30
0.0
 40
12.41944122314453
100
AcDbArc
 50
342.4120272457029
 51
17.58793860336416
  0
LINE
  5
2349
330
1FB4
100
AcDbEntity
  8
0
  6
Continuous
100
AcDbLine
 10
271.1000756562499
 20
239.500046
 30
0.0
 11
274.9999779999999
 21
239.500046000001
 31
0.0
  0
LINE
  5
234A
330
1FB4
100
AcDbEntity
  8
0
  6
Continuous
100
AcDbLine
 10
271.1000756562499
 20
238.7002413125
 30
0.0
 11
274.9999779999999
 21
238.700241312501
 31
0.0
  0
LINE
  5
234B
330
1FB4
100
AcDbEntity
  8
0
  6
Continuous
100
AcDbLine
 10
271.1000756562499
 20
232.2999727578126
 30
0.0
 11
274.9999779999999
 21
232.2999727578126
 31
0.0
  0
LINE
  5
234C
330
1FB4
100
AcDbEntity
  8
0
  6
Continuous
100
AcDbLine
 10
271.1000756562499
 20
231.4999239296875
 30
0.0
 11
274.9999779999999
 21
231.4999239296884
 31
0.0
  0
LINE
  5
234D
330
1FB4
100
AcDbEntity
  8
0
  6
Continuous
100
AcDbLine
 10
264.4999779999999
 20
243.500046
 30
0.0
 11
266.1000756562499
 21
243.500046
 31
0.0
  0
LINE
  5
234E
330
1FB4
100
AcDbEntity
  8
0
  6
Continuous
100
AcDbLine
 10
264.4999779999999
 20
227.4999239296885
 30
0.0
 11
266.1000756562499
 21
227.4999239296885
 31
0.0
  0
LINE
  5
234F
330
1FB4
100
AcDbEntity
  8
0
  6
Continuous
100
AcDbLine
 10
271.1005092248016
 20
228.9998624640011
 30
0.0
 11
270.5199428185516
 21
227.9942919692557
 31
0.0
  0
ARC
  5
2350
330
1FB4
100
AcDbEntity
  8
0
  6
Continuous
100
AcDbCircle
 10
267.7773217499999
 20
241.129440531251
 30
0.0
 40
3.322566986083984
100
AcDbArc
 50
325.6156973218404
 51
0.0
  0
LINE
  5
2351
330
1FB4
100
AcDbEntity
  8
0
  6
Continuous
100
AcDbLine
 10
266.1005639374999
 20
227.4999239296885
 30
0.0
 11
266.1005639374999
 21
243.500046000001
 31
0.0
  0
LINE
  5
2352
330
1FB4
100
AcDbEntity
  8
0
  6
Continuous
100
AcDbLine
 10
266.1001293973723
 20
242.0000829305354
 30
0.0
 11
266.6806805448333
 21
243.0056269962824
 31
0.0
  0
ARC
  5
2353
330
1FB4
100
AcDbEntity
  8
0
  6
Continuous
100
AcDbCircle
 10
269.4228295624999
 20
229.8707735390634
 30
0.0
 40
3.322566986083984
100
AcDbArc
 50
145.6147618226096
 51
180.0
  0
LINE
  5
2354
330
1FB4
100
AcDbEntity
  8
0
  6
Continuous
100
AcDbLine
 10
266.100096777238
 20
228.9998548682487
 30
0.0
 11
266.680663183488
 21
227.9942843735043
 31
0.0
  0
ARC
  5
2355
330
1FB4
100
AcDbEntity
  8
0
  6
Continuous
100
AcDbCircle
 10
269.4228295624999
 20
241.129440531251
 30
0.0
 40
3.322566986083984
100
AcDbArc
 50
179.9999640278284
 51
214.3858758684332
  0
LINE
  5
2356
330
1FB4
100
AcDbEntity
  8
0
  6
Continuous
100
AcDbLine
 10
279.9999232873007
 20
228.9998624640002
 30
0.0
 11
279.4193568810507
 21
227.9942919692557
 31
0.0
  0
LINE
  5
2357
330
1FB4
100
AcDbEntity
  8
0
  6
Continuous
100
AcDbLine
 10
274.9999779999999
 20
227.9945223183594
 30
0.0
 11
279.4194115937499
 21
227.9945223183594
 31
0.0
  0
ARC
  5
2358
330
1FB4
100
AcDbEntity
  8
0
  6
Continuous
100
AcDbCircle
 10
276.6767358124999
 20
229.8707735390634
 30
0.0
 40
3.322566986083984
100
AcDbArc
 50
0.0
 51
34.38430267815953
  0
LINE
  5
2359
330
1FB4
100
AcDbEntity
  8
0
  6
Continuous
100
AcDbLine
 10
274.9999779999999
 20
231.7472078652344
 30
0.0
 11
279.4189233124999
 21
231.7472078652344
 31
0.0
  0
ARC
  5
235A
330
1FB4
100
AcDbEntity
  8
0
  6
Continuous
100
AcDbCircle
 10
267.5800561249999
 20
235.500046000001
 30
0.0
 40
12.41944122314453
100
AcDbArc
 50
342.4120272457029
 51
17.58793860336416
  0
LINE
  5
235B
330
1FB4
100
AcDbEntity
  8
0
  6
Continuous
100
AcDbLine
 10
279.9994897187499
 20
242.000046
 30
0.0
 11
279.9994897187499
 21
228.9998934121094
 31
0.0
  0
LINE
  5
235C
330
1FB4
100
AcDbEntity
  8
0
  6
Continuous
100
AcDbLine
 10
274.9999779999999
 20
227.9945223183594
 30
0.0
 11
274.9999779999999
 21
243.00541709375
 31
0.0
  0
LINE
  5
235D
330
1FB4
100
AcDbEntity
  8
0
  6
Continuous
100
AcDbLine
 10
279.4189233124999
 20
239.2529756875001
 30
0.0
 11
274.9999779999999
 21
239.2529756875001
 31
0.0
  0
ARC
  5
235E
330
1FB4
100
AcDbEntity
  8
0
  6
Continuous
100
AcDbCircle
 10
276.6767358124999
 20
241.129440531251
 30
0.0
 40
3.322566986083984
100
AcDbArc
 50
325.6156973218404
 51
0.0
  0
LINE
  5
235F
330
1FB4
100
AcDbEntity
  8
0
  6
Continuous
100
AcDbLine
 10
279.9998266389594
 20
242.0000031294175
 30
0.0
 11
279.4192602327094
 21
243.0055736241619
 31
0.0
  0
LINE
  5
2360
330
1FB4
100
AcDbEntity
  8
0
  6
Continuous
100
AcDbLine
 10
279.4194115937499
 20
243.00541709375
 30
0.0
 11
274.9999779999999
 21
243.00541709375
 31
0.0
  0
ARC
  5
2361
330
1FB4
100
AcDbEntity
  8
0
  6
Continuous
100
AcDbCircle
 10
278.5196872048528
 20
235.5001375527344
 30
0.0
 40
12.41944122314453
100
AcDbArc
 50
162.4120272457029
 51
197.5879386033641
  0
LINE
  5
2362
330
1FB4
100
AcDbEntity
  8
0
  6
Continuous
100
AcDbLine
 10
427.5055534994653
 20
235.5000379999999
 30
0.0
 11
423.7527767497331
 21
229.0000379999999
 31
0.0
  0
LINE
  5
2363
330
1FB4
100
AcDbEntity
  8
0
  6
Continuous
100
AcDbLine
 10
416.2472232502668
 20
229.000037999999
 30
0.0
 11
423.7527767497322
 21
229.000037999999
 31
0.0
  0
LINE
  5
2364
330
1FB4
100
AcDbEntity
  8
0
  6
Continuous
100
AcDbLine
 10
412.4944465005355
 20
235.5000380000008
 30
0.0
 11
416.2472232502677
 21
229.0000379999999
 31
0.0
  0
LINE
  5
2365
330
1FB4
100
AcDbEntity
  8
0
  6
Continuous
100
AcDbLine
 10
416.2472232502668
 20
242.0000379999999
 30
0.0
 11
412.4944465005346
 21
235.5000379999999
 31
0.0
  0
LINE
  5
2366
330
1FB4
100
AcDbEntity
  8
0
  6
Continuous
100
AcDbLine
 10
416.2472232502668
 20
242.000037999999
 30
0.0
 11
423.7527767497322
 21
242.000037999999
 31
0.0
  0
LINE
  5
2367
330
1FB4
100
AcDbEntity
  8
0
  6
Continuous
100
AcDbLine
 10
423.7527767497331
 20
242.0000379999999
 30
0.0
 11
427.5055534994662
 21
235.5000379999999
 31
0.0
  0
LINE
  5
2368
330
1FB4
100
AcDbEntity
  8
0
  6
Continuous
100
AcDbLine
 10
104.5000000000002
 20
512.2453784661254
 30
0.0
 11
100.080000000001
 21
512.2453784661254
 31
0.0
  0
LINE
  5
2369
330
1FB4
100
AcDbEntity
  8
0
  6
Continuous
100
AcDbLine
 10
115.5000000000002
 20
530.2453784661254
 30
0.0
 11
115.5000000000002
 21
454.2453784661254
 31
0.0
  0
LINE
  5
236A
330
1FB4
100
AcDbEntity
  8
0
  6
Continuous
100
AcDbLine
 10
115.5000000000002
 20
474.9953784661254
 30
0.0
 11
112.4000000000007
 21
474.9953784661254
 31
0.0
  0
LINE
  5
236B
330
1FB4
100
AcDbEntity
  8
0
  6
Continuous
100
AcDbLine
 10
113.9000000000007
 20
474.9953784661254
 30
0.0
 11
113.9000000000007
 21
463.4953784661254
 31
0.0
  0
LINE
  5
236C
330
1FB4
100
AcDbEntity
  8
0
  6
Continuous
100
AcDbLine
 10
112.4000000000007
 20
474.2453784661254
 30
0.0
 11
108.4000000000007
 21
474.2453784661254
 31
0.0
  0
LINE
  5
236D
330
1FB4
100
AcDbEntity
  8
0
  6
Continuous
100
AcDbLine
 10
112.4000000000007
 20
474.9953784661254
 30
0.0
 11
112.4000000000007
 21
463.4953784661254
 31
0.0
  0
LINE
  5
236E
330
1FB4
100
AcDbEntity
  8
0
  6
Continuous
100
AcDbLine
 10
108.9800000000002
 20
469.2453784661254
 30
0.0
 11
112.4000000000007
 21
469.2453784661254
 31
0.0
  0
LINE
  5
236F
330
1FB4
100
AcDbEntity
  8
0
  6
Continuous
100
AcDbLine
 10
115.5000000000002
 20
463.4953784661254
 30
0.0
 11
112.4000000000007
 21
463.4953784661254
 31
0.0
  0
LINE
  5
2370
330
1FB4
100
AcDbEntity
  8
0
  6
Continuous
100
AcDbLine
 10
112.4000000000007
 20
464.2453784661254
 30
0.0
 11
108.4000000000007
 21
464.2453784661254
 31
0.0
  0
LINE
  5
2371
330
1FB4
100
AcDbEntity
  8
0
  6
Continuous
100
AcDbLine
 10
108.4000000000007
 20
474.2453784661254
 30
0.0
 11
108.4000000000007
 21
464.2453784661254
 31
0.0
  0
ARC
  5
2372
330
1FB4
100
AcDbEntity
  8
0
  6
Continuous
100
AcDbCircle
 10
114.0779310344826
 20
466.7453784661254
 30
0.0
 40
5.677931034482412
100
AcDbArc
 50
153.8768978333418
 51
206.1231021666581
  0
ARC
  5
2373
330
1FB4
100
AcDbEntity
  8
0
  6
Continuous
100
AcDbCircle
 10
114.0779310344826
 20
471.7453784661254
 30
0.0
 40
5.677931034482412
100
AcDbArc
 50
153.8768978333418
 51
206.1231021666581
  0
LINE
  5
2374
330
1FB4
100
AcDbEntity
  8
0
  6
Continuous
100
AcDbLine
 10
108.8994140625002
 20
510.2453784661254
 30
0.0
 11
108.8994140625002
 21
505.7453784661254
 31
0.0
  0
ARC
  5
2375
330
1FB4
100
AcDbEntity
  8
0
  6
Continuous
100
AcDbCircle
 10
118.2950175107755
 20
508.9953784661254
 30
0.0
 40
9.39560344827521
100
AcDbArc
 50
172.3546473128033
 51
200.2371397369439
  0
LINE
  5
2376
330
1FB4
100
AcDbEntity
  8
0
  6
Continuous
100
AcDbLine
 10
113.8994140625002
 20
505.7453784661254
 30
0.0
 11
108.8994140625002
 21
505.7453784661254
 31
0.0
  0
ARC
  5
2377
330
1FB4
100
AcDbEntity
  8
0
  6
Continuous
100
AcDbCircle
 10
104.5038106142249
 20
508.9953784661254
 30
0.0
 40
9.39560344827521
100
AcDbArc
 50
339.7628602630561
 51
3.050514945478278
  0
LINE
  5
2378
330
1FB4
100
AcDbEntity
  8
0
  6
Continuous
100
AcDbLine
 10
115.5000000000002
 20
504.2452563958129
 30
0.0
 11
113.8999023437502
 21
504.2452563958129
 31
0.0
  0
LINE
  5
2379
330
1FB4
100
AcDbEntity
  8
0
  6
Continuous
100
AcDbLine
 10
108.4000000000007
 20
516.2453784661254
 30
0.0
 11
104.5000000000002
 21
516.2453784661254
 31
0.0
  0
LINE
  5
237A
330
1FB4
100
AcDbEntity
  8
0
  6
Continuous
100
AcDbLine
 10
108.4000000000007
 20
515.4455737786254
 30
0.0
 11
104.5000000000002
 21
515.4455737786254
 31
0.0
  0
LINE
  5
237B
330
1FB4
100
AcDbEntity
  8
0
  6
Continuous
100
AcDbLine
 10
108.8999023437502
 20
509.0453052239379
 30
0.0
 11
104.5000000000002
 21
509.0453052239379
 31
0.0
  0
LINE
  5
237C
330
1FB4
100
AcDbEntity
  8
0
  6
Continuous
100
AcDbLine
 10
108.8999023437502
 20
508.2452563958129
 30
0.0
 11
104.5000000000002
 21
508.2452563958129
 31
0.0
  0
LINE
  5
237D
330
1FB4
100
AcDbEntity
  8
0
  6
Continuous
100
AcDbLine
 10
104.5000000000002
 20
518.7453784661254
 30
0.0
 11
104.5000000000002
 21
505.7453784661254
 31
0.0
  0
LINE
  5
237E
330
1FB4
100
AcDbEntity
  8
0
  6
Continuous
100
AcDbLine
 10
104.5000000000002
 20
505.7453784661254
 30
0.0
 11
99.50000000000024
 21
505.7453784661254
 31
0.0
  0
LINE
  5
237F
330
1FB4
100
AcDbEntity
  8
0
  6
Continuous
100
AcDbLine
 10
99.50000000000024
 20
518.7453784661254
 30
0.0
 11
99.50000000000024
 21
505.7453784661254
 31
0.0
  0
ARC
  5
2380
330
1FB4
100
AcDbEntity
  8
0
  6
Continuous
100
AcDbCircle
 10
108.8956034482755
 20
508.9953784661254
 30
0.0
 40
9.39560344827521
100
AcDbArc
 50
159.7628602630561
 51
200.2371397369439
  0
ARC
  5
2381
330
1FB4
100
AcDbEntity
  8
0
  6
Continuous
100
AcDbCircle
 10
108.8956034482755
 20
515.4953784661254
 30
0.0
 40
9.39560344827521
100
AcDbArc
 50
159.7628602630561
 51
200.2371397369439
  0
LINE
  5
2382
330
1FB4
100
AcDbEntity
  8
0
  6
Continuous
100
AcDbLine
 10
104.5000000000002
 20
518.7453784661254
 30
0.0
 11
99.50000000000024
 21
518.7453784661254
 31
0.0
  0
LINE
  5
2383
330
1FB4
100
AcDbEntity
  8
0
  6
Continuous
100
AcDbLine
 10
113.8994140625002
 20
504.2452563958129
 30
0.0
 11
113.9000000000007
 21
520.9953784661254
 31
0.0
  0
ARC
  5
2384
330
1FB4
100
AcDbEntity
  8
0
  6
Continuous
100
AcDbCircle
 10
116.5000000000002
 20
530.2453784661254
 30
0.0
 40
1.0
100
AcDbArc
 50
90.0
 51
180.0
  0
ARC
  5
2385
330
1FB4
100
AcDbEntity
  8
0
  6
Continuous
100
AcDbCircle
 10
116.5000000000002
 20
454.2453784661254
 30
0.0
 40
1.0
100
AcDbArc
 50
180.0
 51
270.0
  0
LINE
  5
2386
330
1FB4
100
AcDbEntity
  8
0
  6
Continuous
100
AcDbLine
 10
115.5000000000002
 20
509.4953784661254
 30
0.0
 11
112.4000000000007
 21
509.4953784661254
 31
0.0
  0
LINE
  5
2387
330
1FB4
100
AcDbEntity
  8
0
  6
Continuous
100
AcDbLine
 10
112.4000000000007
 20
510.2453784661254
 30
0.0
 11
108.4000000000007
 21
510.2453784661254
 31
0.0
  0
LINE
  5
2388
330
1FB4
100
AcDbEntity
  8
0
  6
Continuous
100
AcDbLine
 10
112.4000000000007
 20
509.4953784661254
 30
0.0
 11
112.4000000000007
 21
520.9953784661254
 31
0.0
  0
LINE
  5
2389
330
1FB4
100
AcDbEntity
  8
0
  6
Continuous
100
AcDbLine
 10
108.9800000000002
 20
515.2453784661254
 30
0.0
 11
112.4000000000007
 21
515.2453784661254
 31
0.0
  0
LINE
  5
238A
330
1FB4
100
AcDbEntity
  8
0
  6
Continuous
100
AcDbLine
 10
115.5000000000002
 20
520.9953784661254
 30
0.0
 11
112.4000000000007
 21
520.9953784661254
 31
0.0
  0
LINE
  5
238B
330
1FB4
100
AcDbEntity
  8
0
  6
Continuous
100
AcDbLine
 10
112.4000000000007
 20
520.2453784661254
 30
0.0
 11
108.4000000000007
 21
520.2453784661254
 31
0.0
  0
ARC
  5
238C
330
1FB4
100
AcDbEntity
  8
0
  6
Continuous
100
AcDbCircle
 10
114.0779310344826
 20
517.7453784661254
 30
0.0
 40
5.677931034482412
100
AcDbArc
 50
153.8768978333418
 51
206.1231021666581
  0
LINE
  5
238D
330
1FB4
100
AcDbEntity
  8
0
  6
Continuous
100
AcDbLine
 10
108.4000000000007
 20
510.2453784661254
 30
0.0
 11
108.4000000000007
 21
520.2453784661254
 31
0.0
  0
ARC
  5
238E
330
1FB4
100
AcDbEntity
  8
0
  6
Continuous
100
AcDbCircle
 10
114.0779310344826
 20
512.7453784661254
 30
0.0
 40
5.677931034482412
100
AcDbArc
 50
153.8768978333418
 51
206.1231021666581
  0
LINE
  5
238F
330
1FB4
100
AcDbEntity
  8
0
  6
Continuous
100
AcDbLine
 10
271.5999999999997
 20
512.2453784661254
 30
0.0
 11
279.9199999999994
 21
512.2453784661254
 31
0.0
  0
LINE
  5
2390
330
1FB4
100
AcDbEntity
  8
0
  6
Continuous
100
AcDbLine
 10
264.5000000000002
 20
530.2453784661254
 30
0.0
 11
264.5000000000002
 21
454.2453784661254
 31
0.0
  0
LINE
  5
2391
330
1FB4
100
AcDbEntity
  8
0
  6
Continuous
100
AcDbLine
 10
264.5000000000002
 20
474.9953784661254
 30
0.0
 11
267.5999999999997
 21
474.9953784661254
 31
0.0
  0
LINE
  5
2392
330
1FB4
100
AcDbEntity
  8
0
  6
Continuous
100
AcDbLine
 10
266.0999999999996
 20
474.9953784661254
 30
0.0
 11
266.0999999999996
 21
463.4953784661254
 31
0.0
  0
LINE
  5
2393
330
1FB4
100
AcDbEntity
  8
0
  6
Continuous
100
AcDbLine
 10
267.5999999999997
 20
474.2453784661254
 30
0.0
 11
271.5999999999997
 21
474.2453784661254
 31
0.0
  0
LINE
  5
2394
330
1FB4
100
AcDbEntity
  8
0
  6
Continuous
100
AcDbLine
 10
267.5999999999997
 20
474.9953784661254
 30
0.0
 11
267.5999999999997
 21
463.4953784661254
 31
0.0
  0
LINE
  5
2395
330
1FB4
100
AcDbEntity
  8
0
  6
Continuous
100
AcDbLine
 10
271.0199999999997
 20
469.2453784661254
 30
0.0
 11
267.5999999999997
 21
469.2453784661254
 31
0.0
  0
LINE
  5
2396
330
1FB4
100
AcDbEntity
  8
0
  6
Continuous
100
AcDbLine
 10
264.5000000000002
 20
463.4953784661254
 30
0.0
 11
267.5999999999997
 21
463.4953784661254
 31
0.0
  0
LINE
  5
2397
330
1FB4
100
AcDbEntity
  8
0
  6
Continuous
100
AcDbLine
 10
267.5999999999997
 20
464.2453784661254
 30
0.0
 11
271.5999999999997
 21
464.2453784661254
 31
0.0
  0
ARC
  5
2398
330
1FB4
100
AcDbEntity
  8
0
  6
Continuous
100
AcDbCircle
 10
265.9220689655178
 20
466.7453784661254
 30
0.0
 40
5.677931034482412
100
AcDbArc
 50
333.8768978333418
 51
26.12310216665814
  0
LINE
  5
2399
330
1FB4
100
AcDbEntity
  8
0
  6
Continuous
100
AcDbLine
 10
271.5999999999997
 20
474.2453784661254
 30
0.0
 11
271.5999999999997
 21
464.2453784661254
 31
0.0
  0
ARC
  5
239A
330
1FB4
100
AcDbEntity
  8
0
  6
Continuous
100
AcDbCircle
 10
265.9220689655178
 20
471.7453784661254
 30
0.0
 40
5.677931034482412
100
AcDbArc
 50
333.8768978333418
 51
26.12310216665814
  0
LINE
  5
239B
330
1FB4
100
AcDbEntity
  8
0
  6
Continuous
100
AcDbLine
 10
271.1005859375002
 20
510.2453784661254
 30
0.0
 11
271.1005859375002
 21
505.7453784661254
 31
0.0
  0
ARC
  5
239C
330
1FB4
100
AcDbEntity
  8
0
  6
Continuous
100
AcDbCircle
 10
261.7049824892248
 20
508.9953784661254
 30
0.0
 40
9.39560344827521
100
AcDbArc
 50
339.7628602630561
 51
7.645352687196613
  0
ARC
  5
239D
330
1FB4
100
AcDbEntity
  8
0
  6
Continuous
100
AcDbCircle
 10
275.4961893857755
 20
508.9953784661254
 30
0.0
 40
9.39560344827521
100
AcDbArc
 50
176.9494850545217
 51
200.2371397369439
  0
LINE
  5
239E
330
1FB4
100
AcDbEntity
  8
0
  6
Continuous
100
AcDbLine
 10
266.1005859375002
 20
505.7453784661254
 30
0.0
 11
271.1005859375002
 21
505.7453784661254
 31
0.0
  0
LINE
  5
239F
330
1FB4
100
AcDbEntity
  8
0
  6
Continuous
100
AcDbLine
 10
264.5000000000002
 20
504.2452563958129
 30
0.0
 11
266.1000976562502
 21
504.2452563958129
 31
0.0
  0
LINE
  5
23A0
330
1FB4
100
AcDbEntity
  8
0
  6
Continuous
100
AcDbLine
 10
271.5999999999997
 20
516.2453784661254
 30
0.0
 11
275.5000000000002
 21
516.2453784661254
 31
0.0
  0
LINE
  5
23A1
330
1FB4
100
AcDbEntity
  8
0
  6
Continuous
100
AcDbLine
 10
271.5999999999997
 20
515.4455737786254
 30
0.0
 11
275.5000000000002
 21
515.4455737786254
 31
0.0
  0
LINE
  5
23A2
330
1FB4
100
AcDbEntity
  8
0
  6
Continuous
100
AcDbLine
 10
271.1000976562502
 20
509.0453052239379
 30
0.0
 11
275.5000000000002
 21
509.0453052239379
 31
0.0
  0
LINE
  5
23A3
330
1FB4
100
AcDbEntity
  8
0
  6
Continuous
100
AcDbLine
 10
271.1000976562502
 20
508.2452563958129
 30
0.0
 11
275.5000000000002
 21
508.2452563958129
 31
0.0
  0
LINE
  5
23A4
330
1FB4
100
AcDbEntity
  8
0
  6
Continuous
100
AcDbLine
 10
275.5000000000002
 20
518.7453784661254
 30
0.0
 11
275.5000000000002
 21
505.7453784661254
 31
0.0
  0
LINE
  5
23A5
330
1FB4
100
AcDbEntity
  8
0
  6
Continuous
100
AcDbLine
 10
275.5000000000002
 20
505.7453784661254
 30
0.0
 11
280.5000000000002
 21
505.7453784661254
 31
0.0
  0
LINE
  5
23A6
330
1FB4
100
AcDbEntity
  8
0
  6
Continuous
100
AcDbLine
 10
280.5000000000002
 20
518.7453784661254
 30
0.0
 11
280.5000000000002
 21
505.7453784661254
 31
0.0
  0
ARC
  5
23A7
330
1FB4
100
AcDbEntity
  8
0
  6
Continuous
100
AcDbCircle
 10
271.1043965517248
 20
508.9953784661254
 30
0.0
 40
9.39560344827521
100
AcDbArc
 50
339.7628602630561
 51
20.2371397369439
  0
ARC
  5
23A8
330
1FB4
100
AcDbEntity
  8
0
  6
Continuous
100
AcDbCircle
 10
271.1043965517248
 20
515.4953784661254
 30
0.0
 40
9.39560344827521
100
AcDbArc
 50
339.7628602630561
 51
20.2371397369439
  0
LINE
  5
23A9
330
1FB4
100
AcDbEntity
  8
0
  6
Continuous
100
AcDbLine
 10
275.5000000000002
 20
518.7453784661254
 30
0.0
 11
280.5000000000002
 21
518.7453784661254
 31
0.0
  0
LINE
  5
23AA
330
1FB4
100
AcDbEntity
  8
0
  6
Continuous
100
AcDbLine
 10
266.1005859375002
 20
504.2452563958129
 30
0.0
 11
266.0999999999996
 21
520.9953784661254
 31
0.0
  0
ARC
  5
23AB
330
1FB4
100
AcDbEntity
  8
0
  6
Continuous
100
AcDbCircle
 10
263.5000000000002
 20
530.2453784661254
 30
0.0
 40
1.0
100
AcDbArc
 50
0.0
 51
90.0
  0
ARC
  5
23AC
330
1FB4
100
AcDbEntity
  8
0
  6
Continuous
100
AcDbCircle
 10
263.5000000000002
 20
454.2453784661254
 30
0.0
 40
1.0
100
AcDbArc
 50
270.0
 51
0.0
  0
LINE
  5
23AD
330
1FB4
100
AcDbEntity
  8
0
  6
Continuous
100
AcDbLine
 10
264.5000000000002
 20
509.4953784661254
 30
0.0
 11
267.5999999999997
 21
509.4953784661254
 31
0.0
  0
LINE
  5
23AE
330
1FB4
100
AcDbEntity
  8
0
  6
Continuous
100
AcDbLine
 10
267.5999999999997
 20
510.2453784661254
 30
0.0
 11
271.5999999999997
 21
510.2453784661254
 31
0.0
  0
LINE
  5
23AF
330
1FB4
100
AcDbEntity
  8
0
  6
Continuous
100
AcDbLine
 10
267.5999999999997
 20
509.4953784661254
 30
0.0
 11
267.5999999999997
 21
520.9953784661254
 31
0.0
  0
LINE
  5
23B0
330
1FB4
100
AcDbEntity
  8
0
  6
Continuous
100
AcDbLine
 10
271.0199999999997
 20
515.2453784661254
 30
0.0
 11
267.5999999999997
 21
515.2453784661254
 31
0.0
  0
LINE
  5
23B1
330
1FB4
100
AcDbEntity
  8
0
  6
Continuous
100
AcDbLine
 10
264.5000000000002
 20
520.9953784661254
 30
0.0
 11
267.5999999999997
 21
520.9953784661254
 31
0.0
  0
LINE
  5
23B2
330
1FB4
100
AcDbEntity
  8
0
  6
Continuous
100
AcDbLine
 10
267.5999999999997
 20
520.2453784661254
 30
0.0
 11
271.5999999999997
 21
520.2453784661254
 31
0.0
  0
LINE
  5
23B3
330
1FB4
100
AcDbEntity
  8
0
  6
Continuous
100
AcDbLine
 10
271.5999999999997
 20
510.2453784661254
 30
0.0
 11
271.5999999999997
 21
520.2453784661254
 31
0.0
  0
ARC
  5
23B4
330
1FB4
100
AcDbEntity
  8
0
  6
Continuous
100
AcDbCircle
 10
265.9220689655178
 20
517.7453784661254
 30
0.0
 40
5.677931034482412
100
AcDbArc
 50
333.8768978333418
 51
26.12310216665814
  0
ARC
  5
23B5
330
1FB4
100
AcDbEntity
  8
0
  6
Continuous
100
AcDbCircle
 10
265.9220689655178
 20
512.7453784661254
 30
0.0
 40
5.677931034482412
100
AcDbArc
 50
333.8768978333418
 51
26.12310216665814
  0
LINE
  5
23B6
330
1FB4
100
AcDbEntity
  8
0
  6
Continuous
100
AcDbLine
 10
113.9999779999999
 20
276.750046000001
 30
0.0
 11
113.9999779999999
 21
265.250046000001
 31
0.0
  0
LINE
  5
23B7
330
1FB4
100
AcDbEntity
  8
0
  6
Continuous
100
AcDbLine
 10
113.9999779999999
 20
205.7500460000009
 30
0.0
 11
113.9999779999999
 21
194.250046000001
 31
0.0
  0
LINE
  5
23B8
330
1FB4
100
AcDbEntity
  8
0
  6
Continuous
100
AcDbLine
 10
265.9999779999999
 20
265.250046000001
 30
0.0
 11
265.9999779999999
 21
276.750046000001
 31
0.0
  0
LINE
  5
23B9
330
1FB4
100
AcDbEntity
  8
0
  6
Continuous
100
AcDbLine
 10
265.9999779999999
 20
194.250046000001
 30
0.0
 11
265.9999779999999
 21
205.7500460000009
 31
0.0
  0
CIRCLE
  5
23BA
330
1FB4
100
AcDbEntity
  8
0
  6
Continuous
100
AcDbCircle
 10
423.0
 20
200.0000379999999
 30
0.0
 40
5.0
  0
CIRCLE
  5
23BB
330
1FB4
100
AcDbEntity
  8
0
  6
Continuous
100
AcDbCircle
 10
423.0
 20
200.0000379999999
 30
0.0
 40
5.75
  0
CIRCLE
  5
23BC
330
1FB4
100
AcDbEntity
  8
0
  6
Continuous
100
AcDbCircle
 10
377.0
 20
200.0000379999999
 30
0.0
 40
5.0
  0
CIRCLE
  5
23BD
330
1FB4
100
AcDbEntity
  8
0
  6
Continuous
100
AcDbCircle
 10
377.0
 20
200.0000379999999
 30
0.0
 40
5.75
  0
CIRCLE
  5
23BE
330
1FB4
100
AcDbEntity
  8
0
  6
Continuous
100
AcDbCircle
 10
377.0
 20
271.0000379999998
 30
0.0
 40
5.0
  0
CIRCLE
  5
23BF
330
1FB4
100
AcDbEntity
  8
0
  6
Continuous
100
AcDbCircle
 10
377.0
 20
271.0000379999998
 30
0.0
 40
5.75
  0
CIRCLE
  5
23C0
330
1FB4
100
AcDbEntity
  8
0
  6
Continuous
100
AcDbCircle
 10
423.0
 20
271.0000379999998
 30
0.0
 40
5.0
  0
CIRCLE
  5
23C1
330
1FB4
100
AcDbEntity
  8
0
  6
Continuous
100
AcDbCircle
 10
423.0
 20
271.0000379999998
 30
0.0
 40
5.75
  0
CIRCLE
  5
23C2
330
1FB4
100
AcDbEntity
  8
0
  6
Continuous
100
AcDbCircle
 10
420.0
 20
235.5000379999999
 30
0.0
 40
7.5
  0
CIRCLE
  5
23C3
330
1FB4
100
AcDbEntity
  8
0
  6
Continuous
100
AcDbCircle
 10
420.0
 20
235.5000379999999
 30
0.0
 40
6.5
  0
CIRCLE
  5
23C4
330
1FB4
100
AcDbEntity
  8
0
  6
Continuous
100
AcDbCircle
 10
380.0
 20
235.5000379999999
 30
0.0
 40
4.25
  0
CIRCLE
  5
23C5
330
1FB4
100
AcDbEntity
  8
0
  6
Continuous
100
AcDbCircle
 10
380.0
 20
235.5000379999999
 30
0.0
 40
3.399999999999999
  0
LINE
  5
23C6
330
1FB4
100
AcDbEntity
  8
0
  6
Continuous
100
AcDbLine
 10
244.9999779999999
 20
279.000046000001
 30
0.0
 11
154.9999779999999
 21
279.000046000001
 31
0.0
  0
LINE
  5
23C7
330
1FB4
100
AcDbEntity
  8
0
  6
Continuous
100
AcDbLine
 10
214.9999779999999
 20
313.000061000001
 30
0.0
 11
214.9999779999999
 21
283.5000155000011
 31
0.0
  0
LINE
  5
23C8
330
1FB4
100
AcDbEntity
  8
0
  6
Continuous
100
AcDbLine
 10
184.9999779999999
 20
313.000061000001
 30
0.0
 11
184.9999779999999
 21
283.5000155000011
 31
0.0
  0
LINE
  5
23C9
330
1FB4
100
AcDbEntity
  8
0
  6
Continuous
100
AcDbLine
 10
214.9999779999999
 20
313.000061000001
 30
0.0
 11
184.9999779999999
 21
313.000061000001
 31
0.0
  0
LINE
  5
23CA
330
1FB4
100
AcDbEntity
  8
0
  6
Continuous
100
AcDbLine
 10
154.9999779999999
 20
319.000046000001
 30
0.0
 11
154.9999779999999
 21
279.000046000001
 31
0.0
  0
LINE
  5
23CB
330
1FB4
100
AcDbEntity
  8
0
  6
Continuous
100
AcDbLine
 10
244.9999779999999
 20
319.000046000001
 30
0.0
 11
244.9999779999999
 21
279.000046000001
 31
0.0
  0
LINE
  5
23CC
330
1FB4
100
AcDbEntity
  8
0
  6
Continuous
100
AcDbLine
 10
234.9999779999999
 20
329.000046000001
 30
0.0
 11
164.9999779999999
 21
329.000046000001
 31
0.0
  0
LINE
  5
23CD
330
1FB4
100
AcDbEntity
  8
0
  6
Continuous
100
AcDbLine
 10
154.9999779999999
 20
283.5000155000011
 30
0.0
 11
244.9999779999999
 21
283.5000155000011
 31
0.0
  0
ARC
  5
23CE
330
1FB4
100
AcDbEntity
  8
0
  6
Continuous
100
AcDbCircle
 10
234.9999779999999
 20
319.000046000001
 30
0.0
 40
10.0
100
AcDbArc
 50
0.0
 51
90.00000299998466
  0
CIRCLE
  5
23CF
330
1FB4
100
AcDbEntity
  8
0
  6
Continuous
100
AcDbCircle
 10
231.4999929999995
 20
314.000046000001
 30
0.0
 40
9.000030499999997
  0
ARC
  5
23D0
330
1FB4
100
AcDbEntity
  8
0
  6
Continuous
100
AcDbCircle
 10
164.9999779999999
 20
319.000046000001
 30
0.0
 40
10.0
100
AcDbArc
 50
90.00000299998466
 51
180.000010000001
  0
LINE
  5
23D1
330
1FB4
100
AcDbEntity
  8
0
  6
Continuous
100
AcDbLine
 10
168.4999739999999
 20
279.000046000001
 30
0.0
 11
231.4999589999998
 21
279.000046000001
 31
0.0
  0
LINE
  5
23D2
330
1FB4
100
AcDbEntity
  8
0
  6
Continuous
100
AcDbLine
 10
222.4999619999998
 20
509.1453724661253
 30
0.0
 11
240.4999920000002
 21
509.1453724661253
 31
0.0
  0
LINE
  5
23D3
330
1FB4
100
AcDbEntity
  8
0
  6
Continuous
100
AcDbLine
 10
222.4999619999998
 20
509.1453724661253
 30
0.0
 11
222.4999619999998
 21
515.7453784661254
 31
0.0
  0
LINE
  5
23D4
330
1FB4
100
AcDbEntity
  8
0
  6
Continuous
100
AcDbLine
 10
240.4999920000002
 20
509.1453724661253
 30
0.0
 11
240.4999920000002
 21
515.7453784661254
 31
0.0
  0
LINE
  5
23D5
330
1FB4
100
AcDbEntity
  8
0
  6
Continuous
100
AcDbLine
 10
222.4999619999998
 20
520.2453784661254
 30
0.0
 11
222.4999619999998
 21
550.3453544661254
 31
0.0
  0
LINE
  5
23D6
330
1FB4
100
AcDbEntity
  8
0
  6
Continuous
100
AcDbLine
 10
240.4999920000002
 20
520.2453784661254
 30
0.0
 11
240.4999920000002
 21
550.3453544661254
 31
0.0
  0
LINE
  5
23D7
330
1FB4
100
AcDbEntity
  8
0
  6
Continuous
100
AcDbLine
 10
222.4999619999998
 20
550.3453544661254
 30
0.0
 11
240.4999920000002
 21
550.3453544661254
 31
0.0
  0
LINE
  5
23D8
330
1FB4
100
AcDbEntity
  8
0
  6
Continuous
100
AcDbLine
 10
155.0
 20
520.2453784661254
 30
0.0
 11
245.0000000000002
 21
520.2453784661254
 31
0.0
  0
LINE
  5
23D9
330
1FB4
100
AcDbEntity
  8
0
  6
Continuous
100
AcDbLine
 10
245.0000000000002
 20
467.2453784661254
 30
0.0
 11
245.0000000000002
 21
520.2453784661254
 31
0.0
  0
LINE
  5
23DA
330
1FB4
100
AcDbEntity
  8
0
  6
Continuous
100
AcDbLine
 10
155.0
 20
467.2453784661254
 30
0.0
 11
155.0
 21
520.2453784661254
 31
0.0
  0
LINE
  5
23DB
330
1FB4
100
AcDbEntity
  8
0
  6
Continuous
100
AcDbLine
 10
235.0
 20
457.2453784661254
 30
0.0
 11
165.0
 21
457.2453784661254
 31
0.0
  0
LINE
  5
23DC
330
1FB4
100
AcDbEntity
  8
0
  6
Continuous
100
AcDbLine
 10
155.0
 20
515.7453784661254
 30
0.0
 11
245.0000000000002
 21
515.7453784661254
 31
0.0
  0
CIRCLE
  5
23DD
330
1FB4
100
AcDbEntity
  8
0
  6
Continuous
100
AcDbCircle
 10
200.0
 20
492.2453784661254
 30
0.0
 40
15.0
  0
ARC
  5
23DE
330
1FB4
100
AcDbEntity
  8
0
  6
Continuous
100
AcDbCircle
 10
165.0
 20
467.2453784661254
 30
0.0
 40
10.0
100
AcDbArc
 50
180.000010000001
 51
270.0
  0
ARC
  5
23DF
330
1FB4
100
AcDbEntity
  8
0
  6
Continuous
100
AcDbCircle
 10
235.0
 20
467.2453784661254
 30
0.0
 40
10.0
100
AcDbArc
 50
269.999989999999
 51
0.0000006832429909
  0
LINE
  5
23E0
330
1FB4
100
AcDbEntity
  8
0
  6
Continuous
100
AcDbLine
 10
423.4999850000003
 20
328.9999999999997
 30
0.0
 11
428.000031
 21
328.9999999999997
 31
0.0
  0
LINE
  5
23E1
330
1FB4
100
AcDbEntity
  8
0
  6
Continuous
100
AcDbLine
 10
428.000031
 20
328.9999999999997
 30
0.0
 11
428.000031
 21
279.0000379999999
 31
0.0
  0
LINE
  5
23E2
330
1FB4
100
AcDbEntity
  8
0
  6
Continuous
100
AcDbLine
 10
428.000031
 20
279.0000379999999
 30
0.0
 11
365.0
 21
279.0000379999999
 31
0.0
  0
LINE
  5
23E3
330
1FB4
100
AcDbEntity
  8
0
  6
Continuous
100
AcDbLine
 10
365.0
 20
283.5000456
 30
0.0
 11
365.0
 21
279.0000379999999
 31
0.0
  0
LINE
  5
23E4
330
1FB4
100
AcDbEntity
  8
0
  6
Continuous
100
AcDbLine
 10
415.0
 20
313.0000529999999
 30
0.0
 11
415.0
 21
283.5000456
 31
0.0
  0
LINE
  5
23E5
330
1FB4
100
AcDbEntity
  8
0
  6
Continuous
100
AcDbLine
 10
385.0
 20
313.0000529999999
 30
0.0
 11
385.0
 21
283.5000456
 31
0.0
  0
LINE
  5
23E6
330
1FB4
100
AcDbEntity
  8
0
  6
Continuous
100
AcDbLine
 10
415.0
 20
313.0000529999999
 30
0.0
 11
385.0
 21
313.0000529999999
 31
0.0
  0
LINE
  5
23E7
330
1FB4
100
AcDbEntity
  8
0
  6
Continuous
100
AcDbLine
 10
416.900024
 20
322.0000299999999
 30
0.0
 11
416.900024
 21
303.9999999999997
 31
0.0
  0
LINE
  5
23E8
330
1FB4
100
AcDbEntity
  8
0
  6
Continuous
100
AcDbLine
 10
416.900024
 20
322.0000299999999
 30
0.0
 11
423.4999850000003
 21
322.0000299999999
 31
0.0
  0
LINE
  5
23E9
330
1FB4
100
AcDbEntity
  8
0
  6
Continuous
100
AcDbLine
 10
416.900024
 20
303.9999999999997
 30
0.0
 11
423.4999850000003
 21
303.9999999999997
 31
0.0
  0
LINE
  5
23EA
330
1FB4
100
AcDbEntity
  8
0
  6
Continuous
100
AcDbLine
 10
428.000031
 20
322.0000299999999
 30
0.0
 11
458.0999760000004
 21
322.0000299999999
 31
0.0
  0
LINE
  5
23EB
330
1FB4
100
AcDbEntity
  8
0
  6
Continuous
100
AcDbLine
 10
428.000031
 20
303.9999999999997
 30
0.0
 11
458.0999760000004
 21
303.9999999999997
 31
0.0
  0
LINE
  5
23EC
330
1FB4
100
AcDbEntity
  8
0
  6
Continuous
100
AcDbLine
 10
458.0999760000004
 20
322.0000299999999
 30
0.0
 11
458.0999760000004
 21
303.9999999999997
 31
0.0
  0
LINE
  5
23ED
330
1FB4
100
AcDbEntity
  8
0
  6
Continuous
100
AcDbLine
 10
365.0
 20
283.5000456
 30
0.0
 11
423.4999850000003
 21
283.5000456
 31
0.0
  0
LINE
  5
23EE
330
1FB4
100
AcDbEntity
  8
0
  6
Continuous
100
AcDbLine
 10
423.4999850000003
 20
328.9999999999997
 30
0.0
 11
423.4999850000003
 21
283.5000456
 31
0.0
  0
LINE
  5
23FA
330
1FB4
100
AcDbEntity
  8
0
  6
Continuous
100
AcDbLine
 10
184.0
 20
453.2453784661254
 30
0.0
 11
184.0
 21
443.2453784661254
 31
0.0
  0
LINE
  5
23FB
330
1FB4
100
AcDbEntity
  8
0
  6
Continuous
100
AcDbLine
 10
216.0
 20
453.2453784661254
 30
0.0
 11
216.0
 21
443.2453784661254
 31
0.0
  0
LINE
  5
23FC
330
1FB4
100
AcDbEntity
  8
0
  6
Continuous
100
AcDbLine
 10
216.0
 20
443.2453784661254
 30
0.0
 11
184.0
 21
443.2453784661254
 31
0.0
  0
LINE
  5
23FD
330
1FB4
100
AcDbEntity
  8
0
  6
Continuous
100
AcDbLine
 10
184.0
 20
531.2453784661254
 30
0.0
 11
184.0
 21
541.2453784661254
 31
0.0
  0
LINE
  5
23FE
330
1FB4
100
AcDbEntity
  8
0
  6
Continuous
100
AcDbLine
 10
216.0
 20
531.2453784661254
 30
0.0
 11
216.0
 21
541.2453784661254
 31
0.0
  0
LINE
  5
23FF
330
1FB4
100
AcDbEntity
  8
0
  6
Continuous
100
AcDbLine
 10
216.0
 20
541.2453784661254
 30
0.0
 11
184.0
 21
541.2453784661254
 31
0.0
  0
LINE
  5
25A0
330
1FB4
100
AcDbEntity
  8
0
  6
CENTER
100
AcDbLine
 10
400.0
 20
32.1642864541875
 30
0.0
 11
400.0
 21
331.037960730207
 31
0.0
  0
LINE
  5
25A1
330
1FB4
100
AcDbEntity
  8
0
  6
CENTER
100
AcDbLine
 10
341.1690333547899
 20
100.0
 30
0.0
 11
458.8309666452101
 21
100.0
 31
0.0
  0
LINE
  5
25A2
330
1FB4
100
AcDbEntity
  8
0
  6
CENTER
100
AcDbLine
 10
200.0
 20
33.48321015410806
 30
0.0
 11
200.0
 21
341.8455423336333
 31
0.0
  0
LINE
  5
25A3
330
1FB4
100
AcDbEntity
  8
0
  6
CENTER
100
AcDbLine
 10
143.3455354501711
 20
100.0
 30
0.0
 11
256.6544645498288
 21
100.0
 31
0.0
  0
LINE
  5
25A4
330
1FB4
100
AcDbEntity
  8
0
  6
CENTER
100
AcDbLine
 10
200.0
 20
435.5928407872265
 30
0.0
 11
200.0
 21
548.8979161450243
 31
0.0
  0
LINE
  5
25A5
330
1FB4
100
AcDbEntity
  8
0
  6
CENTER
100
AcDbLine
 10
111.3439121783088
 20
492.2453784661254
 30
0.0
 11
274.2475529954334
 21
492.2453784661254
 31
0.0
  0
ENDSEC
  0
SECTION
  2
OBJECTS
  0
DICTIONARY
  5
1FA2
330
0
100
AcDbDictionary
281
     1
  3
ACAD_2007HEADERVARS_RT
350
252D
  3
ACAD_COLOR
350
204F
  3
ACAD_GROUP
350
1FA3
  3
ACAD_LAYOUT
350
1FAF
  3
ACAD_MATERIAL
350
2025
  3
ACAD_MLEADERSTYLE
350
2074
  3
ACAD_MLINESTYLE
350
1FAC
  3
ACAD_PLOTSETTINGS
350
1FAE
  3
ACAD_PLOTSTYLENAME
350
1FA4
  3
ACAD_SCALELIST
350
2052
  3
ACAD_TABLESTYLE
350
2050
  3
ACAD_VISUALSTYLE
350
203E
  3
ACDB_RECOMPOSE_DATA
350
2405
  3
AcDbVariableDictionary
350
2022
  3
AcmDictionary
350
20D5
  3
AcmSystemVariableManager
350
253D
  3
AMG
350
207E
  3
AMGSNAPSETTINGS
350
23EF
  3
DWGPROPS
350
252C
  0
DICTIONARY
  5
240C
330
1F9E
100
AcDbDictionary
280
     1
281
     1
  3
ACAD_XREC_ROUNDTRIP
360
2532
  0
DICTIONARY
  5
2594
330
1F98
100
AcDbDictionary
280
     1
281
     1
  3
ACAD_LAYERSTATES
360
2595
  0
DICTIONARY
  5
2400
330
1FA6
100
AcDbDictionary
280
     1
281
     1
  3
ADSK_XREC_LAYER_RECONCILED
360
2401
  0
DICTIONARY
  5
2537
330
1FC7
100
AcDbDictionary
280
     1
281
     1
  3
ACAD_XREC_ROUNDTRIP
360
2538
  0
DICTIONARY
  5
1FE0
330
1FB4
100
AcDbDictionary
280
     1
281
     1
  3
ACAD_LAYOUTSELFREF
360
2580
  3
ACAD_SORTENTS
360
23F8
  0
DICTIONARY
  5
1FE2
330
1FB0
100
AcDbDictionary
280
     1
281
     1
  3
ACAD_LAYOUTSELFREF
360
257F
  0
DICTIONARY
  5
252D
102
{ACAD_REACTORS
330
1FA2
102
}
330
1FA2
100
AcDbDictionary
281
     1
  3
DIMARCSYM
350
252E
  3
DIMLTEX1
350
2530
  3
DIMLTEX2
350
2531
  3
DIMLTYPE
350
252F
  0
DICTIONARY
  5
204F
102
{ACAD_REACTORS
330
1FA2
102
}
330
1FA2
100
AcDbDictionary
281
     1
  0
DICTIONARY
  5
1FA3
102
{ACAD_REACTORS
330
1FA2
102
}
330
1FA2
100
AcDbDictionary
281
     1
  0
DICTIONARY
  5
1FAF
102
{ACAD_REACTORS
330
1FA2
102
}
330
1FA2
100
AcDbDictionary
281
     1
  3
Model
350
1FB7
  3
ﾚｲｱｳﾄ1
350
1FB3
  0
DICTIONARY
  5
2025
102
{ACAD_REACTORS
330
1FA2
102
}
330
1FA2
100
AcDbDictionary
281
     1
  3
ByBlock
350
202E
  3
ByLayer
350
2026
  3
Global
350
2036
  0
DICTIONARY
  5
2074
102
{ACAD_REACTORS
330
1FA2
102
}
330
1FA2
100
AcDbDictionary
281
     1
  3
Standard
350
2075
  0
DICTIONARY
  5
1FAC
102
{ACAD_REACTORS
330
1FA2
102
}
330
1FA2
100
AcDbDictionary
281
     1
  3
Standard
350
1FAD
  0
DICTIONARY
  5
1FAE
102
{ACAD_REACTORS
330
1FA2
102
}
330
1FA2
100
AcDbDictionary
281
     1
  0
ACDBDICTIONARYWDFLT
  5
1FA4
102
{ACAD_REACTORS
330
1FA2
102
}
330
1FA2
100
AcDbDictionary
281
     1
  3
Normal
350
1FA5
100
AcDbDictionaryWithDefault
340
1FA5
  0
DICTIONARY
  5
2052
102
{ACAD_REACTORS
330
1FA2
102
}
330
1FA2
100
AcDbDictionary
281
     1
  3
A0
350
2053
  3
A1
350
2054
  3
A2
350
2055
  3
A3
350
2056
  3
A4
350
2057
  3
A5
350
2058
  3
A6
350
2059
  3
A7
350
205A
  3
A8
350
205B
  3
A9
350
205C
  3
B0
350
205D
  3
B1
350
205E
  3
B2
350
205F
  3
B3
350
2060
  3
B4
350
2061
  3
B5
350
2062
  3
B6
350
2063
  3
B7
350
2064
  3
B8
350
2065
  3
B9
350
2066
  3
C0
350
2067
  3
C1
350
2068
  3
C2
350
2069
  3
C3
350
206A
  3
C4
350
206B
  3
C5
350
206C
  3
C6
350
206D
  3
C7
350
206E
  3
C8
350
206F
  3
C9
350
2070
  3
D0
350
2071
  3
D1
350
2072
  3
D2
350
2073
  0
DICTIONARY
  5
2050
102
{ACAD_REACTORS
330
1FA2
102
}
330
1FA2
100
AcDbDictionary
281
     1
  3
Standard
350
2051
  0
DICTIONARY
  5
203E
102
{ACAD_REACTORS
330
1FA2
102
}
330
1FA2
100
AcDbDictionary
281
     1
  3
2dWireframe
350
2044
  3
3D Hidden
350
2046
  3
3dWireframe
350
2045
  3
Basic
350
2043
  3
Brighten
350
204A
  3
ColorChange
350
204E
  3
Conceptual
350
2047
  3
Dim
350
2049
  3
Facepattern
350
204D
  3
Flat
350
203F
  3
FlatWithEdges
350
2040
  3
Gouraud
350
2041
  3
GouraudWithEdges
350
2042
  3
Linepattern
350
204C
  3
Realistic
350
2048
  3
Thicken
350
204B
  0
XRECORD
  5
2405
102
{ACAD_REACTORS
330
1FA2
102
}
330
1FA2
100
AcDbXrecord
280
     1
 90
        1
330
2051
  0
DICTIONARY
  5
2022
102
{ACAD_REACTORS
330
1FA2
102
}
330
1FA2
100
AcDbDictionary
281
     1
  3
CANNOSCALE
350
2420
  3
CMLEADERSTYLE
350
241F
  3
CTABLESTYLE
350
241E
  3
DIMASSOC
350
2023
  3
INDEXCTL
350
2422
  3
SORTENTS
350
2421
  0
DICTIONARY
  5
20D5
102
{ACAD_REACTORS
330
1FA2
102
}
330
1FA2
100
AcDbDictionary
281
     1
  3
AcmStdDictionary
350
20E2
  0
ACAD_PROXY_OBJECT
  5
253D
102
{ACAD_REACTORS
330
1FA2
102
}
330
1FA2
100
AcDbProxyObject
 90
      499
 91
      517
 95
   917527
 70
     0
 93
       32
310
9014220000
330
0
 94
        0
  0
DICTIONARY
  5
207E
102
{ACAD_REACTORS
330
1FA2
102
}
330
1FA2
100
AcDbDictionary
281
     1
  0
DICTIONARY
  5
23EF
102
{ACAD_REACTORS
330
1FA2
102
}
330
1FA2
100
AcDbDictionary
281
     1
  0
XRECORD
  5
252C
102
{ACAD_REACTORS
330
1FA2
102
}
330
1FA2
100
AcDbXrecord
280
     1
  1
DWGPROPS COOKIE
  2

  3

  4

  6

  7

  8
m
  9

300
=
301
=
302
=
303
=
304
=
305
=
306
=
307
=
308
=
309
=
 40
0.231406400462963
 41
2452488.423138738
 42
2454750.480591354
  1

 90
        0
  0
XRECORD
  5
2532
102
{ACAD_REACTORS
330
240C
102
}
330
240C
100
AcDbXrecord
280
     1
102
VTR_0.000_0.000_1.000_1.000_VISUALSTYLE
340
2044
102
VTR_0.000_0.000_1.000_1.000_GRIDDISPLAY
 70
     3
102
VTR_0.000_0.000_1.000_1.000_GRIDMAJOR
 70
     5
102
VTR_0.000_0.000_1.000_1.000_DEFAULTLIGHTING
280
     1
102
VTR_0.000_0.000_1.000_1.000_DEFAULTLIGHTINGTYPE
 70
     1
102
VTR_0.000_0.000_1.000_1.000_BRIGHTNESS
141
0.0
102
VTR_0.000_0.000_1.000_1.000_CONTRAST
142
0.0
  0
DICTIONARY
  5
2595
102
{ACAD_REACTORS
330
2594
102
}
330
2594
100
AcDbDictionary
281
     1
  0
XRECORD
  5
2401
102
{ACAD_REACTORS
330
2400
102
}
330
2400
100
AcDbXrecord
280
     1
290
     1
  0
XRECORD
  5
2538
102
{ACAD_REACTORS
330
2537
102
}
330
2537
100
AcDbXrecord
280
     1
102
CAMERAPLOTTABLE
 70
     0
102
VISUALSTYLE
340
2044
  0
XRECORD
  5
2580
102
{ACAD_REACTORS
330
1FE0
102
}
330
1FE0
100
AcDbXrecord
280
     1
340
1FB4
  0
SORTENTSTABLE
  5
23F8
102
{ACAD_REACTORS
330
1FE0
102
}
330
1FE0
100
AcDbSortentsTable
330
1FB4
331
CCD
  5
CCD
331
22C8
  5
22C9
331
CD5
  5
CD5
331
23BC
  5
23BD
331
2307
  5
2308
331
22D0
  5
22D1
331
2346
  5
2347
331
237D
  5
237E
331
234E
  5
234F
331
22D8
  5
22D9
331
230F
  5
2310
331
2385
  5
2386
331
23C4
  5
23C5
331
23CC
  5
23CD
331
2356
  5
2357
331
2317
  5
2318
331
238D
  5
238E
331
231F
  5
2320
331
2395
  5
2396
331
BCE
  5
BCE
331
1D45
  5
1D45
331
22E0
  5
22E1
331
22A9
  5
22AA
331
1D4D
  5
1D4D
331
BD6
  5
BD6
331
22E8
  5
22E9
331
22B1
  5
22B2
331
1D55
  5
1D56
331
2327
  5
2328
331
235E
  5
235F
331
239D
  5
239E
331
23D4
  5
23D5
331
23A5
  5
23A6
331
22F0
  5
22F1
331
22B9
  5
22BA
331
CC6
  5
CC6
331
2366
  5
2367
331
23DC
  5
23DD
331
22F8
  5
22F9
331
22C1
  5
22C2
331
2337
  5
2338
331
236E
  5
236F
331
23AD
  5
23AE
331
23E4
  5
23E5
331
233F
  5
2340
331
2376
  5
2377
331
23B5
  5
23B6
331
23EC
  5
23ED
331
CCE
  5
CCE
331
2300
  5
2301
331
22C9
  5
22CA
331
2347
  5
2348
331
22D1
  5
22D2
331
2308
  5
2309
331
237E
  5
237F
331
23BD
  5
23BE
331
23C5
  5
23C6
331
2310
  5
2311
331
22D9
  5
22DA
331
234F
  5
2350
331
2386
  5
2387
331
23CD
  5
23CE
331
2318
  5
2319
331
22A2
  5
22A3
331
2357
  5
2358
331
238E
  5
238F
331
2396
  5
2397
331
1D46
  5
1D46
331
BCF
  5
BCF
331
22E1
  5
22E2
331
22AA
  5
22AB
331
BD7
  5
BD7
331
2320
  5
2321
331
22E9
  5
22EA
331
22B2
  5
22B3
331
1D56
  5
1D58
331
2328
  5
2329
331
235F
  5
2360
331
239E
  5
239F
331
23D5
  5
23D6
331
22F1
  5
22F2
331
22BA
  5
22BB
331
1D5E
  5
1D5F
331
2330
  5
2331
331
2367
  5
2368
331
23A6
  5
23A7
331
23DD
  5
23DE
331
22F9
  5
22FA
331
22C2
  5
22C3
331
2338
  5
2339
331
236F
  5
2370
331
23AE
  5
23AF
331
23E5
  5
23E6
331
23B6
  5
23B7
331
2377
  5
2378
331
23ED
  5
23EE
331
CCF
  5
CCF
331
2301
  5
2302
331
2340
  5
2341
331
2309
  5
230A
331
22D2
  5
22D3
331
2348
  5
2349
331
237F
  5
2380
331
23BE
  5
23BF
331
2350
  5
2351
331
22DA
  5
22DB
331
2311
  5
2312
331
2387
  5
2388
331
23C6
  5
23C7
331
23CE
  5
23CF
331
2319
  5
231A
331
22A3
  5
22A4
331
238F
  5
2390
331
2397
  5
2398
331
BD0
  5
BD0
331
1D47
  5
1D47
331
22E2
  5
22E3
331
22AB
  5
22AC
331
2321
  5
2322
331
2358
  5
2359
331
239F
  5
23A0
331
2329
  5
232A
331
22B3
  5
22B4
331
22EA
  5
22EB
331
2360
  5
2361
331
23D6
  5
23D7
331
23A7
  5
23A8
331
22F2
  5
22F3
331
22BB
  5
22BC
331
1D5F
  5
22A1
331
2331
  5
2332
331
2368
  5
2369
331
23DE
  5
23DF
331
22FA
  5
22FB
331
22C3
  5
22C4
331
2339
  5
233A
331
2370
  5
2371
331
23AF
  5
23B0
331
23E6
  5
23E7
331
23B7
  5
23B8
331
23EE
  5
23F7
331
CD0
  5
CD0
331
2378
  5
2379
331
2302
  5
2303
331
22CB
  5
22CC
331
1670
  5
1670
331
2341
  5
2342
331
23BF
  5
23C0
331
2380
  5
2381
331
2349
  5
234A
331
22D3
  5
22D4
331
230A
  5
230B
331
23C7
  5
23C8
331
2388
  5
2389
331
2312
  5
2313
331
22DB
  5
22DC
331
2351
  5
2352
331
2390
  5
2391
331
231A
  5
231B
331
22A4
  5
22A5
331
23CF
  5
23D0
331
1D48
  5
1D48
331
BD1
  5
BD1
331
2398
  5
2399
331
2359
  5
235A
331
22E3
  5
22E4
331
22AC
  5
22AD
331
1D50
  5
1D50
331
2322
  5
2323
331
2361
  5
2362
331
22EB
  5
22EC
331
22B4
  5
22B5
331
1D58
  5
1D5E
331
232A
  5
232B
331
23A0
  5
23A1
331
23D7
  5
23D8
331
2369
  5
236A
331
22F3
  5
22F4
331
22BC
  5
22BD
331
2332
  5
2333
331
23A8
  5
23A9
331
23DF
  5
23E0
331
23B0
  5
23B1
331
2371
  5
2372
331
233A
  5
233B
331
22C4
  5
22C5
331
22FB
  5
22FC
331
23E7
  5
23E8
331
CD1
  5
CD1
331
23B8
  5
23B9
331
2379
  5
237A
331
2303
  5
2304
331
22CC
  5
22CD
331
2342
  5
2343
331
2381
  5
2382
331
234A
  5
234B
331
22D4
  5
22D5
331
16E1
  5
16E1
331
230B
  5
230C
331
23C0
  5
23C1
331
2389
  5
238A
331
2352
  5
2353
331
22DC
  5
22DD
331
2313
  5
2314
331
23C8
  5
23C9
331
2391
  5
2392
331
231B
  5
231C
331
22A5
  5
22A6
331
1D49
  5
1D49
331
BD2
  5
BD2
331
235A
  5
235B
331
22E4
  5
22E5
331
22AD
  5
22AE
331
BEA
  5
BEA
331
1D51
  5
1D51
331
2323
  5
2324
331
2399
  5
239A
331
23D0
  5
23D1
331
23A1
  5
23A2
331
2362
  5
2363
331
232B
  5
232C
331
22B5
  5
22B6
331
22EC
  5
22ED
331
23D8
  5
23D9
331
23A9
  5
23AA
331
236A
  5
236B
331
22F4
  5
22F5
331
22BD
  5
22BE
331
2333
  5
2334
331
23E0
  5
23E1
331
2372
  5
2373
331
22FC
  5
22FD
331
22C5
  5
22C6
331
233B
  5
233C
331
23B1
  5
23B2
331
23E8
  5
23E9
331
2304
  5
2305
331
22CD
  5
22CE
331
2343
  5
2344
331
237A
  5
237B
331
23B9
  5
23BA
331
23C1
  5
23C2
331
234B
  5
234C
331
22D5
  5
22D6
331
230C
  5
230D
331
2382
  5
2383
331
23C9
  5
23CA
331
2314
  5
2315
331
22DD
  5
22DE
331
2353
  5
2354
331
238A
  5
238B
331
231C
  5
231D
331
22A6
  5
22A7
331
2392
  5
2393
331
1D4A
  5
1D4A
331
BD3
  5
BD3
331
239A
  5
239B
331
22E5
  5
22E6
331
22AE
  5
22AF
331
1D52
  5
1D52
331
2324
  5
2325
331
235B
  5
235C
331
23D1
  5
23D2
331
22ED
  5
22EE
331
22B6
  5
22B7
331
232C
  5
232D
331
2363
  5
2364
331
23A2
  5
23A3
331
23D9
  5
23DA
331
22F5
  5
22F6
331
22BE
  5
22BF
331
2334
  5
2335
331
236B
  5
236C
331
23AA
  5
23AB
331
23E1
  5
23E2
331
23B2
  5
23B3
331
233C
  5
233D
331
22C6
  5
22C7
331
22FD
  5
22FE
331
2373
  5
2374
331
23E9
  5
23EA
331
CCB
  5
CCB
331
23BA
  5
23BB
331
2305
  5
2306
331
22CE
  5
22CF
331
2344
  5
2345
331
237B
  5
237C
331
234C
  5
234D
331
22D6
  5
22D7
331
230D
  5
230E
331
2383
  5
2384
331
23C2
  5
23C3
331
23CA
  5
23CB
331
2354
  5
2355
331
22DE
  5
22DF
331
2315
  5
2316
331
238B
  5
238C
331
231D
  5
231E
331
22A7
  5
22A8
331
2393
  5
2394
331
1D4B
  5
1D4B
331
BD4
  5
BD4
331
23D2
  5
23D3
331
22E6
  5
22E7
331
BEC
  5
BEC
331
1D53
  5
1D54
331
22AF
  5
22B0
331
2325
  5
2326
331
235C
  5
235D
331
239B
  5
239C
331
23DA
  5
23DB
331
23A3
  5
23A4
331
22EE
  5
22EF
331
22B7
  5
22B8
331
232D
  5
232E
331
2364
  5
2365
331
23E2
  5
23E3
331
23AB
  5
23AC
331
22F6
  5
22F7
331
22BF
  5
22C0
331
2335
  5
2336
331
236C
  5
236D
331
23EA
  5
23EB
331
22FE
  5
22FF
331
22C7
  5
22C8
331
233D
  5
233E
331
2374
  5
2375
331
23B3
  5
23B4
331
CCC
  5
CCC
331
CD4
  5
CD4
331
2306
  5
2307
331
22CF
  5
22D0
331
2345
  5
2346
331
237C
  5
237D
331
23BB
  5
23BC
331
23C3
  5
23C4
331
234D
  5
234E
331
22D7
  5
22D8
331
230E
  5
230F
331
2384
  5
2385
331
23CB
  5
23CC
331
2316
  5
2317
331
22DF
  5
22E0
331
2355
  5
2356
331
238C
  5
238D
331
231E
  5
231F
331
2394
  5
2395
331
BCD
  5
BCD
331
BD5
  5
BD5
331
22A8
  5
22A9
331
23D3
  5
23D4
331
22E7
  5
22E8
331
1D54
  5
1D55
331
22B0
  5
22B1
331
2326
  5
2327
331
235D
  5
235E
331
239C
  5
239D
331
23DB
  5
23DC
331
22EF
  5
22F0
331
22B8
  5
22B9
331
2365
  5
2366
331
23A4
  5
23A5
331
23E3
  5
23E4
331
22F7
  5
22F8
331
22C0
  5
22C1
331
2336
  5
2337
331
236D
  5
236E
331
23AC
  5
23AD
331
23EB
  5
23EC
331
23B4
  5
23B5
331
22FF
  5
2300
331
233E
  5
233F
331
2375
  5
2376
  0
XRECORD
  5
257F
102
{ACAD_REACTORS
330
1FE2
102
}
330
1FE2
100
AcDbXrecord
280
     1
340
1FB0
  0
XRECORD
  5
252E
102
{ACAD_REACTORS
330
252D
102
}
330
252D
100
AcDbXrecord
280
     1
 70
     1
  0
XRECORD
  5
2530
102
{ACAD_REACTORS
330
252D
102
}
330
252D
100
AcDbXrecord
280
     1
340
1FA9
  0
XRECORD
  5
2531
102
{ACAD_REACTORS
330
252D
102
}
330
252D
100
AcDbXrecord
280
     1
340
1FA9
  0
XRECORD
  5
252F
102
{ACAD_REACTORS
330
252D
102
}
330
252D
100
AcDbXrecord
280
     1
340
1FA9
  0
LAYOUT
  5
1FB7
102
{ACAD_XDICTIONARY
360
2535
102
}
102
{ACAD_REACTORS
330
1FAF
102
}
330
1FAF
100
AcDbPlotSettings
  1

  2
SII LP-2150 (D-SCAN C2)
  4

  6

 40
0.0
 41
0.0
 42
0.0
 43
0.0
 44
0.0
 45
0.0
 46
0.0
 47
0.0
 48
0.0
 49
0.0
140
0.0
141
0.0
142
1.0
143
1.0
 70
  1712
 72
     0
 73
     0
 74
     0
  7

 75
     0
147
1.0
148
0.0
149
0.0
100
AcDbLayout
  1
Model
 70
     1
 71
     0
 10
0.0
 20
0.0
 11
12.0
 21
9.0
 12
0.0
 22
0.0
 32
0.0
 14
0.0
 24
0.0
 34
0.0
 15
0.0
 25
0.0
 35
0.0
146
0.0
 13
0.0
 23
0.0
 33
0.0
 16
1.0
 26
0.0
 36
0.0
 17
0.0
 27
1.0
 37
0.0
 76
     0
330
1FB4
  0
LAYOUT
  5
1FB3
102
{ACAD_XDICTIONARY
360
2533
102
}
102
{ACAD_REACTORS
330
1FAF
102
}
330
1FAF
100
AcDbPlotSettings
  1

  2
SII LP-2150 (D-SCAN C2)
  4

  6

 40
0.0
 41
0.0
 42
0.0
 43
0.0
 44
0.0
 45
0.0
 46
0.0
 47
0.0
 48
0.0
 49
0.0
140
0.0
141
0.0
142
1.0
143
1.0
 70
   688
 72
     0
 73
     0
 74
     5
  7

 75
    16
147
1.0
148
0.0
149
0.0
100
AcDbLayout
  1
ﾚｲｱｳﾄ1
 70
     1
 71
     1
 10
0.0
 20
0.0
 11
12.0
 21
9.0
 12
0.0
 22
0.0
 32
0.0
 14
1.000000000000000E+20
 24
1.000000000000000E+20
 34
1.000000000000000E+20
 15
-1.000000000000000E+20
 25
-1.000000000000000E+20
 35
-1.000000000000000E+20
146
0.0
 13
0.0
 23
0.0
 33
0.0
 16
1.0
 26
0.0
 36
0.0
 17
0.0
 27
1.0
 37
0.0
 76
     0
330
1FB0
  0
ACAD_PROXY_OBJECT
  5
202E
102
{ACAD_XDICTIONARY
360
202F
102
}
102
{ACAD_REACTORS
330
2025
102
}
330
2025
100
AcDbProxyObject
 90
      499
 91
      508
 95
   917527
 70
     0
 93
     1340
310
42109E509B1BD8DAC02004014080404555555555555953FAA155555555555654FEA9AA400014080404555555555555953FAA155555555555654FEA9AA400000000000000E03F4080404555555555555953FAA155555555555654FEA9AA4014080404555555555555953FAA155555555555654FEA9AA4010201011555555555
310
55654FEA8555555555555953FAA6A9005020101155555555555654FEA8555555555555953FAA6A9000
 94
        0
  0
ACAD_PROXY_OBJECT
  5
2026
102
{ACAD_XDICTIONARY
360
2027
102
}
102
{ACAD_REACTORS
330
2025
102
}
330
2025
100
AcDbProxyObject
 90
      499
 91
      508
 95
   917527
 70
     0
 93
     1340
310
42109E53185E595C802004014080404555555555555953FAA155555555555654FEA9AA400014080404555555555555953FAA155555555555654FEA9AA400000000000000E03F4080404555555555555953FAA155555555555654FEA9AA4014080404555555555555953FAA155555555555654FEA9AA4010201011555555555
310
55654FEA8555555555555953FAA6A9005020101155555555555654FEA8555555555555953FAA6A9000
 94
        0
  0
ACAD_PROXY_OBJECT
  5
2036
102
{ACAD_XDICTIONARY
360
2037
102
}
102
{ACAD_REACTORS
330
2025
102
}
330
2025
100
AcDbProxyObject
 90
      499
 91
      508
 95
   917527
 70
     0
 93
     1332
310
41D1DB1BD8985B002004014080404555555555555953FAA155555555555654FEA9AA400014080404555555555555953FAA155555555555654FEA9AA400000000000000E03F4080404555555555555953FAA155555555555654FEA9AA4014080404555555555555953FAA155555555555654FEA9AA401020101155555555555
310
654FEA8555555555555953FAA6A9005020101155555555555654FEA8555555555555953FAA6A9000
 94
        0
  0
ACAD_PROXY_OBJECT
  5
2075
102
{ACAD_REACTORS
330
2074
102
}
330
2074
100
AcDbProxyObject
 90
      499
 91
      512
 95
   917527
 70
     0
 93
      618
310
40901902A4063FBFFFFFE056BD1B81E855B9FC0AD7A3703D0AD73F4254DD185B99185C990000AD7A3703D0AC73F90141901A02B5E8DC0F42B1CFC02B5E8DC0F42B1CFE5764000000000000300FC6
340
1FA9
340
0
340
1FA7
340
0
 94
        0
1001
ACAD_MLEADERVER
1070
     2
  0
MLINESTYLE
  5
1FAD
102
{ACAD_REACTORS
330
1FAC
102
}
330
1FAC
100
AcDbMlineStyle
  2
STANDARD
 70
     0
  3

 62
   256
 51
90.0
 52
90.0
 71
     2
 49
0.5
 62
   256
  6
BYLAYER
 49
-0.5
 62
   256
  6
BYLAYER
  0
ACDBPLACEHOLDER
  5
1FA5
102
{ACAD_REACTORS
330
1FA4
102
}
330
1FA4
  0
ACAD_PROXY_OBJECT
  5
2053
102
{ACAD_REACTORS
330
2052
102
}
330
2052
100
AcDbProxyObject
 90
      499
 91
      511
 95
   917527
 70
     0
 93
       49
310
904313A31005B8
 94
        0
  0
ACAD_PROXY_OBJECT
  5
2054
102
{ACAD_REACTORS
330
2052
102
}
330
2052
100
AcDbProxyObject
 90
      499
 91
      511
 95
   917527
 70
     0
 93
      113
310
904313A3200400000000000000406B
 94
        0
  0
ACAD_PROXY_OBJECT
  5
2055
102
{ACAD_REACTORS
330
2052
102
}
330
2052
100
AcDbProxyObject
 90
      499
 91
      511
 95
   917527
 70
     0
 93
      113
310
904313A34004000000000000104042
 94
        0
  0
ACAD_PROXY_OBJECT
  5
2056
102
{ACAD_REACTORS
330
2052
102
}
330
2052
100
AcDbProxyObject
 90
      499
 91
      511
 95
   917527
 70
     0
 93
      113
310
904313A3500400000000000014406B
 94
        0
  0
ACAD_PROXY_OBJECT
  5
2057
102
{ACAD_REACTORS
330
2052
102
}
330
2052
100
AcDbProxyObject
 90
      499
 91
      511
 95
   917527
 70
     0
 93
      113
310
904313A38004000000000000204042
 94
        0
  0
ACAD_PROXY_OBJECT
  5
2058
102
{ACAD_REACTORS
330
2052
102
}
330
2052
100
AcDbProxyObject
 90
      499
 91
      511
 95
   917527
 70
     0
 93
      121
310
905313A3130004000000000000244051
 94
        0
  0
ACAD_PROXY_OBJECT
  5
2059
102
{ACAD_REACTORS
330
2052
102
}
330
2052
100
AcDbProxyObject
 90
      499
 91
      511
 95
   917527
 70
     0
 93
      121
310
905313A3136004000000000000304009
 94
        0
  0
ACAD_PROXY_OBJECT
  5
205A
102
{ACAD_REACTORS
330
2052
102
}
330
2052
100
AcDbProxyObject
 90
      499
 91
      511
 95
   917527
 70
     0
 93
      121
310
905313A3230004000000000000344051
 94
        0
  0
ACAD_PROXY_OBJECT
  5
205B
102
{ACAD_REACTORS
330
2052
102
}
330
2052
100
AcDbProxyObject
 90
      499
 91
      511
 95
   917527
 70
     0
 93
      121
310
905313A33300040000000000003E4009
 94
        0
  0
ACAD_PROXY_OBJECT
  5
205C
102
{ACAD_REACTORS
330
2052
102
}
330
2052
100
AcDbProxyObject
 90
      499
 91
      511
 95
   917527
 70
     0
 93
      121
310
905313A3430004000000000000444051
 94
        0
  0
ACAD_PROXY_OBJECT
  5
205D
102
{ACAD_REACTORS
330
2052
102
}
330
2052
100
AcDbProxyObject
 90
      499
 91
      511
 95
   917527
 70
     0
 93
      121
310
905313A3530004000000000000494009
 94
        0
  0
ACAD_PROXY_OBJECT
  5
205E
102
{ACAD_REACTORS
330
2052
102
}
330
2052
100
AcDbProxyObject
 90
      499
 91
      511
 95
   917527
 70
     0
 93
      129
310
906313A313030004000000000000594038
 94
        0
  0
ACAD_PROXY_OBJECT
  5
205F
102
{ACAD_REACTORS
330
2052
102
}
330
2052
100
AcDbProxyObject
 90
      499
 91
      511
 95
   917527
 70
     0
 93
      113
310
904323A31000000000000000010140
 94
        0
  0
ACAD_PROXY_OBJECT
  5
2060
102
{ACAD_REACTORS
330
2052
102
}
330
2052
100
AcDbProxyObject
 90
      499
 91
      511
 95
   917527
 70
     0
 93
      113
310
904343A31000000000000000410159
 94
        0
  0
ACAD_PROXY_OBJECT
  5
2061
102
{ACAD_REACTORS
330
2052
102
}
330
2052
100
AcDbProxyObject
 90
      499
 91
      511
 95
   917527
 70
     0
 93
      113
310
904383A31000000000000000810140
 94
        0
  0
ACAD_PROXY_OBJECT
  5
2062
102
{ACAD_REACTORS
330
2052
102
}
330
2052
100
AcDbProxyObject
 90
      499
 91
      511
 95
   917527
 70
     0
 93
      121
310
90531303A31000000000000000910140
 94
        0
  0
ACAD_PROXY_OBJECT
  5
2063
102
{ACAD_REACTORS
330
2052
102
}
330
2052
100
AcDbProxyObject
 90
      499
 91
      511
 95
   917527
 70
     0
 93
      129
310
9063130303A31000000000000001650102
 94
        0
  0
ACAD_PROXY_OBJECT
  5
2064
102
{ACAD_REACTORS
330
2052
102
}
330
2052
100
AcDbProxyObject
 90
      499
 91
      511
 95
   917527
 70
     0
 93
      265
310
90F312F31323822203D2031272D302200000000000000200FC00000000000028402B
 94
        0
  0
ACAD_PROXY_OBJECT
  5
2065
102
{ACAD_REACTORS
330
2052
102
}
330
2052
100
AcDbProxyObject
 90
      499
 91
      511
 95
   917527
 70
     0
 93
      257
310
90E312F363422203D2031272D302200000000000000240FC000000000000284000
 94
        0
  0
ACAD_PROXY_OBJECT
  5
2066
102
{ACAD_REACTORS
330
2052
102
}
330
2052
100
AcDbProxyObject
 90
      499
 91
      511
 95
   917527
 70
     0
 93
      257
310
90E312F333222203D2031272D302200000000000000280FC000000000000284040
 94
        0
  0
ACAD_PROXY_OBJECT
  5
2067
102
{ACAD_REACTORS
330
2052
102
}
330
2052
100
AcDbProxyObject
 90
      499
 91
      511
 95
   917527
 70
     0
 93
      257
310
90E312F313622203D2031272D3022000000000000002C0FC000000000000284000
 94
        0
  0
ACAD_PROXY_OBJECT
  5
2068
102
{ACAD_REACTORS
330
2052
102
}
330
2052
100
AcDbProxyObject
 90
      499
 91
      511
 95
   917527
 70
     0
 93
      257
310
90E332F333222203D2031272D3022000000000000002E0FC000000000000284040
 94
        0
  0
ACAD_PROXY_OBJECT
  5
2069
102
{ACAD_REACTORS
330
2052
102
}
330
2052
100
AcDbProxyObject
 90
      499
 91
      511
 95
   917527
 70
     0
 93
      249
310
90D312F3822203D2031272D302200000000000000300FC000000000000284040
 94
        0
  0
ACAD_PROXY_OBJECT
  5
206A
102
{ACAD_REACTORS
330
2052
102
}
330
2052
100
AcDbProxyObject
 90
      499
 91
      511
 95
   917527
 70
     0
 93
      257
310
90E332F313622203D2031272D302200000000000000320FC000000000000284040
 94
        0
  0
ACAD_PROXY_OBJECT
  5
206B
102
{ACAD_REACTORS
330
2052
102
}
330
2052
100
AcDbProxyObject
 90
      499
 91
      511
 95
   917527
 70
     0
 93
      249
310
90D312F3422203D2031272D302200000000000000340FC000000000000284040
 94
        0
  0
ACAD_PROXY_OBJECT
  5
206C
102
{ACAD_REACTORS
330
2052
102
}
330
2052
100
AcDbProxyObject
 90
      499
 91
      511
 95
   917527
 70
     0
 93
      249
310
90D332F3822203D2031272D302200000000000000360FC000000000000284040
 94
        0
  0
ACAD_PROXY_OBJECT
  5
206D
102
{ACAD_REACTORS
330
2052
102
}
330
2052
100
AcDbProxyObject
 90
      499
 91
      511
 95
   917527
 70
     0
 93
      249
310
90D312F3222203D2031272D302200000000000000380FC000000000000284040
 94
        0
  0
ACAD_PROXY_OBJECT
  5
206E
102
{ACAD_REACTORS
330
2052
102
}
330
2052
100
AcDbProxyObject
 90
      499
 91
      511
 95
   917527
 70
     0
 93
      249
310
90D332F3422203D2031272D3022000000000000003A0FC000000000000284040
 94
        0
  0
ACAD_PROXY_OBJECT
  5
206F
102
{ACAD_REACTORS
330
2052
102
}
330
2052
100
AcDbProxyObject
 90
      499
 91
      511
 95
   917527
 70
     0
 93
      169
310
90B3122203D2031272D3022004000000000000284000
 94
        0
  0
ACAD_PROXY_OBJECT
  5
2070
102
{ACAD_REACTORS
330
2052
102
}
330
2052
100
AcDbProxyObject
 90
      499
 91
      511
 95
   917527
 70
     0
 93
      265
310
90F312D312F3222203D2031272D3022000000000000003E0FC00000000000028402B
 94
        0
  0
ACAD_PROXY_OBJECT
  5
2071
102
{ACAD_REACTORS
330
2052
102
}
330
2052
100
AcDbProxyObject
 90
      499
 91
      511
 95
   917527
 70
     0
 93
      233
310
90B3322203D2031272D30220000000000000002100000000000000284028
 94
        0
  0
ACAD_PROXY_OBJECT
  5
2072
102
{ACAD_REACTORS
330
2052
102
}
330
2052
100
AcDbProxyObject
 90
      499
 91
      511
 95
   917527
 70
     0
 93
      233
310
90B3622203D2031272D30220000000000000006100000000000000284000
 94
        0
  0
ACAD_PROXY_OBJECT
  5
2073
102
{ACAD_REACTORS
330
2052
102
}
330
2052
100
AcDbProxyObject
 90
      499
 91
      511
 95
   917527
 70
     0
 93
      257
310
90E31272D3022203D2031272D3022000000000000000A100000000000000284000
 94
        0
  0
ACAD_PROXY_OBJECT
  5
2051
102
{ACAD_XDICTIONARY
360
2403
102
}
102
{ACAD_REACTORS
330
2050
102
}
330
2050
100
AcDbProxyObject
 90
      499
 91
      510
 95
   917527
 70
     0
 93
     1849
310
4254DD185B99185C990028B81E85EB51B8AE3F2E07A17AD46E2B8FC02B5E8DC0F42B1CFD028000000C1008070000C3001FDFF8000000C1003FBFF000000182007F7FE00000030400FEFFC00000060801FDFF8000000C1003FBFF00000018200000000000000681FA0B0000001820100E000186003FBFF000000182007F7FE0
310
0000030400FEFFC00000060801FDFF8000000C1003FBFF000000182007F7FE000000304000AD7A3703D0AC73F4160000003040201C00030C007F7FE00000030400FEFFC00000060801FDFF8000000C1003FBFF000000182007F7FE00000030400FEFFC000000608000
340
1FA7
340
1FA7
340
1FA7
 94
        0
  0
ACAD_PROXY_OBJECT
  5
2044
102
{ACAD_REACTORS
330
203E
102
}
330
203E
100
AcDbProxyObject
 90
      499
 91
      509
 95
   917527
 70
     0
 93
      444
310
430C9915DA5C99599C985B59401049028333333333333E3BF0000000000000FB0107901411070040501600405405064090741402480A0340
 94
        0
1001
ACAD
1000
AcDbSavedByObjectVersion
1070
     0
  0
ACAD_PROXY_OBJECT
  5
2046
102
{ACAD_REACTORS
330
203E
102
}
330
203E
100
AcDbProxyObject
 90
      499
 91
      509
 95
   917527
 70
     0
 93
      508
310
428CD108121A5919195B8010640502408333333333333E3BF0000000000000FB01079024090700405020000000000001110200405405064090740C02480A0340
 94
        0
1001
ACAD
1000
AcDbSavedByObjectVersion
1070
     0
  0
ACAD_PROXY_OBJECT
  5
2045
102
{ACAD_REACTORS
330
203E
102
}
330
203E
100
AcDbProxyObject
 90
      499
 91
      509
 95
   917527
 70
     0
 93
      444
310
430CD915DA5C99599C985B59401059028333333333333E3BF0000000000000FB0107901411070040501600405405064090741402480A0345
 94
        0
1001
ACAD
1000
AcDbSavedByObjectVersion
1070
     0
  0
ACAD_PROXY_OBJECT
  5
2043
102
{ACAD_REACTORS
330
203E
102
}
330
203E
100
AcDbProxyObject
 90
      499
 91
      509
 95
   917527
 70
     0
 93
      396
310
4190985CDA58C0107406404333333333333E3BF0000000000000FB0107A41107004050150841D405064090741402480A0358
 94
        0
1001
ACAD
1000
AcDbSavedByObjectVersion
1070
     0
  0
ACAD_PROXY_OBJECT
  5
204A
102
{ACAD_REACTORS
330
203E
102
}
330
203E
100
AcDbProxyObject
 90
      499
 91
      509
 95
   917527
 70
     0
 93
      436
310
42509C9A59DA1D195B8010C409028333333333333E3BF0000000000000FB010790141107004050150841D405064090741402480A029956
 94
        0
1001
ACAD
1000
AcDbSavedByObjectVersion
1070
     0
  0
ACAD_PROXY_OBJECT
  5
204E
102
{ACAD_REACTORS
330
203E
102
}
330
203E
100
AcDbProxyObject
 90
      499
 91
      509
 95
   917527
 70
     0
 93
      460
310
4310DBDB1BDC90DA185B99D9401104090240C333333333333E3BF0000000000000FB0108901411070040501508421405064090741402480A0354
 94
        0
1001
ACAD
1000
AcDbSavedByObjectVersion
1070
     0
  0
ACAD_PROXY_OBJECT
  5
2047
102
{ACAD_REACTORS
330
203E
102
}
330
203E
100
AcDbProxyObject
 90
      499
 91
      509
 95
   917527
 70
     0
 93
      508
310
42D0DBDB98D95C1D1D585B0010940D028333333333333E3BF0000000000000FB0107902409070040501000000000000111010841D405064090740C02480A0340
 94
        0
1001
ACAD
1000
AcDbSavedByObjectVersion
1070
     0
  0
ACAD_PROXY_OBJECT
  5
2049
102
{ACAD_REACTORS
330
203E
102
}
330
203E
100
AcDbProxyObject
 90
      499
 91
      509
 95
   917527
 70
     0
 93
      420
310
41111A5B4010B409028333333333333E3BF0000000000000FB010790141107004050150841D405064090741402480A02677FFFFFD4
 94
        0
1001
ACAD
1000
AcDbSavedByObjectVersion
1070
     0
  0
ACAD_PROXY_OBJECT
  5
204D
102
{ACAD_REACTORS
330
203E
102
}
330
203E
100
AcDbProxyObject
 90
      499
 91
      509
 95
   917527
 70
     0
 93
      452
310
43119858D95C185D1D195C9B8010F409028333333333333E3BF0000000000000FB010790141107004050150841D405064090741402480A0350
 94
        0
1001
ACAD
1000
AcDbSavedByObjectVersion
1070
     0
  0
ACAD_PROXY_OBJECT
  5
203F
102
{ACAD_REACTORS
330
203E
102
}
330
203E
100
AcDbProxyObject
 90
      499
 91
      509
 95
   917527
 70
     0
 93
      396
310
41519B185D00240901404333333333333E3BF0000000000000F9010740A41107004050150841D405064090741402480A1B5A
 94
        0
1001
ACAD
1000
AcDbSavedByObjectVersion
1070
     0
  0
ACAD_PROXY_OBJECT
  5
2040
102
{ACAD_REACTORS
330
203E
102
}
330
203E
100
AcDbProxyObject
 90
      499
 91
      509
 95
   917527
 70
     0
 93
      484
310
43919B185D15DA5D1A115919D95CC010140901404333333333333E3BF0000000000000F9010740901411070040501600405405064090741402480A1B50
 94
        0
1001
ACAD
1000
AcDbSavedByObjectVersion
1070
     0
  0
ACAD_PROXY_OBJECT
  5
2041
102
{ACAD_REACTORS
330
203E
102
}
330
203E
100
AcDbProxyObject
 90
      499
 91
      509
 95
   917527
 70
     0
 93
      420
310
4211DBDD5C985D590010240902404333333333333E3BF0000000000000F9010740A411070040501641D405064090741402480A1B55
 94
        0
1001
ACAD
1000
AcDbSavedByObjectVersion
1070
     0
  0
ACAD_PROXY_OBJECT
  5
2042
102
{ACAD_REACTORS
330
203E
102
}
330
203E
100
AcDbProxyObject
 90
      499
 91
      509
 95
   917527
 70
     0
 93
      508
310
4451DBDD5C985D5915DA5D1A115919D95CC010340902404333333333333E3BF0000000000000F9010740901411070040501600405405064090741402480A1B50
 94
        0
1001
ACAD
1000
AcDbSavedByObjectVersion
1070
     0
  0
ACAD_PROXY_OBJECT
  5
204C
102
{ACAD_REACTORS
330
203E
102
}
330
203E
100
AcDbProxyObject
 90
      499
 91
      509
 95
   917527
 70
     0
 93
      452
310
43131A5B995C185D1D195C9B8010E409028333333333333E3BF0000000000000FB010790141107004050750841D405064090741402483A0350
 94
        0
1001
ACAD
1000
AcDbSavedByObjectVersion
1070
     0
  0
ACAD_PROXY_OBJECT
  5
2048
102
{ACAD_REACTORS
330
203E
102
}
330
203E
100
AcDbProxyObject
 90
      499
 91
      509
 95
   917527
 70
     0
 93
      428
310
429499585B1A5CDD1A58C0108409028333333333333E3BF0000000000000FB01079019070040501508421405064090741402480A1B45
 94
        0
1001
ACAD
1000
AcDbSavedByObjectVersion
1070
     0
  0
ACAD_PROXY_OBJECT
  5
204B
102
{ACAD_REACTORS
330
203E
102
}
330
203E
100
AcDbProxyObject
 90
      499
 91
      509
 95
   917527
 70
     0
 93
      420
310
42151A1A58DAD95B8010D409028333333333333E3BF0000000000000FB010790141107004050150C41D405064090741402480A0354
 94
        0
1001
ACAD
1000
AcDbSavedByObjectVersion
1070
     0
  0
DICTIONARYVAR
  5
2420
102
{ACAD_REACTORS
330
2022
102
}
330
2022
100
DictionaryVariables
280
     0
  1
1:1
  0
DICTIONARYVAR
  5
241F
102
{ACAD_REACTORS
330
2022
102
}
330
2022
100
DictionaryVariables
280
     0
  1
STANDARD
  0
DICTIONARYVAR
  5
241E
102
{ACAD_REACTORS
330
2022
102
}
330
2022
100
DictionaryVariables
280
     0
  1
STANDARD
  0
DICTIONARYVAR
  5
2023
102
{ACAD_REACTORS
330
2022
102
}
330
2022
100
DictionaryVariables
280
     0
  1
1
  0
DICTIONARYVAR
  5
2422
102
{ACAD_REACTORS
330
2022
102
}
330
2022
100
DictionaryVariables
280
     0
  1
0
  0
DICTIONARYVAR
  5
2421
102
{ACAD_REACTORS
330
2022
102
}
330
2022
100
DictionaryVariables
280
     0
  1
127
  0
DICTIONARY
  5
20E2
102
{ACAD_REACTORS
330
20D5
102
}
330
20D5
100
AcDbDictionary
281
     1
  0
DICTIONARY
  5
2535
330
1FB7
100
AcDbDictionary
280
     1
281
     1
  3
ACAD_XREC_ROUNDTRIP
360
2536
  0
DICTIONARY
  5
2533
330
1FB3
100
AcDbDictionary
280
     1
281
     1
  3
ACAD_XREC_ROUNDTRIP
360
2534
  0
DICTIONARY
  5
202F
330
202E
100
AcDbDictionary
280
     1
281
     1
  3
ACAD_XREC_ROUNDTRIP
360
253A
  3
BUMPTILE
360
2031
  3
DIFFUSETILE
360
2030
  3
OPACITYTILE
360
2034
  3
REFLECTIONTILE
360
2033
  3
REFRACTIONTILE
360
2035
  3
SPECULARTILE
360
2032
  0
DICTIONARY
  5
2027
330
2026
100
AcDbDictionary
280
     1
281
     1
  3
ACAD_XREC_ROUNDTRIP
360
2539
  3
BUMPTILE
360
2029
  3
DIFFUSETILE
360
2028
  3
OPACITYTILE
360
202C
  3
REFLECTIONTILE
360
202B
  3
REFRACTIONTILE
360
202D
  3
SPECULARTILE
360
202A
  0
DICTIONARY
  5
2037
330
2036
100
AcDbDictionary
280
     1
281
     1
  3
ACAD_XREC_ROUNDTRIP
360
253B
  3
BUMPTILE
360
2039
  3
DIFFUSETILE
360
2038
  3
OPACITYTILE
360
203C
  3
REFLECTIONTILE
360
203B
  3
REFRACTIONTILE
360
203D
  3
SPECULARTILE
360
203A
  0
DICTIONARY
  5
2403
330
2051
100
AcDbDictionary
280
     1
281
     1
  3
ACAD_ROUNDTRIP_2008_TABLESTYLE_CELLSTYLEMAP
360
252B
  3
ACAD_XREC_ROUNDTRIP
360
253C
  0
XRECORD
  5
2536
102
{ACAD_REACTORS
330
2535
102
}
330
2535
100
AcDbXrecord
280
     1
102
SHADEPLOT
 70
     0
102
SHADEPLOTRESLEVEL
 70
     2
102
SHADEPLOTCUSTOMDPI
 70
   300
  0
XRECORD
  5
2534
102
{ACAD_REACTORS
330
2533
102
}
330
2533
100
AcDbXrecord
280
     1
102
SHADEPLOT
 70
     0
102
SHADEPLOTRESLEVEL
 70
     2
102
SHADEPLOTCUSTOMDPI
 70
   300
  0
XRECORD
  5
253A
102
{ACAD_REACTORS
330
202F
102
}
330
202F
100
AcDbXrecord
280
     1
102
MATERIAL
148
0.0
149
0.0
149
0.0
 93
        0
 94
      127
282
     0
 72
     0
 77
     0
171
     0
175
     0
179
     0
273
     0
  0
XRECORD
  5
2031
102
{ACAD_REACTORS
330
202F
102
}
330
202F
100
AcDbXrecord
280
     1
270
     1
271
     1
  0
XRECORD
  5
2030
102
{ACAD_REACTORS
330
202F
102
}
330
202F
100
AcDbXrecord
280
     1
270
     1
271
     1
  0
XRECORD
  5
2034
102
{ACAD_REACTORS
330
202F
102
}
330
202F
100
AcDbXrecord
280
     1
270
     1
271
     1
  0
XRECORD
  5
2033
102
{ACAD_REACTORS
330
202F
102
}
330
202F
100
AcDbXrecord
280
     1
270
     1
271
     1
  0
XRECORD
  5
2035
102
{ACAD_REACTORS
330
202F
102
}
330
202F
100
AcDbXrecord
280
     1
270
     1
271
     1
  0
XRECORD
  5
2032
102
{ACAD_REACTORS
330
202F
102
}
330
202F
100
AcDbXrecord
280
     1
270
     1
271
     1
  0
XRECORD
  5
2539
102
{ACAD_REACTORS
330
2027
102
}
330
2027
100
AcDbXrecord
280
     1
102
MATERIAL
148
0.0
149
0.0
149
0.0
 93
        0
 94
      127
282
     0
 72
     0
 77
     0
171
     0
175
     0
179
     0
273
     0
  0
XRECORD
  5
2029
102
{ACAD_REACTORS
330
2027
102
}
330
2027
100
AcDbXrecord
280
     1
270
     1
271
     1
  0
XRECORD
  5
2028
102
{ACAD_REACTORS
330
2027
102
}
330
2027
100
AcDbXrecord
280
     1
270
     1
271
     1
  0
XRECORD
  5
202C
102
{ACAD_REACTORS
330
2027
102
}
330
2027
100
AcDbXrecord
280
     1
270
     1
271
     1
  0
XRECORD
  5
202B
102
{ACAD_REACTORS
330
2027
102
}
330
2027
100
AcDbXrecord
280
     1
270
     1
271
     1
  0
XRECORD
  5
202D
102
{ACAD_REACTORS
330
2027
102
}
330
2027
100
AcDbXrecord
280
     1
270
     1
271
     1
  0
XRECORD
  5
202A
102
{ACAD_REACTORS
330
2027
102
}
330
2027
100
AcDbXrecord
280
     1
270
     1
271
     1
  0
XRECORD
  5
253B
102
{ACAD_REACTORS
330
2037
102
}
330
2037
100
AcDbXrecord
280
     1
102
MATERIAL
148
0.0
149
0.0
149
0.0
 93
        0
 94
      127
282
     0
 72
     0
 77
     0
171
     0
175
     0
179
     0
273
     0
  0
XRECORD
  5
2039
102
{ACAD_REACTORS
330
2037
102
}
330
2037
100
AcDbXrecord
280
     1
270
     1
271
     1
  0
XRECORD
  5
2038
102
{ACAD_REACTORS
330
2037
102
}
330
2037
100
AcDbXrecord
280
     1
270
     1
271
     1
  0
XRECORD
  5
203C
102
{ACAD_REACTORS
330
2037
102
}
330
2037
100
AcDbXrecord
280
     1
270
     1
271
     1
  0
XRECORD
  5
203B
102
{ACAD_REACTORS
330
2037
102
}
330
2037
100
AcDbXrecord
280
     1
270
     1
271
     1
  0
XRECORD
  5
203D
102
{ACAD_REACTORS
330
2037
102
}
330
2037
100
AcDbXrecord
280
     1
270
     1
271
     1
  0
XRECORD
  5
203A
102
{ACAD_REACTORS
330
2037
102
}
330
2037
100
AcDbXrecord
280
     1
270
     1
271
     1
  0
ACAD_PROXY_OBJECT
  5
252B
102
{ACAD_REACTORS
330
2403
102
}
330
2403
100
AcDbProxyObject
 90
      499
 91
      602
 95
   917527
 70
     0
 93
     1044
310
40D054060020000020000003200101A000080002A5058000000C100000000000000340FE901405075F5449544C450041501A8000000C800406800020000A9416000000304000AD7A3703D0AC73FA409014217D2115051115480105406A0000003200101A000080002A5028000000C10002B5E8DC0F42B1CFE903409065F444
310
15441005
340
1FA7
340
1FA7
340
1FA7
 94
        0
  0
XRECORD
  5
253C
102
{ACAD_REACTORS
330
2403
102
}
330
2403
100
AcDbXrecord
280
     1
102
ACAD_ROUNDTRIP_PRE2007_TABLESTYLE
 90
      512
 91
        0
  1

 92
      512
 93
        0
  2

 94
      512
 95
        0
  3

  0
ENDSEC
  0
EOF
