  0
SECTION
  2
HEADER
  9
$ACADVER
  1
AC1015
  9
$ACADMAINTVER
 70
    14
  9
$DWGCODEPAGE
  3
ANSI_932
  9
$INSBASE
 10
0.0
 20
0.0
 30
0.0
  9
$EXTMIN
 10
-105.1770131917951
 20
47.92582088871109
 30
-0.0000000000000058
  9
$EXTMAX
 10
753.6322449280524
 20
722.3924431537416
 30
0.0000000000000104
  9
$LIMMIN
 10
0.0
 20
0.0
  9
$LIMMAX
 10
12.0
 20
9.0
  9
$ORTHOMODE
 70
     0
  9
$REGENMODE
 70
     1
  9
$FILLMODE
 70
     1
  9
$QTEXTMODE
 70
     0
  9
$MIRRTEXT
 70
     1
  9
$LTSCALE
 40
1.0
  9
$ATTMODE
 70
     1
  9
$TEXTSIZE
 40
0.2
  9
$TRACEWID
 40
0.05
  9
$TEXTSTYLE
  7
STANDARD
  9
$CLAYER
  8
0
  9
$CELTYPE
  6
CONTINUOUS
  9
$CECOLOR
 62
   256
  9
$CELTSCALE
 40
1.0
  9
$DISPSILH
 70
     0
  9
$DIMSCALE
 40
1.0
  9
$DIMASZ
 40
0.18
  9
$DIMEXO
 40
0.0625
  9
$DIMDLI
 40
0.38
  9
$DIMRND
 40
0.0
  9
$DIMDLE
 40
0.0
  9
$DIMEXE
 40
0.18
  9
$DIMTP
 40
0.0
  9
$DIMTM
 40
0.0
  9
$DIMTXT
 40
0.18
  9
$DIMCEN
 40
0.09
  9
$DIMTSZ
 40
0.0
  9
$DIMTOL
 70
     0
  9
$DIMLIM
 70
     0
  9
$DIMTIH
 70
     1
  9
$DIMTOH
 70
     1
  9
$DIMSE1
 70
     0
  9
$DIMSE2
 70
     0
  9
$DIMTAD
 70
     0
  9
$DIMZIN
 70
     0
  9
$DIMBLK
  1

  9
$DIMASO
 70
     1
  9
$DIMSHO
 70
     0
  9
$DIMPOST
  1

  9
$DIMAPOST
  1

  9
$DIMALT
 70
     0
  9
$DIMALTD
 70
     2
  9
$DIMALTF
 40
25.4
  9
$DIMLFAC
 40
1.0
  9
$DIMTOFL
 70
     0
  9
$DIMTVP
 40
0.0
  9
$DIMTIX
 70
     0
  9
$DIMSOXD
 70
     0
  9
$DIMSAH
 70
     0
  9
$DIMBLK1
  1

  9
$DIMBLK2
  1

  9
$DIMSTYLE
  2
STANDARD
  9
$DIMCLRD
 70
     0
  9
$DIMCLRE
 70
     0
  9
$DIMCLRT
 70
     0
  9
$DIMTFAC
 40
1.0
  9
$DIMGAP
 40
0.09
  9
$DIMJUST
 70
     0
  9
$DIMSD1
 70
     0
  9
$DIMSD2
 70
     0
  9
$DIMTOLJ
 70
     1
  9
$DIMTZIN
 70
     0
  9
$DIMALTZ
 70
     0
  9
$DIMALTTZ
 70
     0
  9
$DIMUPT
 70
     0
  9
$DIMDEC
 70
     4
  9
$DIMTDEC
 70
     4
  9
$DIMALTU
 70
     2
  9
$DIMALTTD
 70
     2
  9
$DIMTXSTY
  7
STANDARD
  9
$DIMAUNIT
 70
     0
  9
$DIMADEC
 70
     0
  9
$DIMALTRND
 40
0.0
  9
$DIMAZIN
 70
     0
  9
$DIMDSEP
 70
    46
  9
$DIMATFIT
 70
     3
  9
$DIMFRAC
 70
     0
  9
$DIMLDRBLK
  1

  9
$DIMLUNIT
 70
     2
  9
$DIMLWD
 70
    -2
  9
$DIMLWE
 70
    -2
  9
$DIMTMOVE
 70
     2
  9
$LUNITS
 70
     2
  9
$LUPREC
 70
     4
  9
$SKETCHINC
 40
0.1
  9
$FILLETRAD
 40
0.0
  9
$AUNITS
 70
     0
  9
$AUPREC
 70
     0
  9
$MENU
  1
.
  9
$ELEVATION
 40
0.0
  9
$PELEVATION
 40
0.0
  9
$THICKNESS
 40
0.0
  9
$LIMCHECK
 70
     0
  9
$CHAMFERA
 40
0.0
  9
$CHAMFERB
 40
0.0
  9
$CHAMFERC
 40
0.0
  9
$CHAMFERD
 40
0.0
  9
$SKPOLY
 70
     0
  9
$TDCREATE
 40
2452488.423138738
  9
$TDUCREATE
 40
2452488.048138738
  9
$TDUPDATE
 40
2456899.667551145
  9
$TDUUPDATE
 40
2456899.292551145
  9
$TDINDWG
 40
0.2332966204
  9
$TDUSRTIMER
 40
0.2332966204
  9
$USRTIMER
 70
     1
  9
$ANGBASE
 50
0.0
  9
$ANGDIR
 70
     0
  9
$PDMODE
 70
     3
  9
$PDSIZE
 40
0.0
  9
$PLINEWID
 40
0.0
  9
$SPLFRAME
 70
     0
  9
$SPLINETYPE
 70
     6
  9
$SPLINESEGS
 70
     8
  9
$HANDSEED
  5
264A
  9
$SURFTAB1
 70
     6
  9
$SURFTAB2
 70
     6
  9
$SURFTYPE
 70
     6
  9
$SURFU
 70
     6
  9
$SURFV
 70
     6
  9
$UCSBASE
  2

  9
$UCSNAME
  2

  9
$UCSORG
 10
0.0
 20
0.0
 30
0.0
  9
$UCSXDIR
 10
1.0
 20
0.0
 30
0.0
  9
$UCSYDIR
 10
0.0
 20
1.0
 30
0.0
  9
$UCSORTHOREF
  2

  9
$UCSORTHOVIEW
 70
     0
  9
$UCSORGTOP
 10
0.0
 20
0.0
 30
0.0
  9
$UCSORGBOTTOM
 10
0.0
 20
0.0
 30
0.0
  9
$UCSORGLEFT
 10
0.0
 20
0.0
 30
0.0
  9
$UCSORGRIGHT
 10
0.0
 20
0.0
 30
0.0
  9
$UCSORGFRONT
 10
0.0
 20
0.0
 30
0.0
  9
$UCSORGBACK
 10
0.0
 20
0.0
 30
0.0
  9
$PUCSBASE
  2

  9
$PUCSNAME
  2

  9
$PUCSORG
 10
0.0
 20
0.0
 30
0.0
  9
$PUCSXDIR
 10
1.0
 20
0.0
 30
0.0
  9
$PUCSYDIR
 10
0.0
 20
1.0
 30
0.0
  9
$PUCSORTHOREF
  2

  9
$PUCSORTHOVIEW
 70
     0
  9
$PUCSORGTOP
 10
0.0
 20
0.0
 30
0.0
  9
$PUCSORGBOTTOM
 10
0.0
 20
0.0
 30
0.0
  9
$PUCSORGLEFT
 10
0.0
 20
0.0
 30
0.0
  9
$PUCSORGRIGHT
 10
0.0
 20
0.0
 30
0.0
  9
$PUCSORGFRONT
 10
0.0
 20
0.0
 30
0.0
  9
$PUCSORGBACK
 10
0.0
 20
0.0
 30
0.0
  9
$USERI1
 70
     0
  9
$USERI2
 70
     0
  9
$USERI3
 70
     0
  9
$USERI4
 70
     0
  9
$USERI5
 70
     0
  9
$USERR1
 40
0.0
  9
$USERR2
 40
0.0
  9
$USERR3
 40
0.0
  9
$USERR4
 40
0.0
  9
$USERR5
 40
0.0
  9
$WORLDVIEW
 70
     1
  9
$SHADEDGE
 70
     3
  9
$SHADEDIF
 70
    70
  9
$TILEMODE
 70
     1
  9
$MAXACTVP
 70
    48
  9
$PINSBASE
 10
0.0
 20
0.0
 30
0.0
  9
$PLIMCHECK
 70
     0
  9
$PEXTMIN
 10
1.000000000000000E+20
 20
1.000000000000000E+20
 30
1.000000000000000E+20
  9
$PEXTMAX
 10
-1.000000000000000E+20
 20
-1.000000000000000E+20
 30
-1.000000000000000E+20
  9
$PLIMMIN
 10
0.0
 20
0.0
  9
$PLIMMAX
 10
12.0
 20
9.0
  9
$UNITMODE
 70
     0
  9
$VISRETAIN
 70
     1
  9
$PLINEGEN
 70
     0
  9
$PSLTSCALE
 70
     1
  9
$TREEDEPTH
 70
  3020
  9
$CMLSTYLE
  2
Standard
  9
$CMLJUST
 70
     0
  9
$CMLSCALE
 40
1.0
  9
$PROXYGRAPHICS
 70
     1
  9
$MEASUREMENT
 70
     0
  9
$CELWEIGHT
370
    -1
  9
$ENDCAPS
280
     0
  9
$JOINSTYLE
280
     0
  9
$LWDISPLAY
290
     0
  9
$INSUNITS
 70
     0
  9
$HYPERLINKBASE
  1

  9
$STYLESHEET
  1

  9
$XEDIT
290
     1
  9
$CEPSNTYPE
380
     0
  9
$PSTYLEMODE
290
     1
  9
$FINGERPRINTGUID
  2
{A3BBCC1C-A61A-4D62-A9C9-80558264E4C4}
  9
$VERSIONGUID
  2
{D03ED4D8-8D99-48F2-A433-68E23D2D3EDD}
  9
$EXTNAMES
290
     1
  9
$PSVPSCALE
 40
0.0
  9
$OLESTARTUP
290
     0
  0
ENDSEC
  0
SECTION
  2
CLASSES
  0
CLASS
  1
ACDBDICTIONARYWDFLT
  2
AcDbDictionaryWithDefault
  3
AutoCAD 2000
 90
        0
280
     0
281
     0
  0
CLASS
  1
ACDBPLACEHOLDER
  2
AcDbPlaceHolder
  3
AutoCAD 2000
 90
        0
280
     0
281
     0
  0
CLASS
  1
LAYOUT
  2
AcDbLayout
  3
AutoCAD 2000
 90
        0
280
     0
281
     0
  0
CLASS
  1
DICTIONARYVAR
  2
AcDbDictionaryVar
  3
AutoCAD 2000
 90
        0
280
     0
281
     0
  0
CLASS
  1
LONG_TRANSACTION
  2
AcDbLongTransaction
  3
AutoCAD 2000
 90
    32768
280
     0
281
     0
  0
CLASS
  1
LWPOLYLINE
  2
AcDbPolyline
  3
AutoCAD 2000
 90
    32768
280
     0
281
     1
  0
CLASS
  1
HATCH
  2
AcDbHatch
  3
AutoCAD 2000
 90
    32768
280
     0
281
     1
  0
CLASS
  1
XRECORD
  2
AcDbXrecord
  3
AutoCAD 2000
 90
    32768
280
     0
281
     0
  0
CLASS
  1
MATERIAL
  2
AcDbMaterial
  3
ObjectDBX Classes
 90
     1153
280
     0
281
     0
  0
CLASS
  1
VISUALSTYLE
  2
AcDbVisualStyle
  3
ObjectDBX Classes
 90
     4095
280
     0
281
     0
  0
CLASS
  1
TABLESTYLE
  2
AcDbTableStyle
  3
ObjectDBX Classes
 90
     4095
280
     0
281
     0
  0
CLASS
  1
SCALE
  2
AcDbScale
  3
ObjectDBX Classes
 90
     1153
280
     0
281
     0
  0
CLASS
  1
MLEADERSTYLE
  2
AcDbMLeaderStyle
  3
ACDB_MLEADERSTYLE_CLASS
 90
     4095
280
     0
281
     0
  0
CLASS
  1
ACME_DOCUMENT
  2
AcMeDbDoc
  3
AcMeServices
 90
    33792
280
     0
281
     0
  0
CLASS
  1
AMGSETTINGSOBJ
  2
AmgSettingsObj
  3
"AcadM|Product Description: AutoCAD Mechanical|Company: Autodesk, Inc."
 90
    33792
280
     0
281
     0
  0
CLASS
  1
ACMESCOPE
  2
AcMeScope
  3
AcMeServices
 90
    33792
280
     0
281
     0
  0
CLASS
  1
ACMECOMMANDHISTORY
  2
AcMeCommandHistory
  3
AcMeServices
 90
    33792
280
     0
281
     0
  0
CLASS
  1
ACIMSYSVARMAN
  2
AcImSysVarManager
  3
AcMeServices
 90
     1024
280
     0
281
     0
  0
CLASS
  1
ACIMINTSYSVAR
  2
AcImIntSysVar
  3
AcMeServices
 90
    33792
280
     0
281
     0
  0
CLASS
  1
ACMEDRAWINGMAN
  2
AcMeDrawingMan
  3
AcMeServices
 90
    33792
280
     0
281
     0
  0
CLASS
  1
ACMEVIEW
  2
AcMeView
  3
AcMeServices
 90
    33792
280
     0
281
     0
  0
CLASS
  1
ACDBENTITYCACHE
  2
AcMeEntityCache
  3
AcMeServices
 90
    33792
280
     0
281
     0
  0
CLASS
  1
GSMANAGER
  2
AcMeGSManager
  3
AcMeServices
 90
    33792
280
     0
281
     0
  0
CLASS
  1
AMDTINTERNALREACTOR
  2
AmdtInternalReactor
  3
AcMeServices
 90
    33792
280
     0
281
     0
  0
CLASS
  1
ACMESTATEMGR
  2
AcMeStateMgr
  3
AcMeServices
 90
    33792
280
     0
281
     0
  0
CLASS
  1
ACGREFMASTER
  2
AcGrefMaster
  3
AcAttribServices
 90
    33792
280
     0
281
     0
  0
CLASS
  1
AM_DRAWING_MGR
  2
AcDmDwgMgr
  3
AcMechDwgViewMgmt
 90
    33792
280
     0
281
     0
  0
CLASS
  1
AM_DWG_DOCUMENT
  2
AcDmDwgDocument
  3
AcMechDwgViewMgmt
 90
    33792
280
     0
281
     0
  0
CLASS
  1
AM_DWG_SHEET
  2
AcDmSheet
  3
AcMechDwgViewMgmt
 90
    33792
280
     0
281
     0
  0
CLASS
  1
AM_VIEWDIMPARMAP
  2
AcDmViewDimParMap
  3
AcMechDwgViewMgmt
 90
    33792
280
     0
281
     0
  0
CLASS
  1
ACIMREALSYSVAR
  2
AcImRealSysVar
  3
AcMeServices
 90
    33792
280
     0
281
     0
  0
CLASS
  1
AM_DWGMGR_NAME
  2
AcDmDwgMgrName
  3
AcMechDwgViewMgmt
 90
    33792
280
     0
281
     0
  0
CLASS
  1
ACME_DATABASE
  2
AcMeDbDatabase
  3
AcMeServices
 90
    33792
280
     0
281
     0
  0
CLASS
  1
ACRFINSADJUSTERMGR
  2
AcRfInsAdjusterMgr
  3
AcMeServices
 90
    33792
280
     0
281
     0
  0
CLASS
  1
ACGREFACADMASTER
  2
AcGrefacadMaster
  3
AcGrefServices
 90
    33792
280
     0
281
     0
  0
CLASS
  1
AMDTMENUSTATEMGR
  2
AmdtMenuStateMgr
  3
McadcomServices
 90
    33792
280
     0
281
     0
  0
CLASS
  1
AMDTMCOMMENUSTATE
  2
AmdtMcomMenuState
  3
McadcomServices
 90
    33792
280
     0
281
     0
  0
CLASS
  1
AMIMASTER
  2
AmiMaster
  3
AmiServices
 90
    33792
280
     0
281
     0
  0
CLASS
  1
MAPIAMMOUDLE
  2
MApiAmModule
  3
MApiAmServices
 90
    33792
280
     0
281
     0
  0
CLASS
  1
ACIMSTRSYSVAR
  2
AcImStrSysVar
  3
AcMeServices
 90
    33792
280
     0
281
     0
  0
CLASS
  1
AMDTADMENUSTATE
  2
AmdtAdMenuState
  3
DesignerServices
 90
    33792
280
     0
281
     0
  0
CLASS
  1
ADAPPL
  2
AcAdAppl
  3
DesignerServices
 90
    33792
280
     0
281
     0
  0
CLASS
  1
DEPMGR
  2
AcAdDepMgr
  3
DesignerServices
 90
    33792
280
     0
281
     0
  0
CLASS
  1
PARAMMGR
  2
AcAdParamMgr
  3
DesignerServices
 90
    33792
280
     0
281
     0
  0
CLASS
  1
PARAMSCOPE
  2
AcAdParamScope
  3
DesignerServices
 90
    33792
280
     0
281
     0
  0
CLASS
  1
NAMEDAPPL
  2
AcAdNamedAppl
  3
DesignerServices
 90
    33792
280
     0
281
     0
  0
CLASS
  1
AMDTDMMENUSTATE
  2
AmdtDmMenuState
  3
AcMechDwgViewMgmt
 90
    33792
280
     0
281
     0
  0
CLASS
  1
AMDTAMMENUSTATE
  2
AmdtAmMenuState
  3
DesignerAssemblies
 90
    33792
280
     0
281
     0
  0
CLASS
  1
ACAMPROJECT
  2
AcAmProject
  3
DesignerAssemblies
 90
    33792
280
     0
281
     0
  0
CLASS
  1
ACAMGRCOMPDEF
  2
AcAmGrCompDef
  3
DesignerAssemblies
 90
    33792
280
     0
281
     0
  0
CLASS
  1
ACCMCONTEXT
  2
AcCmContext
  3
DesignerAssemblies
 90
    33792
280
     0
281
     0
  0
CLASS
  1
ACAMCOMPDEF
  2
AcAmCompDef
  3
DesignerAssemblies
 90
    33792
280
     0
281
     0
  0
CLASS
  1
ACAMCOMPDEFMGR
  2
AcAmCompDefMgr
  3
DesignerAssemblies
 90
    33792
280
     0
281
     0
  0
CLASS
  1
AMCONTEXTMGR
  2
AcAmContextMgr
  3
DesignerAssemblies
 90
    33792
280
     0
281
     0
  0
CLASS
  1
ACAMCONTEXTMODELER
  2
AcAmContextModeler
  3
DesignerAssemblies
 90
    33792
280
     0
281
     0
  0
CLASS
  1
ACMDATADICTIONARY
  2
AcmDataDictionary
  3
"AcmSymBB|Product Description: AutoCAD Mechanical|Company: Autodesk, Inc."
 90
    33792
280
     0
281
     0
  0
CLASS
  1
CATALOGSTATE
  2
AcAmCatalogState
  3
DesignerAssemblies
 90
    33792
280
     0
281
     0
  0
CLASS
  1
ACAMGRCOMPDEFSET
  2
AcAmGrCompDefSet
  3
DesignerAssemblies
 90
    33792
280
     0
281
     0
  0
CLASS
  1
AMDTBROWSERDBTAB
  2
AmdtBrowserDbTab
  3
McadcomServices
 90
    33792
280
     0
281
     0
  0
CLASS
  1
CBROWSERAPPOBJECT
  2
CBrowserAppObject
  3
McadcomServices
 90
    33792
280
     0
281
     0
  0
CLASS
  1
DM_PLACEHOLDER
  2
AcDmSelsetPlaceholder
  3
AcMechDwgViewMgmt
 90
    33792
280
     0
281
     0
  0
CLASS
  1
EXACXREFPANELOBJECT
  2
ExAcXREFPanelObject
  3
EXAC_ESW
 90
    33793
280
     0
281
     0
  0
CLASS
  1
NPOCOLLECTION
  2
AcDbImpNonPersistentObjectsCollection
  3
ObjectDBX Classes
 90
    33921
280
     0
281
     0
  0
CLASS
  1
ACMSTANDARDANSI
  2
AcmStandardANSI
  3
"Amdt_StdImp|Product Description: AutoCAD Mechanical|Company: Autodesk, Inc."
 90
    33792
280
     0
281
     0
  0
CLASS
  1
ACMSURFSTANDARDANSI
  2
AcmSurfTextStdANSI
  3
"Amdt_StdImp|Product Description: AutoCAD Mechanical|Company: Autodesk, Inc."
 90
    33792
280
     0
281
     0
  0
CLASS
  1
ACMFCFSTANDARDANSI
  2
AcmFCFStdANSI
  3
"Amdt_StdImp|Product Description: AutoCAD Mechanical|Company: Autodesk, Inc."
 90
    33792
280
     0
281
     0
  0
CLASS
  1
ACMWELDSTANDARDANSI
  2
AcmWeldingStdANSI
  3
"Amdt_StdImp|Product Description: AutoCAD Mechanical|Company: Autodesk, Inc."
 90
    33792
280
     0
281
     0
  0
CLASS
  1
ACMIDSTANDARDANSI
  2
AcmIdStdANSI
  3
"Amdt_StdImp|Product Description: AutoCAD Mechanical|Company: Autodesk, Inc."
 90
    33792
280
     0
281
     0
  0
CLASS
  1
ACMDATUMSTANDARDANSI
  2
AcmDatumStdANSI
  3
"Amdt_StdImp|Product Description: AutoCAD Mechanical|Company: Autodesk, Inc."
 90
    33792
280
     0
281
     0
  0
CLASS
  1
ACMBOMSTANDARDANSI
  2
AcmBOMStdANSI
  3
"Amdt_StdImp|Product Description: AutoCAD Mechanical|Company: Autodesk, Inc."
 90
    33792
280
     0
281
     0
  0
CLASS
  1
ACMDETAILSTANDARDANSI
  2
AmdtDetailSymStdANSI
  3
"Amdt_StdImp|Product Description: AutoCAD Mechanical|Company: Autodesk, Inc."
 90
    33792
280
     0
281
     0
  0
CLASS
  1
ACMSECTIONSTANDARDANSI
  2
AmdtSectionSymStdANSI
  3
"Amdt_StdImp|Product Description: AutoCAD Mechanical|Company: Autodesk, Inc."
 90
    33792
280
     0
281
     0
  0
CLASS
  1
ACMCENTERLINESTANDARDANSI
  2
AmdtCenterLineStdANSI
  3
"Amdt_StdImp|Product Description: AutoCAD Mechanical|Company: Autodesk, Inc."
 90
    33792
280
     0
281
     0
  0
CLASS
  1
ACMTHREADLINESTANDARDANSI
  2
AmdtThreadLineStdANSI
  3
"Amdt_StdImp|Product Description: AutoCAD Mechanical|Company: Autodesk, Inc."
 90
    33792
280
     0
281
     0
  0
CLASS
  1
ACMNOTESTANDARDANSI
  2
AmdtNoteStdANSI
  3
"Amdt_StdImp|Product Description: AutoCAD Mechanical|Company: Autodesk, Inc."
 90
    33792
280
     0
281
     0
  0
CLASS
  1
ACMTAPERSTANDARDANSI
  2
AcmTaperStdANSI
  3
"Amdt_StdImp|Product Description: AutoCAD Mechanical|Company: Autodesk, Inc."
 90
    33792
280
     0
281
     0
  0
CLASS
  1
ACMANOOTATIONVIEWSTANDARDANSI
  2
AmdtAnViewStdANSI
  3
"Amdt_StdImp|Product Description: AutoCAD Mechanical|Company: Autodesk, Inc."
 90
    33792
280
     0
281
     0
  0
CLASS
  1
ACAMGLAYSTD
  2
AcAmgLayStd
  3
"AmgLay|Product Description: AutoCAD Mechanical|Company: Autodesk, Inc."
 90
    33792
280
     0
281
     0
  0
CLASS
  1
ACAMGDIMSTD
  2
AcAmgDimStd
  3
"AmgDim|Product Description: AutoCAD Mechanical|Company: Autodesk, Inc."
 90
    33792
280
     0
281
     0
  0
CLASS
  1
AMGOBJPROPCFG
  2
AmgObjPropCfg
  3
"AmgLay|Product Description: AutoCAD Mechanical|Company: Autodesk, Inc."
 90
    33793
280
     0
281
     0
  0
CLASS
  1
ACAMGHOLECHARTSTDANSI
  2
AcAmgHoleChartStdANSI
  3
AmgDim|Product Description: AutoCAD Mechanical|Company: Autodesk, Inc.
 90
    33792
280
     0
281
     0
  0
CLASS
  1
ACAMGTITLESTD
  2
AcAmgTitleStd
  3
"AmgTitle|Product Description: AutoCAD Mechanical|Company: Autodesk, Inc."
 90
    36863
280
     0
281
     0
  0
CLASS
  1
AMDTNOTETEMPLATEDB
  2
AmdtNoteTemplateDB
  3
AcmSymBB|Product Description: AutoCAD Mechanical|Company: Autodesk, Inc.
 90
    33792
280
     0
281
     0
  0
CLASS
  1
SORTENTSTABLE
  2
AcDbSortentsTable
  3
AutoCAD 2000
 90
        0
280
     0
281
     0
  0
CLASS
  1
ACMSTANDARDJIS
  2
AcmStandardJIS
  3
"Amdt_StdImp|Product Description: AutoCAD Mechanical|Company: Autodesk, Inc."
 90
    33792
280
     0
281
     0
  0
CLASS
  1
ACMSURFSTANDARDJIS
  2
AcmSurfTextStdJIS
  3
"Amdt_StdImp|Product Description: AutoCAD Mechanical|Company: Autodesk, Inc."
 90
    33792
280
     0
281
     0
  0
CLASS
  1
ACMFCFSTANDARDJIS98
  2
AcmFCFStdJIS98
  3
"Amdt_StdImp|Product Description: AutoCAD Mechanical|Company: Autodesk, Inc."
 90
    33792
280
     0
281
     0
  0
CLASS
  1
ACMWELDSTANDARDJIS
  2
AcmWeldingStdJIS
  3
"Amdt_StdImp|Product Description: AutoCAD Mechanical|Company: Autodesk, Inc."
 90
    33792
280
     0
281
     0
  0
CLASS
  1
ACMIDSTANDARDJIS
  2
AcmIdStdJIS
  3
"Amdt_StdImp|Product Description: AutoCAD Mechanical|Company: Autodesk, Inc."
 90
    33792
280
     0
281
     0
  0
CLASS
  1
ACMDATUMSTANDARDJIS
  2
AcmDatumStdJIS
  3
"Amdt_StdImp|Product Description: AutoCAD Mechanical|Company: Autodesk, Inc."
 90
    33792
280
     0
281
     0
  0
CLASS
  1
ACMBOMSTANDARDJIS
  2
AcmBOMStdJIS
  3
"Amdt_StdImp|Product Description: AutoCAD Mechanical|Company: Autodesk, Inc."
 90
    33792
280
     0
281
     0
  0
CLASS
  1
ACMDETAILSTANDARDJIS
  2
AmdtDetailSymStdJIS
  3
"Amdt_StdImp|Product Description: AutoCAD Mechanical|Company: Autodesk, Inc."
 90
    33792
280
     0
281
     0
  0
CLASS
  1
ACMSECTIONSTANDARDJIS
  2
AmdtSectionSymStdJIS
  3
"Amdt_StdImp|Product Description: AutoCAD Mechanical|Company: Autodesk, Inc."
 90
    33792
280
     0
281
     0
  0
CLASS
  1
ACMCENTERLINESTANDARDJIS
  2
AmdtCenterLineStdJIS
  3
"Amdt_StdImp|Product Description: AutoCAD Mechanical|Company: Autodesk, Inc."
 90
    33792
280
     0
281
     0
  0
CLASS
  1
ACMNOTESTANDARDJIS
  2
AmdtNoteStdJIS
  3
"Amdt_StdImp|Product Description: AutoCAD Mechanical|Company: Autodesk, Inc."
 90
    33792
280
     0
281
     0
  0
CLASS
  1
ACAMGHOLECHARTSTDJIS
  2
AcAmgHoleChartStdJIS
  3
AmgDim|Product Description: AutoCAD Mechanical|Company: Autodesk, Inc.
 90
    33792
280
     0
281
     0
  0
CLASS
  1
ACMTHREADLINESTANDARDJIS
  2
AmdtThreadLineStdJIS
  3
"Amdt_StdImp|Product Description: AutoCAD Mechanical|Company: Autodesk, Inc."
 90
    33792
280
     0
281
     0
  0
CLASS
  1
ACMTAPERSTANDARDJIS
  2
AcmTaperStdJIS
  3
"Amdt_StdImp|Product Description: AutoCAD Mechanical|Company: Autodesk, Inc."
 90
    33792
280
     0
281
     0
  0
CLASS
  1
ACMANOOTATIONVIEWSTANDARDJIS
  2
AmdtAnViewStdJIS
  3
"Amdt_StdImp|Product Description: AutoCAD Mechanical|Company: Autodesk, Inc."
 90
    33792
280
     0
281
     0
  0
CLASS
  1
AMDTEDGESTANDARDJIS
  2
AmdtEdgeStdJIS
  3
"Amdt_StdImp|Product Description: AutoCAD Mechanical|Company: Autodesk, Inc."
 90
    33792
280
     0
281
     0
  0
CLASS
  1
ACMDATAENTRYBLOCK
  2
AcmDataEntryBlock
  3
AcmSymBB|Product Description: AutoCAD Mechanical|Company: Autodesk, Inc.
 90
    33792
280
     0
281
     0
  0
CLASS
  1
ACAMGFILTERDAT
  2
AcAmgFilterDat
  3
"AcadM|Product Description: AutoCAD Mechanical|Company: Autodesk, Inc."
 90
    33792
280
     0
281
     0
  0
CLASS
  1
CELLSTYLEMAP
  2
AcDbCellStyleMap
  3
ObjectDBX Classes
 90
     1152
280
     0
281
     0
  0
CLASS
  1
ACAD_PROXY_OBJECT_WRAPPER
  2
AcDbProxyObjectWrapper
  3
AutoCAD 2000
 90
    32768
280
     0
281
     0
  0
CLASS
  1
LONG_TRANSACTION
  2
AcDbLongTransaction
  3
AutoCAD 2000
 90
    32768
280
     0
281
     0
  0
CLASS
  1
LWPOLYLINE
  2
AcDbPolyline
  3
AutoCAD 2000
 90
    32768
280
     0
281
     1
  0
CLASS
  1
HATCH
  2
AcDbHatch
  3
AutoCAD 2000
 90
    32768
280
     0
281
     1
  0
CLASS
  1
XRECORD
  2
AcDbXrecord
  3
AutoCAD 2000
 90
    32768
280
     0
281
     0
  0
ENDSEC
  0
SECTION
  2
TABLES
  0
TABLE
  2
VPORT
  5
2033
102
{ACAD_XDICTIONARY
360
24A4
102
}
330
0
100
AcDbSymbolTable
 70
     2
  0
VPORT
  5
2649
330
2033
100
AcDbSymbolTableRecord
100
AcDbViewportTableRecord
  2
*Active
 70
     0
 10
0.0
 20
0.0
 11
1.0
 21
1.0
 12
324.2276158681285
 22
385.1591320212263
 13
0.0
 23
0.0
 14
1.0
 24
1.0
 15
0.0
 25
0.0
 16
0.0
 26
0.0
 36
1.0
 17
0.0
 27
0.0
 37
0.0
 40
678.7489500254435
 41
1.592161016949152
 42
50.0
 43
0.0
 44
0.0
 50
0.0
 51
0.0
 71
     0
 72
   100
 73
     1
 74
     3
 75
     0
 76
     0
 77
     0
 78
     0
281
     0
 65
     1
110
0.0
120
0.0
130
0.0
111
1.0
121
0.0
131
0.0
112
0.0
122
1.0
132
0.0
 79
     0
146
0.0
  0
ENDTAB
  0
TABLE
  2
LTYPE
  5
2030
330
0
100
AcDbSymbolTable
 70
     2
  0
LTYPE
  5
203E
330
2030
100
AcDbSymbolTableRecord
100
AcDbLinetypeTableRecord
  2
ByBlock
 70
     0
  3

 72
    65
 73
     0
 40
0.0
  0
LTYPE
  5
203F
330
2030
100
AcDbSymbolTableRecord
100
AcDbLinetypeTableRecord
  2
ByLayer
 70
     0
  3

 72
    65
 73
     0
 40
0.0
  0
LTYPE
  5
2040
330
2030
100
AcDbSymbolTableRecord
100
AcDbLinetypeTableRecord
  2
CONTINUOUS
 70
     0
  3
Solid line
 72
    65
 73
     0
 40
0.0
  0
LTYPE
  5
262B
330
2030
100
AcDbSymbolTableRecord
100
AcDbLinetypeTableRecord
  2
CENTER
 70
     0
  3
__ . __
 72
    65
 73
     4
 40
7.0
 49
4.0
 74
     0
 49
-1.0
 74
     0
 49
1.0
 74
     0
 49
-1.0
 74
     0
  0
ENDTAB
  0
TABLE
  2
LAYER
  5
202D
102
{ACAD_XDICTIONARY
360
262C
102
}
330
0
100
AcDbSymbolTable
 70
     1
  0
LAYER
  5
203B
102
{ACAD_XDICTIONARY
360
2498
102
}
330
202D
100
AcDbSymbolTableRecord
100
AcDbLayerTableRecord
  2
0
 70
     0
 62
     7
  6
CONTINUOUS
370
    -3
390
203A
  0
ENDTAB
  0
TABLE
  2
STYLE
  5
202E
330
0
100
AcDbSymbolTable
 70
     1
  0
STYLE
  5
203C
330
202E
100
AcDbSymbolTableRecord
100
AcDbTextStyleTableRecord
  2
STANDARD
 70
     0
 40
0.0
 41
1.0
 50
0.0
 71
     0
 42
0.2
  3
txt
  4
BIGFONT
  0
ENDTAB
  0
TABLE
  2
VIEW
  5
2031
330
0
100
AcDbSymbolTable
 70
     1
  0
VIEW
  5
205C
102
{ACAD_XDICTIONARY
360
25CF
102
}
330
2031
100
AcDbSymbolTableRecord
100
AcDbViewTableRecord
  2
OLE1
 70
     0
 40
3692.141019219747
 10
1914.591370701856
 20
1272.206200738182
 41
4595.022665841169
 11
0.0
 21
0.0
 31
1.0
 12
0.0
 22
0.0
 32
0.0
 42
50.0
 43
0.0
 44
0.0
 50
0.0
 71
     0
281
     0
 72
     1
110
0.0
120
0.0
130
0.0
111
1.0
121
0.0
131
0.0
112
0.0
122
1.0
132
0.0
 79
     0
146
0.0
  0
ENDTAB
  0
TABLE
  2
UCS
  5
2032
330
0
100
AcDbSymbolTable
 70
     0
  0
ENDTAB
  0
TABLE
  2
APPID
  5
2034
330
0
100
AcDbSymbolTable
 70
    26
  0
APPID
  5
203D
330
2034
100
AcDbSymbolTableRecord
100
AcDbRegAppTableRecord
  2
ACAD
 70
     0
  0
APPID
  5
205D
330
2034
100
AcDbSymbolTableRecord
100
AcDbRegAppTableRecord
  2
MCAD_NO_VIS
 70
     0
  0
APPID
  5
205E
330
2034
100
AcDbSymbolTableRecord
100
AcDbRegAppTableRecord
  2
ACAD_TEMP_GRAPHIC
 70
     0
  0
APPID
  5
205F
330
2034
100
AcDbSymbolTableRecord
100
AcDbRegAppTableRecord
  2
ACATTRIBSERVICES
 70
     0
  0
APPID
  5
210B
330
2034
100
AcDbSymbolTableRecord
100
AcDbRegAppTableRecord
  2
ACAD_MLEADERVER
 70
     0
  0
APPID
  5
2146
330
2034
100
AcDbSymbolTableRecord
100
AcDbRegAppTableRecord
  2
AD_DRAW
 70
     0
  0
APPID
  5
2169
330
2034
100
AcDbSymbolTableRecord
100
AcDbRegAppTableRecord
  2
DESIGNERASSEMBLIES
 70
     0
  0
APPID
  5
216F
330
2034
100
AcDbSymbolTableRecord
100
AcDbRegAppTableRecord
  2
ACADM_DIM_EDIT
 70
     0
  0
APPID
  5
2170
330
2034
100
AcDbSymbolTableRecord
100
AcDbRegAppTableRecord
  2
AMDT_DM_ADJ
 70
     0
  0
APPID
  5
21C8
330
2034
100
AcDbSymbolTableRecord
100
AcDbRegAppTableRecord
  2
ACAD_DSTYLE_DIMJOGGED_JOGANGLE_SYMBOL
 70
     0
  0
APPID
  5
21C9
330
2034
100
AcDbSymbolTableRecord
100
AcDbRegAppTableRecord
  2
ACAD_DSTYLE_DIMJAG
 70
     0
  0
APPID
  5
21CA
330
2034
100
AcDbSymbolTableRecord
100
AcDbRegAppTableRecord
  2
ACAD_DSTYLE_DIMTALN
 70
     0
  0
APPID
  5
21CB
330
2034
100
AcDbSymbolTableRecord
100
AcDbRegAppTableRecord
  2
ACAD_PSEXT
 70
     0
  0
APPID
  5
24B0
330
2034
100
AcDbSymbolTableRecord
100
AcDbRegAppTableRecord
  2
ACAD_DSTYLE_DIMARC_LENGTH_SYMBOL
 70
     0
  0
APPID
  5
24B1
330
2034
100
AcDbSymbolTableRecord
100
AcDbRegAppTableRecord
  2
ACAD_DSTYLE_DIM_LINETYPE
 70
     0
  0
APPID
  5
24B2
330
2034
100
AcDbSymbolTableRecord
100
AcDbRegAppTableRecord
  2
ACAD_DSTYLE_DIM_EXT1_LINETYPE
 70
     0
  0
APPID
  5
24B3
330
2034
100
AcDbSymbolTableRecord
100
AcDbRegAppTableRecord
  2
ACAD_DSTYLE_DIM_EXT2_LINETYPE
 70
     0
  0
APPID
  5
2521
330
2034
100
AcDbSymbolTableRecord
100
AcDbRegAppTableRecord
  2
ACAD_EXEMPT_FROM_CAD_STANDARDS
 70
     0
  0
APPID
  5
25B7
330
2034
100
AcDbSymbolTableRecord
100
AcDbRegAppTableRecord
  2
AcadAnnotative
 70
     0
  0
APPID
  5
25B8
330
2034
100
AcDbSymbolTableRecord
100
AcDbRegAppTableRecord
  2
GENIUS_GENODEF_13
 70
     0
  0
APPID
  5
25B9
330
2034
100
AcDbSymbolTableRecord
100
AcDbRegAppTableRecord
  2
GENIUS_GENOBJ-N-FIL_13
 70
     0
  0
APPID
  5
25BA
330
2034
100
AcDbSymbolTableRecord
100
AcDbRegAppTableRecord
  2
GENIUS_GENOBJ-N-CEN_13
 70
     0
  0
APPID
  5
25BB
330
2034
100
AcDbSymbolTableRecord
100
AcDbRegAppTableRecord
  2
GENIUS_GENCEN_19
 70
     0
  0
APPID
  5
25BC
330
2034
100
AcDbSymbolTableRecord
100
AcDbRegAppTableRecord
  2
GENIUS_GENSCREG_15
 70
     0
  0
APPID
  5
25BD
330
2034
100
AcDbSymbolTableRecord
100
AcDbRegAppTableRecord
  2
GENIUS_GENOBJ-N-SDF_13
 70
     0
  0
APPID
  5
25BE
330
2034
100
AcDbSymbolTableRecord
100
AcDbRegAppTableRecord
  2
AcAecLayerStandard
 70
     0
  0
ENDTAB
  0
TABLE
  2
DIMSTYLE
  5
2035
330
0
100
AcDbSymbolTable
 70
     1
100
AcDbDimStyleTable
 71
     0
  0
DIMSTYLE
105
2060
330
2035
100
AcDbSymbolTableRecord
100
AcDbDimStyleTableRecord
  2
STANDARD
 70
     0
279
     2
340
203C
  0
ENDTAB
  0
TABLE
  2
BLOCK_RECORD
  5
202C
330
0
100
AcDbSymbolTable
 70
     0
  0
BLOCK_RECORD
  5
2049
102
{ACAD_XDICTIONARY
360
2075
102
}
330
202C
100
AcDbSymbolTableRecord
100
AcDbBlockTableRecord
  2
*Model_Space
340
204C
  0
BLOCK_RECORD
  5
2045
102
{ACAD_XDICTIONARY
360
2077
102
}
330
202C
100
AcDbSymbolTableRecord
100
AcDbBlockTableRecord
  2
*Paper_Space
340
2048
  0
ENDTAB
  0
ENDSEC
  0
SECTION
  2
BLOCKS
  0
BLOCK
  5
204A
330
2049
100
AcDbEntity
  8
0
100
AcDbBlockBegin
  2
*Model_Space
 70
     0
 10
0.0
 20
0.0
 30
0.0
  3
*Model_Space
  1

  0
ENDBLK
  5
204B
330
2049
100
AcDbEntity
  8
0
100
AcDbBlockEnd
  0
BLOCK
  5
2046
330
2045
100
AcDbEntity
 67
     1
  8
0
100
AcDbBlockBegin
  2
*Paper_Space
 70
     0
 10
0.0
 20
0.0
 30
0.0
  3
*Paper_Space
  1

  0
ENDBLK
  5
2047
330
2045
100
AcDbEntity
 67
     1
  8
0
100
AcDbBlockEnd
  0
ENDSEC
  0
SECTION
  2
ENTITIES
  0
TEXT
  5
C36
330
2049
100
AcDbEntity
  8
0
  6
Continuous
100
AcDbText
 10
-105.137714020071
 20
674.3593684473899
 30
0.0
 40
48.000002
  1
BVP__T35J10 1.5S
 41
1.268809999999999
100
AcDbText
  0
LINE
  5
C3A
330
2049
100
AcDbEntity
  8
0
  6
Continuous
100
AcDbLine
 10
440.0
 20
186.000031
 30
0.0
 11
440.0
 21
137.0000309999999
 31
0.0
  0
LINE
  5
C3B
330
2049
100
AcDbEntity
  8
0
  6
Continuous
100
AcDbLine
 10
360.0
 20
137.0000309999999
 30
0.0
 11
440.0
 21
137.0000309999999
 31
0.0
  0
LINE
  5
C3C
330
2049
100
AcDbEntity
  8
0
  6
Continuous
100
AcDbLine
 10
360.0
 20
186.000031
 30
0.0
 11
360.0
 21
137.0000309999999
 31
0.0
  0
LINE
  5
C3D
330
2049
100
AcDbEntity
  8
0
  6
Continuous
100
AcDbLine
 10
360.0
 20
186.000031
 30
0.0
 11
440.0
 21
186.000031
 31
0.0
  0
LINE
  5
C3E
330
2049
100
AcDbEntity
  8
0
  6
Continuous
100
AcDbLine
 10
413.0000309999999
 20
141.5000339999999
 30
0.0
 11
413.0000309999999
 21
181.500023
 31
0.0
  0
LINE
  5
C3F
330
2049
100
AcDbEntity
  8
0
  6
Continuous
100
AcDbLine
 10
386.9999689999999
 20
141.5000339999999
 30
0.0
 11
386.9999689999999
 21
181.500023
 31
0.0
  0
LINE
  5
C40
330
2049
100
AcDbEntity
  8
0
  6
Continuous
100
AcDbLine
 10
364.4999689999999
 20
181.500023
 30
0.0
 11
435.500031
 21
181.500023
 31
0.0
  0
LINE
  5
C41
330
2049
100
AcDbEntity
  8
0
  6
Continuous
100
AcDbLine
 10
364.4999689999999
 20
181.500023
 30
0.0
 11
364.4999689999999
 21
141.5000339999999
 31
0.0
  0
LINE
  5
C42
330
2049
100
AcDbEntity
  8
0
  6
Continuous
100
AcDbLine
 10
364.4999689999999
 20
141.5000339999999
 30
0.0
 11
435.500031
 21
141.5000339999999
 31
0.0
  0
LINE
  5
C43
330
2049
100
AcDbEntity
  8
0
  6
Continuous
100
AcDbLine
 10
435.500031
 20
181.500023
 30
0.0
 11
435.500031
 21
141.5000339999999
 31
0.0
  0
ARC
  5
C44
330
2049
100
AcDbEntity
  8
0
  6
Continuous
100
AcDbCircle
 10
400.0
 20
100.0
 30
0.0
 40
44.0
100
AcDbArc
 50
122.763689999996
 51
57.23631199999778
  0
LINE
  5
CB8
330
2049
100
AcDbEntity
  8
0
  6
Continuous
100
AcDbLine
 10
218.908081
 20
137.0000309999999
 30
0.0
 11
181.0919189999999
 21
137.0000309999999
 31
0.0
  0
LINE
  5
CB9
330
2049
100
AcDbEntity
  8
0
  6
Continuous
100
AcDbLine
 10
167.999992
 20
186.000046
 30
0.0
 11
167.999992
 21
172.9697269999999
 31
0.0
  0
LINE
  5
CBA
330
2049
100
AcDbEntity
  8
0
  6
Continuous
100
AcDbLine
 10
168.000009
 20
172.9697679999999
 30
0.0
 11
181.0919229999998
 21
137.0000309999999
 31
0.0
  0
LINE
  5
CBB
330
2049
100
AcDbEntity
  8
0
  6
Continuous
100
AcDbLine
 10
232.000017
 20
172.969783
 30
0.0
 11
218.908102
 21
137.0000419999997
 31
0.0
  0
LINE
  5
CBC
330
2049
100
AcDbEntity
  8
0
  6
Continuous
100
AcDbLine
 10
232.0000079999998
 20
186.000046
 30
0.0
 11
232.0000079999998
 21
172.9697269999999
 31
0.0
  0
LINE
  5
CBD
330
2049
100
AcDbEntity
  8
0
  6
Continuous
100
AcDbLine
 10
167.999992
 20
186.000046
 30
0.0
 11
232.0000079999998
 21
186.000046
 31
0.0
  0
LINE
  5
CBE
330
2049
100
AcDbEntity
  8
0
  6
Continuous
100
AcDbLine
 10
216.0
 20
137.0000309999999
 30
0.0
 11
216.0
 21
56.0
 31
0.0
  0
LINE
  5
CBF
330
2049
100
AcDbEntity
  8
0
  6
Continuous
100
AcDbLine
 10
216.0
 20
56.0
 30
0.0
 11
184.0
 21
56.0
 31
0.0
  0
LINE
  5
CC0
330
2049
100
AcDbEntity
  8
0
  6
Continuous
100
AcDbLine
 10
184.0
 20
137.0000309999999
 30
0.0
 11
184.0
 21
56.0
 31
0.0
  0
LINE
  5
168F
330
2049
100
AcDbEntity
  8
0
  6
Continuous
100
AcDbLine
 10
168.4999769999998
 20
186.000046
 30
0.0
 11
231.4999789999999
 21
186.000046
 31
0.0
  0
LINE
  5
16BE
330
2049
100
AcDbEntity
  8
0
  6
Continuous
100
AcDbLine
 10
368.4999769999999
 20
186.000031
 30
0.0
 11
431.4999789999999
 21
186.000031
 31
0.0
  0
LINE
  5
1D2F
330
2049
100
AcDbEntity
  8
0
  6
Continuous
100
AcDbLine
 10
160.0
 20
125.2499999999999
 30
0.0
 11
162.8499998999999
 21
125.2499999999999
 31
0.0
  0
LINE
  5
1D30
330
2049
100
AcDbEntity
  8
0
  6
Continuous
100
AcDbLine
 10
162.8499996999998
 20
125.2499999999999
 30
0.0
 11
165.106616
 21
119.0499979999999
 31
0.0
  0
LINE
  5
1D31
330
2049
100
AcDbEntity
  8
0
  6
Continuous
100
AcDbLine
 10
165.1066155
 20
119.0499989999999
 30
0.0
 11
184.0
 21
119.0499989999999
 31
0.0
  0
LINE
  5
1D32
330
2049
100
AcDbEntity
  8
0
  6
Continuous
100
AcDbLine
 10
160.0
 20
74.75
 30
0.0
 11
160.0
 21
125.2499999999999
 31
0.0
  0
LINE
  5
1D33
330
2049
100
AcDbEntity
  8
0
  6
Continuous
100
AcDbLine
 10
165.1066155
 20
80.95000099999991
 30
0.0
 11
184.0
 21
80.95000099999991
 31
0.0
  0
LINE
  5
1D34
330
2049
100
AcDbEntity
  8
0
  6
Continuous
100
AcDbLine
 10
162.8499996999998
 20
74.75
 30
0.0
 11
165.106616
 21
80.95000200000006
 31
0.0
  0
LINE
  5
1D35
330
2049
100
AcDbEntity
  8
0
  6
Continuous
100
AcDbLine
 10
160.0
 20
74.75
 30
0.0
 11
162.8499998999999
 21
74.75
 31
0.0
  0
LINE
  5
1D37
330
2049
100
AcDbEntity
  8
0
  6
Continuous
100
AcDbLine
 10
165.1066155
 20
119.0499989999999
 30
0.0
 11
165.1066155
 21
80.95000099999991
 31
0.0
  0
LINE
  5
1D3A
330
2049
100
AcDbEntity
  8
0
  6
Continuous
100
AcDbLine
 10
239.9999999999996
 20
74.7500000000002
 30
0.0
 11
237.1500000999997
 21
74.7500000000002
 31
0.0
  0
LINE
  5
1D3B
330
2049
100
AcDbEntity
  8
0
  6
Continuous
100
AcDbLine
 10
237.1500002999997
 20
74.7500000000002
 30
0.0
 11
234.8933839999996
 21
80.95000200000027
 31
0.0
  0
LINE
  5
1D3C
330
2049
100
AcDbEntity
  8
0
  6
Continuous
100
AcDbLine
 10
234.8933844999995
 20
80.95000100000014
 30
0.0
 11
216.0
 21
80.95000100000014
 31
0.0
  0
LINE
  5
1D3D
330
2049
100
AcDbEntity
  8
0
  6
Continuous
100
AcDbLine
 10
239.9999999999996
 20
125.2500000000002
 30
0.0
 11
239.9999999999996
 21
74.7500000000002
 31
0.0
  0
LINE
  5
1D3E
330
2049
100
AcDbEntity
  8
0
  6
Continuous
100
AcDbLine
 10
234.8933844999995
 20
119.0499990000003
 30
0.0
 11
216.0
 21
119.0499990000003
 31
0.0
  0
LINE
  5
1D3F
330
2049
100
AcDbEntity
  8
0
  6
Continuous
100
AcDbLine
 10
237.1500002999997
 20
125.2500000000002
 30
0.0
 11
234.8933839999996
 21
119.0499980000001
 31
0.0
  0
LINE
  5
1D40
330
2049
100
AcDbEntity
  8
0
  6
Continuous
100
AcDbLine
 10
239.9999999999996
 20
125.2500000000002
 30
0.0
 11
237.1500000999997
 21
125.2500000000002
 31
0.0
  0
LINE
  5
1D42
330
2049
100
AcDbEntity
  8
0
  6
Continuous
100
AcDbLine
 10
234.8933844999995
 20
80.95000100000014
 30
0.0
 11
234.8933844999995
 21
119.0499990000003
 31
0.0
  0
CIRCLE
  5
1D5C
330
2049
100
AcDbEntity
  8
0
  6
Continuous
100
AcDbCircle
 10
400.0
 20
100.0
 30
0.0
 40
25.25
  0
CIRCLE
  5
1D5D
330
2049
100
AcDbEntity
  8
0
  6
Continuous
100
AcDbCircle
 10
400.0
 20
100.0
 30
0.0
 40
19.04999799999996
  0
LINE
  5
2335
330
2049
100
AcDbEntity
  8
0
  6
Continuous
100
AcDbLine
 10
259.4999779999998
 20
273.000046000001
 30
0.0
 11
259.4999779999998
 21
186.000046
 31
0.0
  0
LINE
  5
2336
330
2049
100
AcDbEntity
  8
0
  6
Continuous
100
AcDbLine
 10
120.4999779999998
 20
273.000046000001
 30
0.0
 11
120.4999779999998
 21
186.000046
 31
0.0
  0
LINE
  5
2337
330
2049
100
AcDbEntity
  8
0
  6
Continuous
100
AcDbLine
 10
264.4999779999998
 20
272.000046000001
 30
0.0
 11
264.4999779999998
 21
187.000046
 31
0.0
  0
LINE
  5
2338
330
2049
100
AcDbEntity
  8
0
  6
Continuous
100
AcDbLine
 10
115.4999779999998
 20
272.000046000001
 30
0.0
 11
115.4999779999998
 21
187.000046
 31
0.0
  0
LINE
  5
2339
330
2049
100
AcDbEntity
  8
0
  6
Continuous
100
AcDbLine
 10
116.4999779999998
 20
273.000046000001
 30
0.0
 11
263.4999779999998
 21
273.000046000001
 31
0.0
  0
LINE
  5
233A
330
2049
100
AcDbEntity
  8
0
  6
Continuous
100
AcDbLine
 10
116.4999779999998
 20
186.000046
 30
0.0
 11
263.4999779999998
 21
186.000046
 31
0.0
  0
LINE
  5
233B
330
2049
100
AcDbEntity
  8
0
  6
Continuous
100
AcDbLine
 10
108.8998803437498
 20
236.0000460000001
 30
0.0
 11
108.8998803437498
 21
222.9998934121094
 31
0.0
  0
LINE
  5
233C
330
2049
100
AcDbEntity
  8
0
  6
Continuous
100
AcDbLine
 10
109.4799584687498
 20
237.00541709375
 30
0.0
 11
113.3193139374998
 21
237.00541709375
 31
0.0
  0
LINE
  5
233D
330
2049
100
AcDbEntity
  8
0
  6
Continuous
100
AcDbLine
 10
109.4804467499998
 20
233.2529756875
 30
0.0
 11
113.3190839621866
 21
233.2529756875
 31
0.0
  0
LINE
  5
233E
330
2049
100
AcDbEntity
  8
0
  6
Continuous
100
AcDbLine
 10
108.8995434235376
 20
236.0000031294175
 30
0.0
 11
109.4801098297885
 21
237.0055736241629
 31
0.0
  0
LINE
  5
233F
330
2049
100
AcDbEntity
  8
0
  6
Continuous
100
AcDbLine
 10
113.3193139374998
 20
221.9945223183594
 30
0.0
 11
109.4799584687498
 21
221.9945223183594
 31
0.0
  0
LINE
  5
2340
330
2049
100
AcDbEntity
  8
0
  6
Continuous
100
AcDbLine
 10
113.3191048467106
 20
225.7472078652344
 30
0.0
 11
109.4804467499998
 21
225.7472078652344
 31
0.0
  0
ARC
  5
2341
330
2049
100
AcDbEntity
  8
0
  6
Continuous
100
AcDbCircle
 10
112.2226342499998
 20
223.8707735390634
 30
0.0
 40
3.322566986083984
100
AcDbArc
 50
145.6156973218397
 51
180.0
  0
ARC
  5
2342
330
2049
100
AcDbEntity
  8
0
  6
Continuous
100
AcDbCircle
 10
121.3193139374998
 20
229.500046
 30
0.0
 40
12.41944122314453
100
AcDbArc
 50
162.4120613966358
 51
197.5879727542949
  0
LINE
  5
2343
330
2049
100
AcDbEntity
  8
0
  6
Continuous
100
AcDbLine
 10
108.8998803437498
 20
233.500046
 30
0.0
 11
104.9999779999998
 21
233.500046
 31
0.0
  0
LINE
  5
2344
330
2049
100
AcDbEntity
  8
0
  6
Continuous
100
AcDbLine
 10
108.8998803437498
 20
232.7002413125
 30
0.0
 11
104.9999779999998
 21
232.7002413125
 31
0.0
  0
LINE
  5
2345
330
2049
100
AcDbEntity
  8
0
  6
Continuous
100
AcDbLine
 10
108.8998803437498
 20
226.2999727578125
 30
0.0
 11
104.9999779999998
 21
226.2999727578125
 31
0.0
  0
LINE
  5
2346
330
2049
100
AcDbEntity
  8
0
  6
Continuous
100
AcDbLine
 10
108.8998803437498
 20
225.4999239296875
 30
0.0
 11
104.9999779999998
 21
225.4999239296875
 31
0.0
  0
LINE
  5
2347
330
2049
100
AcDbEntity
  8
0
  6
Continuous
100
AcDbLine
 10
115.4999779999998
 20
237.500046
 30
0.0
 11
113.8998803437498
 21
237.500046
 31
0.0
  0
LINE
  5
2348
330
2049
100
AcDbEntity
  8
0
  6
Continuous
100
AcDbLine
 10
115.4999779999998
 20
221.4999239296885
 30
0.0
 11
113.8998803437498
 21
221.4999239296885
 31
0.0
  0
LINE
  5
2349
330
2049
100
AcDbEntity
  8
0
  6
Continuous
100
AcDbLine
 10
108.8994467751982
 20
222.999862464001
 30
0.0
 11
109.4800131814482
 21
221.9942919692557
 31
0.0
  0
ARC
  5
234A
330
2049
100
AcDbEntity
  8
0
  6
Continuous
100
AcDbCircle
 10
112.2226342499998
 20
235.12944053125
 30
0.0
 40
3.322566986083984
100
AcDbArc
 50
180.0
 51
214.3843026781602
  0
LINE
  5
234B
330
2049
100
AcDbEntity
  8
0
  6
Continuous
100
AcDbLine
 10
113.8993920624998
 20
221.4999239296885
 30
0.0
 11
113.8993920624998
 21
237.500046
 31
0.0
  0
LINE
  5
234C
330
2049
100
AcDbEntity
  8
0
  6
Continuous
100
AcDbLine
 10
113.8998266026283
 20
236.0000829305354
 30
0.0
 11
113.3192754551674
 21
237.0056269962824
 31
0.0
  0
ARC
  5
234D
330
2049
100
AcDbEntity
  8
0
  6
Continuous
100
AcDbCircle
 10
110.5771264374998
 20
223.8707735390634
 30
0.0
 40
3.322566986083984
100
AcDbArc
 50
359.9999813306582
 51
34.38523817739032
  0
LINE
  5
234E
330
2049
100
AcDbEntity
  8
0
  6
Continuous
100
AcDbLine
 10
113.8998592227618
 20
222.9998548682487
 30
0.0
 11
113.3192928165117
 21
221.9942843735043
 31
0.0
  0
ARC
  5
234F
330
2049
100
AcDbEntity
  8
0
  6
Continuous
100
AcDbCircle
 10
110.5771264374998
 20
235.12944053125
 30
0.0
 40
3.322566986083984
100
AcDbArc
 50
325.6141241315667
 51
0.0000359721715611
  0
LINE
  5
2350
330
2049
100
AcDbEntity
  8
0
  6
Continuous
100
AcDbLine
 10
100.0000327126991
 20
222.9998624640002
 30
0.0
 11
100.5805991189491
 21
221.9942919692557
 31
0.0
  0
LINE
  5
2351
330
2049
100
AcDbEntity
  8
0
  6
Continuous
100
AcDbLine
 10
104.9999779999998
 20
221.9945223183594
 30
0.0
 11
100.5805444062498
 21
221.9945223183594
 31
0.0
  0
ARC
  5
2352
330
2049
100
AcDbEntity
  8
0
  6
Continuous
100
AcDbCircle
 10
103.3232201874998
 20
223.8707735390634
 30
0.0
 40
3.322566986083984
100
AcDbArc
 50
145.6156973218397
 51
180.0
  0
LINE
  5
2353
330
2049
100
AcDbEntity
  8
0
  6
Continuous
100
AcDbLine
 10
104.9999779999998
 20
225.7472078652344
 30
0.0
 11
100.5810326874998
 21
225.7472078652344
 31
0.0
  0
ARC
  5
2354
330
2049
100
AcDbEntity
  8
0
  6
Continuous
100
AcDbCircle
 10
112.4198998749998
 20
229.500046
 30
0.0
 40
12.41944122314453
100
AcDbArc
 50
162.4120613966358
 51
197.5879727542949
  0
LINE
  5
2355
330
2049
100
AcDbEntity
  8
0
  6
Continuous
100
AcDbLine
 10
100.0004662812498
 20
236.0000460000001
 30
0.0
 11
100.0004662812498
 21
222.9998934121094
 31
0.0
  0
LINE
  5
2356
330
2049
100
AcDbEntity
  8
0
  6
Continuous
100
AcDbLine
 10
104.9999779999998
 20
221.9945223183594
 30
0.0
 11
104.9999779999998
 21
237.00541709375
 31
0.0
  0
LINE
  5
2357
330
2049
100
AcDbEntity
  8
0
  6
Continuous
100
AcDbLine
 10
100.5810326874998
 20
233.2529756875
 30
0.0
 11
104.9999779999998
 21
233.2529756875
 31
0.0
  0
ARC
  5
2358
330
2049
100
AcDbEntity
  8
0
  6
Continuous
100
AcDbCircle
 10
103.3232201874998
 20
235.12944053125
 30
0.0
 40
3.322566986083984
100
AcDbArc
 50
180.0
 51
214.3843026781602
  0
LINE
  5
2359
330
2049
100
AcDbEntity
  8
0
  6
Continuous
100
AcDbLine
 10
100.0001293610403
 20
236.0000031294175
 30
0.0
 11
100.5806957672903
 21
237.0055736241619
 31
0.0
  0
LINE
  5
235A
330
2049
100
AcDbEntity
  8
0
  6
Continuous
100
AcDbLine
 10
100.5805444062498
 20
237.00541709375
 30
0.0
 11
104.9999779999998
 21
237.00541709375
 31
0.0
  0
LINE
  5
235B
330
2049
100
AcDbEntity
  8
0
  6
Continuous
100
AcDbLine
 10
264.4999779999998
 20
253.4240924804771
 30
0.0
 11
115.4999779999998
 21
253.4240924804771
 31
0.0
  0
LINE
  5
235C
330
2049
100
AcDbEntity
  8
0
  6
Continuous
100
AcDbLine
 10
264.4999779999998
 20
205.5759995195239
 30
0.0
 11
115.4999779999998
 21
205.5759995195239
 31
0.0
  0
ARC
  5
235E
330
2049
100
AcDbEntity
  8
0
  6
Continuous
100
AcDbCircle
 10
400.0
 20
229.500031
 30
0.0
 40
39.0
100
AcDbArc
 50
142.1615560123629
 51
217.838443987637
  0
ARC
  5
235F
330
2049
100
AcDbEntity
  8
0
  6
Continuous
100
AcDbCircle
 10
400.0
 20
229.500031
 30
0.0
 40
39.0
100
AcDbArc
 50
322.1615560123629
 51
37.83844398763703
  0
LINE
  5
2360
330
2049
100
AcDbEntity
  8
0
  6
Continuous
100
AcDbLine
 10
430.8000000000001
 20
205.5759845195229
 30
0.0
 11
430.8000000000001
 21
188.0000309999999
 31
0.0
  0
LINE
  5
2361
330
2049
100
AcDbEntity
  8
0
  6
Continuous
100
AcDbLine
 10
369.1999999999998
 20
205.5759845195229
 30
0.0
 11
369.1999999999998
 21
188.0000309999999
 31
0.0
  0
LINE
  5
2362
330
2049
100
AcDbEntity
  8
0
  6
Continuous
100
AcDbLine
 10
369.1999999999998
 20
271.000031
 30
0.0
 11
369.1999999999998
 21
253.4240774804761
 31
0.0
  0
LINE
  5
2363
330
2049
100
AcDbEntity
  8
0
  6
Continuous
100
AcDbLine
 10
430.7999999999992
 20
271.000031
 30
0.0
 11
430.7999999999992
 21
253.4240774804761
 31
0.0
  0
LINE
  5
2364
330
2049
100
AcDbEntity
  8
0
  6
Continuous
100
AcDbLine
 10
418.0
 20
196.8867823459481
 30
0.0
 11
418.0
 21
191.1132796540518
 31
0.0
  0
LINE
  5
2365
330
2049
100
AcDbEntity
  8
0
  6
Continuous
100
AcDbLine
 10
418.0
 20
196.8867823459472
 30
0.0
 11
423.0
 21
199.7735336918953
 31
0.0
  0
LINE
  5
2366
330
2049
100
AcDbEntity
  8
0
  6
Continuous
100
AcDbLine
 10
423.0
 20
188.2265283081037
 30
0.0
 11
428.0
 21
191.1132796540518
 31
0.0
  0
LINE
  5
2367
330
2049
100
AcDbEntity
  8
0
  6
Continuous
100
AcDbLine
 10
418.0
 20
191.1132796540518
 30
0.0
 11
423.0
 21
188.2265283081037
 31
0.0
  0
LINE
  5
2368
330
2049
100
AcDbEntity
  8
0
  6
Continuous
100
AcDbLine
 10
423.0
 20
199.7735336918962
 30
0.0
 11
428.0
 21
196.8867823459472
 31
0.0
  0
LINE
  5
2369
330
2049
100
AcDbEntity
  8
0
  6
Continuous
100
AcDbLine
 10
428.0
 20
196.8867823459481
 30
0.0
 11
428.0
 21
191.1132796540518
 31
0.0
  0
LINE
  5
236A
330
2049
100
AcDbEntity
  8
0
  6
Continuous
100
AcDbLine
 10
372.0
 20
196.8867823459481
 30
0.0
 11
372.0
 21
191.1132796540518
 31
0.0
  0
LINE
  5
236B
330
2049
100
AcDbEntity
  8
0
  6
Continuous
100
AcDbLine
 10
372.0
 20
196.8867823459472
 30
0.0
 11
377.0
 21
199.7735336918953
 31
0.0
  0
LINE
  5
236C
330
2049
100
AcDbEntity
  8
0
  6
Continuous
100
AcDbLine
 10
377.0
 20
188.2265283081028
 30
0.0
 11
382.0
 21
191.1132796540509
 31
0.0
  0
LINE
  5
236D
330
2049
100
AcDbEntity
  8
0
  6
Continuous
100
AcDbLine
 10
372.0
 20
191.1132796540518
 30
0.0
 11
377.0
 21
188.2265283081037
 31
0.0
  0
LINE
  5
236E
330
2049
100
AcDbEntity
  8
0
  6
Continuous
100
AcDbLine
 10
377.0
 20
199.7735336918962
 30
0.0
 11
382.0
 21
196.8867823459472
 31
0.0
  0
LINE
  5
236F
330
2049
100
AcDbEntity
  8
0
  6
Continuous
100
AcDbLine
 10
382.0
 20
196.8867823459481
 30
0.0
 11
382.0
 21
191.1132796540518
 31
0.0
  0
LINE
  5
2370
330
2049
100
AcDbEntity
  8
0
  6
Continuous
100
AcDbLine
 10
372.0
 20
267.8867823459481
 30
0.0
 11
372.0
 21
262.1132796540519
 31
0.0
  0
LINE
  5
2371
330
2049
100
AcDbEntity
  8
0
  6
Continuous
100
AcDbLine
 10
372.0
 20
267.8867823459481
 30
0.0
 11
377.0
 21
270.7735336918963
 31
0.0
  0
LINE
  5
2372
330
2049
100
AcDbEntity
  8
0
  6
Continuous
100
AcDbLine
 10
377.0
 20
259.2265283081028
 30
0.0
 11
382.0
 21
262.1132796540509
 31
0.0
  0
LINE
  5
2373
330
2049
100
AcDbEntity
  8
0
  6
Continuous
100
AcDbLine
 10
372.0
 20
262.1132796540519
 30
0.0
 11
377.0
 21
259.2265283081037
 31
0.0
  0
LINE
  5
2374
330
2049
100
AcDbEntity
  8
0
  6
Continuous
100
AcDbLine
 10
376.9999999999991
 20
270.7735336918963
 30
0.0
 11
382.0
 21
267.8867823459472
 31
0.0
  0
LINE
  5
2375
330
2049
100
AcDbEntity
  8
0
  6
Continuous
100
AcDbLine
 10
382.0
 20
267.8867823459481
 30
0.0
 11
382.0
 21
262.1132796540519
 31
0.0
  0
LINE
  5
2376
330
2049
100
AcDbEntity
  8
0
  6
Continuous
100
AcDbLine
 10
418.0
 20
267.8867823459472
 30
0.0
 11
418.0
 21
262.1132796540519
 31
0.0
  0
LINE
  5
2377
330
2049
100
AcDbEntity
  8
0
  6
Continuous
100
AcDbLine
 10
418.0
 20
267.8867823459472
 30
0.0
 11
423.0
 21
270.7735336918954
 31
0.0
  0
LINE
  5
2378
330
2049
100
AcDbEntity
  8
0
  6
Continuous
100
AcDbLine
 10
423.0
 20
259.2265283081028
 30
0.0
 11
428.0
 21
262.1132796540509
 31
0.0
  0
LINE
  5
2379
330
2049
100
AcDbEntity
  8
0
  6
Continuous
100
AcDbLine
 10
418.0
 20
262.1132796540519
 30
0.0
 11
423.0
 21
259.2265283081028
 31
0.0
  0
LINE
  5
237A
330
2049
100
AcDbEntity
  8
0
  6
Continuous
100
AcDbLine
 10
423.0
 20
270.7735336918954
 30
0.0
 11
428.0
 21
267.8867823459472
 31
0.0
  0
LINE
  5
237B
330
2049
100
AcDbEntity
  8
0
  6
Continuous
100
AcDbLine
 10
428.0
 20
267.8867823459472
 30
0.0
 11
428.0
 21
262.1132796540519
 31
0.0
  0
LINE
  5
237C
330
2049
100
AcDbEntity
  8
0
  6
Continuous
100
AcDbLine
 10
382.0
 20
186.000031
 30
0.0
 11
371.1999999999998
 21
186.000031
 31
0.0
  0
LINE
  5
237D
330
2049
100
AcDbEntity
  8
0
  6
Continuous
100
AcDbLine
 10
382.0
 20
273.000031
 30
0.0
 11
371.1999999999998
 21
273.000031
 31
0.0
  0
ARC
  5
237E
330
2049
100
AcDbEntity
  8
0
  6
Continuous
100
AcDbCircle
 10
428.7999999999993
 20
271.000031
 30
0.0
 40
2.0
100
AcDbArc
 50
0.0
 51
90.0
  0
ARC
  5
237F
330
2049
100
AcDbEntity
  8
0
  6
Continuous
100
AcDbCircle
 10
371.1999999999998
 20
271.000031
 30
0.0
 40
2.0
100
AcDbArc
 50
90.0
 51
180.0
  0
ARC
  5
2380
330
2049
100
AcDbEntity
  8
0
  6
Continuous
100
AcDbCircle
 10
371.1999999999998
 20
188.0000309999999
 30
0.0
 40
2.0
100
AcDbArc
 50
180.0
 51
270.0
  0
ARC
  5
2381
330
2049
100
AcDbEntity
  8
0
  6
Continuous
100
AcDbCircle
 10
428.8000000000002
 20
188.0000309999999
 30
0.0
 40
2.0
100
AcDbArc
 50
270.0
 51
0.0
  0
LINE
  5
2382
330
2049
100
AcDbEntity
  8
0
  6
Continuous
100
AcDbLine
 10
416.0
 20
271.000031
 30
0.0
 11
384.0
 21
271.000031
 31
0.0
  0
LINE
  5
2383
330
2049
100
AcDbEntity
  8
0
  6
Continuous
100
AcDbLine
 10
416.0
 20
188.0000309999999
 30
0.0
 11
384.0
 21
188.0000309999999
 31
0.0
  0
LINE
  5
2384
330
2049
100
AcDbEntity
  8
0
  6
Continuous
100
AcDbLine
 10
416.0
 20
271.000031
 30
0.0
 11
418.0
 21
273.000031
 31
0.0
  0
LINE
  5
2385
330
2049
100
AcDbEntity
  8
0
  6
Continuous
100
AcDbLine
 10
382.0
 20
186.000031
 30
0.0
 11
384.0
 21
188.000030999999
 31
0.0
  0
LINE
  5
2386
330
2049
100
AcDbEntity
  8
0
  6
Continuous
100
AcDbLine
 10
416.0
 20
188.0000309999999
 30
0.0
 11
418.0
 21
186.000031
 31
0.0
  0
LINE
  5
2387
330
2049
100
AcDbEntity
  8
0
  6
Continuous
100
AcDbLine
 10
382.0
 20
273.000031
 30
0.0
 11
384.0
 21
271.000031
 31
0.0
  0
LINE
  5
2388
330
2049
100
AcDbEntity
  8
0
  6
Continuous
100
AcDbLine
 10
428.8000000000002
 20
186.000031
 30
0.0
 11
418.0
 21
186.000031
 31
0.0
  0
LINE
  5
2389
330
2049
100
AcDbEntity
  8
0
  6
Continuous
100
AcDbLine
 10
428.7999999999993
 20
273.000031
 30
0.0
 11
418.0
 21
273.000031
 31
0.0
  0
LINE
  5
238A
330
2049
100
AcDbEntity
  8
0
  6
Continuous
100
AcDbLine
 10
415.5
 20
273.000031
 30
0.0
 11
384.5
 21
273.000031
 31
0.0
  0
LINE
  5
238B
330
2049
100
AcDbEntity
  8
0
  6
Continuous
100
AcDbLine
 10
415.5
 20
186.000031
 30
0.0
 11
384.5
 21
186.000031
 31
0.0
  0
LINE
  5
238C
330
2049
100
AcDbEntity
  8
0
  6
Continuous
100
AcDbLine
 10
415.5
 20
188.0000309999999
 30
0.0
 11
415.5
 21
186.000031
 31
0.0
  0
LINE
  5
238D
330
2049
100
AcDbEntity
  8
0
  6
Continuous
100
AcDbLine
 10
384.5
 20
188.0000309999999
 30
0.0
 11
384.5
 21
186.000031
 31
0.0
  0
LINE
  5
238E
330
2049
100
AcDbEntity
  8
0
  6
Continuous
100
AcDbLine
 10
384.5
 20
273.000031
 30
0.0
 11
384.5
 21
271.000031
 31
0.0
  0
LINE
  5
238F
330
2049
100
AcDbEntity
  8
0
  6
Continuous
100
AcDbLine
 10
415.5
 20
273.000031
 30
0.0
 11
415.5
 21
271.000031
 31
0.0
  0
ARC
  5
2390
330
2049
100
AcDbEntity
  8
0
  6
Continuous
100
AcDbCircle
 10
101.4802687951469
 20
229.5001375527344
 30
0.0
 40
12.41944122314453
100
AcDbArc
 50
342.4120613966358
 51
17.58797275429494
  0
ARC
  5
2391
330
2049
100
AcDbEntity
  8
0
  6
Continuous
100
AcDbCircle
 10
116.4999779999998
 20
272.000046000001
 30
0.0
 40
1.0
100
AcDbArc
 50
90.0
 51
180.0
  0
ARC
  5
2392
330
2049
100
AcDbEntity
  8
0
  6
Continuous
100
AcDbCircle
 10
263.4999779999998
 20
272.000046000001
 30
0.0
 40
1.0
100
AcDbArc
 50
0.0
 51
90.0
  0
ARC
  5
2393
330
2049
100
AcDbEntity
  8
0
  6
Continuous
100
AcDbCircle
 10
263.4999779999998
 20
187.000046
 30
0.0
 40
1.0
100
AcDbArc
 50
270.0
 51
0.0
  0
ARC
  5
2394
330
2049
100
AcDbEntity
  8
0
  6
Continuous
100
AcDbCircle
 10
116.4999779999998
 20
187.000046
 30
0.0
 40
1.0
100
AcDbArc
 50
180.0
 51
270.0
  0
LINE
  5
2395
330
2049
100
AcDbEntity
  8
0
  6
Continuous
100
AcDbLine
 10
115.4999779999998
 20
188.2500460000009
 30
0.0
 11
108.8329907018924
 21
188.2500460000009
 31
0.0
  0
LINE
  5
2396
330
2049
100
AcDbEntity
  8
0
  6
Continuous
100
AcDbLine
 10
108.8329907018924
 20
188.2500460000009
 30
0.0
 11
108.3999779999995
 21
189.000046000001
 31
0.0
  0
ARC
  5
2397
330
2049
100
AcDbEntity
  8
0
  6
Continuous
100
AcDbCircle
 10
111.0025647603316
 20
189.6875460000009
 30
0.0
 40
2.602586760331519
100
AcDbArc
 50
146.4726419507326
 51
213.5273580492673
  0
ARC
  5
2398
330
2049
100
AcDbEntity
  8
0
  6
Continuous
100
AcDbCircle
 10
118.1608059884884
 20
194.000046000001
 30
0.0
 40
9.760827988488358
100
AcDbArc
 50
162.86976332497
 51
197.13023667503
  0
LINE
  5
2399
330
2049
100
AcDbEntity
  8
0
  6
Continuous
100
AcDbLine
 10
112.3999779999995
 20
191.125046000001
 30
0.0
 11
108.8329907018924
 21
191.125046000001
 31
0.0
  0
LINE
  5
239A
330
2049
100
AcDbEntity
  8
0
  6
Continuous
100
AcDbLine
 10
112.3999779999995
 20
196.8750460000009
 30
0.0
 11
108.8329907018924
 21
196.8750460000009
 31
0.0
  0
ARC
  5
239B
330
2049
100
AcDbEntity
  8
0
  6
Continuous
100
AcDbCircle
 10
111.0025647603316
 20
198.3125460000009
 30
0.0
 40
2.602586760331519
100
AcDbArc
 50
146.4726419507326
 51
213.5273580492673
  0
LINE
  5
239C
330
2049
100
AcDbEntity
  8
0
  6
Continuous
100
AcDbLine
 10
108.3999779999995
 20
199.000046000001
 30
0.0
 11
108.3999779999995
 21
189.000046000001
 31
0.0
  0
LINE
  5
239D
330
2049
100
AcDbEntity
  8
0
  6
Continuous
100
AcDbLine
 10
108.8329907018915
 20
199.7500460000009
 30
0.0
 11
108.3999779999995
 21
199.000046000001
 31
0.0
  0
LINE
  5
239E
330
2049
100
AcDbEntity
  8
0
  6
Continuous
100
AcDbLine
 10
115.4999779999998
 20
199.7500460000009
 30
0.0
 11
108.8329907018924
 21
199.7500460000009
 31
0.0
  0
LINE
  5
239F
330
2049
100
AcDbEntity
  8
0
  6
Continuous
100
AcDbLine
 10
112.3999779999995
 20
199.7500460000009
 30
0.0
 11
112.3999779999995
 21
188.2500460000009
 31
0.0
  0
LINE
  5
23A0
330
2049
100
AcDbEntity
  8
0
  6
Continuous
100
AcDbLine
 10
115.4999779999998
 20
259.250046000001
 30
0.0
 11
108.8329907018924
 21
259.250046000001
 31
0.0
  0
LINE
  5
23A1
330
2049
100
AcDbEntity
  8
0
  6
Continuous
100
AcDbLine
 10
108.8329907018924
 20
259.250046000001
 30
0.0
 11
108.3999779999995
 21
260.000046000001
 31
0.0
  0
ARC
  5
23A2
330
2049
100
AcDbEntity
  8
0
  6
Continuous
100
AcDbCircle
 10
111.0025647603316
 20
260.687546000001
 30
0.0
 40
2.602586760331519
100
AcDbArc
 50
146.4726419507326
 51
213.5273580492673
  0
ARC
  5
23A3
330
2049
100
AcDbEntity
  8
0
  6
Continuous
100
AcDbCircle
 10
118.1608059884884
 20
265.000046000001
 30
0.0
 40
9.760827988488358
100
AcDbArc
 50
162.86976332497
 51
197.13023667503
  0
LINE
  5
23A4
330
2049
100
AcDbEntity
  8
0
  6
Continuous
100
AcDbLine
 10
112.3999779999995
 20
262.125046000001
 30
0.0
 11
108.8329907018924
 21
262.125046000001
 31
0.0
  0
LINE
  5
23A5
330
2049
100
AcDbEntity
  8
0
  6
Continuous
100
AcDbLine
 10
112.3999779999995
 20
267.875046000001
 30
0.0
 11
108.8329907018924
 21
267.875046000001
 31
0.0
  0
ARC
  5
23A6
330
2049
100
AcDbEntity
  8
0
  6
Continuous
100
AcDbCircle
 10
111.0025647603316
 20
269.312546000001
 30
0.0
 40
2.602586760331519
100
AcDbArc
 50
146.4726419507326
 51
213.5273580492673
  0
LINE
  5
23A7
330
2049
100
AcDbEntity
  8
0
  6
Continuous
100
AcDbLine
 10
108.3999779999995
 20
270.000046000001
 30
0.0
 11
108.3999779999995
 21
260.000046000001
 31
0.0
  0
LINE
  5
23A8
330
2049
100
AcDbEntity
  8
0
  6
Continuous
100
AcDbLine
 10
108.8329907018924
 20
270.750046000001
 30
0.0
 11
108.3999779999995
 21
270.000046000001
 31
0.0
  0
LINE
  5
23A9
330
2049
100
AcDbEntity
  8
0
  6
Continuous
100
AcDbLine
 10
115.4999779999998
 20
270.750046000001
 30
0.0
 11
108.8329907018924
 21
270.750046000001
 31
0.0
  0
LINE
  5
23AA
330
2049
100
AcDbEntity
  8
0
  6
Continuous
100
AcDbLine
 10
112.3999779999995
 20
270.750046000001
 30
0.0
 11
112.3999779999995
 21
259.250046000001
 31
0.0
  0
LINE
  5
23AB
330
2049
100
AcDbEntity
  8
0
  6
Continuous
100
AcDbLine
 10
264.4999779999998
 20
270.750046000001
 30
0.0
 11
271.1669652981072
 21
270.750046000001
 31
0.0
  0
LINE
  5
23AC
330
2049
100
AcDbEntity
  8
0
  6
Continuous
100
AcDbLine
 10
271.1669652981082
 20
270.750046000001
 30
0.0
 11
271.5999780000002
 21
270.000046000001
 31
0.0
  0
ARC
  5
23AD
330
2049
100
AcDbEntity
  8
0
  6
Continuous
100
AcDbCircle
 10
268.9973912396681
 20
269.312546000001
 30
0.0
 40
2.602586760331519
100
AcDbArc
 50
326.4726419507327
 51
33.5273580492673
  0
ARC
  5
23AE
330
2049
100
AcDbEntity
  8
0
  6
Continuous
100
AcDbCircle
 10
261.8391500115113
 20
265.000046000001
 30
0.0
 40
9.760827988488358
100
AcDbArc
 50
342.8697633249699
 51
17.13023667502999
  0
LINE
  5
23AF
330
2049
100
AcDbEntity
  8
0
  6
Continuous
100
AcDbLine
 10
267.5999780000002
 20
267.875046000001
 30
0.0
 11
271.1669652981072
 21
267.875046000001
 31
0.0
  0
LINE
  5
23B0
330
2049
100
AcDbEntity
  8
0
  6
Continuous
100
AcDbLine
 10
267.5999780000002
 20
262.125046000001
 30
0.0
 11
271.1669652981072
 21
262.125046000001
 31
0.0
  0
ARC
  5
23B1
330
2049
100
AcDbEntity
  8
0
  6
Continuous
100
AcDbCircle
 10
268.9973912396681
 20
260.687546000001
 30
0.0
 40
2.602586760331519
100
AcDbArc
 50
326.4726419507327
 51
33.5273580492673
  0
LINE
  5
23B2
330
2049
100
AcDbEntity
  8
0
  6
Continuous
100
AcDbLine
 10
271.5999780000002
 20
260.000046000001
 30
0.0
 11
271.5999780000002
 21
270.000046000001
 31
0.0
  0
LINE
  5
23B3
330
2049
100
AcDbEntity
  8
0
  6
Continuous
100
AcDbLine
 10
271.1669652981082
 20
259.250046000001
 30
0.0
 11
271.5999780000002
 21
260.000046000001
 31
0.0
  0
LINE
  5
23B4
330
2049
100
AcDbEntity
  8
0
  6
Continuous
100
AcDbLine
 10
264.4999779999998
 20
259.250046000001
 30
0.0
 11
271.1669652981072
 21
259.250046000001
 31
0.0
  0
LINE
  5
23B5
330
2049
100
AcDbEntity
  8
0
  6
Continuous
100
AcDbLine
 10
267.5999780000002
 20
259.250046000001
 30
0.0
 11
267.5999780000002
 21
270.750046000001
 31
0.0
  0
LINE
  5
23B6
330
2049
100
AcDbEntity
  8
0
  6
Continuous
100
AcDbLine
 10
264.4999779999998
 20
199.7500460000009
 30
0.0
 11
271.1669652981072
 21
199.7500460000009
 31
0.0
  0
LINE
  5
23B7
330
2049
100
AcDbEntity
  8
0
  6
Continuous
100
AcDbLine
 10
271.1669652981082
 20
199.7500460000009
 30
0.0
 11
271.5999780000002
 21
199.000046000001
 31
0.0
  0
ARC
  5
23B8
330
2049
100
AcDbEntity
  8
0
  6
Continuous
100
AcDbCircle
 10
268.9973912396681
 20
198.3125460000009
 30
0.0
 40
2.602586760331519
100
AcDbArc
 50
326.4726419507327
 51
33.5273580492673
  0
ARC
  5
23B9
330
2049
100
AcDbEntity
  8
0
  6
Continuous
100
AcDbCircle
 10
261.8391500115113
 20
194.000046000001
 30
0.0
 40
9.760827988488358
100
AcDbArc
 50
342.8697633249699
 51
17.13023667502999
  0
LINE
  5
23BA
330
2049
100
AcDbEntity
  8
0
  6
Continuous
100
AcDbLine
 10
267.5999780000002
 20
196.8750460000009
 30
0.0
 11
271.1669652981072
 21
196.8750460000009
 31
0.0
  0
LINE
  5
23BB
330
2049
100
AcDbEntity
  8
0
  6
Continuous
100
AcDbLine
 10
267.5999780000002
 20
191.125046000001
 30
0.0
 11
271.1669652981072
 21
191.125046000001
 31
0.0
  0
ARC
  5
23BC
330
2049
100
AcDbEntity
  8
0
  6
Continuous
100
AcDbCircle
 10
268.9973912396681
 20
189.6875460000009
 30
0.0
 40
2.602586760331519
100
AcDbArc
 50
326.4726419507327
 51
33.5273580492673
  0
LINE
  5
23BD
330
2049
100
AcDbEntity
  8
0
  6
Continuous
100
AcDbLine
 10
271.5999780000002
 20
189.000046000001
 30
0.0
 11
271.5999780000002
 21
199.000046000001
 31
0.0
  0
LINE
  5
23BE
330
2049
100
AcDbEntity
  8
0
  6
Continuous
100
AcDbLine
 10
271.1669652981072
 20
188.2500460000009
 30
0.0
 11
271.5999780000002
 21
189.000046000001
 31
0.0
  0
LINE
  5
23BF
330
2049
100
AcDbEntity
  8
0
  6
Continuous
100
AcDbLine
 10
264.4999779999998
 20
188.2500460000009
 30
0.0
 11
271.1669652981072
 21
188.2500460000009
 31
0.0
  0
LINE
  5
23C0
330
2049
100
AcDbEntity
  8
0
  6
Continuous
100
AcDbLine
 10
267.5999780000002
 20
188.2500460000009
 30
0.0
 11
267.5999780000002
 21
199.7500460000009
 31
0.0
  0
LINE
  5
23C3
330
2049
100
AcDbEntity
  8
0
  6
Continuous
100
AcDbLine
 10
120.5000000000002
 20
527.1398789813486
 30
0.0
 11
120.5000000000002
 21
449.1398789813485
 31
0.0
  0
LINE
  5
23C4
330
2049
100
AcDbEntity
  8
0
  6
Continuous
100
AcDbLine
 10
259.5000000000002
 20
527.1398789813486
 30
0.0
 11
259.5000000000002
 21
449.1398789813485
 31
0.0
  0
LINE
  5
23C5
330
2049
100
AcDbEntity
  8
0
  6
Continuous
100
AcDbLine
 10
264.5000000000002
 20
520.1398789813485
 30
0.0
 11
240.4999920000002
 21
520.1398789813485
 31
0.0
  0
LINE
  5
23C6
330
2049
100
AcDbEntity
  8
0
  6
Continuous
100
AcDbLine
 10
264.5000000000002
 20
456.1398789813486
 30
0.0
 11
242.1414284285426
 21
456.1398789813486
 31
0.0
  0
LINE
  5
23C7
330
2049
100
AcDbEntity
  8
0
  6
Continuous
100
AcDbLine
 10
157.8585715714571
 20
456.1398789813486
 30
0.0
 11
115.5000000000002
 21
456.1398789813486
 31
0.0
  0
LINE
  5
23C8
330
2049
100
AcDbEntity
  8
0
  6
Continuous
100
AcDbLine
 10
263.5000000000002
 20
449.1398789813485
 30
0.0
 11
116.5000000000002
 21
449.1398789813485
 31
0.0
  0
LINE
  5
23C9
330
2049
100
AcDbEntity
  8
0
  6
Continuous
100
AcDbLine
 10
263.5000000000002
 20
527.1398789813486
 30
0.0
 11
240.4999920000002
 21
527.1398789813485
 31
0.0
  0
LINE
  5
23CA
330
2049
100
AcDbEntity
  8
0
  6
Continuous
100
AcDbLine
 10
264.5000000000002
 20
472.1398789813486
 30
0.0
 11
245.0000000000002
 21
472.1398789813486
 31
0.0
  0
LINE
  5
23CB
330
2049
100
AcDbEntity
  8
0
  6
Continuous
100
AcDbLine
 10
155.0
 20
472.1398789813486
 30
0.0
 11
115.5000000000002
 21
472.1398789813486
 31
0.0
  0
LINE
  5
23CC
330
2049
100
AcDbEntity
  8
0
  6
Continuous
100
AcDbLine
 10
264.5000000000002
 20
504.1398789813485
 30
0.0
 11
245.0000000000002
 21
504.1398789813485
 31
0.0
  0
LINE
  5
23CD
330
2049
100
AcDbEntity
  8
0
  6
Continuous
100
AcDbLine
 10
155.0
 20
504.1398789813485
 30
0.0
 11
115.5000000000002
 21
504.1398789813485
 31
0.0
  0
LINE
  5
23CE
330
2049
100
AcDbEntity
  8
0
  6
Continuous
100
AcDbLine
 10
264.5000000000002
 20
470.1398789813485
 30
0.0
 11
245.0000000000002
 21
470.1398789813485
 31
0.0
  0
LINE
  5
23CF
330
2049
100
AcDbEntity
  8
0
  6
Continuous
100
AcDbLine
 10
155.0
 20
470.1398789813485
 30
0.0
 11
115.5000000000002
 21
470.1398789813485
 31
0.0
  0
LINE
  5
23D0
330
2049
100
AcDbEntity
  8
0
  6
Continuous
100
AcDbLine
 10
264.5000000000002
 20
506.1398789813486
 30
0.0
 11
245.0000000000002
 21
506.1398789813486
 31
0.0
  0
LINE
  5
23D1
330
2049
100
AcDbEntity
  8
0
  6
Continuous
100
AcDbLine
 10
155.0
 20
506.1398789813486
 30
0.0
 11
115.5000000000002
 21
506.1398789813486
 31
0.0
  0
LINE
  5
23D2
330
2049
100
AcDbEntity
  8
0
  6
Continuous
100
AcDbLine
 10
271.1000756562498
 20
236.0000460000001
 30
0.0
 11
271.1000756562498
 21
222.9998934121094
 31
0.0
  0
LINE
  5
23D3
330
2049
100
AcDbEntity
  8
0
  6
Continuous
100
AcDbLine
 10
270.5199975312499
 20
237.00541709375
 30
0.0
 11
266.6806420624999
 21
237.00541709375
 31
0.0
  0
LINE
  5
23D4
330
2049
100
AcDbEntity
  8
0
  6
Continuous
100
AcDbLine
 10
270.5195092499999
 20
233.2529756875
 30
0.0
 11
266.6808720378131
 21
233.2529756875
 31
0.0
  0
LINE
  5
23D5
330
2049
100
AcDbEntity
  8
0
  6
Continuous
100
AcDbLine
 10
271.1004125764621
 20
236.0000031294184
 30
0.0
 11
270.5198461702112
 21
237.0055736241629
 31
0.0
  0
LINE
  5
23D6
330
2049
100
AcDbEntity
  8
0
  6
Continuous
100
AcDbLine
 10
266.6806420624999
 20
221.9945223183594
 30
0.0
 11
270.5199975312499
 21
221.9945223183594
 31
0.0
  0
LINE
  5
23D7
330
2049
100
AcDbEntity
  8
0
  6
Continuous
100
AcDbLine
 10
266.6808511532891
 20
225.7472078652344
 30
0.0
 11
270.5195092499999
 21
225.7472078652344
 31
0.0
  0
ARC
  5
23D8
330
2049
100
AcDbEntity
  8
0
  6
Continuous
100
AcDbCircle
 10
267.7773217499999
 20
223.8707735390634
 30
0.0
 40
3.322566986083984
100
AcDbArc
 50
0.0
 51
34.38430267816021
  0
ARC
  5
23D9
330
2049
100
AcDbEntity
  8
0
  6
Continuous
100
AcDbCircle
 10
258.6806420624998
 20
229.500046000001
 30
0.0
 40
12.41944122314453
100
AcDbArc
 50
342.412027245705
 51
17.58793860336416
  0
LINE
  5
23DA
330
2049
100
AcDbEntity
  8
0
  6
Continuous
100
AcDbLine
 10
271.1000756562498
 20
233.500046
 30
0.0
 11
274.9999779999999
 21
233.500046000001
 31
0.0
  0
LINE
  5
23DB
330
2049
100
AcDbEntity
  8
0
  6
Continuous
100
AcDbLine
 10
271.1000756562498
 20
232.7002413125
 30
0.0
 11
274.9999779999999
 21
232.7002413125009
 31
0.0
  0
LINE
  5
23DC
330
2049
100
AcDbEntity
  8
0
  6
Continuous
100
AcDbLine
 10
271.1000756562498
 20
226.2999727578125
 30
0.0
 11
274.9999779999999
 21
226.2999727578125
 31
0.0
  0
LINE
  5
23DD
330
2049
100
AcDbEntity
  8
0
  6
Continuous
100
AcDbLine
 10
271.1000756562498
 20
225.4999239296875
 30
0.0
 11
274.9999779999999
 21
225.4999239296885
 31
0.0
  0
LINE
  5
23DE
330
2049
100
AcDbEntity
  8
0
  6
Continuous
100
AcDbLine
 10
264.4999779999998
 20
237.500046
 30
0.0
 11
266.1000756562498
 21
237.500046
 31
0.0
  0
LINE
  5
23DF
330
2049
100
AcDbEntity
  8
0
  6
Continuous
100
AcDbLine
 10
264.4999779999998
 20
221.4999239296885
 30
0.0
 11
266.1000756562498
 21
221.4999239296885
 31
0.0
  0
LINE
  5
23E0
330
2049
100
AcDbEntity
  8
0
  6
Continuous
100
AcDbLine
 10
271.1005092248015
 20
222.999862464001
 30
0.0
 11
270.5199428185515
 21
221.9942919692557
 31
0.0
  0
ARC
  5
23E1
330
2049
100
AcDbEntity
  8
0
  6
Continuous
100
AcDbCircle
 10
267.7773217499999
 20
235.1294405312509
 30
0.0
 40
3.322566986083984
100
AcDbArc
 50
325.6156973218395
 51
0.0
  0
LINE
  5
23E2
330
2049
100
AcDbEntity
  8
0
  6
Continuous
100
AcDbLine
 10
266.1005639374999
 20
221.4999239296885
 30
0.0
 11
266.1005639374999
 21
237.500046000001
 31
0.0
  0
LINE
  5
23E3
330
2049
100
AcDbEntity
  8
0
  6
Continuous
100
AcDbLine
 10
266.1001293973723
 20
236.0000829305354
 30
0.0
 11
266.6806805448332
 21
237.0056269962824
 31
0.0
  0
ARC
  5
23E4
330
2049
100
AcDbEntity
  8
0
  6
Continuous
100
AcDbCircle
 10
269.4228295624998
 20
223.8707735390634
 30
0.0
 40
3.322566986083984
100
AcDbArc
 50
145.6147618226096
 51
180.0
  0
LINE
  5
23E5
330
2049
100
AcDbEntity
  8
0
  6
Continuous
100
AcDbLine
 10
266.100096777238
 20
222.9998548682487
 30
0.0
 11
266.6806631834879
 21
221.9942843735043
 31
0.0
  0
ARC
  5
23E6
330
2049
100
AcDbEntity
  8
0
  6
Continuous
100
AcDbCircle
 10
269.4228295624998
 20
235.1294405312509
 30
0.0
 40
3.322566986083984
100
AcDbArc
 50
179.9999640278284
 51
214.3858758684332
  0
LINE
  5
23E7
330
2049
100
AcDbEntity
  8
0
  6
Continuous
100
AcDbLine
 10
279.9999232873006
 20
222.9998624640002
 30
0.0
 11
279.4193568810506
 21
221.9942919692557
 31
0.0
  0
LINE
  5
23E8
330
2049
100
AcDbEntity
  8
0
  6
Continuous
100
AcDbLine
 10
274.9999779999999
 20
221.9945223183594
 30
0.0
 11
279.4194115937498
 21
221.9945223183594
 31
0.0
  0
ARC
  5
23E9
330
2049
100
AcDbEntity
  8
0
  6
Continuous
100
AcDbCircle
 10
276.6767358124998
 20
223.8707735390634
 30
0.0
 40
3.322566986083984
100
AcDbArc
 50
0.0
 51
34.38430267816021
  0
LINE
  5
23EA
330
2049
100
AcDbEntity
  8
0
  6
Continuous
100
AcDbLine
 10
274.9999779999999
 20
225.7472078652344
 30
0.0
 11
279.4189233124999
 21
225.7472078652344
 31
0.0
  0
ARC
  5
23EB
330
2049
100
AcDbEntity
  8
0
  6
Continuous
100
AcDbCircle
 10
267.5800561249999
 20
229.500046000001
 30
0.0
 40
12.41944122314453
100
AcDbArc
 50
342.412027245705
 51
17.58793860336416
  0
LINE
  5
23EC
330
2049
100
AcDbEntity
  8
0
  6
Continuous
100
AcDbLine
 10
279.9994897187498
 20
236.0000460000001
 30
0.0
 11
279.9994897187498
 21
222.9998934121094
 31
0.0
  0
LINE
  5
23ED
330
2049
100
AcDbEntity
  8
0
  6
Continuous
100
AcDbLine
 10
274.9999779999999
 20
221.9945223183594
 30
0.0
 11
274.9999779999999
 21
237.00541709375
 31
0.0
  0
LINE
  5
23EE
330
2049
100
AcDbEntity
  8
0
  6
Continuous
100
AcDbLine
 10
279.4189233124999
 20
233.2529756875
 30
0.0
 11
274.9999779999999
 21
233.2529756875
 31
0.0
  0
ARC
  5
23EF
330
2049
100
AcDbEntity
  8
0
  6
Continuous
100
AcDbCircle
 10
276.6767358124998
 20
235.1294405312509
 30
0.0
 40
3.322566986083984
100
AcDbArc
 50
325.6156973218395
 51
0.0
  0
LINE
  5
23F0
330
2049
100
AcDbEntity
  8
0
  6
Continuous
100
AcDbLine
 10
279.9998266389593
 20
236.0000031294175
 30
0.0
 11
279.4192602327094
 21
237.0055736241619
 31
0.0
  0
LINE
  5
23F1
330
2049
100
AcDbEntity
  8
0
  6
Continuous
100
AcDbLine
 10
279.4194115937498
 20
237.00541709375
 30
0.0
 11
274.9999779999999
 21
237.00541709375
 31
0.0
  0
ARC
  5
23F2
330
2049
100
AcDbEntity
  8
0
  6
Continuous
100
AcDbCircle
 10
278.5196872048528
 20
229.5001375527344
 30
0.0
 40
12.41944122314453
100
AcDbArc
 50
162.412027245705
 51
197.5879386033641
  0
LINE
  5
23F3
330
2049
100
AcDbEntity
  8
0
  6
Continuous
100
AcDbLine
 10
427.5055534994653
 20
229.500031
 30
0.0
 11
423.7527767497331
 21
223.000031
 31
0.0
  0
LINE
  5
23F4
330
2049
100
AcDbEntity
  8
0
  6
Continuous
100
AcDbLine
 10
416.2472232502668
 20
223.000030999999
 30
0.0
 11
423.7527767497322
 21
223.000030999999
 31
0.0
  0
LINE
  5
23F5
330
2049
100
AcDbEntity
  8
0
  6
Continuous
100
AcDbLine
 10
412.4944465005355
 20
229.5000310000009
 30
0.0
 11
416.2472232502677
 21
223.000031
 31
0.0
  0
LINE
  5
23F6
330
2049
100
AcDbEntity
  8
0
  6
Continuous
100
AcDbLine
 10
416.2472232502668
 20
236.000031
 30
0.0
 11
412.4944465005346
 21
229.500031
 31
0.0
  0
LINE
  5
23F7
330
2049
100
AcDbEntity
  8
0
  6
Continuous
100
AcDbLine
 10
416.2472232502668
 20
236.000030999999
 30
0.0
 11
423.7527767497322
 21
236.000030999999
 31
0.0
  0
LINE
  5
23F8
330
2049
100
AcDbEntity
  8
0
  6
Continuous
100
AcDbLine
 10
423.7527767497331
 20
236.000031
 30
0.0
 11
427.5055534994662
 21
229.500031
 31
0.0
  0
LINE
  5
23F9
330
2049
100
AcDbEntity
  8
0
  6
Continuous
100
AcDbLine
 10
104.5000000000002
 20
508.1398789813485
 30
0.0
 11
100.080000000001
 21
508.1398789813485
 31
0.0
  0
LINE
  5
23FA
330
2049
100
AcDbEntity
  8
0
  6
Continuous
100
AcDbLine
 10
115.5000000000002
 20
526.1398789813486
 30
0.0
 11
115.5000000000002
 21
450.1398789813485
 31
0.0
  0
LINE
  5
23FB
330
2049
100
AcDbEntity
  8
0
  6
Continuous
100
AcDbLine
 10
115.5000000000002
 20
470.8898789813486
 30
0.0
 11
112.4000000000007
 21
470.8898789813486
 31
0.0
  0
LINE
  5
23FC
330
2049
100
AcDbEntity
  8
0
  6
Continuous
100
AcDbLine
 10
113.9000000000007
 20
470.8898789813486
 30
0.0
 11
113.9000000000007
 21
459.3898789813485
 31
0.0
  0
LINE
  5
23FD
330
2049
100
AcDbEntity
  8
0
  6
Continuous
100
AcDbLine
 10
112.4000000000007
 20
470.1398789813485
 30
0.0
 11
108.4000000000007
 21
470.1398789813485
 31
0.0
  0
LINE
  5
23FE
330
2049
100
AcDbEntity
  8
0
  6
Continuous
100
AcDbLine
 10
112.4000000000007
 20
470.8898789813486
 30
0.0
 11
112.4000000000007
 21
459.3898789813485
 31
0.0
  0
LINE
  5
23FF
330
2049
100
AcDbEntity
  8
0
  6
Continuous
100
AcDbLine
 10
108.9800000000002
 20
465.1398789813486
 30
0.0
 11
112.4000000000007
 21
465.1398789813486
 31
0.0
  0
LINE
  5
2400
330
2049
100
AcDbEntity
  8
0
  6
Continuous
100
AcDbLine
 10
115.5000000000002
 20
459.3898789813485
 30
0.0
 11
112.4000000000007
 21
459.3898789813485
 31
0.0
  0
LINE
  5
2401
330
2049
100
AcDbEntity
  8
0
  6
Continuous
100
AcDbLine
 10
112.4000000000007
 20
460.1398789813486
 30
0.0
 11
108.4000000000007
 21
460.1398789813486
 31
0.0
  0
LINE
  5
2402
330
2049
100
AcDbEntity
  8
0
  6
Continuous
100
AcDbLine
 10
108.4000000000007
 20
470.1398789813485
 30
0.0
 11
108.4000000000007
 21
460.1398789813486
 31
0.0
  0
ARC
  5
2403
330
2049
100
AcDbEntity
  8
0
  6
Continuous
100
AcDbCircle
 10
114.0779310344826
 20
462.6398789813485
 30
0.0
 40
5.677931034482412
100
AcDbArc
 50
153.8768978333406
 51
206.1231021666593
  0
ARC
  5
2404
330
2049
100
AcDbEntity
  8
0
  6
Continuous
100
AcDbCircle
 10
114.0779310344826
 20
467.6398789813486
 30
0.0
 40
5.677931034482412
100
AcDbArc
 50
153.8768978333406
 51
206.1231021666593
  0
LINE
  5
2405
330
2049
100
AcDbEntity
  8
0
  6
Continuous
100
AcDbLine
 10
108.8994140625002
 20
506.1398789813486
 30
0.0
 11
108.8994140625002
 21
501.6398789813486
 31
0.0
  0
ARC
  5
2406
330
2049
100
AcDbEntity
  8
0
  6
Continuous
100
AcDbCircle
 10
118.2950175107755
 20
504.8898789813486
 30
0.0
 40
9.39560344827521
100
AcDbArc
 50
172.3546473128033
 51
200.2371397369441
  0
LINE
  5
2407
330
2049
100
AcDbEntity
  8
0
  6
Continuous
100
AcDbLine
 10
113.8994140625002
 20
501.6398789813486
 30
0.0
 11
108.8994140625002
 21
501.6398789813486
 31
0.0
  0
ARC
  5
2408
330
2049
100
AcDbEntity
  8
0
  6
Continuous
100
AcDbCircle
 10
104.5038106142249
 20
504.8898789813486
 30
0.0
 40
9.39560344827521
100
AcDbArc
 50
339.7628602630558
 51
3.050514945478104
  0
LINE
  5
2409
330
2049
100
AcDbEntity
  8
0
  6
Continuous
100
AcDbLine
 10
115.5000000000002
 20
500.1397569110361
 30
0.0
 11
113.8999023437502
 21
500.1397569110361
 31
0.0
  0
LINE
  5
240A
330
2049
100
AcDbEntity
  8
0
  6
Continuous
100
AcDbLine
 10
108.4000000000007
 20
512.1398789813485
 30
0.0
 11
104.5000000000002
 21
512.1398789813485
 31
0.0
  0
LINE
  5
240B
330
2049
100
AcDbEntity
  8
0
  6
Continuous
100
AcDbLine
 10
108.4000000000007
 20
511.3400742938486
 30
0.0
 11
104.5000000000002
 21
511.3400742938486
 31
0.0
  0
LINE
  5
240C
330
2049
100
AcDbEntity
  8
0
  6
Continuous
100
AcDbLine
 10
108.8999023437502
 20
504.9398057391611
 30
0.0
 11
104.5000000000002
 21
504.9398057391611
 31
0.0
  0
LINE
  5
240D
330
2049
100
AcDbEntity
  8
0
  6
Continuous
100
AcDbLine
 10
108.8999023437502
 20
504.1397569110361
 30
0.0
 11
104.5000000000002
 21
504.1397569110361
 31
0.0
  0
LINE
  5
240E
330
2049
100
AcDbEntity
  8
0
  6
Continuous
100
AcDbLine
 10
104.5000000000002
 20
514.6398789813486
 30
0.0
 11
104.5000000000002
 21
501.6398789813486
 31
0.0
  0
LINE
  5
240F
330
2049
100
AcDbEntity
  8
0
  6
Continuous
100
AcDbLine
 10
104.5000000000002
 20
501.6398789813486
 30
0.0
 11
99.50000000000024
 21
501.6398789813486
 31
0.0
  0
LINE
  5
2410
330
2049
100
AcDbEntity
  8
0
  6
Continuous
100
AcDbLine
 10
99.50000000000024
 20
514.6398789813486
 30
0.0
 11
99.50000000000024
 21
501.6398789813486
 31
0.0
  0
ARC
  5
2411
330
2049
100
AcDbEntity
  8
0
  6
Continuous
100
AcDbCircle
 10
108.8956034482755
 20
504.8898789813486
 30
0.0
 40
9.39560344827521
100
AcDbArc
 50
159.7628602630559
 51
200.2371397369441
  0
ARC
  5
2412
330
2049
100
AcDbEntity
  8
0
  6
Continuous
100
AcDbCircle
 10
108.8956034482755
 20
511.3898789813486
 30
0.0
 40
9.39560344827521
100
AcDbArc
 50
159.7628602630559
 51
200.2371397369441
  0
LINE
  5
2413
330
2049
100
AcDbEntity
  8
0
  6
Continuous
100
AcDbLine
 10
104.5000000000002
 20
514.6398789813486
 30
0.0
 11
99.50000000000024
 21
514.6398789813486
 31
0.0
  0
LINE
  5
2414
330
2049
100
AcDbEntity
  8
0
  6
Continuous
100
AcDbLine
 10
113.8994140625002
 20
500.1397569110361
 30
0.0
 11
113.9000000000007
 21
516.8898789813486
 31
0.0
  0
ARC
  5
2415
330
2049
100
AcDbEntity
  8
0
  6
Continuous
100
AcDbCircle
 10
116.5000000000002
 20
526.1398789813486
 30
0.0
 40
1.0
100
AcDbArc
 50
90.0
 51
180.0
  0
ARC
  5
2416
330
2049
100
AcDbEntity
  8
0
  6
Continuous
100
AcDbCircle
 10
116.5000000000002
 20
450.1398789813485
 30
0.0
 40
1.0
100
AcDbArc
 50
180.0
 51
270.0
  0
LINE
  5
2417
330
2049
100
AcDbEntity
  8
0
  6
Continuous
100
AcDbLine
 10
115.5000000000002
 20
505.3898789813485
 30
0.0
 11
112.4000000000007
 21
505.3898789813485
 31
0.0
  0
LINE
  5
2418
330
2049
100
AcDbEntity
  8
0
  6
Continuous
100
AcDbLine
 10
112.4000000000007
 20
506.1398789813486
 30
0.0
 11
108.4000000000007
 21
506.1398789813486
 31
0.0
  0
LINE
  5
2419
330
2049
100
AcDbEntity
  8
0
  6
Continuous
100
AcDbLine
 10
112.4000000000007
 20
505.3898789813485
 30
0.0
 11
112.4000000000007
 21
516.8898789813486
 31
0.0
  0
LINE
  5
241A
330
2049
100
AcDbEntity
  8
0
  6
Continuous
100
AcDbLine
 10
108.9800000000002
 20
511.1398789813486
 30
0.0
 11
112.4000000000007
 21
511.1398789813486
 31
0.0
  0
LINE
  5
241B
330
2049
100
AcDbEntity
  8
0
  6
Continuous
100
AcDbLine
 10
115.5000000000002
 20
516.8898789813486
 30
0.0
 11
112.4000000000007
 21
516.8898789813486
 31
0.0
  0
LINE
  5
241C
330
2049
100
AcDbEntity
  8
0
  6
Continuous
100
AcDbLine
 10
112.4000000000007
 20
516.1398789813485
 30
0.0
 11
108.4000000000007
 21
516.1398789813485
 31
0.0
  0
ARC
  5
241D
330
2049
100
AcDbEntity
  8
0
  6
Continuous
100
AcDbCircle
 10
114.0779310344826
 20
513.6398789813486
 30
0.0
 40
5.677931034482412
100
AcDbArc
 50
153.8768978333406
 51
206.1231021666593
  0
LINE
  5
241E
330
2049
100
AcDbEntity
  8
0
  6
Continuous
100
AcDbLine
 10
108.4000000000007
 20
506.1398789813486
 30
0.0
 11
108.4000000000007
 21
516.1398789813485
 31
0.0
  0
ARC
  5
241F
330
2049
100
AcDbEntity
  8
0
  6
Continuous
100
AcDbCircle
 10
114.0779310344826
 20
508.6398789813485
 30
0.0
 40
5.677931034482412
100
AcDbArc
 50
153.8768978333406
 51
206.1231021666593
  0
LINE
  5
2420
330
2049
100
AcDbEntity
  8
0
  6
Continuous
100
AcDbLine
 10
271.5999999999997
 20
508.1398789813485
 30
0.0
 11
279.9199999999994
 21
508.1398789813485
 31
0.0
  0
LINE
  5
2421
330
2049
100
AcDbEntity
  8
0
  6
Continuous
100
AcDbLine
 10
264.5000000000002
 20
526.1398789813486
 30
0.0
 11
264.5000000000002
 21
450.1398789813485
 31
0.0
  0
LINE
  5
2422
330
2049
100
AcDbEntity
  8
0
  6
Continuous
100
AcDbLine
 10
264.5000000000002
 20
470.8898789813486
 30
0.0
 11
267.5999999999997
 21
470.8898789813486
 31
0.0
  0
LINE
  5
2423
330
2049
100
AcDbEntity
  8
0
  6
Continuous
100
AcDbLine
 10
266.0999999999996
 20
470.8898789813486
 30
0.0
 11
266.0999999999996
 21
459.3898789813485
 31
0.0
  0
LINE
  5
2424
330
2049
100
AcDbEntity
  8
0
  6
Continuous
100
AcDbLine
 10
267.5999999999997
 20
470.1398789813485
 30
0.0
 11
271.5999999999997
 21
470.1398789813485
 31
0.0
  0
LINE
  5
2425
330
2049
100
AcDbEntity
  8
0
  6
Continuous
100
AcDbLine
 10
267.5999999999997
 20
470.8898789813486
 30
0.0
 11
267.5999999999997
 21
459.3898789813485
 31
0.0
  0
LINE
  5
2426
330
2049
100
AcDbEntity
  8
0
  6
Continuous
100
AcDbLine
 10
271.0199999999997
 20
465.1398789813486
 30
0.0
 11
267.5999999999997
 21
465.1398789813486
 31
0.0
  0
LINE
  5
2427
330
2049
100
AcDbEntity
  8
0
  6
Continuous
100
AcDbLine
 10
264.5000000000002
 20
459.3898789813485
 30
0.0
 11
267.5999999999997
 21
459.3898789813485
 31
0.0
  0
LINE
  5
2428
330
2049
100
AcDbEntity
  8
0
  6
Continuous
100
AcDbLine
 10
267.5999999999997
 20
460.1398789813486
 30
0.0
 11
271.5999999999997
 21
460.1398789813486
 31
0.0
  0
ARC
  5
2429
330
2049
100
AcDbEntity
  8
0
  6
Continuous
100
AcDbCircle
 10
265.9220689655178
 20
462.6398789813485
 30
0.0
 40
5.677931034482412
100
AcDbArc
 50
333.8768978333406
 51
26.12310216665933
  0
LINE
  5
242A
330
2049
100
AcDbEntity
  8
0
  6
Continuous
100
AcDbLine
 10
271.5999999999997
 20
470.1398789813485
 30
0.0
 11
271.5999999999997
 21
460.1398789813486
 31
0.0
  0
ARC
  5
242B
330
2049
100
AcDbEntity
  8
0
  6
Continuous
100
AcDbCircle
 10
265.9220689655178
 20
467.6398789813486
 30
0.0
 40
5.677931034482412
100
AcDbArc
 50
333.8768978333406
 51
26.12310216665933
  0
LINE
  5
242C
330
2049
100
AcDbEntity
  8
0
  6
Continuous
100
AcDbLine
 10
271.1005859375002
 20
506.1398789813486
 30
0.0
 11
271.1005859375002
 21
501.6398789813486
 31
0.0
  0
ARC
  5
242D
330
2049
100
AcDbEntity
  8
0
  6
Continuous
100
AcDbCircle
 10
261.7049824892248
 20
504.8898789813486
 30
0.0
 40
9.39560344827521
100
AcDbArc
 50
339.7628602630558
 51
7.645352687196613
  0
ARC
  5
242E
330
2049
100
AcDbEntity
  8
0
  6
Continuous
100
AcDbCircle
 10
275.4961893857755
 20
504.8898789813486
 30
0.0
 40
9.39560344827521
100
AcDbArc
 50
176.9494850545218
 51
200.2371397369441
  0
LINE
  5
242F
330
2049
100
AcDbEntity
  8
0
  6
Continuous
100
AcDbLine
 10
266.1005859375002
 20
501.6398789813486
 30
0.0
 11
271.1005859375002
 21
501.6398789813486
 31
0.0
  0
LINE
  5
2430
330
2049
100
AcDbEntity
  8
0
  6
Continuous
100
AcDbLine
 10
264.5000000000002
 20
500.1397569110361
 30
0.0
 11
266.1000976562502
 21
500.1397569110361
 31
0.0
  0
LINE
  5
2431
330
2049
100
AcDbEntity
  8
0
  6
Continuous
100
AcDbLine
 10
271.5999999999997
 20
512.1398789813485
 30
0.0
 11
275.5000000000002
 21
512.1398789813485
 31
0.0
  0
LINE
  5
2432
330
2049
100
AcDbEntity
  8
0
  6
Continuous
100
AcDbLine
 10
271.5999999999997
 20
511.3400742938486
 30
0.0
 11
275.5000000000002
 21
511.3400742938486
 31
0.0
  0
LINE
  5
2433
330
2049
100
AcDbEntity
  8
0
  6
Continuous
100
AcDbLine
 10
271.1000976562502
 20
504.9398057391611
 30
0.0
 11
275.5000000000002
 21
504.9398057391611
 31
0.0
  0
LINE
  5
2434
330
2049
100
AcDbEntity
  8
0
  6
Continuous
100
AcDbLine
 10
271.1000976562502
 20
504.1397569110361
 30
0.0
 11
275.5000000000002
 21
504.1397569110361
 31
0.0
  0
LINE
  5
2435
330
2049
100
AcDbEntity
  8
0
  6
Continuous
100
AcDbLine
 10
275.5000000000002
 20
514.6398789813486
 30
0.0
 11
275.5000000000002
 21
501.6398789813486
 31
0.0
  0
LINE
  5
2436
330
2049
100
AcDbEntity
  8
0
  6
Continuous
100
AcDbLine
 10
275.5000000000002
 20
501.6398789813486
 30
0.0
 11
280.5000000000002
 21
501.6398789813486
 31
0.0
  0
LINE
  5
2437
330
2049
100
AcDbEntity
  8
0
  6
Continuous
100
AcDbLine
 10
280.5000000000002
 20
514.6398789813486
 30
0.0
 11
280.5000000000002
 21
501.6398789813486
 31
0.0
  0
ARC
  5
2438
330
2049
100
AcDbEntity
  8
0
  6
Continuous
100
AcDbCircle
 10
271.1043965517248
 20
504.8898789813486
 30
0.0
 40
9.39560344827521
100
AcDbArc
 50
339.7628602630558
 51
20.23713973694411
  0
ARC
  5
2439
330
2049
100
AcDbEntity
  8
0
  6
Continuous
100
AcDbCircle
 10
271.1043965517248
 20
511.3898789813486
 30
0.0
 40
9.39560344827521
100
AcDbArc
 50
339.7628602630558
 51
20.23713973694411
  0
LINE
  5
243A
330
2049
100
AcDbEntity
  8
0
  6
Continuous
100
AcDbLine
 10
275.5000000000002
 20
514.6398789813486
 30
0.0
 11
280.5000000000002
 21
514.6398789813486
 31
0.0
  0
LINE
  5
243B
330
2049
100
AcDbEntity
  8
0
  6
Continuous
100
AcDbLine
 10
266.1005859375002
 20
500.1397569110361
 30
0.0
 11
266.0999999999996
 21
516.8898789813486
 31
0.0
  0
ARC
  5
243C
330
2049
100
AcDbEntity
  8
0
  6
Continuous
100
AcDbCircle
 10
263.5000000000002
 20
526.1398789813486
 30
0.0
 40
1.0
100
AcDbArc
 50
0.0
 51
90.0
  0
ARC
  5
243D
330
2049
100
AcDbEntity
  8
0
  6
Continuous
100
AcDbCircle
 10
263.5000000000002
 20
450.1398789813485
 30
0.0
 40
1.0
100
AcDbArc
 50
270.0
 51
0.0
  0
LINE
  5
243E
330
2049
100
AcDbEntity
  8
0
  6
Continuous
100
AcDbLine
 10
264.5000000000002
 20
505.3898789813485
 30
0.0
 11
267.5999999999997
 21
505.3898789813485
 31
0.0
  0
LINE
  5
243F
330
2049
100
AcDbEntity
  8
0
  6
Continuous
100
AcDbLine
 10
267.5999999999997
 20
506.1398789813486
 30
0.0
 11
271.5999999999997
 21
506.1398789813486
 31
0.0
  0
LINE
  5
2440
330
2049
100
AcDbEntity
  8
0
  6
Continuous
100
AcDbLine
 10
267.5999999999997
 20
505.3898789813485
 30
0.0
 11
267.5999999999997
 21
516.8898789813486
 31
0.0
  0
LINE
  5
2441
330
2049
100
AcDbEntity
  8
0
  6
Continuous
100
AcDbLine
 10
271.0199999999997
 20
511.1398789813486
 30
0.0
 11
267.5999999999997
 21
511.1398789813486
 31
0.0
  0
LINE
  5
2442
330
2049
100
AcDbEntity
  8
0
  6
Continuous
100
AcDbLine
 10
264.5000000000002
 20
516.8898789813486
 30
0.0
 11
267.5999999999997
 21
516.8898789813486
 31
0.0
  0
LINE
  5
2443
330
2049
100
AcDbEntity
  8
0
  6
Continuous
100
AcDbLine
 10
267.5999999999997
 20
516.1398789813485
 30
0.0
 11
271.5999999999997
 21
516.1398789813485
 31
0.0
  0
LINE
  5
2444
330
2049
100
AcDbEntity
  8
0
  6
Continuous
100
AcDbLine
 10
271.5999999999997
 20
506.1398789813486
 30
0.0
 11
271.5999999999997
 21
516.1398789813485
 31
0.0
  0
ARC
  5
2445
330
2049
100
AcDbEntity
  8
0
  6
Continuous
100
AcDbCircle
 10
265.9220689655178
 20
513.6398789813486
 30
0.0
 40
5.677931034482412
100
AcDbArc
 50
333.8768978333406
 51
26.12310216665933
  0
ARC
  5
2446
330
2049
100
AcDbEntity
  8
0
  6
Continuous
100
AcDbCircle
 10
265.9220689655178
 20
508.6398789813485
 30
0.0
 40
5.677931034482412
100
AcDbArc
 50
333.8768978333406
 51
26.12310216665933
  0
LINE
  5
2447
330
2049
100
AcDbEntity
  8
0
  6
Continuous
100
AcDbLine
 10
113.9999779999998
 20
270.750046000001
 30
0.0
 11
113.9999779999998
 21
259.250046000001
 31
0.0
  0
LINE
  5
2448
330
2049
100
AcDbEntity
  8
0
  6
Continuous
100
AcDbLine
 10
113.9999779999998
 20
199.7500460000009
 30
0.0
 11
113.9999779999998
 21
188.2500460000009
 31
0.0
  0
LINE
  5
2449
330
2049
100
AcDbEntity
  8
0
  6
Continuous
100
AcDbLine
 10
265.9999779999998
 20
259.250046000001
 30
0.0
 11
265.9999779999998
 21
270.750046000001
 31
0.0
  0
LINE
  5
244A
330
2049
100
AcDbEntity
  8
0
  6
Continuous
100
AcDbLine
 10
265.9999779999998
 20
188.2500460000009
 30
0.0
 11
265.9999779999998
 21
199.7500460000009
 31
0.0
  0
CIRCLE
  5
244B
330
2049
100
AcDbEntity
  8
0
  6
Continuous
100
AcDbCircle
 10
423.0
 20
194.000031
 30
0.0
 40
5.0
  0
CIRCLE
  5
244C
330
2049
100
AcDbEntity
  8
0
  6
Continuous
100
AcDbCircle
 10
423.0
 20
194.000031
 30
0.0
 40
5.75
  0
CIRCLE
  5
244D
330
2049
100
AcDbEntity
  8
0
  6
Continuous
100
AcDbCircle
 10
377.0
 20
194.000031
 30
0.0
 40
5.0
  0
CIRCLE
  5
244E
330
2049
100
AcDbEntity
  8
0
  6
Continuous
100
AcDbCircle
 10
377.0
 20
194.000031
 30
0.0
 40
5.75
  0
CIRCLE
  5
244F
330
2049
100
AcDbEntity
  8
0
  6
Continuous
100
AcDbCircle
 10
377.0
 20
265.000031
 30
0.0
 40
5.0
  0
CIRCLE
  5
2450
330
2049
100
AcDbEntity
  8
0
  6
Continuous
100
AcDbCircle
 10
377.0
 20
265.000031
 30
0.0
 40
5.75
  0
CIRCLE
  5
2451
330
2049
100
AcDbEntity
  8
0
  6
Continuous
100
AcDbCircle
 10
423.0
 20
265.000031
 30
0.0
 40
5.0
  0
CIRCLE
  5
2452
330
2049
100
AcDbEntity
  8
0
  6
Continuous
100
AcDbCircle
 10
423.0
 20
265.000031
 30
0.0
 40
5.75
  0
CIRCLE
  5
2453
330
2049
100
AcDbEntity
  8
0
  6
Continuous
100
AcDbCircle
 10
420.0
 20
229.500031
 30
0.0
 40
7.5
  0
CIRCLE
  5
2454
330
2049
100
AcDbEntity
  8
0
  6
Continuous
100
AcDbCircle
 10
420.0
 20
229.500031
 30
0.0
 40
6.5
  0
CIRCLE
  5
2455
330
2049
100
AcDbEntity
  8
0
  6
Continuous
100
AcDbCircle
 10
380.0
 20
229.500031
 30
0.0
 40
4.25
  0
CIRCLE
  5
2456
330
2049
100
AcDbEntity
  8
0
  6
Continuous
100
AcDbCircle
 10
380.0
 20
229.500031
 30
0.0
 40
3.399999999999999
  0
LINE
  5
2457
330
2049
100
AcDbEntity
  8
0
  6
Continuous
100
AcDbLine
 10
244.9999779999998
 20
273.000046000001
 30
0.0
 11
154.9999779999998
 21
273.000046000001
 31
0.0
  0
LINE
  5
2458
330
2049
100
AcDbEntity
  8
0
  6
Continuous
100
AcDbLine
 10
214.9999779999999
 20
307.0000610000011
 30
0.0
 11
214.9999779999999
 21
277.5000155000011
 31
0.0
  0
LINE
  5
2459
330
2049
100
AcDbEntity
  8
0
  6
Continuous
100
AcDbLine
 10
184.9999779999999
 20
307.0000610000011
 30
0.0
 11
184.9999779999999
 21
277.5000155000011
 31
0.0
  0
LINE
  5
245A
330
2049
100
AcDbEntity
  8
0
  6
Continuous
100
AcDbLine
 10
214.9999779999999
 20
307.0000610000011
 30
0.0
 11
184.9999779999999
 21
307.0000610000011
 31
0.0
  0
LINE
  5
245B
330
2049
100
AcDbEntity
  8
0
  6
Continuous
100
AcDbLine
 10
154.9999779999998
 20
313.000046000001
 30
0.0
 11
154.9999779999998
 21
273.000046000001
 31
0.0
  0
LINE
  5
245C
330
2049
100
AcDbEntity
  8
0
  6
Continuous
100
AcDbLine
 10
244.9999779999998
 20
313.000046000001
 30
0.0
 11
244.9999779999998
 21
273.000046000001
 31
0.0
  0
LINE
  5
245D
330
2049
100
AcDbEntity
  8
0
  6
Continuous
100
AcDbLine
 10
234.9999779999998
 20
323.000046000001
 30
0.0
 11
164.9999779999998
 21
323.000046000001
 31
0.0
  0
LINE
  5
245E
330
2049
100
AcDbEntity
  8
0
  6
Continuous
100
AcDbLine
 10
154.9999779999998
 20
277.5000155000011
 30
0.0
 11
244.9999779999998
 21
277.5000155000011
 31
0.0
  0
ARC
  5
245F
330
2049
100
AcDbEntity
  8
0
  6
Continuous
100
AcDbCircle
 10
234.9999779999998
 20
313.000046000001
 30
0.0
 40
10.0
100
AcDbArc
 50
0.0
 51
90.00000299998466
  0
CIRCLE
  5
2460
330
2049
100
AcDbEntity
  8
0
  6
Continuous
100
AcDbCircle
 10
231.4999929999995
 20
308.000046000001
 30
0.0
 40
9.000030499999997
  0
ARC
  5
2461
330
2049
100
AcDbEntity
  8
0
  6
Continuous
100
AcDbCircle
 10
164.9999779999998
 20
313.000046000001
 30
0.0
 40
10.0
100
AcDbArc
 50
90.00000299998466
 51
180.000010000001
  0
LINE
  5
2462
330
2049
100
AcDbEntity
  8
0
  6
Continuous
100
AcDbLine
 10
168.4999739999998
 20
273.000046000001
 30
0.0
 11
231.4999589999998
 21
273.000046000001
 31
0.0
  0
LINE
  5
2463
330
2049
100
AcDbEntity
  8
0
  6
Continuous
100
AcDbLine
 10
222.4999619999998
 20
505.0398729813484
 30
0.0
 11
240.4999920000002
 21
505.0398729813484
 31
0.0
  0
LINE
  5
2464
330
2049
100
AcDbEntity
  8
0
  6
Continuous
100
AcDbLine
 10
222.4999619999998
 20
505.0398729813484
 30
0.0
 11
222.4999619999998
 21
511.6398789813485
 31
0.0
  0
LINE
  5
2465
330
2049
100
AcDbEntity
  8
0
  6
Continuous
100
AcDbLine
 10
240.4999920000002
 20
505.0398729813484
 30
0.0
 11
240.4999920000002
 21
511.6398789813485
 31
0.0
  0
LINE
  5
2466
330
2049
100
AcDbEntity
  8
0
  6
Continuous
100
AcDbLine
 10
222.4999619999998
 20
516.1398789813485
 30
0.0
 11
222.4999619999998
 21
546.2398549813485
 31
0.0
  0
LINE
  5
2467
330
2049
100
AcDbEntity
  8
0
  6
Continuous
100
AcDbLine
 10
240.4999920000002
 20
516.1398789813485
 30
0.0
 11
240.4999920000002
 21
546.2398549813485
 31
0.0
  0
LINE
  5
2468
330
2049
100
AcDbEntity
  8
0
  6
Continuous
100
AcDbLine
 10
222.4999619999998
 20
546.2398549813485
 30
0.0
 11
240.4999920000002
 21
546.2398549813485
 31
0.0
  0
LINE
  5
2469
330
2049
100
AcDbEntity
  8
0
  6
Continuous
100
AcDbLine
 10
155.0
 20
516.1398789813485
 30
0.0
 11
245.0000000000002
 21
516.1398789813485
 31
0.0
  0
LINE
  5
246A
330
2049
100
AcDbEntity
  8
0
  6
Continuous
100
AcDbLine
 10
245.0000000000002
 20
463.1398789813486
 30
0.0
 11
245.0000000000002
 21
516.1398789813485
 31
0.0
  0
LINE
  5
246B
330
2049
100
AcDbEntity
  8
0
  6
Continuous
100
AcDbLine
 10
155.0
 20
463.1398789813486
 30
0.0
 11
155.0
 21
516.1398789813485
 31
0.0
  0
LINE
  5
246C
330
2049
100
AcDbEntity
  8
0
  6
Continuous
100
AcDbLine
 10
235.0
 20
453.1398789813485
 30
0.0
 11
165.0
 21
453.1398789813485
 31
0.0
  0
LINE
  5
246D
330
2049
100
AcDbEntity
  8
0
  6
Continuous
100
AcDbLine
 10
155.0
 20
511.6398789813485
 30
0.0
 11
245.0000000000002
 21
511.6398789813485
 31
0.0
  0
CIRCLE
  5
246E
330
2049
100
AcDbEntity
  8
0
  6
Continuous
100
AcDbCircle
 10
200.0
 20
488.1398789813486
 30
0.0
 40
15.0
  0
ARC
  5
246F
330
2049
100
AcDbEntity
  8
0
  6
Continuous
100
AcDbCircle
 10
165.0
 20
463.1398789813486
 30
0.0
 40
10.0
100
AcDbArc
 50
180.000010000001
 51
270.0
  0
ARC
  5
2470
330
2049
100
AcDbEntity
  8
0
  6
Continuous
100
AcDbCircle
 10
235.0
 20
463.1398789813486
 30
0.0
 40
10.0
100
AcDbArc
 50
269.999989999999
 51
0.0000006832429909
  0
LINE
  5
2471
330
2049
100
AcDbEntity
  8
0
  6
Continuous
100
AcDbLine
 10
423.4999850000003
 20
322.9999929999999
 30
0.0
 11
428.000031
 21
322.9999929999999
 31
0.0
  0
LINE
  5
2472
330
2049
100
AcDbEntity
  8
0
  6
Continuous
100
AcDbLine
 10
428.000031
 20
322.9999929999999
 30
0.0
 11
428.000031
 21
273.000031
 31
0.0
  0
LINE
  5
2473
330
2049
100
AcDbEntity
  8
0
  6
Continuous
100
AcDbLine
 10
428.000031
 20
273.000031
 30
0.0
 11
365.0
 21
273.000031
 31
0.0
  0
LINE
  5
2474
330
2049
100
AcDbEntity
  8
0
  6
Continuous
100
AcDbLine
 10
365.0
 20
277.5000386000001
 30
0.0
 11
365.0
 21
273.000031
 31
0.0
  0
LINE
  5
2475
330
2049
100
AcDbEntity
  8
0
  6
Continuous
100
AcDbLine
 10
415.0
 20
307.0000460000001
 30
0.0
 11
415.0
 21
277.5000386000001
 31
0.0
  0
LINE
  5
2476
330
2049
100
AcDbEntity
  8
0
  6
Continuous
100
AcDbLine
 10
385.0
 20
307.0000460000001
 30
0.0
 11
385.0
 21
277.5000386000001
 31
0.0
  0
LINE
  5
2477
330
2049
100
AcDbEntity
  8
0
  6
Continuous
100
AcDbLine
 10
415.0
 20
307.0000460000001
 30
0.0
 11
385.0
 21
307.0000460000001
 31
0.0
  0
LINE
  5
2478
330
2049
100
AcDbEntity
  8
0
  6
Continuous
100
AcDbLine
 10
416.900024
 20
316.000023
 30
0.0
 11
416.900024
 21
297.9999929999999
 31
0.0
  0
LINE
  5
2479
330
2049
100
AcDbEntity
  8
0
  6
Continuous
100
AcDbLine
 10
416.900024
 20
316.000023
 30
0.0
 11
423.4999850000003
 21
316.000023
 31
0.0
  0
LINE
  5
247A
330
2049
100
AcDbEntity
  8
0
  6
Continuous
100
AcDbLine
 10
416.900024
 20
297.9999929999999
 30
0.0
 11
423.4999850000003
 21
297.9999929999999
 31
0.0
  0
LINE
  5
247B
330
2049
100
AcDbEntity
  8
0
  6
Continuous
100
AcDbLine
 10
428.000031
 20
316.000023
 30
0.0
 11
458.0999760000004
 21
316.000023
 31
0.0
  0
LINE
  5
247C
330
2049
100
AcDbEntity
  8
0
  6
Continuous
100
AcDbLine
 10
428.000031
 20
297.9999929999999
 30
0.0
 11
458.0999760000004
 21
297.9999929999999
 31
0.0
  0
LINE
  5
247D
330
2049
100
AcDbEntity
  8
0
  6
Continuous
100
AcDbLine
 10
458.0999760000004
 20
316.000023
 30
0.0
 11
458.0999760000004
 21
297.9999929999999
 31
0.0
  0
LINE
  5
247E
330
2049
100
AcDbEntity
  8
0
  6
Continuous
100
AcDbLine
 10
365.0
 20
277.5000386000001
 30
0.0
 11
423.4999850000003
 21
277.5000386000001
 31
0.0
  0
LINE
  5
247F
330
2049
100
AcDbEntity
  8
0
  6
Continuous
100
AcDbLine
 10
423.4999850000003
 20
322.9999929999999
 30
0.0
 11
423.4999850000003
 21
277.5000386000001
 31
0.0
  0
LINE
  5
2487
330
2049
100
AcDbEntity
  8
0
  6
Continuous
100
AcDbLine
 10
240.0
 20
475.4398789813485
 30
0.0
 11
240.0
 21
500.8398789813486
 31
0.0
  0
LINE
  5
2488
330
2049
100
AcDbEntity
  8
0
  6
Continuous
100
AcDbLine
 10
160.0
 20
475.4398789813485
 30
0.0
 11
160.0
 21
500.8398789813486
 31
0.0
  0
LINE
  5
248D
330
2049
100
AcDbEntity
  8
0
  6
Continuous
100
AcDbLine
 10
216.0
 20
449.1398789813485
 30
0.0
 11
216.0
 21
444.1398789813486
 31
0.0
  0
LINE
  5
248E
330
2049
100
AcDbEntity
  8
0
  6
Continuous
100
AcDbLine
 10
216.0
 20
444.1398789813486
 30
0.0
 11
184.0
 21
444.1398789813486
 31
0.0
  0
LINE
  5
248F
330
2049
100
AcDbEntity
  8
0
  6
Continuous
100
AcDbLine
 10
184.0
 20
449.1398789813485
 30
0.0
 11
184.0
 21
444.1398789813486
 31
0.0
  0
LINE
  5
2493
330
2049
100
AcDbEntity
  8
0
  6
Continuous
100
AcDbLine
 10
216.0
 20
527.1398789813486
 30
0.0
 11
216.0
 21
532.1398789813486
 31
0.0
  0
LINE
  5
2494
330
2049
100
AcDbEntity
  8
0
  6
Continuous
100
AcDbLine
 10
216.0
 20
532.1398789813486
 30
0.0
 11
184.0
 21
532.1398789813486
 31
0.0
  0
LINE
  5
2495
330
2049
100
AcDbEntity
  8
0
  6
Continuous
100
AcDbLine
 10
184.0
 20
527.1398789813486
 30
0.0
 11
184.0
 21
532.1398789813486
 31
0.0
  0
LINE
  5
2496
330
2049
100
AcDbEntity
  8
0
  6
Continuous
100
AcDbLine
 10
222.4999619999998
 20
527.1398789813485
 30
0.0
 11
116.5000000000002
 21
527.1398789813486
 31
0.0
  0
LINE
  5
2497
330
2049
100
AcDbEntity
  8
0
  6
Continuous
100
AcDbLine
 10
222.4999619999998
 20
520.1398789813485
 30
0.0
 11
115.5000000000002
 21
520.1398789813485
 31
0.0
  0
LINE
  5
2638
330
2049
100
AcDbEntity
  8
0
  6
CENTER
100
AcDbLine
 10
400.0
 20
47.94690592839493
 30
0.0
 11
400.0
 21
326.6325166669728
 31
0.0
  0
LINE
  5
2639
330
2049
100
AcDbEntity
  8
0
  6
CENTER
100
AcDbLine
 10
348.8274507638593
 20
100.0
 30
0.0
 11
451.1725492361406
 21
100.0
 31
0.0
  0
LINE
  5
263A
330
2049
100
AcDbEntity
  8
0
  6
CENTER
100
AcDbLine
 10
200.0
 20
52.1802001435579
 30
0.0
 11
200.0
 21
332.2252400450272
 31
0.0
  0
LINE
  5
263B
330
2049
100
AcDbEntity
  8
0
  6
CENTER
100
AcDbLine
 10
154.1631711005889
 20
100.0
 30
0.0
 11
245.836828899411
 21
100.0
 31
0.0
  0
LINE
  5
263C
330
2049
100
AcDbEntity
  8
0
  6
CENTER
100
AcDbLine
 10
200.0
 20
439.4344363451946
 30
0.0
 11
200.0
 21
536.8453216175026
 31
0.0
  0
LINE
  5
263D
330
2049
100
AcDbEntity
  8
0
  6
CENTER
100
AcDbLine
 10
111.3439121783088
 20
488.1398789813486
 30
0.0
 11
274.2475529954334
 21
488.1398789813486
 31
0.0
  0
ENDSEC
  0
SECTION
  2
OBJECTS
  0
DICTIONARY
  5
2037
330
0
100
AcDbDictionary
281
     1
  3
ACAD_2007HEADERVARS_RT
350
25C5
  3
ACAD_COLOR
350
20E4
  3
ACAD_GROUP
350
2038
  3
ACAD_LAYOUT
350
2044
  3
ACAD_MATERIAL
350
20BA
  3
ACAD_MLEADERSTYLE
350
2109
  3
ACAD_MLINESTYLE
350
2041
  3
ACAD_PLOTSETTINGS
350
2043
  3
ACAD_PLOTSTYLENAME
350
2039
  3
ACAD_SCALELIST
350
20E7
  3
ACAD_TABLESTYLE
350
20E5
  3
ACAD_VISUALSTYLE
350
20D3
  3
ACDB_RECOMPOSE_DATA
350
249D
  3
AcDbVariableDictionary
350
20B7
  3
AcmDictionary
350
216A
  3
AcmSystemVariableManager
350
25D5
  3
AMG
350
2113
  3
AMGSNAPSETTINGS
350
2480
  3
DWGPROPS
350
25C4
  0
DICTIONARY
  5
24A4
330
2033
100
AcDbDictionary
280
     1
281
     1
  3
ACAD_XREC_ROUNDTRIP
360
25CA
  0
DICTIONARY
  5
262C
330
202D
100
AcDbDictionary
280
     1
281
     1
  3
ACAD_LAYERSTATES
360
262D
  0
DICTIONARY
  5
2498
330
203B
100
AcDbDictionary
280
     1
281
     1
  3
ADSK_XREC_LAYER_RECONCILED
360
2499
  0
DICTIONARY
  5
25CF
330
205C
100
AcDbDictionary
280
     1
281
     1
  3
ACAD_XREC_ROUNDTRIP
360
25D0
  0
DICTIONARY
  5
2075
330
2049
100
AcDbDictionary
280
     1
281
     1
  3
ACAD_LAYOUTSELFREF
360
2618
  3
ACAD_SORTENTS
360
248C
  0
DICTIONARY
  5
2077
330
2045
100
AcDbDictionary
280
     1
281
     1
  3
ACAD_LAYOUTSELFREF
360
2617
  0
DICTIONARY
  5
25C5
102
{ACAD_REACTORS
330
2037
102
}
330
2037
100
AcDbDictionary
281
     1
  3
DIMARCSYM
350
25C6
  3
DIMLTEX1
350
25C8
  3
DIMLTEX2
350
25C9
  3
DIMLTYPE
350
25C7
  0
DICTIONARY
  5
20E4
102
{ACAD_REACTORS
330
2037
102
}
330
2037
100
AcDbDictionary
281
     1
  0
DICTIONARY
  5
2038
102
{ACAD_REACTORS
330
2037
102
}
330
2037
100
AcDbDictionary
281
     1
  0
DICTIONARY
  5
2044
102
{ACAD_REACTORS
330
2037
102
}
330
2037
100
AcDbDictionary
281
     1
  3
Model
350
204C
  3
ﾚｲｱｳﾄ1
350
2048
  0
DICTIONARY
  5
20BA
102
{ACAD_REACTORS
330
2037
102
}
330
2037
100
AcDbDictionary
281
     1
  3
ByBlock
350
20C3
  3
ByLayer
350
20BB
  3
Global
350
20CB
  0
DICTIONARY
  5
2109
102
{ACAD_REACTORS
330
2037
102
}
330
2037
100
AcDbDictionary
281
     1
  3
Standard
350
210A
  0
DICTIONARY
  5
2041
102
{ACAD_REACTORS
330
2037
102
}
330
2037
100
AcDbDictionary
281
     1
  3
Standard
350
2042
  0
DICTIONARY
  5
2043
102
{ACAD_REACTORS
330
2037
102
}
330
2037
100
AcDbDictionary
281
     1
  0
ACDBDICTIONARYWDFLT
  5
2039
102
{ACAD_REACTORS
330
2037
102
}
330
2037
100
AcDbDictionary
281
     1
  3
Normal
350
203A
100
AcDbDictionaryWithDefault
340
203A
  0
DICTIONARY
  5
20E7
102
{ACAD_REACTORS
330
2037
102
}
330
2037
100
AcDbDictionary
281
     1
  3
A0
350
20E8
  3
A1
350
20E9
  3
A2
350
20EA
  3
A3
350
20EB
  3
A4
350
20EC
  3
A5
350
20ED
  3
A6
350
20EE
  3
A7
350
20EF
  3
A8
350
20F0
  3
A9
350
20F1
  3
B0
350
20F2
  3
B1
350
20F3
  3
B2
350
20F4
  3
B3
350
20F5
  3
B4
350
20F6
  3
B5
350
20F7
  3
B6
350
20F8
  3
B7
350
20F9
  3
B8
350
20FA
  3
B9
350
20FB
  3
C0
350
20FC
  3
C1
350
20FD
  3
C2
350
20FE
  3
C3
350
20FF
  3
C4
350
2100
  3
C5
350
2101
  3
C6
350
2102
  3
C7
350
2103
  3
C8
350
2104
  3
C9
350
2105
  3
D0
350
2106
  3
D1
350
2107
  3
D2
350
2108
  0
DICTIONARY
  5
20E5
102
{ACAD_REACTORS
330
2037
102
}
330
2037
100
AcDbDictionary
281
     1
  3
Standard
350
20E6
  0
DICTIONARY
  5
20D3
102
{ACAD_REACTORS
330
2037
102
}
330
2037
100
AcDbDictionary
281
     1
  3
2dWireframe
350
20D9
  3
3D Hidden
350
20DB
  3
3dWireframe
350
20DA
  3
Basic
350
20D8
  3
Brighten
350
20DF
  3
ColorChange
350
20E3
  3
Conceptual
350
20DC
  3
Dim
350
20DE
  3
Facepattern
350
20E2
  3
Flat
350
20D4
  3
FlatWithEdges
350
20D5
  3
Gouraud
350
20D6
  3
GouraudWithEdges
350
20D7
  3
Linepattern
350
20E1
  3
Realistic
350
20DD
  3
Thicken
350
20E0
  0
XRECORD
  5
249D
102
{ACAD_REACTORS
330
2037
102
}
330
2037
100
AcDbXrecord
280
     1
 90
        1
330
20E6
  0
DICTIONARY
  5
20B7
102
{ACAD_REACTORS
330
2037
102
}
330
2037
100
AcDbDictionary
281
     1
  3
CANNOSCALE
350
24B8
  3
CMLEADERSTYLE
350
24B7
  3
CTABLESTYLE
350
24B6
  3
DIMASSOC
350
20B8
  3
INDEXCTL
350
24BA
  3
SORTENTS
350
24B9
  0
DICTIONARY
  5
216A
102
{ACAD_REACTORS
330
2037
102
}
330
2037
100
AcDbDictionary
281
     1
  3
AcmStdDictionary
350
2177
  0
ACAD_PROXY_OBJECT
  5
25D5
102
{ACAD_REACTORS
330
2037
102
}
330
2037
100
AcDbProxyObject
 90
      499
 91
      517
 95
   917527
 70
     0
 93
       32
310
9014220000
330
0
 94
        0
  0
DICTIONARY
  5
2113
102
{ACAD_REACTORS
330
2037
102
}
330
2037
100
AcDbDictionary
281
     1
  0
DICTIONARY
  5
2480
102
{ACAD_REACTORS
330
2037
102
}
330
2037
100
AcDbDictionary
281
     1
  0
XRECORD
  5
25C4
102
{ACAD_REACTORS
330
2037
102
}
330
2037
100
AcDbXrecord
280
     1
  1
DWGPROPS COOKIE
  2

  3

  4

  6

  7

  8
m
  9

300
=
301
=
302
=
303
=
304
=
305
=
306
=
307
=
308
=
309
=
 40
0.2320851273148148
 41
2452488.423138738
 42
2454750.480628425
  1

 90
        0
  0
XRECORD
  5
25CA
102
{ACAD_REACTORS
330
24A4
102
}
330
24A4
100
AcDbXrecord
280
     1
102
VTR_0.000_0.000_1.000_1.000_VISUALSTYLE
340
20D9
102
VTR_0.000_0.000_1.000_1.000_GRIDDISPLAY
 70
     3
102
VTR_0.000_0.000_1.000_1.000_GRIDMAJOR
 70
     5
102
VTR_0.000_0.000_1.000_1.000_DEFAULTLIGHTING
280
     1
102
VTR_0.000_0.000_1.000_1.000_DEFAULTLIGHTINGTYPE
 70
     1
102
VTR_0.000_0.000_1.000_1.000_BRIGHTNESS
141
0.0
102
VTR_0.000_0.000_1.000_1.000_CONTRAST
142
0.0
  0
DICTIONARY
  5
262D
102
{ACAD_REACTORS
330
262C
102
}
330
262C
100
AcDbDictionary
281
     1
  0
XRECORD
  5
2499
102
{ACAD_REACTORS
330
2498
102
}
330
2498
100
AcDbXrecord
280
     1
290
     1
  0
XRECORD
  5
25D0
102
{ACAD_REACTORS
330
25CF
102
}
330
25CF
100
AcDbXrecord
280
     1
102
CAMERAPLOTTABLE
 70
     0
102
VISUALSTYLE
340
20D9
  0
XRECORD
  5
2618
102
{ACAD_REACTORS
330
2075
102
}
330
2075
100
AcDbXrecord
280
     1
340
2049
  0
SORTENTSTABLE
  5
248C
102
{ACAD_REACTORS
330
2075
102
}
330
2075
100
AcDbSortentsTable
330
2049
331
2448
  5
244B
331
2393
  5
2394
331
235C
  5
235E
331
23D2
  5
23D5
331
2409
  5
240C
331
2487
  5
248D
331
239B
  5
239C
331
2364
  5
2365
331
23DA
  5
23DD
331
2411
  5
2414
331
2450
  5
2453
331
248F
  5
2494
331
2458
  5
245B
331
23E2
  5
23E5
331
236C
  5
236D
331
23A3
  5
23A4
331
2419
  5
241C
331
2497
  5
23C7
331
23AB
  5
23AC
331
2335
  5
2336
331
2421
  5
2424
331
1D31
  5
1D31
331
C3A
  5
C3A
331
2460
  5
2463
331
2429
  5
242C
331
23B3
  5
23B4
331
C42
  5
C42
331
233D
  5
233E
331
2374
  5
2375
331
23EA
  5
23ED
331
2468
  5
246B
331
2431
  5
2434
331
23BB
  5
23BC
331
CBA
  5
CBA
331
2345
  5
2346
331
237C
  5
237D
331
23F2
  5
23F5
331
2470
  5
2473
331
2384
  5
2385
331
234D
  5
234E
331
23C3
  5
23C4
331
23FA
  5
23FD
331
2439
  5
243C
331
2478
  5
247B
331
238C
  5
238D
331
2355
  5
2356
331
23CB
  5
23CE
331
2402
  5
2405
331
2441
  5
2444
331
23D3
  5
23D6
331
2394
  5
2395
331
240A
  5
240D
331
2449
  5
244C
331
2488
  5
248E
331
2451
  5
2454
331
239C
  5
239D
331
2365
  5
2366
331
23DB
  5
23DE
331
2412
  5
2415
331
2459
  5
245C
331
23A4
  5
23A5
331
236D
  5
236E
331
23E3
  5
23E6
331
241A
  5
241D
331
2336
  5
2337
331
23AC
  5
23AD
331
2422
  5
2425
331
1D32
  5
1D33
331
1D3A
  5
1D3B
331
C3B
  5
C3B
331
2461
  5
2464
331
242A
  5
242D
331
23B4
  5
23B5
331
1D42
  5
1D5C
331
C43
  5
C43
331
233E
  5
233F
331
2375
  5
2376
331
23EB
  5
23EE
331
2469
  5
246C
331
2432
  5
2435
331
23BC
  5
23BD
331
CBB
  5
CBB
331
2346
  5
2347
331
237D
  5
237E
331
23F3
  5
23F6
331
2471
  5
2474
331
23C4
  5
23C5
331
2385
  5
2386
331
234E
  5
234F
331
23FB
  5
23FE
331
243A
  5
243D
331
2479
  5
247C
331
2442
  5
2445
331
238D
  5
238E
331
2356
  5
2357
331
23CC
  5
23CF
331
2403
  5
2406
331
2395
  5
2396
331
235E
  5
235F
331
23D4
  5
23D7
331
240B
  5
240E
331
244A
  5
244D
331
239D
  5
239E
331
2366
  5
2367
331
23DC
  5
23DF
331
2413
  5
2416
331
2452
  5
2455
331
245A
  5
245D
331
23E4
  5
23E7
331
236E
  5
236F
331
23A5
  5
23A6
331
241B
  5
241E
331
23AD
  5
23AE
331
2337
  5
2338
331
2423
  5
2426
331
1D33
  5
1D34
331
1D3B
  5
1D3C
331
C3C
  5
C3C
331
242B
  5
242E
331
23B5
  5
23B6
331
233F
  5
2340
331
2376
  5
2377
331
23EC
  5
23EF
331
2462
  5
2465
331
C44
  5
C44
331
2433
  5
2436
331
23BD
  5
23BE
331
2347
  5
2348
331
237E
  5
237F
331
23F4
  5
23F7
331
246A
  5
246D
331
CBC
  5
CBC
331
2386
  5
2387
331
234F
  5
2350
331
23C5
  5
23C6
331
23FC
  5
23FF
331
243B
  5
243E
331
2472
  5
2475
331
238E
  5
238F
331
2357
  5
2358
331
23CD
  5
23D0
331
2404
  5
2407
331
2443
  5
2446
331
247A
  5
247D
331
23D5
  5
23D8
331
2396
  5
2397
331
235F
  5
2360
331
240C
  5
240F
331
244B
  5
244E
331
2453
  5
2456
331
239E
  5
239F
331
2367
  5
2368
331
23DD
  5
23E0
331
2414
  5
2417
331
23A6
  5
23A7
331
236F
  5
2370
331
23E5
  5
23E8
331
241C
  5
241F
331
245B
  5
245E
331
23AE
  5
23AF
331
2424
  5
2427
331
1D34
  5
1D35
331
2338
  5
2339
331
1D3C
  5
1D3D
331
C3D
  5
C3D
331
242C
  5
242F
331
23B6
  5
23B7
331
2340
  5
2341
331
2377
  5
2378
331
23ED
  5
23F0
331
2463
  5
2466
331
2434
  5
2437
331
23BE
  5
23BF
331
2348
  5
2349
331
237F
  5
2380
331
23F5
  5
23F8
331
246B
  5
246E
331
1D5C
  5
1D5D
331
CBD
  5
CBD
331
243C
  5
243F
331
23C6
  5
23C8
331
2387
  5
2388
331
2350
  5
2351
331
23FD
  5
2400
331
2473
  5
2476
331
2444
  5
2447
331
238F
  5
2390
331
23CE
  5
23D1
331
2405
  5
2408
331
247B
  5
247E
331
2358
  5
2359
331
2397
  5
2398
331
2360
  5
2361
331
23D6
  5
23D9
331
240D
  5
2410
331
244C
  5
244F
331
2368
  5
2369
331
239F
  5
23A0
331
23DE
  5
23E1
331
2415
  5
2418
331
2454
  5
2457
331
245C
  5
245F
331
23E6
  5
23E9
331
23A7
  5
23A8
331
241D
  5
2420
331
2493
  5
2495
331
23AF
  5
23B0
331
2425
  5
2428
331
C36
  5
C36
331
1D35
  5
1D37
331
2339
  5
233A
331
2370
  5
2371
331
1D3D
  5
1D3E
331
C3E
  5
C3E
331
242D
  5
2430
331
23B7
  5
23B8
331
2341
  5
2342
331
2378
  5
2379
331
23EE
  5
23F1
331
2464
  5
2467
331
2435
  5
2438
331
2380
  5
2381
331
2349
  5
234A
331
23BF
  5
23C0
331
23F6
  5
23F9
331
246C
  5
246F
331
1D5D
  5
2335
331
CBE
  5
CBE
331
2388
  5
2389
331
2351
  5
2352
331
23C7
  5
23C9
331
23FE
  5
2401
331
243D
  5
2440
331
2474
  5
2477
331
23CF
  5
23D2
331
2406
  5
2409
331
2445
  5
2448
331
247C
  5
247F
331
2390
  5
2391
331
2359
  5
235A
331
244D
  5
2450
331
23D7
  5
23DA
331
2398
  5
2399
331
2361
  5
2362
331
240E
  5
2411
331
16BE
  5
16BE
331
2455
  5
2458
331
23A0
  5
23A1
331
2369
  5
236A
331
23DF
  5
23E2
331
2416
  5
2419
331
23E7
  5
23EA
331
23A8
  5
23A9
331
241E
  5
2421
331
245D
  5
2460
331
2494
  5
2496
331
2426
  5
2429
331
23B0
  5
23B1
331
233A
  5
233B
331
2371
  5
2372
331
1D3E
  5
1D3F
331
C3F
  5
C3F
331
242E
  5
2431
331
23B8
  5
23B9
331
2342
  5
2343
331
2379
  5
237A
331
23EF
  5
23F2
331
2465
  5
2468
331
2436
  5
2439
331
23C0
  5
23C1
331
234A
  5
234B
331
2381
  5
2382
331
23F7
  5
23FA
331
246D
  5
2470
331
CBF
  5
CBF
331
243E
  5
2441
331
23C8
  5
23CA
331
2389
  5
238A
331
2352
  5
2353
331
23FF
  5
2402
331
2475
  5
2478
331
2446
  5
2449
331
2407
  5
240A
331
247D
  5
2487
331
2391
  5
2392
331
168F
  5
168F
331
235A
  5
235B
331
23D0
  5
23D3
331
2399
  5
239A
331
2362
  5
2363
331
23D8
  5
23DB
331
240F
  5
2412
331
244E
  5
2451
331
248D
  5
248F
331
23E0
  5
23E3
331
1D2F
  5
1D2F
331
236A
  5
236B
331
23A1
  5
23A2
331
2417
  5
241A
331
2456
  5
2459
331
2495
  5
2497
331
245E
  5
2461
331
23A9
  5
23AA
331
241F
  5
2422
331
2427
  5
242A
331
1D37
  5
1D3A
331
23B1
  5
23B2
331
1D3F
  5
1D40
331
C40
  5
C40
331
233B
  5
233C
331
2372
  5
2373
331
23E8
  5
23EB
331
2466
  5
2469
331
242F
  5
2432
331
23B9
  5
23BA
331
CB8
  5
CB8
331
2343
  5
2344
331
237A
  5
237B
331
23F0
  5
23F3
331
246E
  5
2471
331
2382
  5
2383
331
234B
  5
234C
331
23F8
  5
23FB
331
2437
  5
243A
331
2476
  5
2479
331
238A
  5
238B
331
2353
  5
2354
331
23C9
  5
23CB
331
2400
  5
2403
331
243F
  5
2442
331
247E
  5
2488
331
2447
  5
244A
331
CC0
  5
CC0
331
23D1
  5
23D4
331
235B
  5
235C
331
2392
  5
2393
331
2408
  5
240B
331
244F
  5
2452
331
23D9
  5
23DC
331
239A
  5
239B
331
2363
  5
2364
331
2410
  5
2413
331
248E
  5
2493
331
23A2
  5
23A3
331
236B
  5
236C
331
23E1
  5
23E4
331
2418
  5
241B
331
2457
  5
245A
331
2496
  5
23CC
331
23AA
  5
23AB
331
2420
  5
2423
331
245F
  5
2462
331
1D30
  5
1D30
331
2428
  5
242B
331
23B2
  5
23B3
331
1D40
  5
1D42
331
C41
  5
C41
331
233C
  5
233D
331
2373
  5
2374
331
23E9
  5
23EC
331
2467
  5
246A
331
2430
  5
2433
331
23BA
  5
23BB
331
CB9
  5
CB9
331
2344
  5
2345
331
237B
  5
237C
331
23F1
  5
23F4
331
246F
  5
2472
331
234C
  5
234D
331
2383
  5
2384
331
23F9
  5
23FC
331
2438
  5
243B
331
2477
  5
247A
331
2440
  5
2443
331
238B
  5
238C
331
2354
  5
2355
331
23CA
  5
23CD
331
2401
  5
2404
331
247F
  5
2489
  0
XRECORD
  5
2617
102
{ACAD_REACTORS
330
2077
102
}
330
2077
100
AcDbXrecord
280
     1
340
2045
  0
XRECORD
  5
25C6
102
{ACAD_REACTORS
330
25C5
102
}
330
25C5
100
AcDbXrecord
280
     1
 70
     1
  0
XRECORD
  5
25C8
102
{ACAD_REACTORS
330
25C5
102
}
330
25C5
100
AcDbXrecord
280
     1
340
203E
  0
XRECORD
  5
25C9
102
{ACAD_REACTORS
330
25C5
102
}
330
25C5
100
AcDbXrecord
280
     1
340
203E
  0
XRECORD
  5
25C7
102
{ACAD_REACTORS
330
25C5
102
}
330
25C5
100
AcDbXrecord
280
     1
340
203E
  0
LAYOUT
  5
204C
102
{ACAD_XDICTIONARY
360
25CD
102
}
102
{ACAD_REACTORS
330
2044
102
}
330
2044
100
AcDbPlotSettings
  1

  2
SII LP-2150 (D-SCAN C2)
  4

  6

 40
0.0
 41
0.0
 42
0.0
 43
0.0
 44
0.0
 45
0.0
 46
0.0
 47
0.0
 48
0.0
 49
0.0
140
0.0
141
0.0
142
1.0
143
1.0
 70
  1712
 72
     0
 73
     0
 74
     0
  7

 75
     0
147
1.0
148
0.0
149
0.0
100
AcDbLayout
  1
Model
 70
     1
 71
     0
 10
0.0
 20
0.0
 11
12.0
 21
9.0
 12
0.0
 22
0.0
 32
0.0
 14
0.0
 24
0.0
 34
0.0
 15
0.0
 25
0.0
 35
0.0
146
0.0
 13
0.0
 23
0.0
 33
0.0
 16
1.0
 26
0.0
 36
0.0
 17
0.0
 27
1.0
 37
0.0
 76
     0
330
2049
  0
LAYOUT
  5
2048
102
{ACAD_XDICTIONARY
360
25CB
102
}
102
{ACAD_REACTORS
330
2044
102
}
330
2044
100
AcDbPlotSettings
  1

  2
SII LP-2150 (D-SCAN C2)
  4

  6

 40
0.0
 41
0.0
 42
0.0
 43
0.0
 44
0.0
 45
0.0
 46
0.0
 47
0.0
 48
0.0
 49
0.0
140
0.0
141
0.0
142
1.0
143
1.0
 70
   688
 72
     0
 73
     0
 74
     5
  7

 75
    16
147
1.0
148
0.0
149
0.0
100
AcDbLayout
  1
ﾚｲｱｳﾄ1
 70
     1
 71
     1
 10
0.0
 20
0.0
 11
12.0
 21
9.0
 12
0.0
 22
0.0
 32
0.0
 14
1.000000000000000E+20
 24
1.000000000000000E+20
 34
1.000000000000000E+20
 15
-1.000000000000000E+20
 25
-1.000000000000000E+20
 35
-1.000000000000000E+20
146
0.0
 13
0.0
 23
0.0
 33
0.0
 16
1.0
 26
0.0
 36
0.0
 17
0.0
 27
1.0
 37
0.0
 76
     0
330
2045
  0
ACAD_PROXY_OBJECT
  5
20C3
102
{ACAD_XDICTIONARY
360
20C4
102
}
102
{ACAD_REACTORS
330
20BA
102
}
330
20BA
100
AcDbProxyObject
 90
      499
 91
      508
 95
   917527
 70
     0
 93
     1340
310
42109E509B1BD8DAC02004014080404555555555555953FAA155555555555654FEA9AA400014080404555555555555953FAA155555555555654FEA9AA400000000000000E03F4080404555555555555953FAA155555555555654FEA9AA4014080404555555555555953FAA155555555555654FEA9AA4010201011555555555
310
55654FEA8555555555555953FAA6A9005020101155555555555654FEA8555555555555953FAA6A9000
 94
        0
  0
ACAD_PROXY_OBJECT
  5
20BB
102
{ACAD_XDICTIONARY
360
20BC
102
}
102
{ACAD_REACTORS
330
20BA
102
}
330
20BA
100
AcDbProxyObject
 90
      499
 91
      508
 95
   917527
 70
     0
 93
     1340
310
42109E53185E595C802004014080404555555555555953FAA155555555555654FEA9AA400014080404555555555555953FAA155555555555654FEA9AA400000000000000E03F4080404555555555555953FAA155555555555654FEA9AA4014080404555555555555953FAA155555555555654FEA9AA4010201011555555555
310
55654FEA8555555555555953FAA6A9005020101155555555555654FEA8555555555555953FAA6A9000
 94
        0
  0
ACAD_PROXY_OBJECT
  5
20CB
102
{ACAD_XDICTIONARY
360
20CC
102
}
102
{ACAD_REACTORS
330
20BA
102
}
330
20BA
100
AcDbProxyObject
 90
      499
 91
      508
 95
   917527
 70
     0
 93
     1332
310
41D1DB1BD8985B002004014080404555555555555953FAA155555555555654FEA9AA400014080404555555555555953FAA155555555555654FEA9AA400000000000000E03F4080404555555555555953FAA155555555555654FEA9AA4014080404555555555555953FAA155555555555654FEA9AA401020101155555555555
310
654FEA8555555555555953FAA6A9005020101155555555555654FEA8555555555555953FAA6A9000
 94
        0
  0
ACAD_PROXY_OBJECT
  5
210A
102
{ACAD_REACTORS
330
2109
102
}
330
2109
100
AcDbProxyObject
 90
      499
 91
      512
 95
   917527
 70
     0
 93
      618
310
40901902A4063FBFFFFFE056BD1B81E855B9FC0AD7A3703D0AD73F4254DD185B99185C990000AD7A3703D0AC73F90141901A02B5E8DC0F42B1CFC02B5E8DC0F42B1CFE5764000000000000300FC6
340
203E
340
0
340
203C
340
0
 94
        0
1001
ACAD_MLEADERVER
1070
     2
  0
MLINESTYLE
  5
2042
102
{ACAD_REACTORS
330
2041
102
}
330
2041
100
AcDbMlineStyle
  2
STANDARD
 70
     0
  3

 62
   256
 51
90.0
 52
90.0
 71
     2
 49
0.5
 62
   256
  6
BYLAYER
 49
-0.5
 62
   256
  6
BYLAYER
  0
ACDBPLACEHOLDER
  5
203A
102
{ACAD_REACTORS
330
2039
102
}
330
2039
  0
ACAD_PROXY_OBJECT
  5
20E8
102
{ACAD_REACTORS
330
20E7
102
}
330
20E7
100
AcDbProxyObject
 90
      499
 91
      511
 95
   917527
 70
     0
 93
       49
310
904313A31005A0
 94
        0
  0
ACAD_PROXY_OBJECT
  5
20E9
102
{ACAD_REACTORS
330
20E7
102
}
330
20E7
100
AcDbProxyObject
 90
      499
 91
      511
 95
   917527
 70
     0
 93
      113
310
904313A3200400000000000000406B
 94
        0
  0
ACAD_PROXY_OBJECT
  5
20EA
102
{ACAD_REACTORS
330
20E7
102
}
330
20E7
100
AcDbProxyObject
 90
      499
 91
      511
 95
   917527
 70
     0
 93
      113
310
904313A34004000000000000104042
 94
        0
  0
ACAD_PROXY_OBJECT
  5
20EB
102
{ACAD_REACTORS
330
20E7
102
}
330
20E7
100
AcDbProxyObject
 90
      499
 91
      511
 95
   917527
 70
     0
 93
      113
310
904313A3500400000000000014406B
 94
        0
  0
ACAD_PROXY_OBJECT
  5
20EC
102
{ACAD_REACTORS
330
20E7
102
}
330
20E7
100
AcDbProxyObject
 90
      499
 91
      511
 95
   917527
 70
     0
 93
      113
310
904313A38004000000000000204042
 94
        0
  0
ACAD_PROXY_OBJECT
  5
20ED
102
{ACAD_REACTORS
330
20E7
102
}
330
20E7
100
AcDbProxyObject
 90
      499
 91
      511
 95
   917527
 70
     0
 93
      121
310
905313A3130004000000000000244051
 94
        0
  0
ACAD_PROXY_OBJECT
  5
20EE
102
{ACAD_REACTORS
330
20E7
102
}
330
20E7
100
AcDbProxyObject
 90
      499
 91
      511
 95
   917527
 70
     0
 93
      121
310
905313A3136004000000000000304009
 94
        0
  0
ACAD_PROXY_OBJECT
  5
20EF
102
{ACAD_REACTORS
330
20E7
102
}
330
20E7
100
AcDbProxyObject
 90
      499
 91
      511
 95
   917527
 70
     0
 93
      121
310
905313A3230004000000000000344051
 94
        0
  0
ACAD_PROXY_OBJECT
  5
20F0
102
{ACAD_REACTORS
330
20E7
102
}
330
20E7
100
AcDbProxyObject
 90
      499
 91
      511
 95
   917527
 70
     0
 93
      121
310
905313A33300040000000000003E4009
 94
        0
  0
ACAD_PROXY_OBJECT
  5
20F1
102
{ACAD_REACTORS
330
20E7
102
}
330
20E7
100
AcDbProxyObject
 90
      499
 91
      511
 95
   917527
 70
     0
 93
      121
310
905313A3430004000000000000444051
 94
        0
  0
ACAD_PROXY_OBJECT
  5
20F2
102
{ACAD_REACTORS
330
20E7
102
}
330
20E7
100
AcDbProxyObject
 90
      499
 91
      511
 95
   917527
 70
     0
 93
      121
310
905313A3530004000000000000494009
 94
        0
  0
ACAD_PROXY_OBJECT
  5
20F3
102
{ACAD_REACTORS
330
20E7
102
}
330
20E7
100
AcDbProxyObject
 90
      499
 91
      511
 95
   917527
 70
     0
 93
      129
310
906313A313030004000000000000594038
 94
        0
  0
ACAD_PROXY_OBJECT
  5
20F4
102
{ACAD_REACTORS
330
20E7
102
}
330
20E7
100
AcDbProxyObject
 90
      499
 91
      511
 95
   917527
 70
     0
 93
      113
310
904323A31000000000000000010140
 94
        0
  0
ACAD_PROXY_OBJECT
  5
20F5
102
{ACAD_REACTORS
330
20E7
102
}
330
20E7
100
AcDbProxyObject
 90
      499
 91
      511
 95
   917527
 70
     0
 93
      113
310
904343A31000000000000000410159
 94
        0
  0
ACAD_PROXY_OBJECT
  5
20F6
102
{ACAD_REACTORS
330
20E7
102
}
330
20E7
100
AcDbProxyObject
 90
      499
 91
      511
 95
   917527
 70
     0
 93
      113
310
904383A31000000000000000810140
 94
        0
  0
ACAD_PROXY_OBJECT
  5
20F7
102
{ACAD_REACTORS
330
20E7
102
}
330
20E7
100
AcDbProxyObject
 90
      499
 91
      511
 95
   917527
 70
     0
 93
      121
310
90531303A31000000000000000910140
 94
        0
  0
ACAD_PROXY_OBJECT
  5
20F8
102
{ACAD_REACTORS
330
20E7
102
}
330
20E7
100
AcDbProxyObject
 90
      499
 91
      511
 95
   917527
 70
     0
 93
      129
310
9063130303A31000000000000001650102
 94
        0
  0
ACAD_PROXY_OBJECT
  5
20F9
102
{ACAD_REACTORS
330
20E7
102
}
330
20E7
100
AcDbProxyObject
 90
      499
 91
      511
 95
   917527
 70
     0
 93
      265
310
90F312F31323822203D2031272D302200000000000000200FC00000000000028402B
 94
        0
  0
ACAD_PROXY_OBJECT
  5
20FA
102
{ACAD_REACTORS
330
20E7
102
}
330
20E7
100
AcDbProxyObject
 90
      499
 91
      511
 95
   917527
 70
     0
 93
      257
310
90E312F363422203D2031272D302200000000000000240FC000000000000284000
 94
        0
  0
ACAD_PROXY_OBJECT
  5
20FB
102
{ACAD_REACTORS
330
20E7
102
}
330
20E7
100
AcDbProxyObject
 90
      499
 91
      511
 95
   917527
 70
     0
 93
      257
310
90E312F333222203D2031272D302200000000000000280FC000000000000284040
 94
        0
  0
ACAD_PROXY_OBJECT
  5
20FC
102
{ACAD_REACTORS
330
20E7
102
}
330
20E7
100
AcDbProxyObject
 90
      499
 91
      511
 95
   917527
 70
     0
 93
      257
310
90E312F313622203D2031272D3022000000000000002C0FC000000000000284000
 94
        0
  0
ACAD_PROXY_OBJECT
  5
20FD
102
{ACAD_REACTORS
330
20E7
102
}
330
20E7
100
AcDbProxyObject
 90
      499
 91
      511
 95
   917527
 70
     0
 93
      257
310
90E332F333222203D2031272D3022000000000000002E0FC000000000000284040
 94
        0
  0
ACAD_PROXY_OBJECT
  5
20FE
102
{ACAD_REACTORS
330
20E7
102
}
330
20E7
100
AcDbProxyObject
 90
      499
 91
      511
 95
   917527
 70
     0
 93
      249
310
90D312F3822203D2031272D302200000000000000300FC000000000000284040
 94
        0
  0
ACAD_PROXY_OBJECT
  5
20FF
102
{ACAD_REACTORS
330
20E7
102
}
330
20E7
100
AcDbProxyObject
 90
      499
 91
      511
 95
   917527
 70
     0
 93
      257
310
90E332F313622203D2031272D302200000000000000320FC000000000000284040
 94
        0
  0
ACAD_PROXY_OBJECT
  5
2100
102
{ACAD_REACTORS
330
20E7
102
}
330
20E7
100
AcDbProxyObject
 90
      499
 91
      511
 95
   917527
 70
     0
 93
      249
310
90D312F3422203D2031272D302200000000000000340FC000000000000284040
 94
        0
  0
ACAD_PROXY_OBJECT
  5
2101
102
{ACAD_REACTORS
330
20E7
102
}
330
20E7
100
AcDbProxyObject
 90
      499
 91
      511
 95
   917527
 70
     0
 93
      249
310
90D332F3822203D2031272D302200000000000000360FC000000000000284040
 94
        0
  0
ACAD_PROXY_OBJECT
  5
2102
102
{ACAD_REACTORS
330
20E7
102
}
330
20E7
100
AcDbProxyObject
 90
      499
 91
      511
 95
   917527
 70
     0
 93
      249
310
90D312F3222203D2031272D302200000000000000380FC000000000000284040
 94
        0
  0
ACAD_PROXY_OBJECT
  5
2103
102
{ACAD_REACTORS
330
20E7
102
}
330
20E7
100
AcDbProxyObject
 90
      499
 91
      511
 95
   917527
 70
     0
 93
      249
310
90D332F3422203D2031272D3022000000000000003A0FC000000000000284040
 94
        0
  0
ACAD_PROXY_OBJECT
  5
2104
102
{ACAD_REACTORS
330
20E7
102
}
330
20E7
100
AcDbProxyObject
 90
      499
 91
      511
 95
   917527
 70
     0
 93
      169
310
90B3122203D2031272D3022004000000000000284000
 94
        0
  0
ACAD_PROXY_OBJECT
  5
2105
102
{ACAD_REACTORS
330
20E7
102
}
330
20E7
100
AcDbProxyObject
 90
      499
 91
      511
 95
   917527
 70
     0
 93
      265
310
90F312D312F3222203D2031272D3022000000000000003E0FC00000000000028402B
 94
        0
  0
ACAD_PROXY_OBJECT
  5
2106
102
{ACAD_REACTORS
330
20E7
102
}
330
20E7
100
AcDbProxyObject
 90
      499
 91
      511
 95
   917527
 70
     0
 93
      233
310
90B3322203D2031272D30220000000000000002100000000000000284028
 94
        0
  0
ACAD_PROXY_OBJECT
  5
2107
102
{ACAD_REACTORS
330
20E7
102
}
330
20E7
100
AcDbProxyObject
 90
      499
 91
      511
 95
   917527
 70
     0
 93
      233
310
90B3622203D2031272D30220000000000000006100000000000000284000
 94
        0
  0
ACAD_PROXY_OBJECT
  5
2108
102
{ACAD_REACTORS
330
20E7
102
}
330
20E7
100
AcDbProxyObject
 90
      499
 91
      511
 95
   917527
 70
     0
 93
      257
310
90E31272D3022203D2031272D3022000000000000000A100000000000000284000
 94
        0
  0
ACAD_PROXY_OBJECT
  5
20E6
102
{ACAD_XDICTIONARY
360
249B
102
}
102
{ACAD_REACTORS
330
20E5
102
}
330
20E5
100
AcDbProxyObject
 90
      499
 91
      510
 95
   917527
 70
     0
 93
     1849
310
4254DD185B99185C990028B81E85EB51B8AE3F2E07A17AD46E2B8FC02B5E8DC0F42B1CFD028000000C1008070000C3001FDFF8000000C1003FBFF000000182007F7FE00000030400FEFFC00000060801FDFF8000000C1003FBFF00000018200000000000000681FA0B0000001820100E000186003FBFF000000182007F7FE0
310
0000030400FEFFC00000060801FDFF8000000C1003FBFF000000182007F7FE000000304000AD7A3703D0AC73F4160000003040201C00030C007F7FE00000030400FEFFC00000060801FDFF8000000C1003FBFF000000182007F7FE00000030400FEFFC000000608000
340
203C
340
203C
340
203C
 94
        0
  0
ACAD_PROXY_OBJECT
  5
20D9
102
{ACAD_REACTORS
330
20D3
102
}
330
20D3
100
AcDbProxyObject
 90
      499
 91
      509
 95
   917527
 70
     0
 93
      444
310
430C9915DA5C99599C985B59401049028333333333333E3BF0000000000000FB0107901411070040501600405405064090741402480A0340
 94
        0
1001
ACAD
1000
AcDbSavedByObjectVersion
1070
     0
  0
ACAD_PROXY_OBJECT
  5
20DB
102
{ACAD_REACTORS
330
20D3
102
}
330
20D3
100
AcDbProxyObject
 90
      499
 91
      509
 95
   917527
 70
     0
 93
      508
310
428CD108121A5919195B8010640502408333333333333E3BF0000000000000FB01079024090700405020000000000001110200405405064090740C02480A0340
 94
        0
1001
ACAD
1000
AcDbSavedByObjectVersion
1070
     0
  0
ACAD_PROXY_OBJECT
  5
20DA
102
{ACAD_REACTORS
330
20D3
102
}
330
20D3
100
AcDbProxyObject
 90
      499
 91
      509
 95
   917527
 70
     0
 93
      444
310
430CD915DA5C99599C985B59401059028333333333333E3BF0000000000000FB0107901411070040501600405405064090741402480A0345
 94
        0
1001
ACAD
1000
AcDbSavedByObjectVersion
1070
     0
  0
ACAD_PROXY_OBJECT
  5
20D8
102
{ACAD_REACTORS
330
20D3
102
}
330
20D3
100
AcDbProxyObject
 90
      499
 91
      509
 95
   917527
 70
     0
 93
      396
310
4190985CDA58C0107406404333333333333E3BF0000000000000FB0107A41107004050150841D405064090741402480A0358
 94
        0
1001
ACAD
1000
AcDbSavedByObjectVersion
1070
     0
  0
ACAD_PROXY_OBJECT
  5
20DF
102
{ACAD_REACTORS
330
20D3
102
}
330
20D3
100
AcDbProxyObject
 90
      499
 91
      509
 95
   917527
 70
     0
 93
      436
310
42509C9A59DA1D195B8010C409028333333333333E3BF0000000000000FB010790141107004050150841D405064090741402480A029956
 94
        0
1001
ACAD
1000
AcDbSavedByObjectVersion
1070
     0
  0
ACAD_PROXY_OBJECT
  5
20E3
102
{ACAD_REACTORS
330
20D3
102
}
330
20D3
100
AcDbProxyObject
 90
      499
 91
      509
 95
   917527
 70
     0
 93
      460
310
4310DBDB1BDC90DA185B99D9401104090240C333333333333E3BF0000000000000FB0108901411070040501508421405064090741402480A0354
 94
        0
1001
ACAD
1000
AcDbSavedByObjectVersion
1070
     0
  0
ACAD_PROXY_OBJECT
  5
20DC
102
{ACAD_REACTORS
330
20D3
102
}
330
20D3
100
AcDbProxyObject
 90
      499
 91
      509
 95
   917527
 70
     0
 93
      508
310
42D0DBDB98D95C1D1D585B0010940D028333333333333E3BF0000000000000FB0107902409070040501000000000000111010841D405064090740C02480A0340
 94
        0
1001
ACAD
1000
AcDbSavedByObjectVersion
1070
     0
  0
ACAD_PROXY_OBJECT
  5
20DE
102
{ACAD_REACTORS
330
20D3
102
}
330
20D3
100
AcDbProxyObject
 90
      499
 91
      509
 95
   917527
 70
     0
 93
      420
310
41111A5B4010B409028333333333333E3BF0000000000000FB010790141107004050150841D405064090741402480A02677FFFFFD4
 94
        0
1001
ACAD
1000
AcDbSavedByObjectVersion
1070
     0
  0
ACAD_PROXY_OBJECT
  5
20E2
102
{ACAD_REACTORS
330
20D3
102
}
330
20D3
100
AcDbProxyObject
 90
      499
 91
      509
 95
   917527
 70
     0
 93
      452
310
43119858D95C185D1D195C9B8010F409028333333333333E3BF0000000000000FB010790141107004050150841D405064090741402480A0350
 94
        0
1001
ACAD
1000
AcDbSavedByObjectVersion
1070
     0
  0
ACAD_PROXY_OBJECT
  5
20D4
102
{ACAD_REACTORS
330
20D3
102
}
330
20D3
100
AcDbProxyObject
 90
      499
 91
      509
 95
   917527
 70
     0
 93
      396
310
41519B185D00240901404333333333333E3BF0000000000000F9010740A41107004050150841D405064090741402480A1B5A
 94
        0
1001
ACAD
1000
AcDbSavedByObjectVersion
1070
     0
  0
ACAD_PROXY_OBJECT
  5
20D5
102
{ACAD_REACTORS
330
20D3
102
}
330
20D3
100
AcDbProxyObject
 90
      499
 91
      509
 95
   917527
 70
     0
 93
      484
310
43919B185D15DA5D1A115919D95CC010140901404333333333333E3BF0000000000000F9010740901411070040501600405405064090741402480A1B50
 94
        0
1001
ACAD
1000
AcDbSavedByObjectVersion
1070
     0
  0
ACAD_PROXY_OBJECT
  5
20D6
102
{ACAD_REACTORS
330
20D3
102
}
330
20D3
100
AcDbProxyObject
 90
      499
 91
      509
 95
   917527
 70
     0
 93
      420
310
4211DBDD5C985D590010240902404333333333333E3BF0000000000000F9010740A411070040501641D405064090741402480A1B55
 94
        0
1001
ACAD
1000
AcDbSavedByObjectVersion
1070
     0
  0
ACAD_PROXY_OBJECT
  5
20D7
102
{ACAD_REACTORS
330
20D3
102
}
330
20D3
100
AcDbProxyObject
 90
      499
 91
      509
 95
   917527
 70
     0
 93
      508
310
4451DBDD5C985D5915DA5D1A115919D95CC010340902404333333333333E3BF0000000000000F9010740901411070040501600405405064090741402480A1B50
 94
        0
1001
ACAD
1000
AcDbSavedByObjectVersion
1070
     0
  0
ACAD_PROXY_OBJECT
  5
20E1
102
{ACAD_REACTORS
330
20D3
102
}
330
20D3
100
AcDbProxyObject
 90
      499
 91
      509
 95
   917527
 70
     0
 93
      452
310
43131A5B995C185D1D195C9B8010E409028333333333333E3BF0000000000000FB010790141107004050750841D405064090741402483A0350
 94
        0
1001
ACAD
1000
AcDbSavedByObjectVersion
1070
     0
  0
ACAD_PROXY_OBJECT
  5
20DD
102
{ACAD_REACTORS
330
20D3
102
}
330
20D3
100
AcDbProxyObject
 90
      499
 91
      509
 95
   917527
 70
     0
 93
      428
310
429499585B1A5CDD1A58C0108409028333333333333E3BF0000000000000FB01079019070040501508421405064090741402480A1B45
 94
        0
1001
ACAD
1000
AcDbSavedByObjectVersion
1070
     0
  0
ACAD_PROXY_OBJECT
  5
20E0
102
{ACAD_REACTORS
330
20D3
102
}
330
20D3
100
AcDbProxyObject
 90
      499
 91
      509
 95
   917527
 70
     0
 93
      420
310
42151A1A58DAD95B8010D409028333333333333E3BF0000000000000FB010790141107004050150C41D405064090741402480A0354
 94
        0
1001
ACAD
1000
AcDbSavedByObjectVersion
1070
     0
  0
DICTIONARYVAR
  5
24B8
102
{ACAD_REACTORS
330
20B7
102
}
330
20B7
100
DictionaryVariables
280
     0
  1
1:1
  0
DICTIONARYVAR
  5
24B7
102
{ACAD_REACTORS
330
20B7
102
}
330
20B7
100
DictionaryVariables
280
     0
  1
STANDARD
  0
DICTIONARYVAR
  5
24B6
102
{ACAD_REACTORS
330
20B7
102
}
330
20B7
100
DictionaryVariables
280
     0
  1
STANDARD
  0
DICTIONARYVAR
  5
20B8
102
{ACAD_REACTORS
330
20B7
102
}
330
20B7
100
DictionaryVariables
280
     0
  1
1
  0
DICTIONARYVAR
  5
24BA
102
{ACAD_REACTORS
330
20B7
102
}
330
20B7
100
DictionaryVariables
280
     0
  1
0
  0
DICTIONARYVAR
  5
24B9
102
{ACAD_REACTORS
330
20B7
102
}
330
20B7
100
DictionaryVariables
280
     0
  1
127
  0
DICTIONARY
  5
2177
102
{ACAD_REACTORS
330
216A
102
}
330
216A
100
AcDbDictionary
281
     1
  0
DICTIONARY
  5
25CD
330
204C
100
AcDbDictionary
280
     1
281
     1
  3
ACAD_XREC_ROUNDTRIP
360
25CE
  0
DICTIONARY
  5
25CB
330
2048
100
AcDbDictionary
280
     1
281
     1
  3
ACAD_XREC_ROUNDTRIP
360
25CC
  0
DICTIONARY
  5
20C4
330
20C3
100
AcDbDictionary
280
     1
281
     1
  3
ACAD_XREC_ROUNDTRIP
360
25D2
  3
BUMPTILE
360
20C6
  3
DIFFUSETILE
360
20C5
  3
OPACITYTILE
360
20C9
  3
REFLECTIONTILE
360
20C8
  3
REFRACTIONTILE
360
20CA
  3
SPECULARTILE
360
20C7
  0
DICTIONARY
  5
20BC
330
20BB
100
AcDbDictionary
280
     1
281
     1
  3
ACAD_XREC_ROUNDTRIP
360
25D1
  3
BUMPTILE
360
20BE
  3
DIFFUSETILE
360
20BD
  3
OPACITYTILE
360
20C1
  3
REFLECTIONTILE
360
20C0
  3
REFRACTIONTILE
360
20C2
  3
SPECULARTILE
360
20BF
  0
DICTIONARY
  5
20CC
330
20CB
100
AcDbDictionary
280
     1
281
     1
  3
ACAD_XREC_ROUNDTRIP
360
25D3
  3
BUMPTILE
360
20CE
  3
DIFFUSETILE
360
20CD
  3
OPACITYTILE
360
20D1
  3
REFLECTIONTILE
360
20D0
  3
REFRACTIONTILE
360
20D2
  3
SPECULARTILE
360
20CF
  0
DICTIONARY
  5
249B
330
20E6
100
AcDbDictionary
280
     1
281
     1
  3
ACAD_ROUNDTRIP_2008_TABLESTYLE_CELLSTYLEMAP
360
25C3
  3
ACAD_XREC_ROUNDTRIP
360
25D4
  0
XRECORD
  5
25CE
102
{ACAD_REACTORS
330
25CD
102
}
330
25CD
100
AcDbXrecord
280
     1
102
SHADEPLOT
 70
     0
102
SHADEPLOTRESLEVEL
 70
     2
102
SHADEPLOTCUSTOMDPI
 70
   300
  0
XRECORD
  5
25CC
102
{ACAD_REACTORS
330
25CB
102
}
330
25CB
100
AcDbXrecord
280
     1
102
SHADEPLOT
 70
     0
102
SHADEPLOTRESLEVEL
 70
     2
102
SHADEPLOTCUSTOMDPI
 70
   300
  0
XRECORD
  5
25D2
102
{ACAD_REACTORS
330
20C4
102
}
330
20C4
100
AcDbXrecord
280
     1
102
MATERIAL
148
0.0
149
0.0
149
0.0
 93
        0
 94
      127
282
     0
 72
     0
 77
     0
171
     0
175
     0
179
     0
273
     0
  0
XRECORD
  5
20C6
102
{ACAD_REACTORS
330
20C4
102
}
330
20C4
100
AcDbXrecord
280
     1
270
     1
271
     1
  0
XRECORD
  5
20C5
102
{ACAD_REACTORS
330
20C4
102
}
330
20C4
100
AcDbXrecord
280
     1
270
     1
271
     1
  0
XRECORD
  5
20C9
102
{ACAD_REACTORS
330
20C4
102
}
330
20C4
100
AcDbXrecord
280
     1
270
     1
271
     1
  0
XRECORD
  5
20C8
102
{ACAD_REACTORS
330
20C4
102
}
330
20C4
100
AcDbXrecord
280
     1
270
     1
271
     1
  0
XRECORD
  5
20CA
102
{ACAD_REACTORS
330
20C4
102
}
330
20C4
100
AcDbXrecord
280
     1
270
     1
271
     1
  0
XRECORD
  5
20C7
102
{ACAD_REACTORS
330
20C4
102
}
330
20C4
100
AcDbXrecord
280
     1
270
     1
271
     1
  0
XRECORD
  5
25D1
102
{ACAD_REACTORS
330
20BC
102
}
330
20BC
100
AcDbXrecord
280
     1
102
MATERIAL
148
0.0
149
0.0
149
0.0
 93
        0
 94
      127
282
     0
 72
     0
 77
     0
171
     0
175
     0
179
     0
273
     0
  0
XRECORD
  5
20BE
102
{ACAD_REACTORS
330
20BC
102
}
330
20BC
100
AcDbXrecord
280
     1
270
     1
271
     1
  0
XRECORD
  5
20BD
102
{ACAD_REACTORS
330
20BC
102
}
330
20BC
100
AcDbXrecord
280
     1
270
     1
271
     1
  0
XRECORD
  5
20C1
102
{ACAD_REACTORS
330
20BC
102
}
330
20BC
100
AcDbXrecord
280
     1
270
     1
271
     1
  0
XRECORD
  5
20C0
102
{ACAD_REACTORS
330
20BC
102
}
330
20BC
100
AcDbXrecord
280
     1
270
     1
271
     1
  0
XRECORD
  5
20C2
102
{ACAD_REACTORS
330
20BC
102
}
330
20BC
100
AcDbXrecord
280
     1
270
     1
271
     1
  0
XRECORD
  5
20BF
102
{ACAD_REACTORS
330
20BC
102
}
330
20BC
100
AcDbXrecord
280
     1
270
     1
271
     1
  0
XRECORD
  5
25D3
102
{ACAD_REACTORS
330
20CC
102
}
330
20CC
100
AcDbXrecord
280
     1
102
MATERIAL
148
0.0
149
0.0
149
0.0
 93
        0
 94
      127
282
     0
 72
     0
 77
     0
171
     0
175
     0
179
     0
273
     0
  0
XRECORD
  5
20CE
102
{ACAD_REACTORS
330
20CC
102
}
330
20CC
100
AcDbXrecord
280
     1
270
     1
271
     1
  0
XRECORD
  5
20CD
102
{ACAD_REACTORS
330
20CC
102
}
330
20CC
100
AcDbXrecord
280
     1
270
     1
271
     1
  0
XRECORD
  5
20D1
102
{ACAD_REACTORS
330
20CC
102
}
330
20CC
100
AcDbXrecord
280
     1
270
     1
271
     1
  0
XRECORD
  5
20D0
102
{ACAD_REACTORS
330
20CC
102
}
330
20CC
100
AcDbXrecord
280
     1
270
     1
271
     1
  0
XRECORD
  5
20D2
102
{ACAD_REACTORS
330
20CC
102
}
330
20CC
100
AcDbXrecord
280
     1
270
     1
271
     1
  0
XRECORD
  5
20CF
102
{ACAD_REACTORS
330
20CC
102
}
330
20CC
100
AcDbXrecord
280
     1
270
     1
271
     1
  0
ACAD_PROXY_OBJECT
  5
25C3
102
{ACAD_REACTORS
330
249B
102
}
330
249B
100
AcDbProxyObject
 90
      499
 91
      602
 95
   917527
 70
     0
 93
     1044
310
40D054060020000020000003200101A000080002A5058000000C100000000000000340FE901405075F5449544C450041501A8000000C800406800020000A9416000000304000AD7A3703D0AC73FA409014217D2115051115480105406A0000003200101A000080002A5028000000C10002B5E8DC0F42B1CFE903409065F444
310
15441005
340
203C
340
203C
340
203C
 94
        0
  0
XRECORD
  5
25D4
102
{ACAD_REACTORS
330
249B
102
}
330
249B
100
AcDbXrecord
280
     1
102
ACAD_ROUNDTRIP_PRE2007_TABLESTYLE
 90
      512
 91
        0
  1

 92
      512
 93
        0
  2

 94
      512
 95
        0
  3

  0
ENDSEC
  0
EOF
