  0
SECTION
  2
HEADER
  9
$ACADVER
  1
AC1015
  9
$ACADMAINTVER
 70
    14
  9
$DWGCODEPAGE
  3
ANSI_932
  9
$INSBASE
 10
0.0
 20
0.0
 30
0.0
  9
$EXTMIN
 10
78.74351328633816
 20
19.38956962158795
 30
-0.0000000000112498
  9
$EXTMAX
 10
763.5852991211016
 20
674.0106232625801
 30
0.0000000000002956
  9
$LIMMIN
 10
-44.912933
 20
-21.841471
  9
$LIMMAX
 10
153.5627299999999
 20
105.04179
  9
$ORTHOMODE
 70
     0
  9
$REGENMODE
 70
     1
  9
$FILLMODE
 70
     1
  9
$QTEXTMODE
 70
     0
  9
$MIRRTEXT
 70
     1
  9
$LTSCALE
 40
1.0
  9
$ATTMODE
 70
     1
  9
$TEXTSIZE
 40
0.2
  9
$TRACEWID
 40
0.05
  9
$TEXTSTYLE
  7
STANDARD
  9
$CLAYER
  8
0
  9
$CELTYPE
  6
CONTINUOUS
  9
$CECOLOR
 62
   256
  9
$CELTSCALE
 40
1.0
  9
$DISPSILH
 70
     0
  9
$DIMSCALE
 40
1.0
  9
$DIMASZ
 40
1.0
  9
$DIMEXO
 40
2.54
  9
$DIMDLI
 40
0.38
  9
$DIMRND
 40
0.0
  9
$DIMDLE
 40
0.0
  9
$DIMEXE
 40
2.54
  9
$DIMTP
 40
0.0
  9
$DIMTM
 40
0.0
  9
$DIMTXT
 40
3.2
  9
$DIMCEN
 40
0.09
  9
$DIMTSZ
 40
0.0
  9
$DIMTOL
 70
     0
  9
$DIMLIM
 70
     0
  9
$DIMTIH
 70
     0
  9
$DIMTOH
 70
     0
  9
$DIMSE1
 70
     0
  9
$DIMSE2
 70
     0
  9
$DIMTAD
 70
     1
  9
$DIMZIN
 70
     0
  9
$DIMBLK
  1

  9
$DIMASO
 70
     1
  9
$DIMSHO
 70
     0
  9
$DIMPOST
  1

  9
$DIMAPOST
  1

  9
$DIMALT
 70
     0
  9
$DIMALTD
 70
     2
  9
$DIMALTF
 40
25.4
  9
$DIMLFAC
 40
1.0
  9
$DIMTOFL
 70
     0
  9
$DIMTVP
 40
1.0
  9
$DIMTIX
 70
     0
  9
$DIMSOXD
 70
     0
  9
$DIMSAH
 70
     1
  9
$DIMBLK1
  1

  9
$DIMBLK2
  1

  9
$DIMSTYLE
  2
STANDARD
  9
$DIMCLRD
 70
     0
  9
$DIMCLRE
 70
     0
  9
$DIMCLRT
 70
     0
  9
$DIMTFAC
 40
1.0
  9
$DIMGAP
 40
1.6
  9
$DIMJUST
 70
     0
  9
$DIMSD1
 70
     0
  9
$DIMSD2
 70
     0
  9
$DIMTOLJ
 70
     1
  9
$DIMTZIN
 70
     0
  9
$DIMALTZ
 70
     0
  9
$DIMALTTZ
 70
     0
  9
$DIMUPT
 70
     0
  9
$DIMDEC
 70
     4
  9
$DIMTDEC
 70
     4
  9
$DIMALTU
 70
     2
  9
$DIMALTTD
 70
     2
  9
$DIMTXSTY
  7
STANDARD
  9
$DIMAUNIT
 70
     0
  9
$DIMADEC
 70
     0
  9
$DIMALTRND
 40
0.0
  9
$DIMAZIN
 70
     0
  9
$DIMDSEP
 70
    46
  9
$DIMATFIT
 70
     3
  9
$DIMFRAC
 70
     0
  9
$DIMLDRBLK
  1

  9
$DIMLUNIT
 70
     2
  9
$DIMLWD
 70
    -2
  9
$DIMLWE
 70
    -2
  9
$DIMTMOVE
 70
     0
  9
$LUNITS
 70
     2
  9
$LUPREC
 70
     4
  9
$SKETCHINC
 40
0.1
  9
$FILLETRAD
 40
0.0
  9
$AUNITS
 70
     0
  9
$AUPREC
 70
     0
  9
$MENU
  1
.
  9
$ELEVATION
 40
0.0
  9
$PELEVATION
 40
0.0
  9
$THICKNESS
 40
0.0
  9
$LIMCHECK
 70
     0
  9
$CHAMFERA
 40
0.0
  9
$CHAMFERB
 40
0.0
  9
$CHAMFERC
 40
0.0
  9
$CHAMFERD
 40
0.0
  9
$SKPOLY
 70
     0
  9
$TDCREATE
 40
2452488.423151215
  9
$TDUCREATE
 40
2452488.048151215
  9
$TDUPDATE
 40
2456899.667138692
  9
$TDUUPDATE
 40
2456899.292138692
  9
$TDINDWG
 40
0.0994602431
  9
$TDUSRTIMER
 40
0.0994597106
  9
$USRTIMER
 70
     1
  9
$ANGBASE
 50
0.0
  9
$ANGDIR
 70
     0
  9
$PDMODE
 70
     0
  9
$PDSIZE
 40
0.0
  9
$PLINEWID
 40
0.0
  9
$SPLFRAME
 70
     0
  9
$SPLINETYPE
 70
     6
  9
$SPLINESEGS
 70
     8
  9
$HANDSEED
  5
2116
  9
$SURFTAB1
 70
     6
  9
$SURFTAB2
 70
     6
  9
$SURFTYPE
 70
     6
  9
$SURFU
 70
     6
  9
$SURFV
 70
     6
  9
$UCSBASE
  2

  9
$UCSNAME
  2

  9
$UCSORG
 10
0.0
 20
0.0
 30
0.0
  9
$UCSXDIR
 10
1.0
 20
0.0
 30
0.0
  9
$UCSYDIR
 10
0.0
 20
1.0
 30
0.0
  9
$UCSORTHOREF
  2

  9
$UCSORTHOVIEW
 70
     0
  9
$UCSORGTOP
 10
0.0
 20
0.0
 30
0.0
  9
$UCSORGBOTTOM
 10
0.0
 20
0.0
 30
0.0
  9
$UCSORGLEFT
 10
0.0
 20
0.0
 30
0.0
  9
$UCSORGRIGHT
 10
0.0
 20
0.0
 30
0.0
  9
$UCSORGFRONT
 10
0.0
 20
0.0
 30
0.0
  9
$UCSORGBACK
 10
0.0
 20
0.0
 30
0.0
  9
$PUCSBASE
  2

  9
$PUCSNAME
  2

  9
$PUCSORG
 10
0.0
 20
0.0
 30
0.0
  9
$PUCSXDIR
 10
1.0
 20
0.0
 30
0.0
  9
$PUCSYDIR
 10
0.0
 20
1.0
 30
0.0
  9
$PUCSORTHOREF
  2

  9
$PUCSORTHOVIEW
 70
     0
  9
$PUCSORGTOP
 10
0.0
 20
0.0
 30
0.0
  9
$PUCSORGBOTTOM
 10
0.0
 20
0.0
 30
0.0
  9
$PUCSORGLEFT
 10
0.0
 20
0.0
 30
0.0
  9
$PUCSORGRIGHT
 10
0.0
 20
0.0
 30
0.0
  9
$PUCSORGFRONT
 10
0.0
 20
0.0
 30
0.0
  9
$PUCSORGBACK
 10
0.0
 20
0.0
 30
0.0
  9
$USERI1
 70
     0
  9
$USERI2
 70
     0
  9
$USERI3
 70
     0
  9
$USERI4
 70
     0
  9
$USERI5
 70
     0
  9
$USERR1
 40
0.0
  9
$USERR2
 40
0.0
  9
$USERR3
 40
0.0
  9
$USERR4
 40
0.0
  9
$USERR5
 40
0.0
  9
$WORLDVIEW
 70
     1
  9
$SHADEDGE
 70
     3
  9
$SHADEDIF
 70
    70
  9
$TILEMODE
 70
     1
  9
$MAXACTVP
 70
    48
  9
$PINSBASE
 10
0.0
 20
0.0
 30
0.0
  9
$PLIMCHECK
 70
     0
  9
$PEXTMIN
 10
-44.912933
 20
-21.841471
 30
0.0
  9
$PEXTMAX
 10
153.5627299999999
 20
105.04179
 30
0.0
  9
$PLIMMIN
 10
-44.912933
 20
-21.841471
  9
$PLIMMAX
 10
153.5627299999999
 20
105.04179
  9
$UNITMODE
 70
     0
  9
$VISRETAIN
 70
     1
  9
$PLINEGEN
 70
     0
  9
$PSLTSCALE
 70
     1
  9
$TREEDEPTH
 70
  3020
  9
$CMLSTYLE
  2
Standard
  9
$CMLJUST
 70
     0
  9
$CMLSCALE
 40
1.0
  9
$PROXYGRAPHICS
 70
     1
  9
$MEASUREMENT
 70
     0
  9
$CELWEIGHT
370
    -1
  9
$ENDCAPS
280
     0
  9
$JOINSTYLE
280
     0
  9
$LWDISPLAY
290
     0
  9
$INSUNITS
 70
     0
  9
$HYPERLINKBASE
  1

  9
$STYLESHEET
  1

  9
$XEDIT
290
     1
  9
$CEPSNTYPE
380
     0
  9
$PSTYLEMODE
290
     1
  9
$FINGERPRINTGUID
  2
{D43F086A-D6F8-4275-AEA7-F359BE9C8B75}
  9
$VERSIONGUID
  2
{CB76A21A-05DA-4540-82CC-5B4CFB30C4E2}
  9
$EXTNAMES
290
     1
  9
$PSVPSCALE
 40
0.0
  9
$OLESTARTUP
290
     0
  0
ENDSEC
  0
SECTION
  2
CLASSES
  0
CLASS
  1
ACDBDICTIONARYWDFLT
  2
AcDbDictionaryWithDefault
  3
AutoCAD 2000
 90
        0
280
     0
281
     0
  0
CLASS
  1
ACDBPLACEHOLDER
  2
AcDbPlaceHolder
  3
AutoCAD 2000
 90
        0
280
     0
281
     0
  0
CLASS
  1
LAYOUT
  2
AcDbLayout
  3
AutoCAD 2000
 90
        0
280
     0
281
     0
  0
CLASS
  1
DICTIONARYVAR
  2
AcDbDictionaryVar
  3
AutoCAD 2000
 90
        0
280
     0
281
     0
  0
CLASS
  1
LONG_TRANSACTION
  2
AcDbLongTransaction
  3
AutoCAD 2000
 90
    32768
280
     0
281
     0
  0
CLASS
  1
LWPOLYLINE
  2
AcDbPolyline
  3
AutoCAD 2000
 90
    32768
280
     0
281
     1
  0
CLASS
  1
HATCH
  2
AcDbHatch
  3
AutoCAD 2000
 90
    32768
280
     0
281
     1
  0
CLASS
  1
XRECORD
  2
AcDbXrecord
  3
AutoCAD 2000
 90
    32768
280
     0
281
     0
  0
ENDSEC
  0
SECTION
  2
TABLES
  0
TABLE
  2
VPORT
  5
1FFF
330
0
100
AcDbSymbolTable
 70
     2
  0
VPORT
  5
2115
330
1FFF
100
AcDbSymbolTableRecord
100
AcDbViewportTableRecord
  2
*Active
 70
     0
 10
0.0
 20
0.0
 11
1.0
 21
1.0
 12
421.1644062037199
 22
346.7000964420839
 13
0.0
 23
0.0
 14
1.0
 24
1.0
 15
0.0
 25
0.0
 16
0.0
 26
0.0
 36
1.0
 17
0.0
 27
0.0
 37
0.0
 40
658.7773777910935
 41
1.592161016949152
 42
50.0
 43
0.0
 44
0.0
 50
0.0
 51
0.0
 71
     0
 72
   100
 73
     1
 74
     3
 75
     0
 76
     0
 77
     0
 78
     0
281
     0
 65
     1
110
0.0
120
0.0
130
0.0
111
1.0
121
0.0
131
0.0
112
0.0
122
1.0
132
0.0
 79
     0
146
0.0
  0
ENDTAB
  0
TABLE
  2
LTYPE
  5
1FFC
330
0
100
AcDbSymbolTable
 70
     2
  0
LTYPE
  5
200A
330
1FFC
100
AcDbSymbolTableRecord
100
AcDbLinetypeTableRecord
  2
ByBlock
 70
     0
  3

 72
    65
 73
     0
 40
0.0
  0
LTYPE
  5
200B
330
1FFC
100
AcDbSymbolTableRecord
100
AcDbLinetypeTableRecord
  2
ByLayer
 70
     0
  3

 72
    65
 73
     0
 40
0.0
  0
LTYPE
  5
200C
330
1FFC
100
AcDbSymbolTableRecord
100
AcDbLinetypeTableRecord
  2
CONTINUOUS
 70
     0
  3
Solid line
 72
    65
 73
     0
 40
0.0
  0
LTYPE
  5
20D9
330
1FFC
100
AcDbSymbolTableRecord
100
AcDbLinetypeTableRecord
  2
CENTER
 70
     0
  3
__ . __
 72
    65
 73
     4
 40
7.0
 49
4.0
 74
     0
 49
-1.0
 74
     0
 49
1.0
 74
     0
 49
-1.0
 74
     0
  0
ENDTAB
  0
TABLE
  2
LAYER
  5
1FF9
102
{ACAD_XDICTIONARY
360
206B
102
}
330
0
100
AcDbSymbolTable
 70
     1
  0
LAYER
  5
2007
330
1FF9
100
AcDbSymbolTableRecord
100
AcDbLayerTableRecord
  2
0
 70
     0
 62
     7
  6
CONTINUOUS
370
    -3
390
2006
  0
ENDTAB
  0
TABLE
  2
STYLE
  5
1FFA
330
0
100
AcDbSymbolTable
 70
     1
  0
STYLE
  5
2008
330
1FFA
100
AcDbSymbolTableRecord
100
AcDbTextStyleTableRecord
  2
STANDARD
 70
     0
 40
0.0
 41
1.0
 50
0.0
 71
     0
 42
0.2
  3
txt
  4

  0
ENDTAB
  0
TABLE
  2
VIEW
  5
1FFD
330
0
100
AcDbSymbolTable
 70
     0
  0
ENDTAB
  0
TABLE
  2
UCS
  5
1FFE
330
0
100
AcDbSymbolTable
 70
     0
  0
ENDTAB
  0
TABLE
  2
APPID
  5
2000
330
0
100
AcDbSymbolTable
 70
    10
  0
APPID
  5
2009
330
2000
100
AcDbSymbolTableRecord
100
AcDbRegAppTableRecord
  2
ACAD
 70
     0
  0
APPID
  5
201A
330
2000
100
AcDbSymbolTableRecord
100
AcDbRegAppTableRecord
  2
MCAD_NO_VIS
 70
     0
  0
APPID
  5
201B
330
2000
100
AcDbSymbolTableRecord
100
AcDbRegAppTableRecord
  2
ACAD_TEMP_GRAPHIC
 70
     0
  0
APPID
  5
201C
330
2000
100
AcDbSymbolTableRecord
100
AcDbRegAppTableRecord
  2
ACATTRIBSERVICES
 70
     0
  0
APPID
  5
2065
330
2000
100
AcDbSymbolTableRecord
100
AcDbRegAppTableRecord
  2
ACAD_DSTYLE_DIMARC_LENGTH_SYMBOL
 70
     0
  0
APPID
  5
2066
330
2000
100
AcDbSymbolTableRecord
100
AcDbRegAppTableRecord
  2
ACAD_DSTYLE_DIMJOGGED_JOGANGLE_SYMBOL
 70
     0
  0
APPID
  5
2067
330
2000
100
AcDbSymbolTableRecord
100
AcDbRegAppTableRecord
  2
AcAecLayerStandard
 70
     0
  0
APPID
  5
2068
330
2000
100
AcDbSymbolTableRecord
100
AcDbRegAppTableRecord
  2
ACAD_DSTYLE_DIMEXT_LENGTH
 70
     0
  0
APPID
  5
2069
330
2000
100
AcDbSymbolTableRecord
100
AcDbRegAppTableRecord
  2
ACAD_DSTYLE_DIMEXT_ENABLED
 70
     0
  0
APPID
  5
206A
330
2000
100
AcDbSymbolTableRecord
100
AcDbRegAppTableRecord
  2
ACAD_PSEXT
 70
     0
  0
ENDTAB
  0
TABLE
  2
DIMSTYLE
  5
2001
330
0
100
AcDbSymbolTable
 70
     1
100
AcDbDimStyleTable
 71
     0
  0
DIMSTYLE
105
201D
330
2001
100
AcDbSymbolTableRecord
100
AcDbDimStyleTableRecord
  2
STANDARD
 70
     0
279
     2
340
2008
  0
ENDTAB
  0
TABLE
  2
BLOCK_RECORD
  5
1FF8
330
0
100
AcDbSymbolTable
 70
     0
  0
BLOCK_RECORD
  5
2015
102
{ACAD_XDICTIONARY
360
2025
102
}
330
1FF8
100
AcDbSymbolTableRecord
100
AcDbBlockTableRecord
  2
*Model_Space
340
2018
  0
BLOCK_RECORD
  5
2011
102
{ACAD_XDICTIONARY
360
2027
102
}
330
1FF8
100
AcDbSymbolTableRecord
100
AcDbBlockTableRecord
  2
*Paper_Space
340
2014
  0
ENDTAB
  0
ENDSEC
  0
SECTION
  2
BLOCKS
  0
BLOCK
  5
2016
330
2015
100
AcDbEntity
  8
0
100
AcDbBlockBegin
  2
*Model_Space
 70
     0
 10
0.0
 20
0.0
 30
0.0
  3
*Model_Space
  1

  0
ENDBLK
  5
2017
330
2015
100
AcDbEntity
  8
0
100
AcDbBlockEnd
  0
BLOCK
  5
2012
330
2011
100
AcDbEntity
 67
     1
  8
0
100
AcDbBlockBegin
  2
*Paper_Space
 70
     0
 10
0.0
 20
0.0
 30
0.0
  3
*Paper_Space
  1

  0
ENDBLK
  5
2013
330
2011
100
AcDbEntity
 67
     1
  8
0
100
AcDbBlockEnd
  0
ENDSEC
  0
SECTION
  2
ENTITIES
  0
LINE
  5
1251
330
2015
100
AcDbEntity
  8
0
100
AcDbLine
 10
377.6604956314968
 20
155.8499719999998
 30
0.0
 11
377.6604956314968
 21
35.99998500000003
 31
0.0
  0
LINE
  5
1252
330
2015
100
AcDbEntity
  8
0
100
AcDbLine
 10
377.6604956314968
 20
35.99998500000003
 30
0.0
 11
337.6604956314968
 21
35.99998500000003
 31
0.0
  0
LINE
  5
1253
330
2015
100
AcDbEntity
  8
0
100
AcDbLine
 10
337.6604956314968
 20
155.8499719999998
 30
0.0
 11
337.6604956314968
 21
35.99998500000003
 31
0.0
  0
LINE
  5
1254
330
2015
100
AcDbEntity
  8
0
100
AcDbLine
 10
377.6604956314968
 20
155.8499719999998
 30
0.0
 11
337.6604956314968
 21
155.8499719999998
 31
0.0
  0
LINE
  5
125D
330
2015
100
AcDbEntity
  8
0
100
AcDbLine
 10
329.5750486314968
 20
200.3054099999998
 30
0.0
 11
377.8012393449279
 21
208.8089827472706
 31
0.0
  0
LINE
  5
125F
330
2015
100
AcDbEntity
  8
0
100
AcDbLine
 10
316.5965976314968
 20
181.7702719999996
 30
0.0
 11
329.5750506314968
 21
200.30542
 31
0.0
  0
LINE
  5
1260
330
2015
100
AcDbEntity
  8
0
100
AcDbLine
 10
316.5965956314968
 20
181.7702779999997
 30
0.0
 11
319.3034006314968
 21
175.9655159999998
 31
0.0
  0
LINE
  5
1261
330
2015
100
AcDbEntity
  8
0
100
AcDbLine
 10
329.2632786314968
 20
180.115297
 30
0.0
 11
331.7626396314968
 21
184.4443169999998
 31
0.0
  0
LINE
  5
1262
330
2015
100
AcDbEntity
  8
0
100
AcDbLine
 10
331.7626186314968
 20
184.4443109999996
 30
0.0
 11
340.4268106314968
 21
185.972042
 31
0.0
  0
LINE
  5
1264
330
2015
100
AcDbEntity
  8
0
100
AcDbLine
 10
376.6604956314968
 20
187.8999939999999
 30
0.0
 11
376.6604956314968
 21
180.84996
 31
0.0
  0
LINE
  5
1265
330
2015
100
AcDbEntity
  8
0
100
AcDbLine
 10
338.6604956314968
 20
185.1529389999998
 30
0.0
 11
338.6604956314968
 21
180.84996
 31
0.0
  0
LINE
  5
1266
330
2015
100
AcDbEntity
  8
0
100
AcDbLine
 10
376.6604956314968
 20
187.8999789999995
 30
0.0
 11
374.8941996314968
 21
187.8999789999995
 31
0.0
  0
LINE
  5
1267
330
2015
100
AcDbEntity
  8
0
100
AcDbLine
 10
374.8941686314968
 20
208.29642
 30
0.0
 11
374.8941686314968
 21
187.8999939999999
 31
0.0
  0
LINE
  5
1268
330
2015
100
AcDbEntity
  8
0
100
AcDbLine
 10
340.4267916314968
 20
202.2188899999997
 30
0.0
 11
340.4267916314968
 21
185.4643859999999
 31
0.0
  0
LINE
  5
1269
330
2015
100
AcDbEntity
  8
0
100
AcDbLine
 10
340.4268036314967
 20
185.4643579999997
 30
0.0
 11
338.6605036314968
 21
185.152912
 31
0.0
  0
LINE
  5
126A
330
2015
100
AcDbEntity
  8
0
100
AcDbLine
 10
370.5057406314967
 20
207.52261
 30
0.0
 11
370.5057406314967
 21
187.8999939999999
 31
0.0
  0
LINE
  5
126B
330
2015
100
AcDbEntity
  8
0
100
AcDbLine
 10
344.8152506314968
 20
202.9926899999999
 30
0.0
 11
344.8152506314968
 21
187.8999789999995
 31
0.0
  0
LINE
  5
126C
330
2015
100
AcDbEntity
  8
0
100
AcDbLine
 10
370.5057406314967
 20
187.8999789999995
 30
0.0
 11
344.8152506314968
 21
187.8999789999995
 31
0.0
  0
LINE
  5
126D
330
2015
100
AcDbEntity
  8
0
100
AcDbLine
 10
337.6605566314968
 20
180.84996
 30
0.0
 11
362.6604956314968
 21
180.84996
 31
0.0
  0
LINE
  5
126E
330
2015
100
AcDbEntity
  8
0
100
AcDbLine
 10
367.6604956314968
 20
185.84996
 30
0.0
 11
367.6604956314968
 21
156.049969
 31
0.0
  0
LINE
  5
126F
330
2015
100
AcDbEntity
  8
0
100
AcDbLine
 10
362.6604956314968
 20
185.84996
 30
0.0
 11
362.6604956314968
 21
175.84996
 31
0.0
  0
LINE
  5
1270
330
2015
100
AcDbEntity
  8
0
100
AcDbLine
 10
319.3572726314968
 20
175.84996
 30
0.0
 11
367.6604956314968
 21
175.84996
 31
0.0
  0
LINE
  5
1271
330
2015
100
AcDbEntity
  8
0
100
AcDbLine
 10
325.1661846314968
 20
179.756837
 30
0.0
 11
322.9105386314968
 21
175.849944
 31
0.0
  0
LINE
  5
1272
330
2015
100
AcDbEntity
  8
0
100
AcDbLine
 10
325.1661576314968
 20
179.756885
 30
0.0
 11
337.6605156314968
 21
180.8499989999995
 31
0.0
  0
LINE
  5
1273
330
2015
100
AcDbEntity
  8
0
100
AcDbLine
 10
344.1604956314968
 20
175.84996
 30
0.0
 11
344.1604956314968
 21
158.8499569999999
 31
0.0
  0
LINE
  5
1274
330
2015
100
AcDbEntity
  8
0
100
AcDbLine
 10
362.6604956314968
 20
185.84996
 30
0.0
 11
367.6604956314968
 21
185.84996
 31
0.0
  0
LINE
  5
1275
330
2015
100
AcDbEntity
  8
0
100
AcDbLine
 10
335.1604956314968
 20
153.8499719999998
 30
0.0
 11
337.6604956314968
 21
153.8499719999998
 31
0.0
  0
LINE
  5
1276
330
2015
100
AcDbEntity
  8
0
100
AcDbLine
 10
335.1604956314968
 20
158.8499569999999
 30
0.0
 11
367.6604956314968
 21
158.8499569999999
 31
0.0
  0
LINE
  5
1277
330
2015
100
AcDbEntity
  8
0
100
AcDbLine
 10
337.6604956314968
 20
155.8499719999998
 30
0.0
 11
337.6604956314968
 21
153.8499719999998
 31
0.0
  0
LINE
  5
1278
330
2015
100
AcDbEntity
  8
0
100
AcDbLine
 10
335.1604956314968
 20
158.8499569999999
 30
0.0
 11
335.1604956314968
 21
153.8499719999998
 31
0.0
  0
LINE
  5
1279
330
2015
100
AcDbEntity
  8
0
100
AcDbLine
 10
367.6604956314968
 20
180.84996
 30
0.0
 11
376.6604956314968
 21
180.84996
 31
0.0
  0
LINE
  5
127A
330
2015
100
AcDbEntity
  8
0
100
AcDbLine
 10
374.8941816314967
 20
192.0495689999999
 30
0.0
 11
378.6394664441167
 21
192.7099642665295
 31
0.0
  0
CIRCLE
  5
1282
330
2015
100
AcDbEntity
  8
0
100
AcDbCircle
 10
350.6604956314968
 20
195.8999939999999
 30
0.0
 40
4.150000099999997
  0
CIRCLE
  5
1283
330
2015
100
AcDbEntity
  8
0
100
AcDbCircle
 10
350.6604956314968
 20
195.8999939999999
 30
0.0
 40
4.150000099999997
  0
LINE
  5
1289
330
2015
100
AcDbEntity
  8
0
100
AcDbLine
 10
126.4070086314965
 20
155.8499909999999
 30
0.0
 11
188.9139826314968
 21
155.8499909999999
 31
0.0
  0
LINE
  5
128A
330
2015
100
AcDbEntity
  8
0
100
AcDbLine
 10
144.1604956314968
 20
175.8499909999999
 30
0.0
 11
144.1604956314968
 21
158.8499909999999
 31
0.0
  0
LINE
  5
128B
330
2015
100
AcDbEntity
  8
0
100
AcDbLine
 10
171.1604956314968
 20
175.8499909999999
 30
0.0
 11
171.1604956314968
 21
158.8499909999999
 31
0.0
  0
LINE
  5
128C
330
2015
100
AcDbEntity
  8
0
100
AcDbLine
 10
127.6604956314967
 20
158.8499909999999
 30
0.0
 11
187.6604956314968
 21
158.8499909999999
 31
0.0
  0
LINE
  5
128D
330
2015
100
AcDbEntity
  8
0
100
AcDbLine
 10
187.6604956314968
 20
158.8499909999999
 30
0.0
 11
187.6604956314968
 21
155.8499909999999
 31
0.0
  0
LINE
  5
128E
330
2015
100
AcDbEntity
  8
0
100
AcDbLine
 10
127.6604956314967
 20
158.8499909999999
 30
0.0
 11
127.6604956314967
 21
155.8499909999999
 31
0.0
  0
LINE
  5
128F
330
2015
100
AcDbEntity
  8
0
100
AcDbLine
 10
112.6604956314966
 20
175.8499909999999
 30
0.0
 11
202.6604956314968
 21
175.8499909999999
 31
0.0
  0
LINE
  5
1290
330
2015
100
AcDbEntity
  8
0
100
AcDbLine
 10
125.1661746314967
 20
179.756957
 30
0.0
 11
122.9104836314967
 21
175.8499849999997
 31
0.0
  0
LINE
  5
1291
330
2015
100
AcDbEntity
  8
0
100
AcDbLine
 10
125.1661946314966
 20
179.756972
 30
0.0
 11
137.6604906314968
 21
180.8500809999997
 31
0.0
  0
LINE
  5
1292
330
2015
100
AcDbEntity
  8
0
100
AcDbLine
 10
122.6605566314967
 20
185.8499909999999
 30
0.0
 11
112.6604956314966
 21
185.8499909999999
 31
0.0
  0
LINE
  5
1293
330
2015
100
AcDbEntity
  8
0
100
AcDbLine
 10
112.6604956314966
 20
185.8499909999999
 30
0.0
 11
112.6604956314966
 21
175.8499909999999
 31
0.0
  0
LINE
  5
1294
330
2015
100
AcDbEntity
  8
0
100
AcDbLine
 10
122.6605416314968
 20
185.8499799999997
 30
0.0
 11
132.1549506314968
 21
180.3683799999998
 31
0.0
  0
LINE
  5
1295
330
2015
100
AcDbEntity
  8
0
100
AcDbLine
 10
177.6611666314968
 20
180.8499909999999
 30
0.0
 11
160.6604956314968
 21
180.8499909999999
 31
0.0
  0
LINE
  5
1296
330
2015
100
AcDbEntity
  8
0
100
AcDbLine
 10
190.1548406314968
 20
179.7569449999998
 30
0.0
 11
192.4105176314968
 21
175.8499989999999
 31
0.0
  0
LINE
  5
1297
330
2015
100
AcDbEntity
  8
0
100
AcDbLine
 10
190.1548496314964
 20
179.7569439999998
 30
0.0
 11
177.6611906314968
 21
180.849998
 31
0.0
  0
LINE
  5
1298
330
2015
100
AcDbEntity
  8
0
100
AcDbLine
 10
192.6604956314968
 20
185.8499909999999
 30
0.0
 11
202.6604956314968
 21
185.8499909999999
 31
0.0
  0
LINE
  5
1299
330
2015
100
AcDbEntity
  8
0
100
AcDbLine
 10
202.6604956314968
 20
185.8499909999999
 30
0.0
 11
202.6604956314968
 21
175.8499909999999
 31
0.0
  0
LINE
  5
129A
330
2015
100
AcDbEntity
  8
0
100
AcDbLine
 10
192.6605106314968
 20
185.8499659999999
 30
0.0
 11
183.1660816314968
 21
180.3683549999998
 31
0.0
  0
LINE
  5
129B
330
2015
100
AcDbEntity
  8
0
100
AcDbLine
 10
154.6604956314968
 20
202.7705099999999
 30
0.0
 11
154.6604956314968
 21
178.8499909999999
 31
0.0
  0
LINE
  5
129C
330
2015
100
AcDbEntity
  8
0
100
AcDbLine
 10
160.6604956314968
 20
202.7705099999999
 30
0.0
 11
160.6604956314968
 21
178.8499909999999
 31
0.0
  0
LINE
  5
129D
330
2015
100
AcDbEntity
  8
0
100
AcDbLine
 10
165.6604956314968
 20
208.2933199999999
 30
0.0
 11
165.6604956314968
 21
187.9000089999998
 31
0.0
  0
LINE
  5
129E
330
2015
100
AcDbEntity
  8
0
100
AcDbLine
 10
171.6604956314968
 20
207.3376899999999
 30
0.0
 11
165.6604956314968
 21
207.3376899999999
 31
0.0
  0
LINE
  5
129F
330
2015
100
AcDbEntity
  8
0
100
AcDbLine
 10
176.6604956314968
 20
187.9000089999998
 30
0.0
 11
176.6604956314968
 21
180.8499909999999
 31
0.0
  0
LINE
  5
12A0
330
2015
100
AcDbEntity
  8
0
100
AcDbLine
 10
149.6604956314968
 20
208.2933199999999
 30
0.0
 11
149.6604956314968
 21
187.9000089999998
 31
0.0
  0
LINE
  5
12A1
330
2015
100
AcDbEntity
  8
0
100
AcDbLine
 10
143.6604956314968
 20
207.3376899999999
 30
0.0
 11
143.6604956314968
 21
187.9000089999998
 31
0.0
  0
LINE
  5
12A2
330
2015
100
AcDbEntity
  8
0
100
AcDbLine
 10
143.6604956314968
 20
207.3376899999999
 30
0.0
 11
149.6604956314968
 21
207.3376899999999
 31
0.0
  0
LINE
  5
12A3
330
2015
100
AcDbEntity
  8
0
100
AcDbLine
 10
138.6604956314965
 20
187.9000089999998
 30
0.0
 11
138.6604956314965
 21
180.8499909999999
 31
0.0
  0
LINE
  5
12A4
330
2015
100
AcDbEntity
  8
0
100
AcDbLine
 10
176.6604956314968
 20
187.9000089999998
 30
0.0
 11
171.6604956314968
 21
187.9000089999998
 31
0.0
  0
LINE
  5
12A5
330
2015
100
AcDbEntity
  8
0
100
AcDbLine
 10
171.6604956314968
 20
207.3376899999999
 30
0.0
 11
171.6604956314968
 21
187.9000089999998
 31
0.0
  0
LINE
  5
12A8
330
2015
100
AcDbEntity
  8
0
100
AcDbLine
 10
149.6604956314968
 20
208.2933199999999
 30
0.0
 11
165.6604956314968
 21
208.2933199999999
 31
0.0
  0
LINE
  5
12AA
330
2015
100
AcDbEntity
  8
0
100
AcDbLine
 10
149.6604956314968
 20
202.7705099999999
 30
0.0
 11
154.6604956314968
 21
202.7705099999999
 31
0.0
  0
LINE
  5
12AB
330
2015
100
AcDbEntity
  8
0
100
AcDbLine
 10
160.6604956314968
 20
202.7705099999999
 30
0.0
 11
165.6604956314968
 21
202.7705099999999
 31
0.0
  0
LINE
  5
12AC
330
2015
100
AcDbEntity
  8
0
100
AcDbLine
 10
154.6604956314968
 20
187.9000089999998
 30
0.0
 11
149.6604956314968
 21
187.9000089999998
 31
0.0
  0
LINE
  5
12AD
330
2015
100
AcDbEntity
  8
0
100
AcDbLine
 10
154.6604956314968
 20
180.8499909999999
 30
0.0
 11
137.6604956314965
 21
180.8499909999999
 31
0.0
  0
LINE
  5
12AE
330
2015
100
AcDbEntity
  8
0
100
AcDbLine
 10
143.6604956314968
 20
187.9000089999998
 30
0.0
 11
138.6604956314965
 21
187.9000089999998
 31
0.0
  0
LINE
  5
12AF
330
2015
100
AcDbEntity
  8
0
100
AcDbLine
 10
165.6604956314968
 20
187.9000089999998
 30
0.0
 11
160.6604956314968
 21
187.9000089999998
 31
0.0
  0
ARC
  5
12B0
330
2015
100
AcDbEntity
  8
0
100
AcDbCircle
 10
157.6604956314968
 20
100.0
 30
0.0
 40
64.00001500000001
100
AcDbArc
 50
119.231240000001
 51
60.76875300000089
  0
CIRCLE
  5
12B1
330
2015
100
AcDbEntity
  8
0
100
AcDbCircle
 10
157.6604956314968
 20
100.0
 30
0.0
 40
31.749992
  0
CIRCLE
  5
12B2
330
2015
100
AcDbEntity
  8
0
100
AcDbCircle
 10
117.6604956314966
 20
180.8499909999999
 30
0.0
 40
2.6500001
  0
CIRCLE
  5
12B3
330
2015
100
AcDbEntity
  8
0
100
AcDbCircle
 10
197.6604956314968
 20
180.8499909999999
 30
0.0
 40
2.6500001
  0
ARC
  5
12B4
330
2015
100
AcDbEntity
  8
0
100
AcDbCircle
 10
157.6604956314968
 20
178.8499909999999
 30
0.0
 40
3.0
100
AcDbArc
 50
179.9999899999988
 51
0.0
  0
LINE
  5
12BD
330
2015
100
AcDbEntity
  8
0
100
AcDbLine
 10
715.9325385510213
 20
155.8499719999998
 30
0.0
 11
653.4254965510215
 21
155.8499719999998
 31
0.0
  0
LINE
  5
12BE
330
2015
100
AcDbEntity
  8
0
100
AcDbLine
 10
671.1790175510214
 20
175.8499759999998
 30
0.0
 11
671.1790175510214
 21
158.8499719999998
 31
0.0
  0
LINE
  5
12BF
330
2015
100
AcDbEntity
  8
0
100
AcDbLine
 10
698.1790175510212
 20
175.8499759999998
 30
0.0
 11
698.1790175510212
 21
158.8499719999998
 31
0.0
  0
LINE
  5
12C0
330
2015
100
AcDbEntity
  8
0
100
AcDbLine
 10
654.6790175510214
 20
158.8499719999998
 30
0.0
 11
671.1790175510214
 21
158.8499719999998
 31
0.0
  0
LINE
  5
12C1
330
2015
100
AcDbEntity
  8
0
100
AcDbLine
 10
714.6790175510212
 20
158.8499719999998
 30
0.0
 11
714.6790175510212
 21
155.8499719999998
 31
0.0
  0
LINE
  5
12C2
330
2015
100
AcDbEntity
  8
0
100
AcDbLine
 10
654.6790175510214
 20
158.8499719999998
 30
0.0
 11
654.6790175510214
 21
155.8499719999998
 31
0.0
  0
LINE
  5
12C3
330
2015
100
AcDbEntity
  8
0
100
AcDbLine
 10
639.6790175510212
 20
175.8499759999998
 30
0.0
 11
671.1790175510214
 21
175.8499759999998
 31
0.0
  0
LINE
  5
12C4
330
2015
100
AcDbEntity
  8
0
100
AcDbLine
 10
659.1734645510216
 20
180.3683849999999
 30
0.0
 11
664.6790105510214
 21
180.850058
 31
0.0
  0
LINE
  5
12C5
330
2015
100
AcDbEntity
  8
0
100
AcDbLine
 10
649.6790675510212
 20
185.8499759999997
 30
0.0
 11
639.6790175510212
 21
185.8499759999997
 31
0.0
  0
LINE
  5
12C6
330
2015
100
AcDbEntity
  8
0
100
AcDbLine
 10
639.6790175510212
 20
185.8499759999997
 30
0.0
 11
639.6790175510212
 21
175.8499759999998
 31
0.0
  0
LINE
  5
12C7
330
2015
100
AcDbEntity
  8
0
100
AcDbLine
 10
649.6790545510215
 20
185.84995
 30
0.0
 11
659.1734605510216
 21
180.3683519999997
 31
0.0
  0
LINE
  5
12C8
330
2015
100
AcDbEntity
  8
0
100
AcDbLine
 10
710.1845915510215
 20
180.368376
 30
0.0
 11
704.6796895510214
 21
180.8499919999999
 31
0.0
  0
LINE
  5
12C9
330
2015
100
AcDbEntity
  8
0
100
AcDbLine
 10
719.6790255510213
 20
185.8499759999997
 30
0.0
 11
729.6790175510216
 21
185.8499759999997
 31
0.0
  0
LINE
  5
12CA
330
2015
100
AcDbEntity
  8
0
100
AcDbLine
 10
729.6790175510216
 20
185.8499759999997
 30
0.0
 11
729.6790175510216
 21
175.8499759999998
 31
0.0
  0
LINE
  5
12CB
330
2015
100
AcDbEntity
  8
0
100
AcDbLine
 10
719.6790235510214
 20
185.8499659999999
 30
0.0
 11
710.1845885510215
 21
180.3683509999997
 31
0.0
  0
LINE
  5
12CC
330
2015
100
AcDbEntity
  8
0
100
AcDbLine
 10
692.6790175510213
 20
207.3376799999998
 30
0.0
 11
692.6790175510213
 21
187.8999939999999
 31
0.0
  0
LINE
  5
12CD
330
2015
100
AcDbEntity
  8
0
100
AcDbLine
 10
698.6790175510214
 20
207.3376799999998
 30
0.0
 11
692.6790175510213
 21
207.3376799999998
 31
0.0
  0
LINE
  5
12CE
330
2015
100
AcDbEntity
  8
0
100
AcDbLine
 10
703.6790175510214
 20
187.8999939999999
 30
0.0
 11
703.6790175510214
 21
180.8499759999998
 31
0.0
  0
LINE
  5
12CF
330
2015
100
AcDbEntity
  8
0
100
AcDbLine
 10
676.6790175510212
 20
207.3376799999998
 30
0.0
 11
676.6790175510212
 21
187.8999939999999
 31
0.0
  0
LINE
  5
12D0
330
2015
100
AcDbEntity
  8
0
100
AcDbLine
 10
670.6790175510214
 20
207.3376799999998
 30
0.0
 11
670.6790175510214
 21
187.8999939999999
 31
0.0
  0
LINE
  5
12D1
330
2015
100
AcDbEntity
  8
0
100
AcDbLine
 10
670.6790175510214
 20
207.3376799999998
 30
0.0
 11
676.6790175510212
 21
207.3376799999998
 31
0.0
  0
LINE
  5
12D2
330
2015
100
AcDbEntity
  8
0
100
AcDbLine
 10
665.6790175510214
 20
187.8999939999999
 30
0.0
 11
665.6790175510214
 21
180.8499759999998
 31
0.0
  0
LINE
  5
12D3
330
2015
100
AcDbEntity
  8
0
100
AcDbLine
 10
698.6790175510214
 20
207.3376799999998
 30
0.0
 11
698.6790175510214
 21
187.8999939999999
 31
0.0
  0
LINE
  5
12D4
330
2015
100
AcDbEntity
  8
0
100
AcDbLine
 10
691.6790175510214
 20
214.5905299999999
 30
0.0
 11
691.6790175510214
 21
200.5884599999998
 31
0.0
  0
LINE
  5
12D5
330
2015
100
AcDbEntity
  8
0
100
AcDbLine
 10
677.6790175510214
 20
214.5905299999999
 30
0.0
 11
677.6790175510214
 21
200.5884599999998
 31
0.0
  0
LINE
  5
12D7
330
2015
100
AcDbEntity
  8
0
100
AcDbLine
 10
703.6790175510214
 20
187.8999939999999
 30
0.0
 11
698.6790175510214
 21
187.8999939999999
 31
0.0
  0
LINE
  5
12D8
330
2015
100
AcDbEntity
  8
0
100
AcDbLine
 10
704.6796865510214
 20
180.8499759999998
 30
0.0
 11
664.6790175510212
 21
180.8499759999998
 31
0.0
  0
LINE
  5
12D9
330
2015
100
AcDbEntity
  8
0
100
AcDbLine
 10
698.1790175510212
 20
175.8499759999998
 30
0.0
 11
729.6790175510216
 21
175.8499759999998
 31
0.0
  0
LINE
  5
12DA
330
2015
100
AcDbEntity
  8
0
100
AcDbLine
 10
673.6790175510214
 20
180.8499759999998
 30
0.0
 11
673.6790175510214
 21
155.8499719999998
 31
0.0
  0
LINE
  5
12DB
330
2015
100
AcDbEntity
  8
0
100
AcDbLine
 10
695.6790175510214
 20
180.8499759999998
 30
0.0
 11
695.6790175510214
 21
155.8499719999998
 31
0.0
  0
LINE
  5
12DC
330
2015
100
AcDbEntity
  8
0
100
AcDbLine
 10
698.1790175510212
 20
158.8499719999998
 30
0.0
 11
714.6790175510212
 21
158.8499719999998
 31
0.0
  0
LINE
  5
12DD
330
2015
100
AcDbEntity
  8
0
100
AcDbLine
 10
670.6790175510214
 20
187.8999939999999
 30
0.0
 11
665.6790175510214
 21
187.8999939999999
 31
0.0
  0
LINE
  5
12DE
330
2015
100
AcDbEntity
  8
0
100
AcDbLine
 10
692.6790175510213
 20
187.8999939999999
 30
0.0
 11
676.6790175510212
 21
187.8999939999999
 31
0.0
  0
ARC
  5
12DF
330
2015
100
AcDbEntity
  8
0
100
AcDbCircle
 10
684.6790175510212
 20
100.0
 30
0.0
 40
64.00001500000001
100
AcDbArc
 50
119.231280000001
 51
60.76872200000316
  0
CIRCLE
  5
12E0
330
2015
100
AcDbEntity
  8
0
100
AcDbCircle
 10
684.6790175510212
 20
100.0
 30
0.0
 40
31.749992
  0
CIRCLE
  5
12E1
330
2015
100
AcDbEntity
  8
0
100
AcDbCircle
 10
644.6790175510214
 20
180.8499759999998
 30
0.0
 40
2.6500001
  0
CIRCLE
  5
12E2
330
2015
100
AcDbEntity
  8
0
100
AcDbCircle
 10
724.6790175510215
 20
180.8499759999998
 30
0.0
 40
2.6500001
  0
CIRCLE
  5
12E3
330
2015
100
AcDbEntity
  8
0
100
AcDbCircle
 10
684.6790175510212
 20
233.7807460446076
 30
0.0
 40
17.50000199999999
  0
ARC
  5
12E4
330
2015
100
AcDbEntity
  8
0
100
AcDbCircle
 10
684.6790175510212
 20
200.5884599999998
 30
0.0
 40
7.0
100
AcDbArc
 50
179.9999899999988
 51
0.0
  0
LINE
  5
1396
330
2015
100
AcDbEntity
  8
0
100
AcDbLine
 10
377.6604956314968
 20
481.2270313374519
 30
0.0
 11
377.6604956314968
 21
423.7270163374513
 31
0.0
  0
LINE
  5
1397
330
2015
100
AcDbEntity
  8
0
100
AcDbLine
 10
377.6604956314968
 20
353.2270013374507
 30
0.0
 11
337.6604956314968
 21
353.2270013374507
 31
0.0
  0
LINE
  5
1398
330
2015
100
AcDbEntity
  8
0
100
AcDbLine
 10
337.6604956314968
 20
481.2270313374519
 30
0.0
 11
337.6604956314968
 21
445.0310173374509
 31
0.0
  0
LINE
  5
13A1
330
2015
100
AcDbEntity
  8
0
100
AcDbLine
 10
377.6604956314968
 20
481.2270313374519
 30
0.0
 11
337.6604956314968
 21
481.2270313374519
 31
0.0
  0
LINE
  5
13A2
330
2015
100
AcDbEntity
  8
0
100
AcDbLine
 10
337.6604956314968
 20
389.4230153374519
 30
0.0
 11
337.6604956314968
 21
353.2270013374507
 31
0.0
  0
LINE
  5
13A3
330
2015
100
AcDbEntity
  8
0
100
AcDbLine
 10
367.6604956314968
 20
462.2270163374508
 30
0.0
 11
367.6604956314968
 21
433.3825033374519
 31
0.0
  0
LINE
  5
13A4
330
2015
100
AcDbEntity
  8
0
100
AcDbLine
 10
362.6604956314968
 20
462.2270163374508
 30
0.0
 11
362.6604956314968
 21
443.7325093374505
 31
0.0
  0
LINE
  5
13A5
330
2015
100
AcDbEntity
  8
0
100
AcDbLine
 10
362.6604956314968
 20
372.2269853374508
 30
0.0
 11
367.6604956314968
 21
372.2269853374508
 31
0.0
  0
LINE
  5
13A6
330
2015
100
AcDbEntity
  8
0
100
AcDbLine
 10
362.6604956314968
 20
462.2270163374508
 30
0.0
 11
367.6604956314968
 21
462.2270163374508
 31
0.0
  0
LINE
  5
13A7
330
2015
100
AcDbEntity
  8
0
100
AcDbLine
 10
362.6604956314968
 20
382.2270163374509
 30
0.0
 11
367.6604956314968
 21
382.2270163374509
 31
0.0
  0
LINE
  5
13A8
330
2015
100
AcDbEntity
  8
0
100
AcDbLine
 10
362.6604956314968
 20
372.2269853374508
 30
0.0
 11
362.6604956314968
 21
390.7215533374519
 31
0.0
  0
LINE
  5
13A9
330
2015
100
AcDbEntity
  8
0
100
AcDbLine
 10
362.6604956314968
 20
452.227016337451
 30
0.0
 11
367.6604956314968
 21
452.227016337451
 31
0.0
  0
LINE
  5
13AA
330
2015
100
AcDbEntity
  8
0
100
AcDbLine
 10
370.5057106314965
 20
403.2270163374517
 30
0.0
 11
344.8152506314968
 21
403.2270163374517
 31
0.0
  0
LINE
  5
13AB
330
2015
100
AcDbEntity
  8
0
100
AcDbLine
 10
370.5057106314965
 20
431.2270163374519
 30
0.0
 11
344.8152506314968
 21
431.2270163374519
 31
0.0
  0
LINE
  5
13AC
330
2015
100
AcDbEntity
  8
0
100
AcDbLine
 10
367.6604956314968
 20
401.0715293374519
 30
0.0
 11
367.6604956314968
 21
372.2269853374508
 31
0.0
  0
LINE
  5
13AE
330
2015
100
AcDbEntity
  8
0
100
AcDbLine
 10
374.8941835711113
 20
409.2270163374519
 30
0.0
 11
340.4267916314966
 21
409.2270163374519
 31
0.0
  0
LINE
  5
13AF
330
2015
100
AcDbEntity
  8
0
100
AcDbLine
 10
374.8941835711109
 20
425.2270163374508
 30
0.0
 11
340.4267916314966
 21
425.2270163374508
 31
0.0
  0
LINE
  5
13B0
330
2015
100
AcDbEntity
  8
0
100
AcDbLine
 10
338.8988376314967
 20
420.2270163374508
 30
0.0
 11
320.3481176314966
 21
420.2270163374508
 31
0.0
  0
LINE
  5
13B1
330
2015
100
AcDbEntity
  8
0
100
AcDbLine
 10
338.8988376314967
 20
414.227016337451
 30
0.0
 11
320.3481176314966
 21
414.227016337451
 31
0.0
  0
LINE
  5
13B5
330
2015
100
AcDbEntity
  8
0
100
AcDbLine
 10
377.6604956314968
 20
410.7270163374514
 30
0.0
 11
377.6604956314968
 21
353.2270013374507
 31
0.0
  0
ARC
  5
13B8
330
2015
100
AcDbEntity
  8
0
100
AcDbCircle
 10
357.6604956314968
 20
417.227016337451
 30
0.0
 40
32.494358
100
AcDbArc
 50
184.469639999997
 51
184.5303500000061
  0
ARC
  5
13B9
330
2015
100
AcDbEntity
  8
0
100
AcDbCircle
 10
357.6604956314968
 20
417.227016337451
 30
0.0
 40
32.494358
100
AcDbArc
 50
175.4696499999937
 51
175.5303600000025
  0
ARC
  5
13BA
330
2015
100
AcDbEntity
  8
0
100
AcDbCircle
 10
357.6604956314968
 20
417.227016337451
 30
0.0
 40
34.25
100
AcDbArc
 50
81.60565200000046
 51
174.9749499999994
  0
ARC
  5
13BB
330
2015
100
AcDbEntity
  8
0
100
AcDbCircle
 10
320.3481176314966
 20
417.227016337451
 30
0.0
 40
3.0
100
AcDbArc
 50
90.00000300000094
 51
270.0
  0
ARC
  5
13BC
330
2015
100
AcDbEntity
  8
0
100
AcDbCircle
 10
357.6604956314968
 20
417.227016337451
 30
0.0
 40
19.0
100
AcDbArc
 50
24.90106237036659
 51
170.9152799999944
  0
ARC
  5
13BE
330
2015
100
AcDbEntity
  8
0
100
AcDbCircle
 10
357.6604956314968
 20
417.227016337451
 30
0.0
 40
34.25
100
AcDbArc
 50
185.02505
 51
278.3943499999988
  0
ARC
  5
13BF
330
2015
100
AcDbEntity
  8
0
100
AcDbCircle
 10
357.6604956314968
 20
417.227016337451
 30
0.0
 40
19.0
100
AcDbArc
 50
189.0847200000056
 51
335.0989376296361
  0
TEXT
  5
13D9
330
2015
100
AcDbEntity
  8
0
100
AcDbText
 10
137.8779778561531
 20
626.0
 30
0.0
 40
48.000002
  1
BVL__ 2.5S
 41
1.02862
100
AcDbText
  0
LINE
  5
1824
330
2015
100
AcDbEntity
  8
0
100
AcDbLine
 10
307.6604956314968
 20
138.7499999999998
 30
0.0
 11
310.5104948314968
 21
138.7499999999998
 31
0.0
  0
LINE
  5
1825
330
2015
100
AcDbEntity
  8
0
100
AcDbLine
 10
310.5104948314968
 20
138.7499999999998
 30
0.0
 11
313.0582862314968
 21
131.750001
 31
0.0
  0
LINE
  5
1826
330
2015
100
AcDbEntity
  8
0
100
AcDbLine
 10
313.0582865314968
 20
131.75
 30
0.0
 11
337.6604956314968
 21
131.75
 31
0.0
  0
LINE
  5
1827
330
2015
100
AcDbEntity
  8
0
100
AcDbLine
 10
307.6604956314968
 20
61.25
 30
0.0
 11
307.6604956314968
 21
138.7499999999998
 31
0.0
  0
LINE
  5
1828
330
2015
100
AcDbEntity
  8
0
100
AcDbLine
 10
313.0582865314968
 20
68.25
 30
0.0
 11
337.6604956314968
 21
68.25
 31
0.0
  0
LINE
  5
1829
330
2015
100
AcDbEntity
  8
0
100
AcDbLine
 10
310.5104948314968
 20
61.25
 30
0.0
 11
313.0582862314968
 21
68.249999
 31
0.0
  0
LINE
  5
182A
330
2015
100
AcDbEntity
  8
0
100
AcDbLine
 10
307.6604956314968
 20
61.25
 30
0.0
 11
310.5104948314968
 21
61.25
 31
0.0
  0
LINE
  5
182C
330
2015
100
AcDbEntity
  8
0
100
AcDbLine
 10
313.0582865314968
 20
131.75
 30
0.0
 11
313.0582865314968
 21
68.25
 31
0.0
  0
LINE
  5
182F
330
2015
100
AcDbEntity
  8
0
100
AcDbLine
 10
407.6604956314968
 20
61.25
 30
0.0
 11
404.8104964314967
 21
61.25
 31
0.0
  0
LINE
  5
1830
330
2015
100
AcDbEntity
  8
0
100
AcDbLine
 10
404.8104964314967
 20
61.25
 30
0.0
 11
402.2627050314968
 21
68.249999
 31
0.0
  0
LINE
  5
1831
330
2015
100
AcDbEntity
  8
0
100
AcDbLine
 10
402.2627047314967
 20
68.25
 30
0.0
 11
377.6604956314968
 21
68.25
 31
0.0
  0
LINE
  5
1832
330
2015
100
AcDbEntity
  8
0
100
AcDbLine
 10
407.6604956314968
 20
138.7499999999998
 30
0.0
 11
407.6604956314968
 21
61.25
 31
0.0
  0
LINE
  5
1833
330
2015
100
AcDbEntity
  8
0
100
AcDbLine
 10
402.2627047314967
 20
131.75
 30
0.0
 11
377.6604956314968
 21
131.75
 31
0.0
  0
LINE
  5
1834
330
2015
100
AcDbEntity
  8
0
100
AcDbLine
 10
404.8104964314967
 20
138.7499999999998
 30
0.0
 11
402.2627050314968
 21
131.750001
 31
0.0
  0
LINE
  5
1835
330
2015
100
AcDbEntity
  8
0
100
AcDbLine
 10
407.6604956314968
 20
138.7499999999998
 30
0.0
 11
404.8104964314967
 21
138.7499999999998
 31
0.0
  0
LINE
  5
1837
330
2015
100
AcDbEntity
  8
0
100
AcDbLine
 10
402.2627047314967
 20
68.25
 30
0.0
 11
402.2627047314967
 21
131.75
 31
0.0
  0
LINE
  5
1922
330
2015
100
AcDbEntity
  8
0
100
AcDbLine
 10
402.2627047314967
 20
385.4770163374519
 30
0.0
 11
402.2627047314967
 21
410.7270163374514
 31
0.0
  0
LINE
  5
1923
330
2015
100
AcDbEntity
  8
0
100
AcDbLine
 10
407.6604956314968
 20
455.9770163374519
 30
0.0
 11
407.6604956314968
 21
423.7270163374513
 31
0.0
  0
LINE
  5
1924
330
2015
100
AcDbEntity
  8
0
100
AcDbLine
 10
407.6604956314968
 20
378.477016337451
 30
0.0
 11
404.8104964314966
 21
378.477016337451
 31
0.0
  0
LINE
  5
1925
330
2015
100
AcDbEntity
  8
0
100
AcDbLine
 10
402.2627047314967
 20
385.4770163374519
 30
0.0
 11
377.6604956314968
 21
385.4770163374519
 31
0.0
  0
LINE
  5
1926
330
2015
100
AcDbEntity
  8
0
100
AcDbLine
 10
404.8104964314966
 20
378.477016337451
 30
0.0
 11
402.2627050314968
 21
385.477015337452
 31
0.0
  0
LINE
  5
1927
330
2015
100
AcDbEntity
  8
0
100
AcDbLine
 10
404.8104964314966
 20
455.9770163374519
 30
0.0
 11
402.2627050314968
 21
448.977017337452
 31
0.0
  0
LINE
  5
1928
330
2015
100
AcDbEntity
  8
0
100
AcDbLine
 10
402.2627047314967
 20
448.977016337451
 30
0.0
 11
377.6604956314968
 21
448.977016337451
 31
0.0
  0
LINE
  5
1929
330
2015
100
AcDbEntity
  8
0
100
AcDbLine
 10
407.6604956314968
 20
455.9770163374519
 30
0.0
 11
404.8104964314966
 21
455.9770163374519
 31
0.0
  0
LINE
  5
192A
330
2015
100
AcDbEntity
  8
0
100
AcDbLine
 10
307.6604956314968
 20
378.477016337451
 30
0.0
 11
310.5104948314969
 21
378.477016337451
 31
0.0
  0
LINE
  5
192B
330
2015
100
AcDbEntity
  8
0
100
AcDbLine
 10
307.6604956314968
 20
455.9770163374519
 30
0.0
 11
310.5104948314969
 21
455.9770163374519
 31
0.0
  0
LINE
  5
192C
330
2015
100
AcDbEntity
  8
0
100
AcDbLine
 10
307.6604956314968
 20
378.477016337451
 30
0.0
 11
307.6604956314968
 21
455.9770163374519
 31
0.0
  0
LINE
  5
192D
330
2015
100
AcDbEntity
  8
0
100
AcDbLine
 10
313.0582865314968
 20
448.977016337451
 30
0.0
 11
313.0582865314968
 21
385.4770163374519
 31
0.0
  0
LINE
  5
192E
330
2015
100
AcDbEntity
  8
0
100
AcDbLine
 10
313.0582865314968
 20
385.4770163374519
 30
0.0
 11
337.6604956314968
 21
385.4770163374519
 31
0.0
  0
LINE
  5
192F
330
2015
100
AcDbEntity
  8
0
100
AcDbLine
 10
310.5104948314969
 20
378.477016337451
 30
0.0
 11
313.0582862314968
 21
385.477015337452
 31
0.0
  0
LINE
  5
1930
330
2015
100
AcDbEntity
  8
0
100
AcDbLine
 10
310.5104948314969
 20
455.9770163374519
 30
0.0
 11
313.0582862314968
 21
448.977017337452
 31
0.0
  0
LINE
  5
1931
330
2015
100
AcDbEntity
  8
0
100
AcDbLine
 10
313.0582865314968
 20
448.977016337451
 30
0.0
 11
337.6604956314968
 21
448.977016337451
 31
0.0
  0
LINE
  5
1932
330
2015
100
AcDbEntity
  8
0
100
AcDbLine
 10
407.6604956314968
 20
410.7270163374514
 30
0.0
 11
407.6604956314968
 21
378.477016337451
 31
0.0
  0
LINE
  5
1933
330
2015
100
AcDbEntity
  8
0
100
AcDbLine
 10
402.2627047314967
 20
423.7270163374513
 30
0.0
 11
402.2627047314967
 21
448.977016337451
 31
0.0
  0
CIRCLE
  5
1961
330
2015
100
AcDbEntity
  8
0
  6
Continuous
100
AcDbCircle
 10
157.6604956314968
 20
100.0
 30
0.0
 40
38.75
  0
CIRCLE
  5
1966
330
2015
100
AcDbEntity
  8
0
  6
Continuous
100
AcDbCircle
 10
684.6790175510212
 20
100.0
 30
0.0
 40
38.75
  0
ARC
  5
20C7
330
2015
100
AcDbEntity
  8
0
100
AcDbCircle
 10
157.6604956314969
 20
233.7807460446076
 30
0.0
 40
15.0
100
AcDbArc
 50
295.6792886194569
 51
244.320711380543
  0
ARC
  5
20C8
330
2015
100
AcDbEntity
  8
0
100
AcDbCircle
 10
164.6605156314969
 20
208.7933307028857
 30
0.0
 40
0.5
100
AcDbArc
 50
180.0
 51
269.9999999999967
  0
LINE
  5
20CA
330
2015
100
AcDbEntity
  8
0
100
AcDbLine
 10
164.1605156314969
 20
208.7933307028857
 30
0.0
 11
164.1605156314969
 21
229.0790276922334
 31
0.0
  0
LINE
  5
20CB
330
2015
100
AcDbEntity
  8
0
100
AcDbLine
 10
151.1605156314969
 20
208.7933307028857
 30
0.0
 11
151.1605156314969
 21
229.0790276922334
 31
0.0
  0
LINE
  5
20CE
330
2015
100
AcDbEntity
  8
0
100
AcDbLine
 10
158.1605156314968
 20
208.8081199057634
 30
0.0
 11
164.1605156314969
 21
212.822761047323
 31
0.0
  0
LINE
  5
20CF
330
2015
100
AcDbEntity
  8
0
100
AcDbLine
 10
151.1605156314969
 20
212.822761047323
 30
0.0
 11
157.1605156314968
 21
208.8081199057634
 31
0.0
  0
ARC
  5
20D0
330
2015
100
AcDbEntity
  8
0
100
AcDbCircle
 10
150.6605156314969
 20
208.7933307028857
 30
0.0
 40
0.5
100
AcDbArc
 50
270.0
 51
0.0
  0
LINE
  5
20D1
330
2015
100
AcDbEntity
  8
0
100
AcDbLine
 10
149.6604956314969
 20
208.2933307028858
 30
0.0
 11
150.6605156314969
 21
208.2933307028857
 31
0.0
  0
LINE
  5
20D4
330
2015
100
AcDbEntity
  8
0
100
AcDbLine
 10
164.6605156314969
 20
208.2933307028857
 30
0.0
 11
165.6604956314969
 21
208.2933307028856
 31
0.0
  0
LINE
  5
20E0
330
2015
100
AcDbEntity
  8
0
  6
CENTER
100
AcDbLine
 10
605.7849841964247
 20
100.0
 30
0.0
 11
763.5730509056176
 21
100.0
 31
0.0
  0
LINE
  5
20E1
330
2015
100
AcDbEntity
  8
0
  6
CENTER
100
AcDbLine
 10
684.6790175510212
 20
19.44162979002885
 30
0.0
 11
684.6790175510212
 21
233.7807460446076
 31
0.0
  0
LINE
  5
20E2
330
2015
100
AcDbEntity
  8
0
  6
CENTER
100
AcDbLine
 10
357.6604956314968
 20
25.71225804354708
 30
0.0
 11
357.6604956314969
 21
219.1701956146967
 31
0.0
  0
LINE
  5
20E3
330
2015
100
AcDbEntity
  8
0
  6
CENTER
100
AcDbLine
 10
278.7664622769004
 20
99.99999999999994
 30
0.0
 11
436.5545289860933
 21
99.99999999999994
 31
0.0
  0
LINE
  5
20E5
330
2015
100
AcDbEntity
  8
0
100
AcDbLine
 10
403.2181407212998
 20
201.8161515979779
 30
0.0
 11
527.0995328018943
 21
223.6597545220104
 31
0.0
  0
LINE
  5
20E6
330
2015
100
AcDbEntity
  8
0
  6
CENTER
100
AcDbLine
 10
367.8254147457833
 20
202.1757400603764
 30
0.0
 11
547.0665477978075
 21
233.7807460446075
 31
0.0
  0
LINE
  5
20E7
330
2015
100
AcDbEntity
  8
0
100
AcDbLine
 10
400.9603511241172
 20
214.6185883298313
 30
0.0
 11
524.8421264469571
 21
236.4622588297224
 31
0.0
  0
LINE
  5
20E8
330
2015
100
AcDbEntity
  8
0
100
AcDbLine
 10
529.5335206707481
 20
238.6498903706155
 30
0.0
 11
537.4247381729692
 21
245.2714039846593
 31
0.0
  0
LINE
  5
20E9
330
2015
100
AcDbEntity
  8
0
100
AcDbLine
 10
532.2562151841468
 20
223.2086022968155
 30
0.0
 11
541.9362422744629
 21
219.6853589345798
 31
0.0
  0
ARC
  5
20EA
330
2015
100
AcDbEntity
  8
0
100
AcDbCircle
 10
547.0665477978075
 20
233.7807460446076
 30
0.0
 40
15.0
100
AcDbArc
 50
249.9999970332833
 51
129.9999770332835
  0
ARC
  5
20EB
330
2015
100
AcDbEntity
  8
0
100
AcDbCircle
 10
528.8360123498264
 20
213.8116765989021
 30
0.0
 40
10.0
100
AcDbArc
 50
69.99999145730639
 51
99.99998703328332
  0
ARC
  5
20EC
330
2015
100
AcDbEntity
  8
0
100
AcDbCircle
 10
523.105646899025
 20
246.3103367528308
 30
0.0
 40
10.0
100
AcDbArc
 50
279.9999870332849
 51
309.9999826092586
  0
LINE
  5
20ED
330
2015
100
AcDbEntity
  8
0
100
AcDbLine
 10
378.6394852456974
 20
199.2685588404535
 30
0.0
 11
403.2181407212998
 21
201.8161515979779
 31
0.0
  0
LINE
  5
20EE
330
2015
100
AcDbEntity
  8
0
100
AcDbLine
 10
377.8012393449279
 20
208.8089827472706
 30
0.0
 11
400.9603511241172
 21
214.6185883298313
 31
0.0
  0
LINE
  5
20EF
330
2015
100
AcDbEntity
  8
0
100
AcDbLine
 10
378.6394664441167
 20
192.7099642665295
 30
0.0
 11
378.6394852456974
 21
199.2685588404535
 31
0.0
  0
LINE
  5
20F3
330
2015
100
AcDbEntity
  8
0
  6
CENTER
100
AcDbLine
 10
278.7664622769004
 20
417.2270163374514
 30
0.0
 11
547.0665477978075
 21
417.2270163374514
 31
0.0
  0
LINE
  5
20F5
330
2015
100
AcDbEntity
  8
0
100
AcDbLine
 10
375.660511068199
 20
410.7270163374514
 30
0.0
 11
525.6453848296593
 21
410.7270163374514
 31
0.0
  0
LINE
  5
20F6
330
2015
100
AcDbEntity
  8
0
100
AcDbLine
 10
375.660511068199
 20
423.7270163374513
 30
0.0
 11
525.6454036827778
 21
423.7270163374513
 31
0.0
  0
LINE
  5
20F7
330
2015
100
AcDbEntity
  8
0
100
AcDbLine
 10
379.4408679701671
 20
416.3697315002878
 30
0.0
 11
393.5660213711831
 21
413.2963033480585
 31
0.0
  0
LINE
  5
20F8
330
2015
100
AcDbEntity
  8
0
100
AcDbLine
 10
379.4494589061863
 20
418.0861704374915
 30
0.0
 11
393.5660213199837
 21
421.157729315882
 31
0.0
  0
ARC
  5
20F9
330
2015
100
AcDbEntity
  8
0
100
AcDbCircle
 10
375.660511068199
 20
409.7270163374514
 30
0.0
 40
1.0
100
AcDbArc
 50
90.0
 51
180.0
  0
LINE
  5
20FA
330
2015
100
AcDbEntity
  8
0
100
AcDbLine
 10
374.660511068199
 20
409.7270163374514
 30
0.0
 11
374.660511068199
 21
409.2270163374519
 31
0.0
  0
ARC
  5
20FB
330
2015
100
AcDbEntity
  8
0
100
AcDbCircle
 10
375.660511068199
 20
424.7270163374513
 30
0.0
 40
1.0
100
AcDbArc
 50
180.0
 51
270.0
  0
LINE
  5
20FC
330
2015
100
AcDbEntity
  8
0
100
AcDbLine
 10
374.660511068199
 20
425.2270163374508
 30
0.0
 11
374.660511068199
 21
424.7270163374513
 31
0.0
  0
ARC
  5
20FD
330
2015
100
AcDbEntity
  8
0
100
AcDbCircle
 10
398.8107737980328
 20
416.7270163374515
 30
0.0
 40
6.0
100
AcDbArc
 50
227.7108799999971
 51
248.2388500000026
  0
LINE
  5
20FE
330
2015
100
AcDbEntity
  8
0
100
AcDbLine
 10
394.3566537980327
 20
412.3184663374514
 30
0.0
 11
394.3566537980327
 21
410.7270163374514
 31
0.0
  0
ARC
  5
20FF
330
2015
100
AcDbEntity
  8
0
100
AcDbCircle
 10
393.3566537980327
 20
422.1355663374514
 30
0.0
 40
1.0
100
AcDbArc
 50
282.0852899999993
 51
0.0
  0
ARC
  5
2100
330
2015
100
AcDbEntity
  8
0
100
AcDbCircle
 10
393.3566537980327
 20
412.3184663374514
 30
0.0
 40
1.0
100
AcDbArc
 50
0.0
 51
77.91470699999985
  0
ARC
  5
2101
330
2015
100
AcDbEntity
  8
0
100
AcDbCircle
 10
398.8107737980328
 20
417.7270163374514
 30
0.0
 40
6.0
100
AcDbArc
 50
109.8411499999988
 51
132.4629100000045
  0
LINE
  5
2102
330
2015
100
AcDbEntity
  8
0
100
AcDbLine
 10
394.3566537980327
 20
423.7270163374513
 30
0.0
 11
394.3566537980327
 21
422.1355663374514
 31
0.0
  0
LINE
  5
2103
330
2015
100
AcDbEntity
  8
0
100
AcDbLine
 10
530.6454030140864
 20
425.066761913538
 30
0.0
 11
539.5665477978075
 21
430.2173863374513
 31
0.0
  0
LINE
  5
2104
330
2015
100
AcDbEntity
  8
0
100
AcDbLine
 10
530.6453907973914
 20
409.3872669298212
 30
0.0
 11
539.5665477978075
 21
404.2366263374514
 31
0.0
  0
ARC
  5
2105
330
2015
100
AcDbEntity
  8
0
100
AcDbCircle
 10
547.0665477978075
 20
417.2270163374514
 30
0.0
 40
15.0
100
AcDbArc
 50
240.0000099999997
 51
119.9999900000002
  0
ARC
  5
2106
330
2015
100
AcDbEntity
  8
0
100
AcDbCircle
 10
525.6453848296593
 20
400.7270163374514
 30
0.0
 40
10.0
100
AcDbArc
 50
59.99996051779387
 51
90.0
  0
ARC
  5
2107
330
2015
100
AcDbEntity
  8
0
100
AcDbCircle
 10
525.6454036827778
 20
433.7270163374513
 30
0.0
 40
10.0
100
AcDbArc
 50
270.0
 51
299.9999955759749
  0
LINE
  5
2108
330
2015
100
AcDbEntity
  8
0
  6
CENTER
100
AcDbLine
 10
157.6604956314968
 20
19.44162979002885
 30
0.0
 11
157.6604956314969
 21
233.7807460446076
 31
0.0
  0
LINE
  5
2109
330
2015
100
AcDbEntity
  8
0
  6
CENTER
100
AcDbLine
 10
78.76646227690037
 20
100.0
 30
0.0
 11
236.5545289860932
 21
100.0
 31
0.0
  0
ENDSEC
  0
SECTION
  2
OBJECTS
  0
DICTIONARY
  5
2003
330
0
100
AcDbDictionary
281
     1
  3
ACAD_GROUP
350
2004
  3
ACAD_LAYOUT
350
2010
  3
ACAD_MLINESTYLE
350
200D
  3
ACAD_PLOTSETTINGS
350
200F
  3
ACAD_PLOTSTYLENAME
350
2005
  3
AcDbVariableDictionary
350
2057
  0
DICTIONARY
  5
206B
330
1FF9
100
AcDbDictionary
280
     1
281
     1
  3
ACAD_LAYERSTATES
360
206C
  0
DICTIONARY
  5
2025
330
2015
100
AcDbDictionary
280
     1
281
     1
  3
ACAD_LAYOUTSELFREF
360
2054
  0
DICTIONARY
  5
2027
330
2011
100
AcDbDictionary
280
     1
281
     1
  3
ACAD_LAYOUTSELFREF
360
2053
  0
DICTIONARY
  5
2004
102
{ACAD_REACTORS
330
2003
102
}
330
2003
100
AcDbDictionary
281
     1
  0
DICTIONARY
  5
2010
102
{ACAD_REACTORS
330
2003
102
}
330
2003
100
AcDbDictionary
281
     1
  3
Model
350
2018
  3
ﾚｲｱｳﾄ1
350
2014
  0
DICTIONARY
  5
200D
102
{ACAD_REACTORS
330
2003
102
}
330
2003
100
AcDbDictionary
281
     1
  3
Standard
350
200E
  0
DICTIONARY
  5
200F
102
{ACAD_REACTORS
330
2003
102
}
330
2003
100
AcDbDictionary
281
     1
  0
ACDBDICTIONARYWDFLT
  5
2005
102
{ACAD_REACTORS
330
2003
102
}
330
2003
100
AcDbDictionary
281
     1
  3
Normal
350
2006
100
AcDbDictionaryWithDefault
340
2006
  0
DICTIONARY
  5
2057
102
{ACAD_REACTORS
330
2003
102
}
330
2003
100
AcDbDictionary
281
     1
  3
DIMASSOC
350
2058
  0
DICTIONARY
  5
206C
102
{ACAD_REACTORS
330
206B
102
}
330
206B
100
AcDbDictionary
281
     1
  0
XRECORD
  5
2054
102
{ACAD_REACTORS
330
2025
102
}
330
2025
100
AcDbXrecord
280
     1
340
2015
  0
XRECORD
  5
2053
102
{ACAD_REACTORS
330
2027
102
}
330
2027
100
AcDbXrecord
280
     1
340
2011
  0
LAYOUT
  5
2018
102
{ACAD_REACTORS
330
2010
102
}
330
2010
100
AcDbPlotSettings
  1

  2
SII LP-2150 (D-SCAN C2)
  4

  6

 40
0.0
 41
0.0
 42
0.0
 43
0.0
 44
0.0
 45
0.0
 46
0.0
 47
0.0
 48
0.0
 49
0.0
140
0.0
141
0.0
142
1.0
143
1.0
 70
  1712
 72
     0
 73
     0
 74
     0
  7

 75
     0
147
1.0
148
0.0
149
0.0
100
AcDbLayout
  1
Model
 70
     1
 71
     0
 10
0.0
 20
0.0
 11
12.0
 21
9.0
 12
0.0
 22
0.0
 32
0.0
 14
0.0
 24
0.0
 34
0.0
 15
0.0
 25
0.0
 35
0.0
146
0.0
 13
0.0
 23
0.0
 33
0.0
 16
1.0
 26
0.0
 36
0.0
 17
0.0
 27
1.0
 37
0.0
 76
     0
330
2015
  0
LAYOUT
  5
2014
102
{ACAD_REACTORS
330
2010
102
}
330
2010
100
AcDbPlotSettings
  1

  2
SII LP-2150 (D-SCAN C2)
  4

  6

 40
0.0
 41
0.0
 42
0.0
 43
0.0
 44
0.0
 45
0.0
 46
0.0
 47
0.0
 48
0.0
 49
0.0
140
0.0
141
0.0
142
1.0
143
1.0
 70
   688
 72
     0
 73
     0
 74
     5
  7

 75
    16
147
1.0
148
0.0
149
0.0
100
AcDbLayout
  1
ﾚｲｱｳﾄ1
 70
     1
 71
     1
 10
-44.912933
 20
-21.841471
 11
153.5627299999999
 21
105.04179
 12
0.0
 22
0.0
 32
0.0
 14
-44.912933
 24
-21.841471
 34
0.0
 15
153.5627299999999
 25
105.04179
 35
0.0
146
0.0
 13
0.0
 23
0.0
 33
0.0
 16
1.0
 26
0.0
 36
0.0
 17
0.0
 27
1.0
 37
0.0
 76
     0
330
2011
  0
MLINESTYLE
  5
200E
102
{ACAD_REACTORS
330
200D
102
}
330
200D
100
AcDbMlineStyle
  2
STANDARD
 70
     0
  3

 62
   256
 51
90.0
 52
90.0
 71
     2
 49
0.5
 62
   256
  6
BYLAYER
 49
-0.5
 62
   256
  6
BYLAYER
  0
ACDBPLACEHOLDER
  5
2006
102
{ACAD_REACTORS
330
2005
102
}
330
2005
  0
DICTIONARYVAR
  5
2058
102
{ACAD_REACTORS
330
2057
102
}
330
2057
100
DictionaryVariables
280
     0
  1
1
  0
ENDSEC
  0
EOF
