  0
SECTION
  2
HEADER
  9
$ACADVER
  1
AC1015
  9
$ACADMAINTVER
 70
    14
  9
$DWGCODEPAGE
  3
ANSI_932
  9
$INSBASE
 10
0.0
 20
0.0
 30
0.0
  9
$EXTMIN
 10
141.3167964010044
 20
41.33187230541352
 30
-0.0000000000000058
  9
$EXTMAX
 10
735.3161727110353
 20
667.8560924067035
 30
0.0000000000000104
  9
$LIMMIN
 10
-44.912933
 20
-21.841471
  9
$LIMMAX
 10
153.5627299999999
 20
105.04179
  9
$ORTHOMODE
 70
     0
  9
$REGENMODE
 70
     1
  9
$FILLMODE
 70
     1
  9
$QTEXTMODE
 70
     0
  9
$MIRRTEXT
 70
     1
  9
$LTSCALE
 40
1.0
  9
$ATTMODE
 70
     1
  9
$TEXTSIZE
 40
0.2
  9
$TRACEWID
 40
0.05
  9
$TEXTSTYLE
  7
STANDARD
  9
$CLAYER
  8
0
  9
$CELTYPE
  6
CONTINUOUS
  9
$CECOLOR
 62
   256
  9
$CELTSCALE
 40
1.0
  9
$DISPSILH
 70
     0
  9
$DIMSCALE
 40
1.0
  9
$DIMASZ
 40
0.18
  9
$DIMEXO
 40
0.0625
  9
$DIMDLI
 40
0.38
  9
$DIMRND
 40
0.0
  9
$DIMDLE
 40
0.0
  9
$DIMEXE
 40
0.18
  9
$DIMTP
 40
0.0
  9
$DIMTM
 40
0.0
  9
$DIMTXT
 40
0.18
  9
$DIMCEN
 40
0.09
  9
$DIMTSZ
 40
0.0
  9
$DIMTOL
 70
     0
  9
$DIMLIM
 70
     0
  9
$DIMTIH
 70
     1
  9
$DIMTOH
 70
     1
  9
$DIMSE1
 70
     0
  9
$DIMSE2
 70
     0
  9
$DIMTAD
 70
     0
  9
$DIMZIN
 70
     0
  9
$DIMBLK
  1

  9
$DIMASO
 70
     1
  9
$DIMSHO
 70
     0
  9
$DIMPOST
  1

  9
$DIMAPOST
  1

  9
$DIMALT
 70
     0
  9
$DIMALTD
 70
     2
  9
$DIMALTF
 40
25.4
  9
$DIMLFAC
 40
1.0
  9
$DIMTOFL
 70
     0
  9
$DIMTVP
 40
0.0
  9
$DIMTIX
 70
     0
  9
$DIMSOXD
 70
     0
  9
$DIMSAH
 70
     0
  9
$DIMBLK1
  1

  9
$DIMBLK2
  1

  9
$DIMSTYLE
  2
STANDARD
  9
$DIMCLRD
 70
     0
  9
$DIMCLRE
 70
     0
  9
$DIMCLRT
 70
     0
  9
$DIMTFAC
 40
1.0
  9
$DIMGAP
 40
0.09
  9
$DIMJUST
 70
     0
  9
$DIMSD1
 70
     0
  9
$DIMSD2
 70
     0
  9
$DIMTOLJ
 70
     1
  9
$DIMTZIN
 70
     0
  9
$DIMALTZ
 70
     0
  9
$DIMALTTZ
 70
     0
  9
$DIMUPT
 70
     0
  9
$DIMDEC
 70
     4
  9
$DIMTDEC
 70
     4
  9
$DIMALTU
 70
     2
  9
$DIMALTTD
 70
     2
  9
$DIMTXSTY
  7
STANDARD
  9
$DIMAUNIT
 70
     0
  9
$DIMADEC
 70
     0
  9
$DIMALTRND
 40
0.0
  9
$DIMAZIN
 70
     0
  9
$DIMDSEP
 70
    46
  9
$DIMATFIT
 70
     3
  9
$DIMFRAC
 70
     0
  9
$DIMLDRBLK
  1

  9
$DIMLUNIT
 70
     2
  9
$DIMLWD
 70
    -2
  9
$DIMLWE
 70
    -2
  9
$DIMTMOVE
 70
     2
  9
$LUNITS
 70
     2
  9
$LUPREC
 70
     4
  9
$SKETCHINC
 40
0.1
  9
$FILLETRAD
 40
0.0
  9
$AUNITS
 70
     0
  9
$AUPREC
 70
     0
  9
$MENU
  1
.
  9
$ELEVATION
 40
0.0
  9
$PELEVATION
 40
0.0
  9
$THICKNESS
 40
0.0
  9
$LIMCHECK
 70
     0
  9
$CHAMFERA
 40
0.0
  9
$CHAMFERB
 40
0.0
  9
$CHAMFERC
 40
0.0
  9
$CHAMFERD
 40
0.0
  9
$SKPOLY
 70
     0
  9
$TDCREATE
 40
2452488.423151215
  9
$TDUCREATE
 40
2452488.048151215
  9
$TDUPDATE
 40
2456899.667099814
  9
$TDUUPDATE
 40
2456899.292099814
  9
$TDINDWG
 40
0.0990094792
  9
$TDUSRTIMER
 40
0.0990091204
  9
$USRTIMER
 70
     1
  9
$ANGBASE
 50
0.0
  9
$ANGDIR
 70
     0
  9
$PDMODE
 70
     0
  9
$PDSIZE
 40
0.0
  9
$PLINEWID
 40
0.0
  9
$SPLFRAME
 70
     0
  9
$SPLINETYPE
 70
     6
  9
$SPLINESEGS
 70
     8
  9
$HANDSEED
  5
2135
  9
$SURFTAB1
 70
     6
  9
$SURFTAB2
 70
     6
  9
$SURFTYPE
 70
     6
  9
$SURFU
 70
     6
  9
$SURFV
 70
     6
  9
$UCSBASE
  2

  9
$UCSNAME
  2

  9
$UCSORG
 10
0.0
 20
0.0
 30
0.0
  9
$UCSXDIR
 10
1.0
 20
0.0
 30
0.0
  9
$UCSYDIR
 10
0.0
 20
1.0
 30
0.0
  9
$UCSORTHOREF
  2

  9
$UCSORTHOVIEW
 70
     0
  9
$UCSORGTOP
 10
0.0
 20
0.0
 30
0.0
  9
$UCSORGBOTTOM
 10
0.0
 20
0.0
 30
0.0
  9
$UCSORGLEFT
 10
0.0
 20
0.0
 30
0.0
  9
$UCSORGRIGHT
 10
0.0
 20
0.0
 30
0.0
  9
$UCSORGFRONT
 10
0.0
 20
0.0
 30
0.0
  9
$UCSORGBACK
 10
0.0
 20
0.0
 30
0.0
  9
$PUCSBASE
  2

  9
$PUCSNAME
  2

  9
$PUCSORG
 10
0.0
 20
0.0
 30
0.0
  9
$PUCSXDIR
 10
1.0
 20
0.0
 30
0.0
  9
$PUCSYDIR
 10
0.0
 20
1.0
 30
0.0
  9
$PUCSORTHOREF
  2

  9
$PUCSORTHOVIEW
 70
     0
  9
$PUCSORGTOP
 10
0.0
 20
0.0
 30
0.0
  9
$PUCSORGBOTTOM
 10
0.0
 20
0.0
 30
0.0
  9
$PUCSORGLEFT
 10
0.0
 20
0.0
 30
0.0
  9
$PUCSORGRIGHT
 10
0.0
 20
0.0
 30
0.0
  9
$PUCSORGFRONT
 10
0.0
 20
0.0
 30
0.0
  9
$PUCSORGBACK
 10
0.0
 20
0.0
 30
0.0
  9
$USERI1
 70
     0
  9
$USERI2
 70
     0
  9
$USERI3
 70
     0
  9
$USERI4
 70
     0
  9
$USERI5
 70
     0
  9
$USERR1
 40
0.0
  9
$USERR2
 40
0.0
  9
$USERR3
 40
0.0
  9
$USERR4
 40
0.0
  9
$USERR5
 40
0.0
  9
$WORLDVIEW
 70
     1
  9
$SHADEDGE
 70
     3
  9
$SHADEDIF
 70
    70
  9
$TILEMODE
 70
     1
  9
$MAXACTVP
 70
    48
  9
$PINSBASE
 10
0.0
 20
0.0
 30
0.0
  9
$PLIMCHECK
 70
     0
  9
$PEXTMIN
 10
-44.912933
 20
-21.841471
 30
0.0
  9
$PEXTMAX
 10
153.5627299999999
 20
105.04179
 30
0.0
  9
$PLIMMIN
 10
-44.912933
 20
-21.841471
  9
$PLIMMAX
 10
153.5627299999999
 20
105.04179
  9
$UNITMODE
 70
     0
  9
$VISRETAIN
 70
     1
  9
$PLINEGEN
 70
     0
  9
$PSLTSCALE
 70
     1
  9
$TREEDEPTH
 70
  3020
  9
$CMLSTYLE
  2
Standard
  9
$CMLJUST
 70
     0
  9
$CMLSCALE
 40
1.0
  9
$PROXYGRAPHICS
 70
     1
  9
$MEASUREMENT
 70
     0
  9
$CELWEIGHT
370
    -1
  9
$ENDCAPS
280
     0
  9
$JOINSTYLE
280
     0
  9
$LWDISPLAY
290
     0
  9
$INSUNITS
 70
     0
  9
$HYPERLINKBASE
  1

  9
$STYLESHEET
  1

  9
$XEDIT
290
     1
  9
$CEPSNTYPE
380
     0
  9
$PSTYLEMODE
290
     1
  9
$FINGERPRINTGUID
  2
{2514BD4D-DA87-47D8-8770-B52C232C960C}
  9
$VERSIONGUID
  2
{1B9EDB51-5A97-4728-B9E9-D25A4522A0A7}
  9
$EXTNAMES
290
     1
  9
$PSVPSCALE
 40
0.0
  9
$OLESTARTUP
290
     0
  0
ENDSEC
  0
SECTION
  2
CLASSES
  0
CLASS
  1
ACDBDICTIONARYWDFLT
  2
AcDbDictionaryWithDefault
  3
AutoCAD 2000
 90
        0
280
     0
281
     0
  0
CLASS
  1
ACDBPLACEHOLDER
  2
AcDbPlaceHolder
  3
AutoCAD 2000
 90
        0
280
     0
281
     0
  0
CLASS
  1
LAYOUT
  2
AcDbLayout
  3
AutoCAD 2000
 90
        0
280
     0
281
     0
  0
CLASS
  1
DICTIONARYVAR
  2
AcDbDictionaryVar
  3
AutoCAD 2000
 90
        0
280
     0
281
     0
  0
CLASS
  1
LONG_TRANSACTION
  2
AcDbLongTransaction
  3
AutoCAD 2000
 90
    32768
280
     0
281
     0
  0
CLASS
  1
LWPOLYLINE
  2
AcDbPolyline
  3
AutoCAD 2000
 90
    32768
280
     0
281
     1
  0
CLASS
  1
HATCH
  2
AcDbHatch
  3
AutoCAD 2000
 90
    32768
280
     0
281
     1
  0
CLASS
  1
XRECORD
  2
AcDbXrecord
  3
AutoCAD 2000
 90
    32768
280
     0
281
     0
  0
ENDSEC
  0
SECTION
  2
TABLES
  0
TABLE
  2
VPORT
  5
2004
330
0
100
AcDbSymbolTable
 70
     2
  0
VPORT
  5
2134
330
2004
100
AcDbSymbolTableRecord
100
AcDbViewportTableRecord
  2
*Active
 70
     0
 10
0.0
 20
0.0
 11
1.0
 21
1.0
 12
438.3164845560197
 22
354.5939823560585
 13
0.0
 23
0.0
 14
1.0
 24
1.0
 15
0.0
 25
0.0
 16
0.0
 26
0.0
 36
1.0
 17
0.0
 27
0.0
 37
0.0
 40
630.5021516574886
 41
1.592161016949152
 42
50.0
 43
0.0
 44
0.0
 50
0.0
 51
0.0
 71
     0
 72
   100
 73
     1
 74
     3
 75
     0
 76
     0
 77
     0
 78
     0
281
     0
 65
     1
110
0.0
120
0.0
130
0.0
111
1.0
121
0.0
131
0.0
112
0.0
122
1.0
132
0.0
 79
     0
146
0.0
  0
ENDTAB
  0
TABLE
  2
LTYPE
  5
2001
330
0
100
AcDbSymbolTable
 70
     2
  0
LTYPE
  5
200F
330
2001
100
AcDbSymbolTableRecord
100
AcDbLinetypeTableRecord
  2
ByBlock
 70
     0
  3

 72
    65
 73
     0
 40
0.0
  0
LTYPE
  5
2010
330
2001
100
AcDbSymbolTableRecord
100
AcDbLinetypeTableRecord
  2
ByLayer
 70
     0
  3

 72
    65
 73
     0
 40
0.0
  0
LTYPE
  5
2011
330
2001
100
AcDbSymbolTableRecord
100
AcDbLinetypeTableRecord
  2
CONTINUOUS
 70
     0
  3
Solid line
 72
    65
 73
     0
 40
0.0
  0
LTYPE
  5
20DE
330
2001
100
AcDbSymbolTableRecord
100
AcDbLinetypeTableRecord
  2
CENTER
 70
     0
  3
__ . __
 72
    65
 73
     4
 40
7.0
 49
4.0
 74
     0
 49
-1.0
 74
     0
 49
1.0
 74
     0
 49
-1.0
 74
     0
  0
ENDTAB
  0
TABLE
  2
LAYER
  5
1FFE
102
{ACAD_XDICTIONARY
360
2070
102
}
330
0
100
AcDbSymbolTable
 70
     1
  0
LAYER
  5
200C
330
1FFE
100
AcDbSymbolTableRecord
100
AcDbLayerTableRecord
  2
0
 70
     0
 62
     7
  6
CONTINUOUS
370
    -3
390
200B
  0
ENDTAB
  0
TABLE
  2
STYLE
  5
1FFF
330
0
100
AcDbSymbolTable
 70
     1
  0
STYLE
  5
200D
330
1FFF
100
AcDbSymbolTableRecord
100
AcDbTextStyleTableRecord
  2
STANDARD
 70
     0
 40
0.0
 41
1.0
 50
0.0
 71
     0
 42
0.2
  3
txt
  4

  0
ENDTAB
  0
TABLE
  2
VIEW
  5
2002
330
0
100
AcDbSymbolTable
 70
     0
  0
ENDTAB
  0
TABLE
  2
UCS
  5
2003
330
0
100
AcDbSymbolTable
 70
     0
  0
ENDTAB
  0
TABLE
  2
APPID
  5
2005
330
0
100
AcDbSymbolTable
 70
    10
  0
APPID
  5
200E
330
2005
100
AcDbSymbolTableRecord
100
AcDbRegAppTableRecord
  2
ACAD
 70
     0
  0
APPID
  5
201F
330
2005
100
AcDbSymbolTableRecord
100
AcDbRegAppTableRecord
  2
MCAD_NO_VIS
 70
     0
  0
APPID
  5
2020
330
2005
100
AcDbSymbolTableRecord
100
AcDbRegAppTableRecord
  2
ACAD_TEMP_GRAPHIC
 70
     0
  0
APPID
  5
2021
330
2005
100
AcDbSymbolTableRecord
100
AcDbRegAppTableRecord
  2
ACATTRIBSERVICES
 70
     0
  0
APPID
  5
206A
330
2005
100
AcDbSymbolTableRecord
100
AcDbRegAppTableRecord
  2
ACAD_DSTYLE_DIMARC_LENGTH_SYMBOL
 70
     0
  0
APPID
  5
206B
330
2005
100
AcDbSymbolTableRecord
100
AcDbRegAppTableRecord
  2
ACAD_DSTYLE_DIMJOGGED_JOGANGLE_SYMBOL
 70
     0
  0
APPID
  5
206C
330
2005
100
AcDbSymbolTableRecord
100
AcDbRegAppTableRecord
  2
AcAecLayerStandard
 70
     0
  0
APPID
  5
206D
330
2005
100
AcDbSymbolTableRecord
100
AcDbRegAppTableRecord
  2
ACAD_DSTYLE_DIMEXT_LENGTH
 70
     0
  0
APPID
  5
206E
330
2005
100
AcDbSymbolTableRecord
100
AcDbRegAppTableRecord
  2
ACAD_DSTYLE_DIMEXT_ENABLED
 70
     0
  0
APPID
  5
206F
330
2005
100
AcDbSymbolTableRecord
100
AcDbRegAppTableRecord
  2
ACAD_PSEXT
 70
     0
  0
ENDTAB
  0
TABLE
  2
DIMSTYLE
  5
2006
330
0
100
AcDbSymbolTable
 70
     1
100
AcDbDimStyleTable
 71
     1
340
2022
  0
DIMSTYLE
105
2022
330
2006
100
AcDbSymbolTableRecord
100
AcDbDimStyleTableRecord
  2
STANDARD
 70
     0
279
     2
340
200D
  0
ENDTAB
  0
TABLE
  2
BLOCK_RECORD
  5
1FFD
330
0
100
AcDbSymbolTable
 70
     0
  0
BLOCK_RECORD
  5
201A
102
{ACAD_XDICTIONARY
360
202A
102
}
330
1FFD
100
AcDbSymbolTableRecord
100
AcDbBlockTableRecord
  2
*Model_Space
340
201D
  0
BLOCK_RECORD
  5
2016
102
{ACAD_XDICTIONARY
360
202C
102
}
330
1FFD
100
AcDbSymbolTableRecord
100
AcDbBlockTableRecord
  2
*Paper_Space
340
2019
  0
ENDTAB
  0
ENDSEC
  0
SECTION
  2
BLOCKS
  0
BLOCK
  5
201B
330
201A
100
AcDbEntity
  8
0
100
AcDbBlockBegin
  2
*Model_Space
 70
     0
 10
0.0
 20
0.0
 30
0.0
  3
*Model_Space
  1

  0
ENDBLK
  5
201C
330
201A
100
AcDbEntity
  8
0
100
AcDbBlockEnd
  0
BLOCK
  5
2017
330
2016
100
AcDbEntity
 67
     1
  8
0
100
AcDbBlockBegin
  2
*Paper_Space
 70
     0
 10
0.0
 20
0.0
 30
0.0
  3
*Paper_Space
  1

  0
ENDBLK
  5
2018
330
2016
100
AcDbEntity
 67
     1
  8
0
100
AcDbBlockEnd
  0
ENDSEC
  0
SECTION
  2
ENTITIES
  0
LINE
  5
15D5
330
201A
100
AcDbEntity
  8
0
100
AcDbLine
 10
230.0
 20
143.000031
 30
0.0
 11
170.0
 21
143.000031
 31
0.0
  0
LINE
  5
15D6
330
201A
100
AcDbEntity
  8
0
100
AcDbLine
 10
186.5
 20
163.0000309999998
 30
0.0
 11
186.5
 21
146.000031
 31
0.0
  0
LINE
  5
15D7
330
201A
100
AcDbEntity
  8
0
100
AcDbLine
 10
213.5
 20
163.0000309999998
 30
0.0
 11
213.5
 21
146.000031
 31
0.0
  0
LINE
  5
15D8
330
201A
100
AcDbEntity
  8
0
100
AcDbLine
 10
170.0
 20
146.000031
 30
0.0
 11
230.0
 21
146.000031
 31
0.0
  0
LINE
  5
15D9
330
201A
100
AcDbEntity
  8
0
100
AcDbLine
 10
230.0
 20
146.000031
 30
0.0
 11
230.0
 21
143.000031
 31
0.0
  0
LINE
  5
15DA
330
201A
100
AcDbEntity
  8
0
100
AcDbLine
 10
170.0
 20
146.000031
 30
0.0
 11
170.0
 21
143.000031
 31
0.0
  0
LINE
  5
15DB
330
201A
100
AcDbEntity
  8
0
100
AcDbLine
 10
155.0
 20
163.0000309999998
 30
0.0
 11
245.0
 21
163.0000309999998
 31
0.0
  0
LINE
  5
15DC
330
201A
100
AcDbEntity
  8
0
100
AcDbLine
 10
167.5056859999999
 20
166.906993999999
 30
0.0
 11
165.2499950000001
 21
163.000021999999
 31
0.0
  0
LINE
  5
15DD
330
201A
100
AcDbEntity
  8
0
100
AcDbLine
 10
167.5057000000001
 20
166.907003
 30
0.0
 11
179.999995
 21
168.0001119999998
 31
0.0
  0
LINE
  5
15DE
330
201A
100
AcDbEntity
  8
0
100
AcDbLine
 10
165.0000610000001
 20
173.000031
 30
0.0
 11
155.0
 21
173.000031
 31
0.0
  0
LINE
  5
15DF
330
201A
100
AcDbEntity
  8
0
100
AcDbLine
 10
155.0
 20
173.000031
 30
0.0
 11
155.0
 21
163.0000309999998
 31
0.0
  0
LINE
  5
15E0
330
201A
100
AcDbEntity
  8
0
100
AcDbLine
 10
165.0000479999989
 20
173.0000229999999
 30
0.0
 11
174.4944569999995
 21
167.518424
 31
0.0
  0
LINE
  5
15E1
330
201A
100
AcDbEntity
  8
0
100
AcDbLine
 10
220.0006709999988
 20
168.000031
 30
0.0
 11
203.0
 21
168.000031
 31
0.0
  0
LINE
  5
15E2
330
201A
100
AcDbEntity
  8
0
100
AcDbLine
 10
232.4943520000001
 20
166.9069889999998
 30
0.0
 11
234.7500279999999
 21
163.0000439999988
 31
0.0
  0
LINE
  5
15E3
330
201A
100
AcDbEntity
  8
0
100
AcDbLine
 10
232.494353
 20
166.9069750000001
 30
0.0
 11
220.0006939999989
 21
168.0000289999998
 31
0.0
  0
LINE
  5
15E4
330
201A
100
AcDbEntity
  8
0
100
AcDbLine
 10
235.0
 20
173.000031
 30
0.0
 11
245.0
 21
173.000031
 31
0.0
  0
LINE
  5
15E5
330
201A
100
AcDbEntity
  8
0
100
AcDbLine
 10
245.0
 20
173.000031
 30
0.0
 11
245.0
 21
163.0000309999998
 31
0.0
  0
LINE
  5
15E6
330
201A
100
AcDbEntity
  8
0
100
AcDbLine
 10
235.000015
 20
173.000007
 30
0.0
 11
225.5055849999989
 21
167.518395
 31
0.0
  0
LINE
  5
15E7
330
201A
100
AcDbEntity
  8
0
100
AcDbLine
 10
197.0
 20
189.9205469999999
 30
0.0
 11
197.0
 21
166.000031
 31
0.0
  0
LINE
  5
15E8
330
201A
100
AcDbEntity
  8
0
100
AcDbLine
 10
203.0
 20
189.9205469999999
 30
0.0
 11
203.0
 21
166.000031
 31
0.0
  0
LINE
  5
15E9
330
201A
100
AcDbEntity
  8
0
100
AcDbLine
 10
208.0
 20
195.4433589999999
 30
0.0
 11
208.0
 21
175.0500489999998
 31
0.0
  0
LINE
  5
15EB
330
201A
100
AcDbEntity
  8
0
100
AcDbLine
 10
219.0
 20
175.0500489999998
 30
0.0
 11
219.0
 21
168.000031
 31
0.0
  0
LINE
  5
15EC
330
201A
100
AcDbEntity
  8
0
100
AcDbLine
 10
192.0
 20
195.4433589999999
 30
0.0
 11
192.0
 21
175.0500489999998
 31
0.0
  0
LINE
  5
15ED
330
201A
100
AcDbEntity
  8
0
100
AcDbLine
 10
186.0
 20
195.4433589999999
 30
0.0
 11
186.0
 21
175.0500489999998
 31
0.0
  0
LINE
  5
15EF
330
201A
100
AcDbEntity
  8
0
100
AcDbLine
 10
181.0
 20
175.0500489999998
 30
0.0
 11
181.0
 21
168.000031
 31
0.0
  0
LINE
  5
15F0
330
201A
100
AcDbEntity
  8
0
100
AcDbLine
 10
219.0
 20
175.0500489999998
 30
0.0
 11
214.0
 21
175.0500489999998
 31
0.0
  0
LINE
  5
15F1
330
201A
100
AcDbEntity
  8
0
100
AcDbLine
 10
214.0
 20
195.443359
 30
0.0
 11
214.0
 21
175.0500489999998
 31
0.0
  0
LINE
  5
15F4
330
201A
100
AcDbEntity
  8
0
100
AcDbLine
 10
186.0
 20
195.4433589999999
 30
0.0
 11
194.0000000000001
 21
195.443359
 31
0.0
  0
LINE
  5
15F6
330
201A
100
AcDbEntity
  8
0
100
AcDbLine
 10
192.0
 20
189.9205469999999
 30
0.0
 11
197.0
 21
189.9205469999999
 31
0.0
  0
LINE
  5
15F7
330
201A
100
AcDbEntity
  8
0
100
AcDbLine
 10
203.0
 20
189.9205469999999
 30
0.0
 11
208.0
 21
189.9205469999999
 31
0.0
  0
LINE
  5
15F8
330
201A
100
AcDbEntity
  8
0
100
AcDbLine
 10
197.0
 20
175.0500489999998
 30
0.0
 11
192.0
 21
175.0500489999998
 31
0.0
  0
LINE
  5
15F9
330
201A
100
AcDbEntity
  8
0
100
AcDbLine
 10
197.0
 20
168.000031
 30
0.0
 11
180.0
 21
168.000031
 31
0.0
  0
LINE
  5
15FA
330
201A
100
AcDbEntity
  8
0
100
AcDbLine
 10
186.0
 20
175.0500489999998
 30
0.0
 11
181.0
 21
175.0500489999998
 31
0.0
  0
LINE
  5
15FB
330
201A
100
AcDbEntity
  8
0
100
AcDbLine
 10
208.0
 20
175.0500489999998
 30
0.0
 11
203.0
 21
175.0500489999998
 31
0.0
  0
ARC
  5
15FC
330
201A
100
AcDbEntity
  8
0
100
AcDbCircle
 10
200.0
 20
100.0
 30
0.0
 40
49.0
100
AcDbArc
 50
118.6515900000007
 51
61.34841400000667
  0
CIRCLE
  5
15FD
330
201A
100
AcDbEntity
  8
0
100
AcDbCircle
 10
200.0
 20
100.0
 30
0.0
 40
25.4
  0
CIRCLE
  5
15FE
330
201A
100
AcDbEntity
  8
0
100
AcDbCircle
 10
160.0
 20
168.000031
 30
0.0
 40
2.6500001
  0
CIRCLE
  5
15FF
330
201A
100
AcDbEntity
  8
0
100
AcDbCircle
 10
240.0
 20
168.000031
 30
0.0
 40
2.6500001
  0
ARC
  5
1600
330
201A
100
AcDbEntity
  8
0
100
AcDbCircle
 10
200.0
 20
166.000031
 30
0.0
 40
3.0
100
AcDbArc
 50
179.9999899999988
 51
0.0
  0
TEXT
  5
1702
330
201A
100
AcDbEntity
  8
0
100
AcDbText
 10
199.2018441108284
 20
619.8245145434688
 30
0.0
 40
48.000002
  1
BVL__ 2S
 41
1.1021
100
AcDbText
  0
LINE
  5
1707
330
201A
100
AcDbEntity
  8
0
100
AcDbLine
 10
663.1394355833131
 20
163.0000309999998
 30
0.0
 11
663.1394355833131
 21
146.000031
 31
0.0
  0
LINE
  5
1708
330
201A
100
AcDbEntity
  8
0
100
AcDbLine
 10
690.1394355833117
 20
163.0000309999998
 30
0.0
 11
690.1394355833117
 21
146.000031
 31
0.0
  0
LINE
  5
1709
330
201A
100
AcDbEntity
  8
0
100
AcDbLine
 10
646.6394355833111
 20
146.000031
 30
0.0
 11
663.1394355833131
 21
146.000031
 31
0.0
  0
LINE
  5
170A
330
201A
100
AcDbEntity
  8
0
100
AcDbLine
 10
706.6394355833117
 20
146.000031
 30
0.0
 11
706.6394355833117
 21
143.000031
 31
0.0
  0
LINE
  5
170B
330
201A
100
AcDbEntity
  8
0
100
AcDbLine
 10
646.6394355833111
 20
146.000031
 30
0.0
 11
646.6394355833111
 21
143.000031
 31
0.0
  0
LINE
  5
170C
330
201A
100
AcDbEntity
  8
0
100
AcDbLine
 10
631.6394355833112
 20
163.0000309999998
 30
0.0
 11
663.1394355833131
 21
163.0000309999998
 31
0.0
  0
LINE
  5
170D
330
201A
100
AcDbEntity
  8
0
100
AcDbLine
 10
651.1338825833132
 20
167.5184469999997
 30
0.0
 11
656.6394285833112
 21
168.000119999999
 31
0.0
  0
LINE
  5
170E
330
201A
100
AcDbEntity
  8
0
100
AcDbLine
 10
641.6394855833127
 20
173.000031
 30
0.0
 11
631.6394355833112
 21
173.000031
 31
0.0
  0
LINE
  5
170F
330
201A
100
AcDbEntity
  8
0
100
AcDbLine
 10
631.6394355833112
 20
173.000031
 30
0.0
 11
631.6394355833112
 21
163.0000309999998
 31
0.0
  0
LINE
  5
1710
330
201A
100
AcDbEntity
  8
0
100
AcDbLine
 10
641.6394755833112
 20
173.0000099999998
 30
0.0
 11
651.1338785833112
 21
167.5184139999998
 31
0.0
  0
LINE
  5
1711
330
201A
100
AcDbEntity
  8
0
100
AcDbLine
 10
702.1450095833113
 20
167.5184299999999
 30
0.0
 11
696.6401065833117
 21
168.000046
 31
0.0
  0
LINE
  5
1712
330
201A
100
AcDbEntity
  8
0
100
AcDbLine
 10
711.6394435833115
 20
173.000031
 30
0.0
 11
721.6394355833131
 21
173.000031
 31
0.0
  0
LINE
  5
1713
330
201A
100
AcDbEntity
  8
0
100
AcDbLine
 10
721.6394355833131
 20
173.000031
 30
0.0
 11
721.6394355833131
 21
163.0000309999998
 31
0.0
  0
LINE
  5
1714
330
201A
100
AcDbEntity
  8
0
100
AcDbLine
 10
711.6394475833116
 20
173.0000269999999
 30
0.0
 11
702.1450045833113
 21
167.5184079999989
 31
0.0
  0
LINE
  5
1715
330
201A
100
AcDbEntity
  8
0
100
AcDbLine
 10
684.6394355833117
 20
194.4877319999999
 30
0.0
 11
684.6394355833117
 21
175.0500489999998
 31
0.0
  0
LINE
  5
1716
330
201A
100
AcDbEntity
  8
0
100
AcDbLine
 10
690.6394355833117
 20
194.4877319999999
 30
0.0
 11
684.6394355833117
 21
194.4877319999999
 31
0.0
  0
LINE
  5
1717
330
201A
100
AcDbEntity
  8
0
100
AcDbLine
 10
695.6394355833112
 20
175.0500489999998
 30
0.0
 11
695.6394355833112
 21
168.000031
 31
0.0
  0
LINE
  5
1718
330
201A
100
AcDbEntity
  8
0
100
AcDbLine
 10
668.6394355833117
 20
194.4877319999999
 30
0.0
 11
668.6394355833117
 21
175.0500489999998
 31
0.0
  0
LINE
  5
1719
330
201A
100
AcDbEntity
  8
0
100
AcDbLine
 10
662.6394355833111
 20
194.4877319999999
 30
0.0
 11
662.6394355833111
 21
175.0500489999998
 31
0.0
  0
LINE
  5
171A
330
201A
100
AcDbEntity
  8
0
100
AcDbLine
 10
662.6394355833111
 20
194.4877319999999
 30
0.0
 11
668.6394355833117
 21
194.4877319999999
 31
0.0
  0
LINE
  5
171B
330
201A
100
AcDbEntity
  8
0
100
AcDbLine
 10
657.6394355833111
 20
175.0500489999998
 30
0.0
 11
657.6394355833111
 21
168.000031
 31
0.0
  0
LINE
  5
171C
330
201A
100
AcDbEntity
  8
0
100
AcDbLine
 10
690.6394355833117
 20
194.4877319999999
 30
0.0
 11
690.6394355833117
 21
175.0500489999998
 31
0.0
  0
LINE
  5
1720
330
201A
100
AcDbEntity
  8
0
100
AcDbLine
 10
646.6394355833111
 20
143.000031
 30
0.0
 11
706.6394355833117
 21
143.000031
 31
0.0
  0
LINE
  5
1721
330
201A
100
AcDbEntity
  8
0
100
AcDbLine
 10
695.6394355833112
 20
175.0500489999998
 30
0.0
 11
690.6394355833117
 21
175.0500489999998
 31
0.0
  0
LINE
  5
1722
330
201A
100
AcDbEntity
  8
0
100
AcDbLine
 10
696.6401045833118
 20
168.000031
 30
0.0
 11
656.6394355833117
 21
168.000031
 31
0.0
  0
LINE
  5
1723
330
201A
100
AcDbEntity
  8
0
100
AcDbLine
 10
690.1394355833117
 20
163.0000309999998
 30
0.0
 11
721.6394355833131
 21
163.0000309999998
 31
0.0
  0
LINE
  5
1724
330
201A
100
AcDbEntity
  8
0
100
AcDbLine
 10
665.6394355833117
 20
168.000031
 30
0.0
 11
665.6394355833117
 21
143.000031
 31
0.0
  0
LINE
  5
1725
330
201A
100
AcDbEntity
  8
0
100
AcDbLine
 10
687.6394355833113
 20
168.000031
 30
0.0
 11
687.6394355833113
 21
143.000031
 31
0.0
  0
LINE
  5
1726
330
201A
100
AcDbEntity
  8
0
100
AcDbLine
 10
690.1394355833117
 20
146.000031
 30
0.0
 11
706.6394355833117
 21
146.000031
 31
0.0
  0
LINE
  5
1727
330
201A
100
AcDbEntity
  8
0
100
AcDbLine
 10
662.6394355833111
 20
175.0500489999998
 30
0.0
 11
657.6394355833111
 21
175.0500489999998
 31
0.0
  0
LINE
  5
1728
330
201A
100
AcDbEntity
  8
0
100
AcDbLine
 10
684.6394355833117
 20
175.0500489999998
 30
0.0
 11
668.6394355833117
 21
175.0500489999998
 31
0.0
  0
ARC
  5
1729
330
201A
100
AcDbEntity
  8
0
100
AcDbCircle
 10
676.639435583313
 20
100.0
 30
0.0
 40
49.0
100
AcDbArc
 50
118.6515800000039
 51
61.34841799999747
  0
CIRCLE
  5
172A
330
201A
100
AcDbEntity
  8
0
100
AcDbCircle
 10
676.639435583313
 20
100.0
 30
0.0
 40
25.4
  0
CIRCLE
  5
172B
330
201A
100
AcDbEntity
  8
0
100
AcDbCircle
 10
636.6394355833117
 20
168.000031
 30
0.0
 40
2.6500001
  0
CIRCLE
  5
172C
330
201A
100
AcDbEntity
  8
0
100
AcDbCircle
 10
716.6394355833118
 20
168.000031
 30
0.0
 40
2.6500001
  0
LINE
  5
173A
330
201A
100
AcDbEntity
  8
0
100
AcDbLine
 10
416.0
 20
143.0
 30
0.0
 11
416.0
 21
51.0
 31
0.0
  0
LINE
  5
173B
330
201A
100
AcDbEntity
  8
0
100
AcDbLine
 10
384.0
 20
51.0
 30
0.0
 11
416.0
 21
51.0
 31
0.0
  0
LINE
  5
173C
330
201A
100
AcDbEntity
  8
0
100
AcDbLine
 10
384.0
 20
143.000031
 30
0.0
 11
384.0
 21
51.0
 31
0.0
  0
LINE
  5
1745
330
201A
100
AcDbEntity
  8
0
100
AcDbLine
 10
416.0
 20
143.000031
 30
0.0
 11
384.0
 21
143.000031
 31
0.0
  0
LINE
  5
1746
330
201A
100
AcDbEntity
  8
0
100
AcDbLine
 10
371.9145529999998
 20
187.455465
 30
0.0
 11
420.8094660227092
 21
196.0769577900265
 31
0.0
  0
LINE
  5
1748
330
201A
100
AcDbEntity
  8
0
100
AcDbLine
 10
358.9361009999986
 20
168.9203329999999
 30
0.0
 11
371.9145529999998
 21
187.4554819999999
 31
0.0
  0
LINE
  5
1749
330
201A
100
AcDbEntity
  8
0
100
AcDbLine
 10
358.9361009999986
 20
168.9203349999999
 30
0.0
 11
361.6429059999999
 21
163.115573
 31
0.0
  0
LINE
  5
174A
330
201A
100
AcDbEntity
  8
0
100
AcDbLine
 10
371.6027840000001
 20
167.2653539999988
 30
0.0
 11
374.1021449999998
 21
171.5943749999999
 31
0.0
  0
LINE
  5
174B
330
201A
100
AcDbEntity
  8
0
100
AcDbLine
 10
374.102123
 20
171.5943669999998
 30
0.0
 11
382.766316
 21
173.1220979999999
 31
0.0
  0
LINE
  5
174D
330
201A
100
AcDbEntity
  8
0
100
AcDbLine
 10
419.0
 20
175.0500489999998
 30
0.0
 11
419.0
 21
168.0000149999998
 31
0.0
  0
LINE
  5
174E
330
201A
100
AcDbEntity
  8
0
100
AcDbLine
 10
381.0
 20
172.3029939999999
 30
0.0
 11
381.0
 21
168.0000149999998
 31
0.0
  0
LINE
  5
174F
330
201A
100
AcDbEntity
  8
0
100
AcDbLine
 10
419.0
 20
175.050034
 30
0.0
 11
417.2337040000001
 21
175.050034
 31
0.0
  0
LINE
  5
1750
330
201A
100
AcDbEntity
  8
0
100
AcDbLine
 10
417.2336730000002
 20
195.4464719999998
 30
0.0
 11
417.2336730000002
 21
175.0500489999998
 31
0.0
  0
LINE
  5
1751
330
201A
100
AcDbEntity
  8
0
100
AcDbLine
 10
382.7662959999996
 20
189.368942
 30
0.0
 11
382.7662959999996
 21
172.614440999999
 31
0.0
  0
LINE
  5
1752
330
201A
100
AcDbEntity
  8
0
100
AcDbLine
 10
382.7663090000001
 20
172.6144149999998
 30
0.0
 11
381.000008
 21
172.3029679999991
 31
0.0
  0
LINE
  5
1753
330
201A
100
AcDbEntity
  8
0
100
AcDbLine
 10
412.845245
 20
194.6726679999999
 30
0.0
 11
412.845245
 21
175.0500489999998
 31
0.0
  0
LINE
  5
1754
330
201A
100
AcDbEntity
  8
0
100
AcDbLine
 10
387.1547549999999
 20
190.1427459999999
 30
0.0
 11
387.1547549999999
 21
175.050034
 31
0.0
  0
LINE
  5
1755
330
201A
100
AcDbEntity
  8
0
100
AcDbLine
 10
412.845245
 20
175.050034
 30
0.0
 11
387.1547549999999
 21
175.050034
 31
0.0
  0
LINE
  5
1756
330
201A
100
AcDbEntity
  8
0
100
AcDbLine
 10
380.0000610000001
 20
168.0000149999998
 30
0.0
 11
405.0
 21
168.0000149999998
 31
0.0
  0
LINE
  5
1757
330
201A
100
AcDbEntity
  8
0
100
AcDbLine
 10
410.0
 20
173.0000149999999
 30
0.0
 11
410.0
 21
143.200027
 31
0.0
  0
LINE
  5
1758
330
201A
100
AcDbEntity
  8
0
100
AcDbLine
 10
405.0
 20
173.0000149999999
 30
0.0
 11
405.0
 21
163.0000149999998
 31
0.0
  0
LINE
  5
1759
330
201A
100
AcDbEntity
  8
0
100
AcDbLine
 10
361.696777
 20
163.0000149999998
 30
0.0
 11
410.0
 21
163.0000149999998
 31
0.0
  0
LINE
  5
175A
330
201A
100
AcDbEntity
  8
0
100
AcDbLine
 10
367.5057189999977
 20
166.9068830000001
 30
0.0
 11
365.2500709999998
 21
162.999986
 31
0.0
  0
LINE
  5
175B
330
201A
100
AcDbEntity
  8
0
100
AcDbLine
 10
367.5056589999998
 20
166.9069609999988
 30
0.0
 11
380.0000180000001
 21
168.000076
 31
0.0
  0
LINE
  5
175C
330
201A
100
AcDbEntity
  8
0
100
AcDbLine
 10
386.5
 20
163.0000149999998
 30
0.0
 11
386.5
 21
146.0000149999999
 31
0.0
  0
LINE
  5
175D
330
201A
100
AcDbEntity
  8
0
100
AcDbLine
 10
405.0
 20
173.0000149999999
 30
0.0
 11
410.0
 21
173.0000149999999
 31
0.0
  0
LINE
  5
175E
330
201A
100
AcDbEntity
  8
0
100
AcDbLine
 10
381.4999999999997
 20
146.0000149999999
 30
0.0
 11
410.0
 21
146.0000149999999
 31
0.0
  0
LINE
  5
175F
330
201A
100
AcDbEntity
  8
0
100
AcDbLine
 10
410.0
 20
168.0000149999998
 30
0.0
 11
419.0
 21
168.0000149999998
 31
0.0
  0
LINE
  5
1760
330
201A
100
AcDbEntity
  8
0
100
AcDbLine
 10
417.2336859999999
 20
179.1996259999999
 30
0.0
 11
420.9789709554798
 21
179.8600202917295
 31
0.0
  0
LINE
  5
1761
330
201A
100
AcDbEntity
  8
0
100
AcDbLine
 10
381.4999999999997
 20
146.0000149999999
 30
0.0
 11
381.4999999999997
 21
141.000031
 31
0.0
  0
LINE
  5
1762
330
201A
100
AcDbEntity
  8
0
100
AcDbLine
 10
381.4999999999997
 20
141.000031
 30
0.0
 11
384.0
 21
141.000031
 31
0.0
  0
LINE
  5
1763
330
201A
100
AcDbEntity
  8
0
100
AcDbLine
 10
384.0
 20
143.000031
 30
0.0
 11
384.0
 21
141.000031
 31
0.0
  0
CIRCLE
  5
176B
330
201A
100
AcDbEntity
  8
0
100
AcDbCircle
 10
393.0
 20
183.0500489999998
 30
0.0
 40
4.150000099999997
  0
CIRCLE
  5
176C
330
201A
100
AcDbEntity
  8
0
100
AcDbCircle
 10
393.0
 20
183.0500489999998
 30
0.0
 40
4.150000099999997
  0
LINE
  5
1777
330
201A
100
AcDbEntity
  8
0
100
AcDbLine
 10
416.0
 20
398.2966594621073
 30
0.0
 11
416.0
 21
359.5436104621077
 31
0.0
  0
LINE
  5
1778
330
201A
100
AcDbEntity
  8
0
100
AcDbLine
 10
384.0
 20
300.2966594621073
 30
0.0
 11
416.0
 21
300.2966594621073
 31
0.0
  0
LINE
  5
1779
330
201A
100
AcDbEntity
  8
0
100
AcDbLine
 10
384.0
 20
398.2966594621073
 30
0.0
 11
384.0
 21
379.5796984621077
 31
0.0
  0
LINE
  5
177A
330
201A
100
AcDbEntity
  8
0
100
AcDbLine
 10
416.0
 20
374.6966594621067
 30
0.0
 11
420.0
 21
374.6966594621067
 31
0.0
  0
LINE
  5
177B
330
201A
100
AcDbEntity
  8
0
100
AcDbLine
 10
416.0
 20
323.8966594621068
 30
0.0
 11
420.0
 21
323.8966594621068
 31
0.0
  0
LINE
  5
177E
330
201A
100
AcDbEntity
  8
0
100
AcDbLine
 10
384.0
 20
398.2966594621073
 30
0.0
 11
416.0
 21
398.2966594621073
 31
0.0
  0
LINE
  5
177F
330
201A
100
AcDbEntity
  8
0
100
AcDbLine
 10
384.0
 20
319.0136204621067
 30
0.0
 11
384.0
 21
300.2966594621073
 31
0.0
  0
LINE
  5
1780
330
201A
100
AcDbEntity
  8
0
100
AcDbLine
 10
416.0
 20
339.0497084621069
 30
0.0
 11
416.0
 21
300.2966594621073
 31
0.0
  0
LINE
  5
1781
330
201A
100
AcDbEntity
  8
0
100
AcDbLine
 10
410.0
 20
394.2966594621077
 30
0.0
 11
410.0
 21
365.4521464621072
 31
0.0
  0
LINE
  5
1782
330
201A
100
AcDbEntity
  8
0
100
AcDbLine
 10
405.0
 20
394.2966594621077
 30
0.0
 11
405.0
 21
375.8021524621067
 31
0.0
  0
LINE
  5
1783
330
201A
100
AcDbEntity
  8
0
100
AcDbLine
 10
405.0
 20
304.2966284621077
 30
0.0
 11
410.0
 21
304.2966284621077
 31
0.0
  0
LINE
  5
1784
330
201A
100
AcDbEntity
  8
0
100
AcDbLine
 10
405.0
 20
394.2966594621077
 30
0.0
 11
410.0
 21
394.2966594621077
 31
0.0
  0
LINE
  5
1785
330
201A
100
AcDbEntity
  8
0
100
AcDbLine
 10
406.0
 20
314.2966594621077
 30
0.0
 11
409.0
 21
314.2966594621077
 31
0.0
  0
LINE
  5
1786
330
201A
100
AcDbEntity
  8
0
100
AcDbLine
 10
405.0
 20
304.2966284621077
 30
0.0
 11
405.0
 21
322.7911964621072
 31
0.0
  0
LINE
  5
1789
330
201A
100
AcDbEntity
  8
0
100
AcDbLine
 10
406.0
 20
384.2966594621072
 30
0.0
 11
409.0
 21
384.2966594621072
 31
0.0
  0
LINE
  5
178A
330
201A
100
AcDbEntity
  8
0
100
AcDbLine
 10
412.8452149999987
 20
335.2966594621073
 30
0.0
 11
387.1547549999999
 21
335.2966594621073
 31
0.0
  0
LINE
  5
178B
330
201A
100
AcDbEntity
  8
0
100
AcDbLine
 10
412.8452149999987
 20
363.2966594621072
 30
0.0
 11
387.1547549999999
 21
363.2966594621072
 31
0.0
  0
LINE
  5
178C
330
201A
100
AcDbEntity
  8
0
100
AcDbLine
 10
410.0
 20
333.1411724621072
 30
0.0
 11
410.0
 21
304.2966284621077
 31
0.0
  0
LINE
  5
178E
330
201A
100
AcDbEntity
  8
0
100
AcDbLine
 10
417.5530271146762
 20
341.2966594621077
 30
0.0
 11
382.7662959999996
 21
341.2966594621077
 31
0.0
  0
LINE
  5
178F
330
201A
100
AcDbEntity
  8
0
100
AcDbLine
 10
417.5530271146762
 20
357.2966594621076
 30
0.0
 11
382.7662959999996
 21
357.2966594621076
 31
0.0
  0
LINE
  5
1790
330
201A
100
AcDbEntity
  8
0
100
AcDbLine
 10
381.2383420000001
 20
352.2966594621073
 30
0.0
 11
362.6876219999998
 21
352.2966594621073
 31
0.0
  0
LINE
  5
1791
330
201A
100
AcDbEntity
  8
0
100
AcDbLine
 10
381.2383420000001
 20
346.2966594621077
 30
0.0
 11
362.6876219999998
 21
346.2966594621077
 31
0.0
  0
ARC
  5
179B
330
201A
100
AcDbEntity
  8
0
100
AcDbCircle
 10
400.0
 20
349.2966594621073
 30
0.0
 40
34.25
100
AcDbArc
 50
81.60565199999401
 51
174.97495
  0
ARC
  5
179C
330
201A
100
AcDbEntity
  8
0
100
AcDbCircle
 10
362.6876219999998
 20
349.2966594621073
 30
0.0
 40
3.0
100
AcDbArc
 50
90.00000300001072
 51
270.0
  0
ARC
  5
179D
330
201A
100
AcDbEntity
  8
0
100
AcDbCircle
 10
400.0
 20
349.2966594621073
 30
0.0
 40
19.0
100
AcDbArc
 50
24.90106300000512
 51
170.9152799999959
  0
ARC
  5
179F
330
201A
100
AcDbEntity
  8
0
100
AcDbCircle
 10
400.0
 20
349.2966594621073
 30
0.0
 40
34.25
100
AcDbArc
 50
185.0250499999999
 51
278.3943500000052
  0
ARC
  5
17A0
330
201A
100
AcDbEntity
  8
0
100
AcDbCircle
 10
400.0
 20
349.2966594621073
 30
0.0
 40
19.0
100
AcDbArc
 50
189.084720000004
 51
335.0989400000106
  0
LINE
  5
18AA
330
201A
100
AcDbEntity
  8
0
100
AcDbLine
 10
360.0
 20
132.0
 30
0.0
 11
362.8499993999998
 21
132.0
 31
0.0
  0
LINE
  5
18AB
330
201A
100
AcDbEntity
  8
0
100
AcDbLine
 10
362.8499998000001
 20
131.9999989999988
 30
0.0
 11
365.2522033000002
 21
125.4
 31
0.0
  0
LINE
  5
18AC
330
201A
100
AcDbEntity
  8
0
100
AcDbLine
 10
365.2522035
 20
125.4
 30
0.0
 11
384.0
 21
125.4
 31
0.0
  0
LINE
  5
18AD
330
201A
100
AcDbEntity
  8
0
100
AcDbLine
 10
360.0
 20
68.0
 30
0.0
 11
360.0
 21
132.0
 31
0.0
  0
LINE
  5
18AE
330
201A
100
AcDbEntity
  8
0
100
AcDbLine
 10
365.2522035
 20
74.59999999999786
 30
0.0
 11
384.0
 21
74.59999999999786
 31
0.0
  0
LINE
  5
18AF
330
201A
100
AcDbEntity
  8
0
100
AcDbLine
 10
362.8499998000001
 20
68.00000100000011
 30
0.0
 11
365.2522033000002
 21
74.59999999999786
 31
0.0
  0
LINE
  5
18B0
330
201A
100
AcDbEntity
  8
0
100
AcDbLine
 10
360.0
 20
68.0
 30
0.0
 11
362.8499993999998
 21
68.0
 31
0.0
  0
LINE
  5
18B2
330
201A
100
AcDbEntity
  8
0
100
AcDbLine
 10
365.2522035
 20
125.4
 30
0.0
 11
365.2522035
 21
74.59999999999786
 31
0.0
  0
LINE
  5
18B5
330
201A
100
AcDbEntity
  8
0
100
AcDbLine
 10
440.0
 20
68.0
 30
0.0
 11
437.1500006
 21
68.0
 31
0.0
  0
LINE
  5
18B6
330
201A
100
AcDbEntity
  8
0
100
AcDbLine
 10
437.1500001999987
 20
68.00000100000011
 30
0.0
 11
434.7477966999985
 21
74.59999999999786
 31
0.0
  0
LINE
  5
18B7
330
201A
100
AcDbEntity
  8
0
100
AcDbLine
 10
434.7477964999998
 20
74.59999999999786
 30
0.0
 11
416.0
 21
74.59999999999786
 31
0.0
  0
LINE
  5
18B8
330
201A
100
AcDbEntity
  8
0
100
AcDbLine
 10
440.0
 20
132.0
 30
0.0
 11
440.0
 21
68.0
 31
0.0
  0
LINE
  5
18B9
330
201A
100
AcDbEntity
  8
0
100
AcDbLine
 10
434.7477964999998
 20
125.4
 30
0.0
 11
416.0
 21
125.4
 31
0.0
  0
LINE
  5
18BA
330
201A
100
AcDbEntity
  8
0
100
AcDbLine
 10
437.1500001999987
 20
131.9999989999988
 30
0.0
 11
434.7477966999985
 21
125.4
 31
0.0
  0
LINE
  5
18BB
330
201A
100
AcDbEntity
  8
0
100
AcDbLine
 10
440.0
 20
132.0
 30
0.0
 11
437.1500006
 21
132.0
 31
0.0
  0
LINE
  5
18BD
330
201A
100
AcDbEntity
  8
0
100
AcDbLine
 10
434.7477964999998
 20
74.59999999999786
 30
0.0
 11
434.7477964999998
 21
125.4
 31
0.0
  0
LINE
  5
190C
330
201A
100
AcDbEntity
  8
0
100
AcDbLine
 10
434.7477964999998
 20
323.8966594621068
 30
0.0
 11
434.7477964999998
 21
343.2966594621073
 31
0.0
  0
LINE
  5
190D
330
201A
100
AcDbEntity
  8
0
100
AcDbLine
 10
440.0
 20
381.2966594621073
 30
0.0
 11
440.0
 21
355.2966594621072
 31
0.0
  0
LINE
  5
190E
330
201A
100
AcDbEntity
  8
0
100
AcDbLine
 10
434.7477964999998
 20
323.8966594621068
 30
0.0
 11
416.0
 21
323.8966594621068
 31
0.0
  0
LINE
  5
190F
330
201A
100
AcDbEntity
  8
0
100
AcDbLine
 10
437.1500001999987
 20
317.2966604621068
 30
0.0
 11
434.7477966999985
 21
323.8966594621068
 31
0.0
  0
LINE
  5
1910
330
201A
100
AcDbEntity
  8
0
100
AcDbLine
 10
440.0
 20
317.2966594621072
 30
0.0
 11
437.1500006
 21
317.2966594621072
 31
0.0
  0
LINE
  5
1911
330
201A
100
AcDbEntity
  8
0
100
AcDbLine
 10
434.7477964999998
 20
374.6966594621067
 30
0.0
 11
416.0
 21
374.6966594621067
 31
0.0
  0
LINE
  5
1912
330
201A
100
AcDbEntity
  8
0
100
AcDbLine
 10
440.0
 20
381.2966594621073
 30
0.0
 11
437.1500006
 21
381.2966594621073
 31
0.0
  0
LINE
  5
1913
330
201A
100
AcDbEntity
  8
0
100
AcDbLine
 10
437.1500001999987
 20
381.2966584621078
 30
0.0
 11
434.7477966999985
 21
374.6966594621067
 31
0.0
  0
LINE
  5
1914
330
201A
100
AcDbEntity
  8
0
100
AcDbLine
 10
365.2522035
 20
323.8966594621068
 30
0.0
 11
377.0238710832312
 21
323.8966594621068
 31
0.0
  0
LINE
  5
1915
330
201A
100
AcDbEntity
  8
0
100
AcDbLine
 10
365.2522035
 20
374.6966594621067
 30
0.0
 11
377.0238710832312
 21
374.6966594621067
 31
0.0
  0
LINE
  5
1916
330
201A
100
AcDbEntity
  8
0
100
AcDbLine
 10
365.2522035
 20
374.6966594621067
 30
0.0
 11
365.2522035
 21
352.2966594621073
 31
0.0
  0
LINE
  5
1917
330
201A
100
AcDbEntity
  8
0
100
AcDbLine
 10
360.0
 20
317.2966594621072
 30
0.0
 11
360.0
 21
381.2966594621073
 31
0.0
  0
LINE
  5
1918
330
201A
100
AcDbEntity
  8
0
100
AcDbLine
 10
360.0
 20
317.2966594621072
 30
0.0
 11
362.8499993999998
 21
317.2966594621072
 31
0.0
  0
LINE
  5
1919
330
201A
100
AcDbEntity
  8
0
100
AcDbLine
 10
362.8499998000001
 20
317.2966604621068
 30
0.0
 11
365.2522033000002
 21
323.8966594621068
 31
0.0
  0
LINE
  5
191A
330
201A
100
AcDbEntity
  8
0
100
AcDbLine
 10
362.8499998000001
 20
381.2966584621078
 30
0.0
 11
365.2522033000002
 21
374.6966594621067
 31
0.0
  0
LINE
  5
191B
330
201A
100
AcDbEntity
  8
0
100
AcDbLine
 10
360.0
 20
381.2966594621073
 30
0.0
 11
362.8499993999998
 21
381.2966594621073
 31
0.0
  0
LINE
  5
191C
330
201A
100
AcDbEntity
  8
0
100
AcDbLine
 10
365.2522035
 20
346.2966594621077
 30
0.0
 11
365.2522035
 21
323.8966594621068
 31
0.0
  0
LINE
  5
191D
330
201A
100
AcDbEntity
  8
0
100
AcDbLine
 10
440.0
 20
343.2966594621073
 30
0.0
 11
440.0
 21
317.2966594621072
 31
0.0
  0
LINE
  5
191E
330
201A
100
AcDbEntity
  8
0
100
AcDbLine
 10
434.7477964999998
 20
355.2966594621072
 30
0.0
 11
434.7477964999998
 21
374.6966594621067
 31
0.0
  0
CIRCLE
  5
195F
330
201A
100
AcDbEntity
  8
0
  6
Continuous
100
AcDbCircle
 10
676.639435583313
 20
100.0
 30
0.0
 40
32.0
  0
CIRCLE
  5
1960
330
201A
100
AcDbEntity
  8
0
  6
Continuous
100
AcDbCircle
 10
200.0
 20
100.0
 30
0.0
 40
32.0
  0
LINE
  5
20DC
330
201A
100
AcDbEntity
  8
0
  6
CENTER
100
AcDbLine
 10
400.0
 20
41.37318134132828
 30
0.0
 11
400.0
 21
197.7816122076838
 31
0.0
  0
LINE
  5
20DD
330
201A
100
AcDbEntity
  8
0
  6
CENTER
100
AcDbLine
 10
345.1677296783552
 20
100.0
 30
0.0
 11
454.8322703216447
 21
100.0
 31
0.0
  0
LINE
  5
20E7
330
201A
100
AcDbEntity
  8
0
  6
CENTER
100
AcDbLine
 10
676.639435583313
 20
41.37318134132828
 30
0.0
 11
676.639435583313
 21
213.9354860007624
 31
0.0
  0
LINE
  5
20E8
330
201A
100
AcDbEntity
  8
0
  6
CENTER
100
AcDbLine
 10
618.0148617886223
 20
100.0
 30
0.0
 11
735.2640093780037
 21
100.0
 31
0.0
  0
ARC
  5
20E9
330
201A
100
AcDbEntity
  8
0
100
AcDbCircle
 10
550.0162143357579
 20
213.9354860007624
 30
0.0
 40
15.0
100
AcDbArc
 50
249.9999970332833
 51
129.9999770332818
  0
LINE
  5
20EA
330
201A
100
AcDbEntity
  8
0
100
AcDbLine
 10
438.571675010631
 20
188.1922734423084
 30
0.0
 11
529.1095135318831
 21
204.1565160217894
 31
0.0
  0
LINE
  5
20EB
330
201A
100
AcDbEntity
  8
0
100
AcDbLine
 10
534.2661973408715
 20
203.7053595560071
 30
0.0
 11
544.8859088124134
 21
199.8400988907346
 31
0.0
  0
ARC
  5
20EC
330
201A
100
AcDbEntity
  8
0
100
AcDbCircle
 10
530.8459930798151
 20
194.308438098681
 30
0.0
 40
10.0
100
AcDbArc
 50
69.99996903327886
 51
99.9999870332815
  0
LINE
  5
20ED
330
201A
100
AcDbEntity
  8
0
  6
CENTER
100
AcDbLine
 10
425.2609207750685
 20
191.9377908712317
 30
0.0
 11
550.0162143357579
 21
213.9354860007624
 31
0.0
  0
LINE
  5
20EE
330
201A
100
AcDbEntity
  8
0
100
AcDbLine
 10
531.7171339249641
 20
218.161835695156
 30
0.0
 11
540.3744047109196
 21
225.4261439408141
 31
0.0
  0
LINE
  5
20EF
330
201A
100
AcDbEntity
  8
0
100
AcDbLine
 10
436.4876004868566
 20
200.0099142166584
 30
0.0
 11
527.0257380743646
 21
215.9742095295194
 31
0.0
  0
ARC
  5
20F0
330
201A
100
AcDbEntity
  8
0
100
AcDbCircle
 10
525.2892585264326
 20
225.8222874526277
 30
0.0
 40
10.0
100
AcDbArc
 50
279.9999870332815
 51
310.0000070332823
  0
LINE
  5
20F1
330
201A
100
AcDbEntity
  8
0
100
AcDbLine
 10
420.8094660227092
 20
196.0769577900265
 30
0.0
 11
436.4876004868566
 21
200.0099142166584
 31
0.0
  0
LINE
  5
20F2
330
201A
100
AcDbEntity
  8
0
100
AcDbLine
 10
420.9789896142004
 20
186.368780780318
 30
0.0
 11
438.571675010631
 21
188.1922734423084
 31
0.0
  0
LINE
  5
20F4
330
201A
100
AcDbEntity
  8
0
100
AcDbLine
 10
420.9789709554798
 20
179.8600202917295
 30
0.0
 11
420.9789896142004
 21
186.368780780318
 31
0.0
  0
LINE
  5
20F6
330
201A
100
AcDbEntity
  8
0
  6
CENTER
100
AcDbLine
 10
200.0
 20
41.37318134132828
 30
0.0
 11
200.0
 21
213.9354860007624
 31
0.0
  0
LINE
  5
20F7
330
201A
100
AcDbEntity
  8
0
  6
CENTER
100
AcDbLine
 10
141.3754262053094
 20
100.0
 30
0.0
 11
258.6245737946907
 21
100.0
 31
0.0
  0
LINE
  5
20F8
330
201A
100
AcDbEntity
  8
0
100
AcDbLine
 10
194.0
 20
199.9232390088477
 30
0.0
 11
200.0
 21
195.9085978672882
 31
0.0
  0
ARC
  5
20F9
330
201A
100
AcDbEntity
  8
0
100
AcDbCircle
 10
200.0
 20
213.9354860007624
 30
0.0
 40
15.0
100
AcDbArc
 50
293.5781784782003
 51
246.4218215217996
  0
LINE
  5
20FA
330
201A
100
AcDbEntity
  8
0
100
AcDbLine
 10
194.0000000000001
 20
195.443359
 30
0.0
 11
194.0
 21
210.4231913891833
 31
0.0
  0
LINE
  5
2100
330
201A
100
AcDbEntity
  8
0
100
AcDbLine
 10
206.0
 20
195.443359
 30
0.0
 11
206.0
 21
210.4231913891833
 31
0.0
  0
LINE
  5
2103
330
201A
100
AcDbEntity
  8
0
100
AcDbLine
 10
200.0
 20
195.9085978672882
 30
0.0
 11
206.0
 21
199.9232390088477
 31
0.0
  0
CIRCLE
  5
2107
330
201A
100
AcDbEntity
  8
0
  6
Continuous
100
AcDbCircle
 10
676.639435583313
 20
213.9354860007624
 30
0.0
 40
15.0
  0
ARC
  5
2109
330
201A
100
AcDbEntity
  8
0
100
AcDbCircle
 10
550.0162143357579
 20
349.2966594621073
 30
0.0
 40
15.0
100
AcDbArc
 50
240.0000099999995
 51
119.9999900000004
  0
LINE
  5
210A
330
201A
100
AcDbEntity
  8
0
100
AcDbLine
 10
418.5530271146761
 20
343.2966594621073
 30
0.0
 11
527.7290343357578
 21
343.2966594621073
 31
0.0
  0
LINE
  5
210B
330
201A
100
AcDbEntity
  8
0
100
AcDbLine
 10
418.5530271146761
 20
355.2966594621072
 30
0.0
 11
527.7290343357578
 21
355.2966594621072
 31
0.0
  0
LINE
  5
210C
330
201A
100
AcDbEntity
  8
0
100
AcDbLine
 10
422.3419749526632
 20
349.6558135621473
 30
0.0
 11
436.4585373664607
 21
352.7273724405377
 31
0.0
  0
LINE
  5
210D
330
201A
100
AcDbEntity
  8
0
100
AcDbLine
 10
422.3333840166441
 20
348.9393746249438
 30
0.0
 11
436.4585374176603
 21
345.8659464727143
 31
0.0
  0
LINE
  5
210E
330
201A
100
AcDbEntity
  8
0
100
AcDbLine
 10
417.5530271146762
 20
342.2966594621072
 30
0.0
 11
417.5530271146762
 21
341.2966594621077
 31
0.0
  0
ARC
  5
210F
330
201A
100
AcDbEntity
  8
0
100
AcDbCircle
 10
418.5530271146761
 20
342.2966594621072
 30
0.0
 40
1.0
100
AcDbArc
 50
90.0
 51
180.0
  0
ARC
  5
2110
330
201A
100
AcDbEntity
  8
0
100
AcDbCircle
 10
418.5530271146761
 20
356.2966594621073
 30
0.0
 40
1.0
100
AcDbArc
 50
180.0
 51
270.0
  0
LINE
  5
2111
330
201A
100
AcDbEntity
  8
0
100
AcDbLine
 10
417.5530271146762
 20
357.2966594621076
 30
0.0
 11
417.5530271146762
 21
356.2966594621073
 31
0.0
  0
ARC
  5
2112
330
201A
100
AcDbEntity
  8
0
100
AcDbCircle
 10
441.7032898445098
 20
349.2966594621073
 30
0.0
 40
6.0
100
AcDbArc
 50
227.7108799999988
 51
248.2388499999991
  0
ARC
  5
2113
330
201A
100
AcDbEntity
  8
0
100
AcDbCircle
 10
436.2491698445097
 20
344.8881094621074
 30
0.0
 40
1.0
100
AcDbArc
 50
0.0
 51
77.91470699999674
  0
LINE
  5
2114
330
201A
100
AcDbEntity
  8
0
100
AcDbLine
 10
437.2491698445097
 20
344.8881094621074
 30
0.0
 11
437.2491698445097
 21
343.2966594621073
 31
0.0
  0
ARC
  5
2115
330
201A
100
AcDbEntity
  8
0
100
AcDbCircle
 10
441.7032898445098
 20
349.2966594621073
 30
0.0
 40
6.0
100
AcDbArc
 50
109.8411499999988
 51
132.4629100000051
  0
LINE
  5
2116
330
201A
100
AcDbEntity
  8
0
100
AcDbLine
 10
437.2491698445097
 20
355.2966594621072
 30
0.0
 11
437.2491698445097
 21
353.7052094621071
 31
0.0
  0
ARC
  5
2117
330
201A
100
AcDbEntity
  8
0
100
AcDbCircle
 10
436.2491698445097
 20
353.7052094621071
 30
0.0
 40
1.0
100
AcDbArc
 50
282.0852899999962
 51
0.0
  0
LINE
  5
2118
330
201A
100
AcDbEntity
  8
0
100
AcDbLine
 10
532.7290343357579
 20
356.6363994621074
 30
0.0
 11
542.5162143357579
 21
362.2870294621073
 31
0.0
  0
LINE
  5
2119
330
201A
100
AcDbEntity
  8
0
100
AcDbLine
 10
532.7290343357579
 20
341.9569094621074
 30
0.0
 11
542.5162143357579
 21
336.3062694621072
 31
0.0
  0
ARC
  5
211A
330
201A
100
AcDbEntity
  8
0
100
AcDbCircle
 10
527.7290343357578
 20
333.2966594621073
 30
0.0
 40
10.0
100
AcDbArc
 50
59.99998199999991
 51
90.0
  0
ARC
  5
211B
330
201A
100
AcDbEntity
  8
0
100
AcDbCircle
 10
527.7290343357578
 20
365.2966594621072
 30
0.0
 40
10.0
100
AcDbArc
 50
270.0
 51
300.0000199999954
  0
LINE
  5
211C
330
201A
100
AcDbEntity
  8
0
100
AcDbLine
 10
206.0
 20
195.443359
 30
0.0
 11
214.0
 21
195.443359
 31
0.0
  0
LINE
  5
211D
330
201A
100
AcDbEntity
  8
0
  6
CENTER
100
AcDbLine
 10
550.0162143357579
 20
349.2966594621073
 30
0.0
 11
340.0835569657961
 21
349.2966594621073
 31
0.0
  0
LINE
  5
211E
330
201A
100
AcDbEntity
  8
0
  6
CENTER
100
AcDbLine
 10
400.0
 20
288.3596580712146
 30
0.0
 11
400.0
 21
410.2336608529999
 31
0.0
  0
LINE
  5
2128
330
201A
100
AcDbEntity
  8
0
100
AcDbLine
 10
670.6394355833132
 20
187.7385099999997
 30
0.0
 11
670.6394355833131
 21
200.1877589158949
 31
0.0
  0
LINE
  5
2129
330
201A
100
AcDbEntity
  8
0
100
AcDbLine
 10
682.639435583313
 20
187.7385099999997
 30
0.0
 11
682.639435583313
 21
200.1877589158949
 31
0.0
  0
ARC
  5
212B
330
201A
100
AcDbEntity
  8
0
  6
Continuous
100
AcDbCircle
 10
676.639435583313
 20
187.7385099999997
 30
0.0
 40
5.999999999999772
100
AcDbArc
 50
180.0
 51
0.0
  0
ENDSEC
  0
SECTION
  2
OBJECTS
  0
DICTIONARY
  5
2008
330
0
100
AcDbDictionary
281
     1
  3
ACAD_GROUP
350
2009
  3
ACAD_LAYOUT
350
2015
  3
ACAD_MLINESTYLE
350
2012
  3
ACAD_PLOTSETTINGS
350
2014
  3
ACAD_PLOTSTYLENAME
350
200A
  3
AcDbVariableDictionary
350
205C
  0
DICTIONARY
  5
2070
330
1FFE
100
AcDbDictionary
280
     1
281
     1
  3
ACAD_LAYERSTATES
360
2071
  0
DICTIONARY
  5
202A
330
201A
100
AcDbDictionary
280
     1
281
     1
  3
ACAD_LAYOUTSELFREF
360
2059
  0
DICTIONARY
  5
202C
330
2016
100
AcDbDictionary
280
     1
281
     1
  3
ACAD_LAYOUTSELFREF
360
2058
  0
DICTIONARY
  5
2009
102
{ACAD_REACTORS
330
2008
102
}
330
2008
100
AcDbDictionary
281
     1
  0
DICTIONARY
  5
2015
102
{ACAD_REACTORS
330
2008
102
}
330
2008
100
AcDbDictionary
281
     1
  3
Model
350
201D
  3
ﾚｲｱｳﾄ1
350
2019
  0
DICTIONARY
  5
2012
102
{ACAD_REACTORS
330
2008
102
}
330
2008
100
AcDbDictionary
281
     1
  3
Standard
350
2013
  0
DICTIONARY
  5
2014
102
{ACAD_REACTORS
330
2008
102
}
330
2008
100
AcDbDictionary
281
     1
  0
ACDBDICTIONARYWDFLT
  5
200A
102
{ACAD_REACTORS
330
2008
102
}
330
2008
100
AcDbDictionary
281
     1
  3
Normal
350
200B
100
AcDbDictionaryWithDefault
340
200B
  0
DICTIONARY
  5
205C
102
{ACAD_REACTORS
330
2008
102
}
330
2008
100
AcDbDictionary
281
     1
  3
DIMASSOC
350
205D
  0
DICTIONARY
  5
2071
102
{ACAD_REACTORS
330
2070
102
}
330
2070
100
AcDbDictionary
281
     1
  0
XRECORD
  5
2059
102
{ACAD_REACTORS
330
202A
102
}
330
202A
100
AcDbXrecord
280
     1
340
201A
  0
XRECORD
  5
2058
102
{ACAD_REACTORS
330
202C
102
}
330
202C
100
AcDbXrecord
280
     1
340
2016
  0
LAYOUT
  5
201D
102
{ACAD_REACTORS
330
2015
102
}
330
2015
100
AcDbPlotSettings
  1

  2
SII LP-2150 (D-SCAN C2)
  4

  6

 40
0.0
 41
0.0
 42
0.0
 43
0.0
 44
0.0
 45
0.0
 46
0.0
 47
0.0
 48
0.0
 49
0.0
140
0.0
141
0.0
142
1.0
143
1.0
 70
  1712
 72
     0
 73
     0
 74
     0
  7

 75
     0
147
1.0
148
0.0
149
0.0
100
AcDbLayout
  1
Model
 70
     1
 71
     0
 10
0.0
 20
0.0
 11
12.0
 21
9.0
 12
0.0
 22
0.0
 32
0.0
 14
0.0
 24
0.0
 34
0.0
 15
0.0
 25
0.0
 35
0.0
146
0.0
 13
0.0
 23
0.0
 33
0.0
 16
1.0
 26
0.0
 36
0.0
 17
0.0
 27
1.0
 37
0.0
 76
     0
330
201A
  0
LAYOUT
  5
2019
102
{ACAD_REACTORS
330
2015
102
}
330
2015
100
AcDbPlotSettings
  1

  2
SII LP-2150 (D-SCAN C2)
  4

  6

 40
0.0
 41
0.0
 42
0.0
 43
0.0
 44
0.0
 45
0.0
 46
0.0
 47
0.0
 48
0.0
 49
0.0
140
0.0
141
0.0
142
1.0
143
1.0
 70
   688
 72
     0
 73
     0
 74
     5
  7

 75
    16
147
1.0
148
0.0
149
0.0
100
AcDbLayout
  1
ﾚｲｱｳﾄ1
 70
     1
 71
     1
 10
-44.912933
 20
-21.841471
 11
153.5627299999999
 21
105.04179
 12
0.0
 22
0.0
 32
0.0
 14
-44.912933
 24
-21.841471
 34
0.0
 15
153.5627299999999
 25
105.04179
 35
0.0
146
0.0
 13
0.0
 23
0.0
 33
0.0
 16
1.0
 26
0.0
 36
0.0
 17
0.0
 27
1.0
 37
0.0
 76
     0
330
2016
  0
MLINESTYLE
  5
2013
102
{ACAD_REACTORS
330
2012
102
}
330
2012
100
AcDbMlineStyle
  2
STANDARD
 70
     0
  3

 62
   256
 51
90.0
 52
90.0
 71
     2
 49
0.5
 62
   256
  6
BYLAYER
 49
-0.5
 62
   256
  6
BYLAYER
  0
ACDBPLACEHOLDER
  5
200B
102
{ACAD_REACTORS
330
200A
102
}
330
200A
  0
DICTIONARYVAR
  5
205D
102
{ACAD_REACTORS
330
205C
102
}
330
205C
100
DictionaryVariables
280
     0
  1
1
  0
ENDSEC
  0
EOF
