  0
SECTION
  2
HEADER
  9
$ACADVER
  1
AC1015
  9
$ACADMAINTVER
 70
    14
  9
$DWGCODEPAGE
  3
ANSI_932
  9
$INSBASE
 10
0.0
 20
0.0
 30
0.0
  9
$EXTMIN
 10
88.53958002915579
 20
43.70168902101113
 30
-0.000000000000013
  9
$EXTMAX
 10
741.3446797436752
 20
667.8245221635831
 30
0.0000000000000023
  9
$LIMMIN
 10
-44.912933
 20
-21.841471
  9
$LIMMAX
 10
153.5627299999999
 20
105.04179
  9
$ORTHOMODE
 70
     0
  9
$REGENMODE
 70
     1
  9
$FILLMODE
 70
     1
  9
$QTEXTMODE
 70
     0
  9
$MIRRTEXT
 70
     1
  9
$LTSCALE
 40
1.0
  9
$ATTMODE
 70
     1
  9
$TEXTSIZE
 40
0.2
  9
$TRACEWID
 40
0.05
  9
$TEXTSTYLE
  7
STANDARD
  9
$CLAYER
  8
0
  9
$CELTYPE
  6
CONTINUOUS
  9
$CECOLOR
 62
   256
  9
$CELTSCALE
 40
1.0
  9
$DISPSILH
 70
     0
  9
$DIMSCALE
 40
1.0
  9
$DIMASZ
 40
1.0
  9
$DIMEXO
 40
2.54
  9
$DIMDLI
 40
0.38
  9
$DIMRND
 40
0.0
  9
$DIMDLE
 40
0.0
  9
$DIMEXE
 40
2.54
  9
$DIMTP
 40
0.0
  9
$DIMTM
 40
0.0
  9
$DIMTXT
 40
3.2
  9
$DIMCEN
 40
0.09
  9
$DIMTSZ
 40
0.0
  9
$DIMTOL
 70
     0
  9
$DIMLIM
 70
     0
  9
$DIMTIH
 70
     0
  9
$DIMTOH
 70
     0
  9
$DIMSE1
 70
     0
  9
$DIMSE2
 70
     0
  9
$DIMTAD
 70
     1
  9
$DIMZIN
 70
     0
  9
$DIMBLK
  1

  9
$DIMASO
 70
     1
  9
$DIMSHO
 70
     0
  9
$DIMPOST
  1

  9
$DIMAPOST
  1

  9
$DIMALT
 70
     0
  9
$DIMALTD
 70
     2
  9
$DIMALTF
 40
25.4
  9
$DIMLFAC
 40
1.0
  9
$DIMTOFL
 70
     0
  9
$DIMTVP
 40
1.0
  9
$DIMTIX
 70
     0
  9
$DIMSOXD
 70
     0
  9
$DIMSAH
 70
     1
  9
$DIMBLK1
  1

  9
$DIMBLK2
  1

  9
$DIMSTYLE
  2
STANDARD
  9
$DIMCLRD
 70
     0
  9
$DIMCLRE
 70
     0
  9
$DIMCLRT
 70
     0
  9
$DIMTFAC
 40
1.0
  9
$DIMGAP
 40
1.6
  9
$DIMJUST
 70
     0
  9
$DIMSD1
 70
     0
  9
$DIMSD2
 70
     0
  9
$DIMTOLJ
 70
     1
  9
$DIMTZIN
 70
     0
  9
$DIMALTZ
 70
     0
  9
$DIMALTTZ
 70
     0
  9
$DIMUPT
 70
     0
  9
$DIMDEC
 70
     4
  9
$DIMTDEC
 70
     4
  9
$DIMALTU
 70
     2
  9
$DIMALTTD
 70
     2
  9
$DIMTXSTY
  7
STANDARD
  9
$DIMAUNIT
 70
     0
  9
$DIMADEC
 70
     0
  9
$DIMALTRND
 40
0.0
  9
$DIMAZIN
 70
     0
  9
$DIMDSEP
 70
    46
  9
$DIMATFIT
 70
     3
  9
$DIMFRAC
 70
     0
  9
$DIMLDRBLK
  1

  9
$DIMLUNIT
 70
     2
  9
$DIMLWD
 70
    -2
  9
$DIMLWE
 70
    -2
  9
$DIMTMOVE
 70
     0
  9
$LUNITS
 70
     2
  9
$LUPREC
 70
     4
  9
$SKETCHINC
 40
0.1
  9
$FILLETRAD
 40
0.0
  9
$AUNITS
 70
     0
  9
$AUPREC
 70
     0
  9
$MENU
  1
.
  9
$ELEVATION
 40
0.0
  9
$PELEVATION
 40
0.0
  9
$THICKNESS
 40
0.0
  9
$LIMCHECK
 70
     0
  9
$CHAMFERA
 40
0.0
  9
$CHAMFERB
 40
0.0
  9
$CHAMFERC
 40
0.0
  9
$CHAMFERD
 40
0.0
  9
$SKPOLY
 70
     0
  9
$TDCREATE
 40
2452488.423151215
  9
$TDUCREATE
 40
2452488.048151215
  9
$TDUPDATE
 40
2456899.667116238
  9
$TDUUPDATE
 40
2456899.292116238
  9
$TDINDWG
 40
0.1058735301
  9
$TDUSRTIMER
 40
0.1058731713
  9
$USRTIMER
 70
     1
  9
$ANGBASE
 50
0.0
  9
$ANGDIR
 70
     0
  9
$PDMODE
 70
     0
  9
$PDSIZE
 40
0.0
  9
$PLINEWID
 40
0.0
  9
$SPLFRAME
 70
     0
  9
$SPLINETYPE
 70
     6
  9
$SPLINESEGS
 70
     8
  9
$HANDSEED
  5
215B
  9
$SURFTAB1
 70
     6
  9
$SURFTAB2
 70
     6
  9
$SURFTYPE
 70
     6
  9
$SURFU
 70
     6
  9
$SURFV
 70
     6
  9
$UCSBASE
  2

  9
$UCSNAME
  2

  9
$UCSORG
 10
0.0
 20
0.0
 30
0.0
  9
$UCSXDIR
 10
1.0
 20
0.0
 30
0.0
  9
$UCSYDIR
 10
0.0
 20
1.0
 30
0.0
  9
$UCSORTHOREF
  2

  9
$UCSORTHOVIEW
 70
     0
  9
$UCSORGTOP
 10
0.0
 20
0.0
 30
0.0
  9
$UCSORGBOTTOM
 10
0.0
 20
0.0
 30
0.0
  9
$UCSORGLEFT
 10
0.0
 20
0.0
 30
0.0
  9
$UCSORGRIGHT
 10
0.0
 20
0.0
 30
0.0
  9
$UCSORGFRONT
 10
0.0
 20
0.0
 30
0.0
  9
$UCSORGBACK
 10
0.0
 20
0.0
 30
0.0
  9
$PUCSBASE
  2

  9
$PUCSNAME
  2

  9
$PUCSORG
 10
0.0
 20
0.0
 30
0.0
  9
$PUCSXDIR
 10
1.0
 20
0.0
 30
0.0
  9
$PUCSYDIR
 10
0.0
 20
1.0
 30
0.0
  9
$PUCSORTHOREF
  2

  9
$PUCSORTHOVIEW
 70
     0
  9
$PUCSORGTOP
 10
0.0
 20
0.0
 30
0.0
  9
$PUCSORGBOTTOM
 10
0.0
 20
0.0
 30
0.0
  9
$PUCSORGLEFT
 10
0.0
 20
0.0
 30
0.0
  9
$PUCSORGRIGHT
 10
0.0
 20
0.0
 30
0.0
  9
$PUCSORGFRONT
 10
0.0
 20
0.0
 30
0.0
  9
$PUCSORGBACK
 10
0.0
 20
0.0
 30
0.0
  9
$USERI1
 70
     0
  9
$USERI2
 70
     0
  9
$USERI3
 70
     0
  9
$USERI4
 70
     0
  9
$USERI5
 70
     0
  9
$USERR1
 40
0.0
  9
$USERR2
 40
0.0
  9
$USERR3
 40
0.0
  9
$USERR4
 40
0.0
  9
$USERR5
 40
0.0
  9
$WORLDVIEW
 70
     1
  9
$SHADEDGE
 70
     3
  9
$SHADEDIF
 70
    70
  9
$TILEMODE
 70
     1
  9
$MAXACTVP
 70
    48
  9
$PINSBASE
 10
0.0
 20
0.0
 30
0.0
  9
$PLIMCHECK
 70
     0
  9
$PEXTMIN
 10
-44.912933
 20
-21.841471
 30
0.0
  9
$PEXTMAX
 10
153.5627299999999
 20
105.04179
 30
0.0
  9
$PLIMMIN
 10
-44.912933
 20
-21.841471
  9
$PLIMMAX
 10
153.5627299999999
 20
105.04179
  9
$UNITMODE
 70
     0
  9
$VISRETAIN
 70
     1
  9
$PLINEGEN
 70
     0
  9
$PSLTSCALE
 70
     1
  9
$TREEDEPTH
 70
  3020
  9
$CMLSTYLE
  2
Standard
  9
$CMLJUST
 70
     0
  9
$CMLSCALE
 40
1.0
  9
$PROXYGRAPHICS
 70
     1
  9
$MEASUREMENT
 70
     0
  9
$CELWEIGHT
370
    -1
  9
$ENDCAPS
280
     0
  9
$JOINSTYLE
280
     0
  9
$LWDISPLAY
290
     0
  9
$INSUNITS
 70
     0
  9
$HYPERLINKBASE
  1

  9
$STYLESHEET
  1

  9
$XEDIT
290
     1
  9
$CEPSNTYPE
380
     0
  9
$PSTYLEMODE
290
     1
  9
$FINGERPRINTGUID
  2
{68F08D98-B3F6-4440-B3AD-37B75324265A}
  9
$VERSIONGUID
  2
{E24EB719-42F4-4B31-B5A0-FB21C4F09803}
  9
$EXTNAMES
290
     1
  9
$PSVPSCALE
 40
0.0
  9
$OLESTARTUP
290
     0
  0
ENDSEC
  0
SECTION
  2
CLASSES
  0
CLASS
  1
ACDBDICTIONARYWDFLT
  2
AcDbDictionaryWithDefault
  3
AutoCAD 2000
 90
        0
280
     0
281
     0
  0
CLASS
  1
ACDBPLACEHOLDER
  2
AcDbPlaceHolder
  3
AutoCAD 2000
 90
        0
280
     0
281
     0
  0
CLASS
  1
LAYOUT
  2
AcDbLayout
  3
AutoCAD 2000
 90
        0
280
     0
281
     0
  0
CLASS
  1
DICTIONARYVAR
  2
AcDbDictionaryVar
  3
AutoCAD 2000
 90
        0
280
     0
281
     0
  0
CLASS
  1
LONG_TRANSACTION
  2
AcDbLongTransaction
  3
AutoCAD 2000
 90
    32768
280
     0
281
     0
  0
CLASS
  1
LWPOLYLINE
  2
AcDbPolyline
  3
AutoCAD 2000
 90
    32768
280
     0
281
     1
  0
CLASS
  1
HATCH
  2
AcDbHatch
  3
AutoCAD 2000
 90
    32768
280
     0
281
     1
  0
CLASS
  1
XRECORD
  2
AcDbXrecord
  3
AutoCAD 2000
 90
    32768
280
     0
281
     0
  0
ENDSEC
  0
SECTION
  2
TABLES
  0
TABLE
  2
VPORT
  5
1FFF
330
0
100
AcDbSymbolTable
 70
     2
  0
VPORT
  5
215A
330
1FFF
100
AcDbSymbolTableRecord
100
AcDbViewportTableRecord
  2
*Active
 70
     0
 10
0.0
 20
0.0
 11
1.0
 21
1.0
 12
414.9421298864155
 22
355.7631055922972
 13
0.0
 23
0.0
 14
1.0
 24
1.0
 15
0.0
 25
0.0
 16
0.0
 26
0.0
 36
1.0
 17
0.0
 27
0.0
 37
0.0
 40
628.0855177974456
 41
1.592161016949152
 42
50.0
 43
0.0
 44
0.0
 50
0.0
 51
0.0
 71
     0
 72
   100
 73
     1
 74
     3
 75
     0
 76
     0
 77
     0
 78
     0
281
     0
 65
     1
110
0.0
120
0.0
130
0.0
111
1.0
121
0.0
131
0.0
112
0.0
122
1.0
132
0.0
 79
     0
146
0.0
  0
ENDTAB
  0
TABLE
  2
LTYPE
  5
1FFC
330
0
100
AcDbSymbolTable
 70
     2
  0
LTYPE
  5
200A
330
1FFC
100
AcDbSymbolTableRecord
100
AcDbLinetypeTableRecord
  2
ByBlock
 70
     0
  3

 72
    65
 73
     0
 40
0.0
  0
LTYPE
  5
200B
330
1FFC
100
AcDbSymbolTableRecord
100
AcDbLinetypeTableRecord
  2
ByLayer
 70
     0
  3

 72
    65
 73
     0
 40
0.0
  0
LTYPE
  5
200C
330
1FFC
100
AcDbSymbolTableRecord
100
AcDbLinetypeTableRecord
  2
CONTINUOUS
 70
     0
  3
Solid line
 72
    65
 73
     0
 40
0.0
  0
LTYPE
  5
205C
330
1FFC
100
AcDbSymbolTableRecord
100
AcDbLinetypeTableRecord
  2
CENTER
 70
     0
  3
__ . __
 72
    65
 73
     4
 40
7.0
 49
4.0
 74
     0
 49
-1.0
 74
     0
 49
1.0
 74
     0
 49
-1.0
 74
     0
  0
ENDTAB
  0
TABLE
  2
LAYER
  5
1FF9
102
{ACAD_XDICTIONARY
360
205D
102
}
330
0
100
AcDbSymbolTable
 70
     1
  0
LAYER
  5
2007
330
1FF9
100
AcDbSymbolTableRecord
100
AcDbLayerTableRecord
  2
0
 70
     0
 62
     7
  6
CONTINUOUS
370
    -3
390
2006
  0
ENDTAB
  0
TABLE
  2
STYLE
  5
1FFA
330
0
100
AcDbSymbolTable
 70
     1
  0
STYLE
  5
2008
330
1FFA
100
AcDbSymbolTableRecord
100
AcDbTextStyleTableRecord
  2
STANDARD
 70
     0
 40
0.0
 41
1.0
 50
0.0
 71
     0
 42
0.2
  3
txt
  4

  0
ENDTAB
  0
TABLE
  2
VIEW
  5
1FFD
330
0
100
AcDbSymbolTable
 70
     0
  0
ENDTAB
  0
TABLE
  2
UCS
  5
1FFE
330
0
100
AcDbSymbolTable
 70
     0
  0
ENDTAB
  0
TABLE
  2
APPID
  5
2000
330
0
100
AcDbSymbolTable
 70
    10
  0
APPID
  5
2009
330
2000
100
AcDbSymbolTableRecord
100
AcDbRegAppTableRecord
  2
ACAD
 70
     0
  0
APPID
  5
201A
330
2000
100
AcDbSymbolTableRecord
100
AcDbRegAppTableRecord
  2
MCAD_NO_VIS
 70
     0
  0
APPID
  5
201B
330
2000
100
AcDbSymbolTableRecord
100
AcDbRegAppTableRecord
  2
ACAD_TEMP_GRAPHIC
 70
     0
  0
APPID
  5
201C
330
2000
100
AcDbSymbolTableRecord
100
AcDbRegAppTableRecord
  2
ACATTRIBSERVICES
 70
     0
  0
APPID
  5
207B
330
2000
100
AcDbSymbolTableRecord
100
AcDbRegAppTableRecord
  2
ACAD_DSTYLE_DIMARC_LENGTH_SYMBOL
 70
     0
  0
APPID
  5
207C
330
2000
100
AcDbSymbolTableRecord
100
AcDbRegAppTableRecord
  2
ACAD_DSTYLE_DIMJOGGED_JOGANGLE_SYMBOL
 70
     0
  0
APPID
  5
207D
330
2000
100
AcDbSymbolTableRecord
100
AcDbRegAppTableRecord
  2
AcAecLayerStandard
 70
     0
  0
APPID
  5
207E
330
2000
100
AcDbSymbolTableRecord
100
AcDbRegAppTableRecord
  2
ACAD_DSTYLE_DIMEXT_LENGTH
 70
     0
  0
APPID
  5
207F
330
2000
100
AcDbSymbolTableRecord
100
AcDbRegAppTableRecord
  2
ACAD_DSTYLE_DIMEXT_ENABLED
 70
     0
  0
APPID
  5
2080
330
2000
100
AcDbSymbolTableRecord
100
AcDbRegAppTableRecord
  2
ACAD_PSEXT
 70
     0
  0
ENDTAB
  0
TABLE
  2
DIMSTYLE
  5
2001
330
0
100
AcDbSymbolTable
 70
     1
100
AcDbDimStyleTable
 71
     1
340
201D
  0
DIMSTYLE
105
201D
330
2001
100
AcDbSymbolTableRecord
100
AcDbDimStyleTableRecord
  2
STANDARD
 70
     0
279
     2
340
2008
  0
ENDTAB
  0
TABLE
  2
BLOCK_RECORD
  5
1FF8
330
0
100
AcDbSymbolTable
 70
     0
  0
BLOCK_RECORD
  5
2015
102
{ACAD_XDICTIONARY
360
2025
102
}
330
1FF8
100
AcDbSymbolTableRecord
100
AcDbBlockTableRecord
  2
*Model_Space
340
2018
  0
BLOCK_RECORD
  5
2011
102
{ACAD_XDICTIONARY
360
2027
102
}
330
1FF8
100
AcDbSymbolTableRecord
100
AcDbBlockTableRecord
  2
*Paper_Space
340
2014
  0
ENDTAB
  0
ENDSEC
  0
SECTION
  2
BLOCKS
  0
BLOCK
  5
2016
330
2015
100
AcDbEntity
  8
0
100
AcDbBlockBegin
  2
*Model_Space
 70
     0
 10
0.0
 20
0.0
 30
0.0
  3
*Model_Space
  1

  0
ENDBLK
  5
2017
330
2015
100
AcDbEntity
  8
0
100
AcDbBlockEnd
  0
BLOCK
  5
2012
330
2011
100
AcDbEntity
 67
     1
  8
0
100
AcDbBlockBegin
  2
*Paper_Space
 70
     0
 10
0.0
 20
0.0
 30
0.0
  3
*Paper_Space
  1

  0
ENDBLK
  5
2013
330
2011
100
AcDbEntity
 67
     1
  8
0
100
AcDbBlockEnd
  0
ENDSEC
  0
SECTION
  2
ENTITIES
  0
LINE
  5
1641
330
2015
100
AcDbEntity
  8
0
100
AcDbLine
 10
384.0
 20
137.0000309999977
 30
0.0
 11
416.0
 21
137.0000309999977
 31
0.0
  0
LINE
  5
1642
330
2015
100
AcDbEntity
  8
0
100
AcDbLine
 10
416.0
 20
137.0000309999977
 30
0.0
 11
416.0
 21
56.0
 31
0.0
  0
LINE
  5
1643
330
2015
100
AcDbEntity
  8
0
100
AcDbLine
 10
384.0
 20
137.0000309999977
 30
0.0
 11
384.0
 21
56.0
 31
0.0
  0
LINE
  5
1644
330
2015
100
AcDbEntity
  8
0
100
AcDbLine
 10
384.0
 20
56.0
 30
0.0
 11
416.0
 21
56.0
 31
0.0
  0
LINE
  5
164B
330
2015
100
AcDbEntity
  8
0
100
AcDbLine
 10
360.0
 20
82.95001200000001
 30
0.0
 11
360.0
 21
117.0499879999999
 31
0.0
  0
LINE
  5
164C
330
2015
100
AcDbEntity
  8
0
100
AcDbLine
 10
440.0
 20
82.95001200000001
 30
0.0
 11
440.0
 21
117.0499879999999
 31
0.0
  0
LINE
  5
164D
330
2015
100
AcDbEntity
  8
0
100
AcDbLine
 10
371.9145519999998
 20
181.455468
 30
0.0
 11
420.8091407819159
 21
190.0769034313599
 31
0.0
  0
LINE
  5
164F
330
2015
100
AcDbEntity
  8
0
100
AcDbLine
 10
358.9361019999997
 20
162.920331
 30
0.0
 11
371.914555
 21
181.455484
 31
0.0
  0
LINE
  5
1650
330
2015
100
AcDbEntity
  8
0
100
AcDbLine
 10
358.9361030000001
 20
162.9203319999998
 30
0.0
 11
361.6429079999976
 21
157.1155699999999
 31
0.0
  0
LINE
  5
1651
330
2015
100
AcDbEntity
  8
0
100
AcDbLine
 10
371.6027849999977
 20
161.265355
 30
0.0
 11
374.1021459999989
 21
165.5943749999978
 31
0.0
  0
LINE
  5
1652
330
2015
100
AcDbEntity
  8
0
100
AcDbLine
 10
374.1021229999989
 20
165.5943699999999
 30
0.0
 11
382.7663159999998
 21
167.1221009999999
 31
0.0
  0
LINE
  5
1654
330
2015
100
AcDbEntity
  8
0
100
AcDbLine
 10
419.0
 20
169.0500489999998
 30
0.0
 11
419.0
 21
162.0000149999999
 31
0.0
  0
LINE
  5
1655
330
2015
100
AcDbEntity
  8
0
100
AcDbLine
 10
381.0
 20
166.3029939999989
 30
0.0
 11
381.0
 21
162.0000149999999
 31
0.0
  0
LINE
  5
1656
330
2015
100
AcDbEntity
  8
0
100
AcDbLine
 10
419.0
 20
169.050034
 30
0.0
 11
417.233704
 21
169.050034
 31
0.0
  0
LINE
  5
1657
330
2015
100
AcDbEntity
  8
0
100
AcDbLine
 10
417.2336729999998
 20
189.446472
 30
0.0
 11
417.2336729999998
 21
169.0500489999998
 31
0.0
  0
LINE
  5
1658
330
2015
100
AcDbEntity
  8
0
100
AcDbLine
 10
382.7662959999998
 20
183.3689419999999
 30
0.0
 11
382.7662959999998
 21
166.6144409999999
 31
0.0
  0
LINE
  5
1659
330
2015
100
AcDbEntity
  8
0
100
AcDbLine
 10
382.7663090000001
 20
166.614417
 30
0.0
 11
381.0000079999992
 21
166.302971
 31
0.0
  0
LINE
  5
165A
330
2015
100
AcDbEntity
  8
0
100
AcDbLine
 10
412.845245
 20
188.6726679999999
 30
0.0
 11
412.845245
 21
169.0500489999998
 31
0.0
  0
LINE
  5
165B
330
2015
100
AcDbEntity
  8
0
100
AcDbLine
 10
387.1547549999992
 20
184.142746
 30
0.0
 11
387.1547549999992
 21
169.050034
 31
0.0
  0
LINE
  5
165C
330
2015
100
AcDbEntity
  8
0
100
AcDbLine
 10
412.845245
 20
169.050034
 30
0.0
 11
387.1547549999992
 21
169.050034
 31
0.0
  0
LINE
  5
165D
330
2015
100
AcDbEntity
  8
0
100
AcDbLine
 10
380.0000609999998
 20
162.0000149999999
 30
0.0
 11
405.0
 21
162.0000149999999
 31
0.0
  0
LINE
  5
165E
330
2015
100
AcDbEntity
  8
0
100
AcDbLine
 10
410.0
 20
167.0000149999999
 30
0.0
 11
410.0
 21
137.200027
 31
0.0
  0
LINE
  5
165F
330
2015
100
AcDbEntity
  8
0
100
AcDbLine
 10
405.0
 20
167.0000149999999
 30
0.0
 11
405.0
 21
157.000015
 31
0.0
  0
LINE
  5
1660
330
2015
100
AcDbEntity
  8
0
100
AcDbLine
 10
361.696777
 20
157.000015
 30
0.0
 11
410.0
 21
157.000015
 31
0.0
  0
LINE
  5
1661
330
2015
100
AcDbEntity
  8
0
100
AcDbLine
 10
367.5057169999992
 20
160.90688
 30
0.0
 11
365.2500709999991
 21
156.9999869999998
 31
0.0
  0
LINE
  5
1662
330
2015
100
AcDbEntity
  8
0
100
AcDbLine
 10
367.5056600000001
 20
160.9069599999999
 30
0.0
 11
380.000017
 21
162.0000749999999
 31
0.0
  0
LINE
  5
1663
330
2015
100
AcDbEntity
  8
0
100
AcDbLine
 10
386.5
 20
157.000015
 30
0.0
 11
386.5
 21
140.0000149999999
 31
0.0
  0
LINE
  5
1664
330
2015
100
AcDbEntity
  8
0
100
AcDbLine
 10
405.0
 20
167.0000149999999
 30
0.0
 11
410.0
 21
167.0000149999999
 31
0.0
  0
LINE
  5
1665
330
2015
100
AcDbEntity
  8
0
100
AcDbLine
 10
381.4999999999999
 20
140.0000149999999
 30
0.0
 11
410.0
 21
140.0000149999999
 31
0.0
  0
LINE
  5
1666
330
2015
100
AcDbEntity
  8
0
100
AcDbLine
 10
410.0
 20
162.0000149999999
 30
0.0
 11
419.0
 21
162.0000149999999
 31
0.0
  0
LINE
  5
1667
330
2015
100
AcDbEntity
  8
0
100
AcDbLine
 10
417.2336859999999
 20
173.1996279999999
 30
0.0
 11
420.9789709554105
 21
173.8600232917074
 31
0.0
  0
LINE
  5
1668
330
2015
100
AcDbEntity
  8
0
100
AcDbLine
 10
381.4999999999999
 20
140.0000149999999
 30
0.0
 11
381.4999999999999
 21
135.000031
 31
0.0
  0
LINE
  5
1669
330
2015
100
AcDbEntity
  8
0
100
AcDbLine
 10
381.4999999999999
 20
135.000031
 30
0.0
 11
384.0
 21
135.000031
 31
0.0
  0
LINE
  5
166A
330
2015
100
AcDbEntity
  8
0
100
AcDbLine
 10
384.0
 20
137.0000309999977
 30
0.0
 11
384.0
 21
135.000031
 31
0.0
  0
CIRCLE
  5
1672
330
2015
100
AcDbEntity
  8
0
100
AcDbCircle
 10
393.0
 20
177.0500489999998
 30
0.0
 40
4.150000099999997
  0
CIRCLE
  5
1673
330
2015
100
AcDbEntity
  8
0
100
AcDbCircle
 10
393.0
 20
177.0500489999998
 30
0.0
 40
4.150000099999997
  0
LINE
  5
1679
330
2015
100
AcDbEntity
  8
0
100
AcDbLine
 10
173.6700156835941
 20
137.0000309999977
 30
0.0
 11
113.670015683594
 21
137.0000309999977
 31
0.0
  0
LINE
  5
167A
330
2015
100
AcDbEntity
  8
0
100
AcDbLine
 10
130.1700156835939
 20
157.000031
 30
0.0
 11
130.1700156835939
 21
140.000031
 31
0.0
  0
LINE
  5
167B
330
2015
100
AcDbEntity
  8
0
100
AcDbLine
 10
157.1700156835939
 20
157.000031
 30
0.0
 11
157.1700156835939
 21
140.000031
 31
0.0
  0
LINE
  5
167C
330
2015
100
AcDbEntity
  8
0
100
AcDbLine
 10
113.670015683594
 20
140.000031
 30
0.0
 11
173.6700156835941
 21
140.000031
 31
0.0
  0
LINE
  5
167D
330
2015
100
AcDbEntity
  8
0
100
AcDbLine
 10
173.6700156835941
 20
140.000031
 30
0.0
 11
173.6700156835941
 21
137.0000309999977
 31
0.0
  0
LINE
  5
167E
330
2015
100
AcDbEntity
  8
0
100
AcDbLine
 10
113.670015683594
 20
140.000031
 30
0.0
 11
113.670015683594
 21
137.0000309999977
 31
0.0
  0
LINE
  5
167F
330
2015
100
AcDbEntity
  8
0
100
AcDbLine
 10
98.67001568359412
 20
157.000031
 30
0.0
 11
188.670015683594
 21
157.000031
 31
0.0
  0
LINE
  5
1680
330
2015
100
AcDbEntity
  8
0
100
AcDbLine
 10
111.175702683593
 20
160.906995
 30
0.0
 11
108.920009683594
 21
157.000021
 31
0.0
  0
LINE
  5
1681
330
2015
100
AcDbEntity
  8
0
100
AcDbLine
 10
111.175713683594
 20
160.9070099999998
 30
0.0
 11
123.670010683594
 21
162.000119
 31
0.0
  0
LINE
  5
1682
330
2015
100
AcDbEntity
  8
0
100
AcDbLine
 10
108.670076683594
 20
167.0000309999999
 30
0.0
 11
98.67001568359412
 21
167.0000309999999
 31
0.0
  0
LINE
  5
1683
330
2015
100
AcDbEntity
  8
0
100
AcDbLine
 10
98.67001568359412
 20
167.0000309999999
 30
0.0
 11
98.67001568359412
 21
157.000031
 31
0.0
  0
LINE
  5
1684
330
2015
100
AcDbEntity
  8
0
100
AcDbLine
 10
108.6700656835938
 20
167.000019
 30
0.0
 11
118.164471683594
 21
161.5184209999999
 31
0.0
  0
LINE
  5
1685
330
2015
100
AcDbEntity
  8
0
100
AcDbLine
 10
163.6706866835941
 20
162.0000309999999
 30
0.0
 11
146.6700156835941
 21
162.0000309999999
 31
0.0
  0
LINE
  5
1686
330
2015
100
AcDbEntity
  8
0
100
AcDbLine
 10
176.164366683594
 20
160.9069899999998
 30
0.0
 11
178.4200446835941
 21
157.0000419999998
 31
0.0
  0
LINE
  5
1687
330
2015
100
AcDbEntity
  8
0
100
AcDbLine
 10
176.164368683594
 20
160.9069779999998
 30
0.0
 11
163.670710683594
 21
162.0000319999998
 31
0.0
  0
LINE
  5
1688
330
2015
100
AcDbEntity
  8
0
100
AcDbLine
 10
178.6700156835941
 20
167.0000309999999
 30
0.0
 11
188.670015683594
 21
167.0000309999999
 31
0.0
  0
LINE
  5
1689
330
2015
100
AcDbEntity
  8
0
100
AcDbLine
 10
188.670015683594
 20
167.0000309999999
 30
0.0
 11
188.670015683594
 21
157.000031
 31
0.0
  0
LINE
  5
168A
330
2015
100
AcDbEntity
  8
0
100
AcDbLine
 10
178.6700346835941
 20
167.0000059999993
 30
0.0
 11
169.1756026835939
 21
161.518393
 31
0.0
  0
LINE
  5
168B
330
2015
100
AcDbEntity
  8
0
100
AcDbLine
 10
140.6700156835939
 20
183.9205469999989
 30
0.0
 11
140.6700156835939
 21
160.000031
 31
0.0
  0
LINE
  5
168C
330
2015
100
AcDbEntity
  8
0
100
AcDbLine
 10
146.6700156835941
 20
183.9205469999989
 30
0.0
 11
146.6700156835941
 21
160.000031
 31
0.0
  0
LINE
  5
168D
330
2015
100
AcDbEntity
  8
0
100
AcDbLine
 10
151.6700156835941
 20
189.443359
 30
0.0
 11
151.6700156835941
 21
169.0500489999998
 31
0.0
  0
LINE
  5
168E
330
2015
100
AcDbEntity
  8
0
100
AcDbLine
 10
157.6700156835941
 20
188.487732
 30
0.0
 11
151.6700156835941
 21
188.487732
 31
0.0
  0
LINE
  5
168F
330
2015
100
AcDbEntity
  8
0
100
AcDbLine
 10
162.6700156835941
 20
169.0500489999998
 30
0.0
 11
162.6700156835941
 21
162.0000309999999
 31
0.0
  0
LINE
  5
1690
330
2015
100
AcDbEntity
  8
0
100
AcDbLine
 10
135.6700156835941
 20
189.443359
 30
0.0
 11
135.6700156835941
 21
169.0500489999998
 31
0.0
  0
LINE
  5
1691
330
2015
100
AcDbEntity
  8
0
100
AcDbLine
 10
129.6700156835941
 20
188.487732
 30
0.0
 11
129.6700156835941
 21
169.0500489999998
 31
0.0
  0
LINE
  5
1692
330
2015
100
AcDbEntity
  8
0
100
AcDbLine
 10
129.6700156835941
 20
188.487732
 30
0.0
 11
135.6700156835941
 21
188.487732
 31
0.0
  0
LINE
  5
1693
330
2015
100
AcDbEntity
  8
0
100
AcDbLine
 10
124.670015683594
 20
169.0500489999998
 30
0.0
 11
124.670015683594
 21
162.0000309999999
 31
0.0
  0
LINE
  5
1694
330
2015
100
AcDbEntity
  8
0
100
AcDbLine
 10
162.6700156835941
 20
169.0500489999998
 30
0.0
 11
146.6700156835941
 21
169.0500489999998
 31
0.0
  0
LINE
  5
1695
330
2015
100
AcDbEntity
  8
0
100
AcDbLine
 10
157.6700156835941
 20
188.487732
 30
0.0
 11
157.6700156835941
 21
169.0500489999998
 31
0.0
  0
LINE
  5
1698
330
2015
100
AcDbEntity
  8
0
100
AcDbLine
 10
135.6700156835941
 20
189.443359
 30
0.0
 11
137.670035683593
 21
189.443359
 31
0.0
  0
LINE
  5
169A
330
2015
100
AcDbEntity
  8
0
100
AcDbLine
 10
135.6700156835941
 20
183.9205469999989
 30
0.0
 11
140.6700156835939
 21
183.9205469999989
 31
0.0
  0
LINE
  5
169B
330
2015
100
AcDbEntity
  8
0
100
AcDbLine
 10
146.6700156835941
 20
183.9205469999989
 30
0.0
 11
151.6700156835941
 21
183.9205469999989
 31
0.0
  0
LINE
  5
169C
330
2015
100
AcDbEntity
  8
0
100
AcDbLine
 10
140.6700156835939
 20
169.0500489999998
 30
0.0
 11
124.670015683594
 21
169.0500489999998
 31
0.0
  0
LINE
  5
169D
330
2015
100
AcDbEntity
  8
0
100
AcDbLine
 10
140.6700156835939
 20
162.0000309999999
 30
0.0
 11
123.670015683594
 21
162.0000309999999
 31
0.0
  0
ARC
  5
169E
330
2015
100
AcDbEntity
  8
0
100
AcDbCircle
 10
143.670015683593
 20
100.0
 30
0.0
 40
44.0
100
AcDbArc
 50
122.7636799999944
 51
57.23631599999973
  0
CIRCLE
  5
169F
330
2015
100
AcDbEntity
  8
0
100
AcDbCircle
 10
143.670015683593
 20
100.0
 30
0.0
 40
19.04998799999998
  0
CIRCLE
  5
16A0
330
2015
100
AcDbEntity
  8
0
100
AcDbCircle
 10
103.670015683594
 20
162.0000309999999
 30
0.0
 40
2.6500001
  0
CIRCLE
  5
16A1
330
2015
100
AcDbEntity
  8
0
100
AcDbCircle
 10
183.6700156835941
 20
162.0000309999999
 30
0.0
 40
2.6500001
  0
ARC
  5
16A2
330
2015
100
AcDbEntity
  8
0
100
AcDbCircle
 10
143.670015683593
 20
160.000031
 30
0.0
 40
3.0
100
AcDbArc
 50
179.9999899999988
 51
0.0
  0
LINE
  5
16A8
330
2015
100
AcDbEntity
  8
0
100
AcDbLine
 10
672.7193551154599
 20
157.000031
 30
0.0
 11
672.7193551154599
 21
140.000031
 31
0.0
  0
LINE
  5
16A9
330
2015
100
AcDbEntity
  8
0
100
AcDbLine
 10
699.719355115461
 20
157.000031
 30
0.0
 11
699.719355115461
 21
140.000031
 31
0.0
  0
LINE
  5
16AA
330
2015
100
AcDbEntity
  8
0
100
AcDbLine
 10
656.2193551154608
 20
140.000031
 30
0.0
 11
672.7193551154599
 21
140.000031
 31
0.0
  0
LINE
  5
16AB
330
2015
100
AcDbEntity
  8
0
100
AcDbLine
 10
716.219355115461
 20
140.000031
 30
0.0
 11
716.219355115461
 21
137.0000309999977
 31
0.0
  0
LINE
  5
16AC
330
2015
100
AcDbEntity
  8
0
100
AcDbLine
 10
656.2193551154608
 20
140.000031
 30
0.0
 11
656.2193551154608
 21
137.0000309999977
 31
0.0
  0
LINE
  5
16AD
330
2015
100
AcDbEntity
  8
0
100
AcDbLine
 10
641.219355115461
 20
157.000031
 30
0.0
 11
672.7193551154599
 21
157.000031
 31
0.0
  0
LINE
  5
16AE
330
2015
100
AcDbEntity
  8
0
100
AcDbLine
 10
660.7138011154611
 20
161.518446
 30
0.0
 11
666.2193481154612
 21
162.000119
 31
0.0
  0
LINE
  5
16AF
330
2015
100
AcDbEntity
  8
0
100
AcDbLine
 10
651.2194051154596
 20
167.0000309999999
 30
0.0
 11
641.219355115461
 21
167.0000309999999
 31
0.0
  0
LINE
  5
16B0
330
2015
100
AcDbEntity
  8
0
100
AcDbLine
 10
641.219355115461
 20
167.0000309999999
 30
0.0
 11
641.219355115461
 21
157.000031
 31
0.0
  0
LINE
  5
16B1
330
2015
100
AcDbEntity
  8
0
100
AcDbLine
 10
651.2193921154597
 20
167.000013
 30
0.0
 11
660.7137981154608
 21
161.518415
 31
0.0
  0
LINE
  5
16B2
330
2015
100
AcDbEntity
  8
0
100
AcDbLine
 10
711.7249291154612
 20
161.518432999999
 30
0.0
 11
706.2200271154611
 21
162.0000489999999
 31
0.0
  0
LINE
  5
16B3
330
2015
100
AcDbEntity
  8
0
100
AcDbLine
 10
721.21936311546
 20
167.0000309999999
 30
0.0
 11
731.2193551154599
 21
167.0000309999999
 31
0.0
  0
LINE
  5
16B4
330
2015
100
AcDbEntity
  8
0
100
AcDbLine
 10
731.2193551154599
 20
167.0000309999999
 30
0.0
 11
731.2193551154599
 21
157.000031
 31
0.0
  0
LINE
  5
16B5
330
2015
100
AcDbEntity
  8
0
100
AcDbLine
 10
721.2193651154621
 20
167.0000219999998
 30
0.0
 11
711.7249261154611
 21
161.518405
 31
0.0
  0
LINE
  5
16B6
330
2015
100
AcDbEntity
  8
0
100
AcDbLine
 10
694.2193551154608
 20
188.487732
 30
0.0
 11
694.2193551154608
 21
169.0500489999998
 31
0.0
  0
LINE
  5
16B7
330
2015
100
AcDbEntity
  8
0
100
AcDbLine
 10
700.219355115461
 20
188.487732
 30
0.0
 11
694.2193551154608
 21
188.487732
 31
0.0
  0
LINE
  5
16B8
330
2015
100
AcDbEntity
  8
0
100
AcDbLine
 10
705.2193551154608
 20
169.0500489999998
 30
0.0
 11
705.2193551154608
 21
162.0000309999999
 31
0.0
  0
LINE
  5
16B9
330
2015
100
AcDbEntity
  8
0
100
AcDbLine
 10
678.219355115461
 20
188.487732
 30
0.0
 11
678.219355115461
 21
169.0500489999998
 31
0.0
  0
LINE
  5
16BA
330
2015
100
AcDbEntity
  8
0
100
AcDbLine
 10
672.2193551154608
 20
188.487732
 30
0.0
 11
672.2193551154608
 21
169.0500489999998
 31
0.0
  0
LINE
  5
16BB
330
2015
100
AcDbEntity
  8
0
100
AcDbLine
 10
672.2193551154608
 20
188.487732
 30
0.0
 11
678.219355115461
 21
188.487732
 31
0.0
  0
LINE
  5
16BC
330
2015
100
AcDbEntity
  8
0
100
AcDbLine
 10
667.2193551154601
 20
169.0500489999998
 30
0.0
 11
667.2193551154601
 21
162.0000309999999
 31
0.0
  0
LINE
  5
16BD
330
2015
100
AcDbEntity
  8
0
100
AcDbLine
 10
700.219355115461
 20
188.487732
 30
0.0
 11
700.219355115461
 21
169.0500489999998
 31
0.0
  0
LINE
  5
16C1
330
2015
100
AcDbEntity
  8
0
100
AcDbLine
 10
656.2193551154608
 20
137.0000309999977
 30
0.0
 11
716.219355115461
 21
137.0000309999977
 31
0.0
  0
LINE
  5
16C2
330
2015
100
AcDbEntity
  8
0
100
AcDbLine
 10
705.2193551154608
 20
169.0500489999998
 30
0.0
 11
667.2193551154601
 21
169.0500489999998
 31
0.0
  0
LINE
  5
16C3
330
2015
100
AcDbEntity
  8
0
100
AcDbLine
 10
706.22002411546
 20
162.0000309999999
 30
0.0
 11
666.219355115461
 21
162.0000309999999
 31
0.0
  0
LINE
  5
16C4
330
2015
100
AcDbEntity
  8
0
100
AcDbLine
 10
699.719355115461
 20
157.000031
 30
0.0
 11
731.2193551154599
 21
157.000031
 31
0.0
  0
LINE
  5
16C5
330
2015
100
AcDbEntity
  8
0
100
AcDbLine
 10
675.219355115461
 20
162.0000309999999
 30
0.0
 11
675.219355115461
 21
137.0000309999977
 31
0.0
  0
LINE
  5
16C6
330
2015
100
AcDbEntity
  8
0
100
AcDbLine
 10
697.2193551154608
 20
162.0000309999999
 30
0.0
 11
697.2193551154608
 21
137.0000309999977
 31
0.0
  0
LINE
  5
16C7
330
2015
100
AcDbEntity
  8
0
100
AcDbLine
 10
699.719355115461
 20
140.000031
 30
0.0
 11
716.219355115461
 21
140.000031
 31
0.0
  0
ARC
  5
16C8
330
2015
100
AcDbEntity
  8
0
100
AcDbCircle
 10
686.219355115461
 20
100.0
 30
0.0
 40
44.0
100
AcDbArc
 50
122.7636899999959
 51
57.23631200000874
  0
CIRCLE
  5
16C9
330
2015
100
AcDbEntity
  8
0
100
AcDbCircle
 10
686.219355115461
 20
100.0
 30
0.0
 40
19.04998799999998
  0
CIRCLE
  5
16CA
330
2015
100
AcDbEntity
  8
0
100
AcDbCircle
 10
646.219355115461
 20
162.0000309999999
 30
0.0
 40
2.6500001
  0
CIRCLE
  5
16CB
330
2015
100
AcDbEntity
  8
0
100
AcDbCircle
 10
726.2193551154608
 20
162.0000309999999
 30
0.0
 40
2.6500001
  0
LINE
  5
16D7
330
2015
100
AcDbEntity
  8
0
100
AcDbLine
 10
416.0
 20
427.2618421131538
 30
0.0
 11
416.0
 21
393.5087931131549
 31
0.0
  0
LINE
  5
16D8
330
2015
100
AcDbEntity
  8
0
100
AcDbLine
 10
384.0
 20
427.2618421131538
 30
0.0
 11
384.0
 21
413.5448811131547
 31
0.0
  0
LINE
  5
16D9
330
2015
100
AcDbEntity
  8
0
100
AcDbLine
 10
384.0
 20
339.2618421131538
 30
0.0
 11
405.0
 21
339.2618421131538
 31
0.0
  0
LINE
  5
16DA
330
2015
100
AcDbEntity
  8
0
100
AcDbLine
 10
420.0
 20
402.3118301131551
 30
0.0
 11
416.0
 21
402.3118301131551
 31
0.0
  0
LINE
  5
16DB
330
2015
100
AcDbEntity
  8
0
100
AcDbLine
 10
420.0
 20
364.2118541131538
 30
0.0
 11
416.0
 21
364.2118541131538
 31
0.0
  0
LINE
  5
16DC
330
2015
100
AcDbEntity
  8
0
100
AcDbLine
 10
384.0
 20
427.2618421131538
 30
0.0
 11
405.0
 21
427.2618421131538
 31
0.0
  0
LINE
  5
16DF
330
2015
100
AcDbEntity
  8
0
100
AcDbLine
 10
410.0
 20
428.2618421131537
 30
0.0
 11
410.0
 21
399.4173291131539
 31
0.0
  0
LINE
  5
16E0
330
2015
100
AcDbEntity
  8
0
100
AcDbLine
 10
405.0
 20
428.2618421131537
 30
0.0
 11
405.0
 21
409.7673351131549
 31
0.0
  0
LINE
  5
16E1
330
2015
100
AcDbEntity
  8
0
100
AcDbLine
 10
405.0
 20
338.2618111131552
 30
0.0
 11
410.0
 21
338.2618111131552
 31
0.0
  0
LINE
  5
16E2
330
2015
100
AcDbEntity
  8
0
100
AcDbLine
 10
405.0
 20
428.2618421131537
 30
0.0
 11
410.0
 21
428.2618421131537
 31
0.0
  0
LINE
  5
16E3
330
2015
100
AcDbEntity
  8
0
100
AcDbLine
 10
406.0
 20
348.2618421131538
 30
0.0
 11
409.0
 21
348.2618421131538
 31
0.0
  0
LINE
  5
16E4
330
2015
100
AcDbEntity
  8
0
100
AcDbLine
 10
405.0
 20
338.2618111131552
 30
0.0
 11
405.0
 21
356.7563791131559
 31
0.0
  0
LINE
  5
16E7
330
2015
100
AcDbEntity
  8
0
100
AcDbLine
 10
406.0
 20
418.261842113154
 30
0.0
 11
409.0
 21
418.261842113154
 31
0.0
  0
LINE
  5
16E8
330
2015
100
AcDbEntity
  8
0
100
AcDbLine
 10
412.845215
 20
369.2618421131538
 30
0.0
 11
387.1547549999992
 21
369.2618421131538
 31
0.0
  0
LINE
  5
16E9
330
2015
100
AcDbEntity
  8
0
100
AcDbLine
 10
412.845215
 20
397.261842113154
 30
0.0
 11
387.1547549999992
 21
397.261842113154
 31
0.0
  0
LINE
  5
16EA
330
2015
100
AcDbEntity
  8
0
100
AcDbLine
 10
410.0
 20
367.106355113154
 30
0.0
 11
410.0
 21
338.2618111131552
 31
0.0
  0
LINE
  5
16EC
330
2015
100
AcDbEntity
  8
0
100
AcDbLine
 10
419.5898129999998
 20
375.2618421131538
 30
0.0
 11
382.7662959999998
 21
375.2618421131538
 31
0.0
  0
LINE
  5
16ED
330
2015
100
AcDbEntity
  8
0
100
AcDbLine
 10
419.5898129999998
 20
391.261842113154
 30
0.0
 11
382.7662959999998
 21
391.261842113154
 31
0.0
  0
LINE
  5
16EE
330
2015
100
AcDbEntity
  8
0
100
AcDbLine
 10
381.2383420000001
 20
386.261842113154
 30
0.0
 11
362.6876219999977
 21
386.261842113154
 31
0.0
  0
LINE
  5
16EF
330
2015
100
AcDbEntity
  8
0
100
AcDbLine
 10
381.2383420000001
 20
380.261842113154
 30
0.0
 11
362.6876219999977
 21
380.261842113154
 31
0.0
  0
LINE
  5
16F0
330
2015
100
AcDbEntity
  8
0
100
AcDbLine
 10
419.5898129999998
 20
391.261842113154
 30
0.0
 11
419.5898129999998
 21
389.2618421131539
 31
0.0
  0
LINE
  5
16F3
330
2015
100
AcDbEntity
  8
0
100
AcDbLine
 10
384.0
 20
352.9788031131549
 30
0.0
 11
384.0
 21
339.2618421131538
 31
0.0
  0
LINE
  5
16F4
330
2015
100
AcDbEntity
  8
0
100
AcDbLine
 10
416.0
 20
373.0148911131539
 30
0.0
 11
416.0
 21
339.2618421131538
 31
0.0
  0
LINE
  5
16F5
330
2015
100
AcDbEntity
  8
0
100
AcDbLine
 10
410.0
 20
427.2618421131538
 30
0.0
 11
416.0
 21
427.2618421131538
 31
0.0
  0
LINE
  5
16F6
330
2015
100
AcDbEntity
  8
0
100
AcDbLine
 10
410.0
 20
339.2618421131538
 30
0.0
 11
416.0
 21
339.2618421131538
 31
0.0
  0
ARC
  5
16FB
330
2015
100
AcDbEntity
  8
0
100
AcDbCircle
 10
400.0
 20
383.261842113154
 30
0.0
 40
34.25
100
AcDbArc
 50
81.60565199999401
 51
174.97495
  0
ARC
  5
16FC
330
2015
100
AcDbEntity
  8
0
100
AcDbCircle
 10
362.6876219999977
 20
383.261842113154
 30
0.0
 40
3.0
100
AcDbArc
 50
90.00000299999769
 51
270.0
  0
ARC
  5
16FD
330
2015
100
AcDbEntity
  8
0
100
AcDbCircle
 10
400.0
 20
383.261842113154
 30
0.0
 40
19.0
100
AcDbArc
 50
24.90106299999964
 51
170.9152799999938
  0
ARC
  5
16FF
330
2015
100
AcDbEntity
  8
0
100
AcDbCircle
 10
400.0
 20
383.261842113154
 30
0.0
 40
34.25
100
AcDbArc
 50
185.0250499999999
 51
278.3943500000052
  0
ARC
  5
1700
330
2015
100
AcDbEntity
  8
0
100
AcDbCircle
 10
400.0
 20
383.261842113154
 30
0.0
 40
19.0
100
AcDbArc
 50
189.084720000006
 51
335.0989400000051
  0
TEXT
  5
1701
330
2015
100
AcDbEntity
  8
0
100
AcDbText
 10
150.2336292542169
 20
619.8245145434688
 30
0.0
 40
48.000002
  1
BVL__ 1.5S
 41
1.285779999999999
100
AcDbText
  0
LINE
  5
1894
330
2015
100
AcDbEntity
  8
0
100
AcDbLine
 10
440.0
 20
74.75
 30
0.0
 11
437.1500000999999
 21
74.75
 31
0.0
  0
LINE
  5
1895
330
2015
100
AcDbEntity
  8
0
100
AcDbLine
 10
437.1500003000001
 20
74.75
 30
0.0
 11
434.8933839999991
 21
80.95000200000006
 31
0.0
  0
LINE
  5
1896
330
2015
100
AcDbEntity
  8
0
100
AcDbLine
 10
434.8933844999988
 20
80.95000099999991
 30
0.0
 11
416.0
 21
80.95000099999991
 31
0.0
  0
LINE
  5
1897
330
2015
100
AcDbEntity
  8
0
100
AcDbLine
 10
440.0
 20
125.2499999999992
 30
0.0
 11
440.0
 21
74.75
 31
0.0
  0
LINE
  5
1898
330
2015
100
AcDbEntity
  8
0
100
AcDbLine
 10
434.8933844999988
 20
119.0499989999999
 30
0.0
 11
416.0
 21
119.0499989999999
 31
0.0
  0
LINE
  5
1899
330
2015
100
AcDbEntity
  8
0
100
AcDbLine
 10
437.1500003000001
 20
125.2499999999992
 30
0.0
 11
434.8933839999991
 21
119.0499979999999
 31
0.0
  0
LINE
  5
189A
330
2015
100
AcDbEntity
  8
0
100
AcDbLine
 10
440.0
 20
125.2499999999992
 30
0.0
 11
437.1500000999999
 21
125.2499999999992
 31
0.0
  0
LINE
  5
189C
330
2015
100
AcDbEntity
  8
0
100
AcDbLine
 10
434.8933844999988
 20
80.95000099999991
 30
0.0
 11
434.8933844999988
 21
119.0499989999999
 31
0.0
  0
LINE
  5
189F
330
2015
100
AcDbEntity
  8
0
100
AcDbLine
 10
360.0
 20
125.2499999999992
 30
0.0
 11
362.8499999
 21
125.2499999999992
 31
0.0
  0
LINE
  5
18A0
330
2015
100
AcDbEntity
  8
0
100
AcDbLine
 10
362.8499996999988
 20
125.2499999999992
 30
0.0
 11
365.1066159999985
 21
119.0499979999999
 31
0.0
  0
LINE
  5
18A1
330
2015
100
AcDbEntity
  8
0
100
AcDbLine
 10
365.1066154999999
 20
119.0499989999999
 30
0.0
 11
384.0
 21
119.0499989999999
 31
0.0
  0
LINE
  5
18A2
330
2015
100
AcDbEntity
  8
0
100
AcDbLine
 10
360.0
 20
74.75
 30
0.0
 11
360.0
 21
125.2499999999992
 31
0.0
  0
LINE
  5
18A3
330
2015
100
AcDbEntity
  8
0
100
AcDbLine
 10
365.1066154999999
 20
80.95000099999991
 30
0.0
 11
384.0
 21
80.95000099999991
 31
0.0
  0
LINE
  5
18A4
330
2015
100
AcDbEntity
  8
0
100
AcDbLine
 10
362.8499996999988
 20
74.75
 30
0.0
 11
365.1066159999985
 21
80.95000200000006
 31
0.0
  0
LINE
  5
18A5
330
2015
100
AcDbEntity
  8
0
100
AcDbLine
 10
360.0
 20
74.75
 30
0.0
 11
362.8499999
 21
74.75
 31
0.0
  0
LINE
  5
18A7
330
2015
100
AcDbEntity
  8
0
100
AcDbLine
 10
365.1066154999999
 20
119.0499989999999
 30
0.0
 11
365.1066154999999
 21
80.95000099999991
 31
0.0
  0
LINE
  5
18EB
330
2015
100
AcDbEntity
  8
0
100
AcDbLine
 10
434.8933844999999
 20
364.2118431131552
 30
0.0
 11
434.8933844999999
 21
377.2618421131538
 31
0.0
  0
LINE
  5
18EC
330
2015
100
AcDbEntity
  8
0
100
AcDbLine
 10
440.0
 20
408.5118421131538
 30
0.0
 11
440.0
 21
389.2618421131538
 31
0.0
  0
LINE
  5
18EE
330
2015
100
AcDbEntity
  8
0
100
AcDbLine
 10
437.1500003000001
 20
358.0118421131538
 30
0.0
 11
434.8933839999999
 21
364.2118441131539
 31
0.0
  0
LINE
  5
18EF
330
2015
100
AcDbEntity
  8
0
100
AcDbLine
 10
440.0
 20
358.0118421131538
 30
0.0
 11
437.1500000999999
 21
358.0118421131538
 31
0.0
  0
LINE
  5
18F0
330
2015
100
AcDbEntity
  8
0
100
AcDbLine
 10
440.0
 20
408.5118421131538
 30
0.0
 11
437.1500000999999
 21
408.5118421131538
 31
0.0
  0
LINE
  5
18F1
330
2015
100
AcDbEntity
  8
0
100
AcDbLine
 10
437.1500003000001
 20
408.5118421131538
 30
0.0
 11
434.8933839999999
 21
402.3118401131552
 31
0.0
  0
LINE
  5
18F5
330
2015
100
AcDbEntity
  8
0
100
AcDbLine
 10
365.1066154999999
 20
402.3118411131539
 30
0.0
 11
365.1066154999999
 21
386.261842113154
 31
0.0
  0
LINE
  5
18F6
330
2015
100
AcDbEntity
  8
0
100
AcDbLine
 10
360.0
 20
358.0118421131538
 30
0.0
 11
360.0
 21
408.5118421131538
 31
0.0
  0
LINE
  5
18F8
330
2015
100
AcDbEntity
  8
0
100
AcDbLine
 10
360.0
 20
358.0118421131538
 30
0.0
 11
362.8499999
 21
358.0118421131538
 31
0.0
  0
LINE
  5
18F9
330
2015
100
AcDbEntity
  8
0
100
AcDbLine
 10
362.8499996999988
 20
358.0118421131538
 30
0.0
 11
365.1066159999985
 21
364.2118441131539
 31
0.0
  0
LINE
  5
18FA
330
2015
100
AcDbEntity
  8
0
100
AcDbLine
 10
362.8499996999988
 20
408.5118421131538
 30
0.0
 11
365.1066159999985
 21
402.3118401131552
 31
0.0
  0
LINE
  5
18FB
330
2015
100
AcDbEntity
  8
0
100
AcDbLine
 10
360.0
 20
408.5118421131538
 30
0.0
 11
362.8499999
 21
408.5118421131538
 31
0.0
  0
LINE
  5
18FF
330
2015
100
AcDbEntity
  8
0
100
AcDbLine
 10
365.1066154999999
 20
364.2118431131552
 30
0.0
 11
371.5366896145232
 21
364.2118431131552
 31
0.0
  0
LINE
  5
1900
330
2015
100
AcDbEntity
  8
0
100
AcDbLine
 10
365.1066154999999
 20
402.3118411131539
 30
0.0
 11
371.5366896145232
 21
402.3118411131539
 31
0.0
  0
LINE
  5
1901
330
2015
100
AcDbEntity
  8
0
100
AcDbLine
 10
434.8933844999999
 20
402.3118411131539
 30
0.0
 11
416.0
 21
402.3118411131539
 31
0.0
  0
LINE
  5
1902
330
2015
100
AcDbEntity
  8
0
100
AcDbLine
 10
434.8933844999999
 20
364.2118431131552
 30
0.0
 11
416.0
 21
364.2118431131552
 31
0.0
  0
CIRCLE
  5
1905
330
2015
100
AcDbEntity
  8
0
100
AcDbCircle
 10
686.219355115461
 20
100.0
 30
0.0
 40
25.25
  0
CIRCLE
  5
1906
330
2015
100
AcDbEntity
  8
0
100
AcDbCircle
 10
143.670015683593
 20
100.0
 30
0.0
 40
25.25
  0
LINE
  5
1908
330
2015
100
AcDbEntity
  8
0
100
AcDbLine
 10
434.8933844999999
 20
389.2618421131538
 30
0.0
 11
434.8933844999999
 21
402.3118411131539
 31
0.0
  0
LINE
  5
1909
330
2015
100
AcDbEntity
  8
0
100
AcDbLine
 10
440.0
 20
377.2618421131538
 30
0.0
 11
440.0
 21
358.0118421131538
 31
0.0
  0
LINE
  5
190B
330
2015
100
AcDbEntity
  8
0
100
AcDbLine
 10
365.1066154999999
 20
380.261842113154
 30
0.0
 11
365.1066154999999
 21
364.2118431131552
 31
0.0
  0
LINE
  5
2069
330
2015
100
AcDbEntity
  8
0
  6
CENTER
100
AcDbLine
 10
686.219355115461
 20
44.1857932038456
 30
0.0
 11
686.219355115461
 21
207.9350415958177
 31
0.0
  0
LINE
  5
206A
330
2015
100
AcDbEntity
  8
0
  6
CENTER
100
AcDbLine
 10
631.0976135718351
 20
100.0
 30
0.0
 11
741.3410966590868
 21
100.0
 31
0.0
  0
LINE
  5
206B
330
2015
100
AcDbEntity
  8
0
  6
CENTER
100
AcDbLine
 10
400.0
 20
43.71051871382087
 30
0.0
 11
400.0
 21
195.4407067263943
 31
0.0
  0
LINE
  5
206C
330
2015
100
AcDbEntity
  8
0
  6
CENTER
100
AcDbLine
 10
354.1631711005889
 20
99.99999999999964
 30
0.0
 11
445.8368288994111
 21
99.99999999999964
 31
0.0
  0
LINE
  5
206D
330
2015
100
AcDbEntity
  8
0
  6
CENTER
100
AcDbLine
 10
344.6257082578595
 20
383.261842113154
 30
0.0
 11
550.0162143357579
 21
383.261842113154
 31
0.0
  0
LINE
  5
206E
330
2015
100
AcDbEntity
  8
0
  6
CENTER
100
AcDbLine
 10
400.0
 20
334.5563994769999
 30
0.0
 11
400.0
 21
431.967284749308
 31
0.0
  0
LINE
  5
206F
330
2015
100
AcDbEntity
  8
0
  6
CENTER
100
AcDbLine
 10
143.670015683593
 20
44.1857932038456
 30
0.0
 11
143.670035683593
 21
207.9350415958177
 31
0.0
  0
LINE
  5
2070
330
2015
100
AcDbEntity
  8
0
  6
CENTER
100
AcDbLine
 10
88.54827413996725
 20
100.0
 30
0.0
 11
198.7917572272189
 21
100.0
 31
0.0
  0
LINE
  5
20B2
330
2015
100
AcDbEntity
  8
0
100
AcDbLine
 10
419.5898129999998
 20
377.2618421131539
 30
0.0
 11
528.2820499999996
 21
377.2618421131539
 31
0.0
  0
LINE
  5
20B6
330
2015
100
AcDbEntity
  8
0
100
AcDbLine
 10
419.5898129999998
 20
389.2618421131539
 30
0.0
 11
528.2820499999996
 21
389.2618421131539
 31
0.0
  0
LINE
  5
2120
330
2015
100
AcDbEntity
  8
0
100
AcDbLine
 10
436.4876004868571
 20
194.0099414466446
 30
0.0
 11
527.0257380743646
 21
209.9742367595055
 31
0.0
  0
LINE
  5
2121
330
2015
100
AcDbEntity
  8
0
100
AcDbLine
 10
438.5716750106309
 20
182.1923006722946
 30
0.0
 11
529.1095135318831
 21
198.1565432517755
 31
0.0
  0
LINE
  5
2122
330
2015
100
AcDbEntity
  8
0
  6
CENTER
100
AcDbLine
 10
418.6250927837511
 20
184.7677101930786
 30
0.0
 11
550.0135395615277
 21
207.9350415958177
 31
0.0
  0
LINE
  5
2123
330
2015
100
AcDbEntity
  8
0
100
AcDbLine
 10
420.8091407819159
 20
190.0769034313599
 30
0.0
 11
436.4876004868571
 21
194.0099414466446
 31
0.0
  0
LINE
  5
2125
330
2015
100
AcDbEntity
  8
0
100
AcDbLine
 10
420.9789896142003
 20
180.3688080103042
 30
0.0
 11
438.5716750106309
 21
182.1923006722946
 31
0.0
  0
LINE
  5
2127
330
2015
100
AcDbEntity
  8
0
100
AcDbLine
 10
420.9789709554105
 20
173.8600232917074
 30
0.0
 11
420.9789896142003
 21
180.3688080103042
 31
0.0
  0
ARC
  5
2129
330
2015
100
AcDbEntity
  8
0
100
AcDbCircle
 10
550.0162143357579
 20
207.9355132307486
 30
0.0
 40
15.0
100
AcDbArc
 50
249.9999970332772
 51
129.9999770332868
  0
ARC
  5
212A
330
2015
100
AcDbEntity
  8
0
100
AcDbCircle
 10
525.2892585264326
 20
219.8223146826139
 30
0.0
 40
10.0
100
AcDbArc
 50
279.9999870332752
 51
310.000007033282
  0
LINE
  5
212B
330
2015
100
AcDbEntity
  8
0
100
AcDbLine
 10
534.2661973408715
 20
197.7053867859932
 30
0.0
 11
544.8859088124134
 21
193.8401261207208
 31
0.0
  0
ARC
  5
212C
330
2015
100
AcDbEntity
  8
0
100
AcDbCircle
 10
530.8459930798151
 20
188.3084653286672
 30
0.0
 40
10.0
100
AcDbArc
 50
69.99996903328486
 51
99.99998703327516
  0
LINE
  5
212D
330
2015
100
AcDbEntity
  8
0
100
AcDbLine
 10
531.7171339249641
 20
212.161862925142
 30
0.0
 11
540.3744047109196
 21
219.4261711708004
 31
0.0
  0
ARC
  5
2130
330
2015
100
AcDbEntity
  8
0
100
AcDbCircle
 10
550.0162143357579
 20
383.261842113154
 30
0.0
 40
15.0
100
AcDbArc
 50
240.0000100000053
 51
119.9999899999946
  0
LINE
  5
2131
330
2015
100
AcDbEntity
  8
0
100
AcDbLine
 10
419.5898129999998
 20
389.2618421131539
 30
0.0
 11
527.7290343357578
 21
389.2618421131539
 31
0.0
  0
LINE
  5
2132
330
2015
100
AcDbEntity
  8
0
100
AcDbLine
 10
419.5898129999998
 20
377.2618421131539
 30
0.0
 11
527.7290343357578
 21
377.2618421131539
 31
0.0
  0
ARC
  5
2133
330
2015
100
AcDbEntity
  8
0
100
AcDbCircle
 10
435.6961541802677
 20
387.6703921131539
 30
0.0
 40
1.0
100
AcDbArc
 50
282.0852899999963
 51
0.0
  0
ARC
  5
2134
330
2015
100
AcDbEntity
  8
0
100
AcDbCircle
 10
435.6961541802677
 20
378.8532921131539
 30
0.0
 40
1.0
100
AcDbArc
 50
0.0
 51
77.91470699999684
  0
LINE
  5
2135
330
2015
100
AcDbEntity
  8
0
100
AcDbLine
 10
421.7803683524021
 20
382.9045572759904
 30
0.0
 11
435.9055217534183
 21
379.8311291237611
 31
0.0
  0
LINE
  5
2136
330
2015
100
AcDbEntity
  8
0
100
AcDbLine
 10
421.7889592884212
 20
383.620996213194
 30
0.0
 11
435.9055217022187
 21
386.6925550915843
 31
0.0
  0
LINE
  5
2137
330
2015
100
AcDbEntity
  8
0
100
AcDbLine
 10
436.6961541802677
 20
378.8532921131539
 30
0.0
 11
436.6961541802677
 21
377.2618421131539
 31
0.0
  0
LINE
  5
2138
330
2015
100
AcDbEntity
  8
0
100
AcDbLine
 10
436.6961541802677
 20
389.2618421131539
 30
0.0
 11
436.6961541802677
 21
387.6703921131539
 31
0.0
  0
ARC
  5
2139
330
2015
100
AcDbEntity
  8
0
100
AcDbCircle
 10
527.7290343357578
 20
399.261842113154
 30
0.0
 40
10.0
100
AcDbArc
 50
270.0
 51
300.000020000001
  0
ARC
  5
213A
330
2015
100
AcDbEntity
  8
0
100
AcDbCircle
 10
527.7290343357578
 20
367.2618421131539
 30
0.0
 40
10.0
100
AcDbArc
 50
59.99998199999991
 51
90.0
  0
LINE
  5
213B
330
2015
100
AcDbEntity
  8
0
100
AcDbLine
 10
532.7290343357579
 20
390.601582113154
 30
0.0
 11
542.5162143357579
 21
396.2522121131539
 31
0.0
  0
LINE
  5
213C
330
2015
100
AcDbEntity
  8
0
100
AcDbLine
 10
532.7290343357579
 20
375.9220921131539
 30
0.0
 11
542.5162143357579
 21
370.2714521131539
 31
0.0
  0
LINE
  5
213D
330
2015
100
AcDbEntity
  8
0
100
AcDbLine
 10
143.670035683593
 20
189.9081534623434
 30
0.0
 11
149.670035683593
 21
193.922794603903
 31
0.0
  0
LINE
  5
213E
330
2015
100
AcDbEntity
  8
0
100
AcDbLine
 10
149.670035683593
 20
189.443359
 30
0.0
 11
149.670035683593
 21
204.4227469842385
 31
0.0
  0
LINE
  5
213F
330
2015
100
AcDbEntity
  8
0
100
AcDbLine
 10
137.670035683593
 20
189.443359
 30
0.0
 11
137.670035683593
 21
204.4227469842385
 31
0.0
  0
LINE
  5
2140
330
2015
100
AcDbEntity
  8
0
100
AcDbLine
 10
137.670035683593
 20
193.922794603903
 30
0.0
 11
143.670035683593
 21
189.9081534623434
 31
0.0
  0
ARC
  5
2141
330
2015
100
AcDbEntity
  8
0
100
AcDbCircle
 10
143.670035683593
 20
207.9350415958177
 30
0.0
 40
15.0
100
AcDbArc
 50
293.5781784782067
 51
246.4218215217932
  0
CIRCLE
  5
2146
330
2015
100
AcDbEntity
  8
0
  6
Continuous
100
AcDbCircle
 10
686.219355115461
 20
207.9350415958177
 30
0.0
 40
15.00000000001333
  0
LINE
  5
2147
330
2015
100
AcDbEntity
  8
0
100
AcDbLine
 10
419.5898129999998
 20
377.2618421131539
 30
0.0
 11
419.5898129999998
 21
375.2618421131538
 31
0.0
  0
LINE
  5
214D
330
2015
100
AcDbEntity
  8
0
100
AcDbLine
 10
149.670035683593
 20
189.443359
 30
0.0
 11
151.6700156835941
 21
189.443359
 31
0.0
  0
LINE
  5
214E
330
2015
100
AcDbEntity
  8
0
100
AcDbLine
 10
680.2193551154609
 20
181.7385099999999
 30
0.0
 11
680.2193551154609
 21
194.1873145109356
 31
0.0
  0
LINE
  5
214F
330
2015
100
AcDbEntity
  8
0
100
AcDbLine
 10
692.2193551154609
 20
181.7385099999999
 30
0.0
 11
692.2193551154609
 21
194.1873145109356
 31
0.0
  0
ARC
  5
2151
330
2015
100
AcDbEntity
  8
0
  6
Continuous
100
AcDbCircle
 10
686.219355115461
 20
181.7385099999999
 30
0.0
 40
6.0
100
AcDbArc
 50
180.0
 51
0.0
  0
ENDSEC
  0
SECTION
  2
OBJECTS
  0
DICTIONARY
  5
2003
330
0
100
AcDbDictionary
281
     1
  3
ACAD_GROUP
350
2004
  3
ACAD_LAYOUT
350
2010
  3
ACAD_MLINESTYLE
350
200D
  3
ACAD_PLOTSETTINGS
350
200F
  3
ACAD_PLOTSTYLENAME
350
2005
  3
AcDbVariableDictionary
350
2057
  0
DICTIONARY
  5
205D
330
1FF9
100
AcDbDictionary
280
     1
281
     1
  3
ACAD_LAYERSTATES
360
205E
  0
DICTIONARY
  5
2025
330
2015
100
AcDbDictionary
280
     1
281
     1
  3
ACAD_LAYOUTSELFREF
360
2054
  0
DICTIONARY
  5
2027
330
2011
100
AcDbDictionary
280
     1
281
     1
  3
ACAD_LAYOUTSELFREF
360
2053
  0
DICTIONARY
  5
2004
102
{ACAD_REACTORS
330
2003
102
}
330
2003
100
AcDbDictionary
281
     1
  0
DICTIONARY
  5
2010
102
{ACAD_REACTORS
330
2003
102
}
330
2003
100
AcDbDictionary
281
     1
  3
Model
350
2018
  3
ﾚｲｱｳﾄ1
350
2014
  0
DICTIONARY
  5
200D
102
{ACAD_REACTORS
330
2003
102
}
330
2003
100
AcDbDictionary
281
     1
  3
Standard
350
200E
  0
DICTIONARY
  5
200F
102
{ACAD_REACTORS
330
2003
102
}
330
2003
100
AcDbDictionary
281
     1
  0
ACDBDICTIONARYWDFLT
  5
2005
102
{ACAD_REACTORS
330
2003
102
}
330
2003
100
AcDbDictionary
281
     1
  3
Normal
350
2006
100
AcDbDictionaryWithDefault
340
2006
  0
DICTIONARY
  5
2057
102
{ACAD_REACTORS
330
2003
102
}
330
2003
100
AcDbDictionary
281
     1
  3
DIMASSOC
350
2058
  0
DICTIONARY
  5
205E
102
{ACAD_REACTORS
330
205D
102
}
330
205D
100
AcDbDictionary
281
     1
  0
XRECORD
  5
2054
102
{ACAD_REACTORS
330
2025
102
}
330
2025
100
AcDbXrecord
280
     1
340
2015
  0
XRECORD
  5
2053
102
{ACAD_REACTORS
330
2027
102
}
330
2027
100
AcDbXrecord
280
     1
340
2011
  0
LAYOUT
  5
2018
102
{ACAD_REACTORS
330
2010
102
}
330
2010
100
AcDbPlotSettings
  1

  2
SII LP-2150 (D-SCAN C2)
  4

  6

 40
0.0
 41
0.0
 42
0.0
 43
0.0
 44
0.0
 45
0.0
 46
0.0
 47
0.0
 48
0.0
 49
0.0
140
0.0
141
0.0
142
1.0
143
1.0
 70
  1712
 72
     0
 73
     0
 74
     0
  7

 75
     0
147
1.0
148
0.0
149
0.0
100
AcDbLayout
  1
Model
 70
     1
 71
     0
 10
0.0
 20
0.0
 11
12.0
 21
9.0
 12
0.0
 22
0.0
 32
0.0
 14
0.0
 24
0.0
 34
0.0
 15
0.0
 25
0.0
 35
0.0
146
0.0
 13
0.0
 23
0.0
 33
0.0
 16
1.0
 26
0.0
 36
0.0
 17
0.0
 27
1.0
 37
0.0
 76
     0
330
2015
  0
LAYOUT
  5
2014
102
{ACAD_REACTORS
330
2010
102
}
330
2010
100
AcDbPlotSettings
  1

  2
SII LP-2150 (D-SCAN C2)
  4

  6

 40
0.0
 41
0.0
 42
0.0
 43
0.0
 44
0.0
 45
0.0
 46
0.0
 47
0.0
 48
0.0
 49
0.0
140
0.0
141
0.0
142
1.0
143
1.0
 70
   688
 72
     0
 73
     0
 74
     5
  7

 75
    16
147
1.0
148
0.0
149
0.0
100
AcDbLayout
  1
ﾚｲｱｳﾄ1
 70
     1
 71
     1
 10
-44.912933
 20
-21.841471
 11
153.5627299999999
 21
105.04179
 12
0.0
 22
0.0
 32
0.0
 14
-44.912933
 24
-21.841471
 34
0.0
 15
153.5627299999999
 25
105.04179
 35
0.0
146
0.0
 13
0.0
 23
0.0
 33
0.0
 16
1.0
 26
0.0
 36
0.0
 17
0.0
 27
1.0
 37
0.0
 76
     0
330
2011
  0
MLINESTYLE
  5
200E
102
{ACAD_REACTORS
330
200D
102
}
330
200D
100
AcDbMlineStyle
  2
STANDARD
 70
     0
  3

 62
   256
 51
90.0
 52
90.0
 71
     2
 49
0.5
 62
   256
  6
BYLAYER
 49
-0.5
 62
   256
  6
BYLAYER
  0
ACDBPLACEHOLDER
  5
2006
102
{ACAD_REACTORS
330
2005
102
}
330
2005
  0
DICTIONARYVAR
  5
2058
102
{ACAD_REACTORS
330
2057
102
}
330
2057
100
DictionaryVariables
280
     0
  1
1
  0
ENDSEC
  0
EOF
