  0
SECTION
  2
HEADER
  9
$ACADVER
  1
AC1015
  9
$ACADMAINTVER
 70
    14
  9
$DWGCODEPAGE
  3
ANSI_932
  9
$INSBASE
 10
0.0
 20
0.0
 30
0.0
  9
$EXTMIN
 10
97.82487473655329
 20
52.17020851599977
 30
-0.0000000000000053
  9
$EXTMAX
 10
735.0450963735877
 20
672.2880870781994
 30
0.0000000000000099
  9
$LIMMIN
 10
-44.912933
 20
-21.841471
  9
$LIMMAX
 10
153.5627299999999
 20
105.04179
  9
$ORTHOMODE
 70
     0
  9
$REGENMODE
 70
     1
  9
$FILLMODE
 70
     1
  9
$QTEXTMODE
 70
     0
  9
$MIRRTEXT
 70
     1
  9
$LTSCALE
 40
1.0
  9
$ATTMODE
 70
     1
  9
$TEXTSIZE
 40
0.2
  9
$TRACEWID
 40
0.05
  9
$TEXTSTYLE
  7
STANDARD
  9
$CLAYER
  8
0
  9
$CELTYPE
  6
CONTINUOUS
  9
$CECOLOR
 62
   256
  9
$CELTSCALE
 40
1.0
  9
$DISPSILH
 70
     0
  9
$DIMSCALE
 40
1.0
  9
$DIMASZ
 40
0.18
  9
$DIMEXO
 40
0.0625
  9
$DIMDLI
 40
0.38
  9
$DIMRND
 40
0.0
  9
$DIMDLE
 40
0.0
  9
$DIMEXE
 40
0.18
  9
$DIMTP
 40
0.0
  9
$DIMTM
 40
0.0
  9
$DIMTXT
 40
0.18
  9
$DIMCEN
 40
0.09
  9
$DIMTSZ
 40
0.0
  9
$DIMTOL
 70
     0
  9
$DIMLIM
 70
     0
  9
$DIMTIH
 70
     1
  9
$DIMTOH
 70
     1
  9
$DIMSE1
 70
     0
  9
$DIMSE2
 70
     0
  9
$DIMTAD
 70
     0
  9
$DIMZIN
 70
     0
  9
$DIMBLK
  1

  9
$DIMASO
 70
     1
  9
$DIMSHO
 70
     0
  9
$DIMPOST
  1

  9
$DIMAPOST
  1

  9
$DIMALT
 70
     0
  9
$DIMALTD
 70
     2
  9
$DIMALTF
 40
25.4
  9
$DIMLFAC
 40
1.0
  9
$DIMTOFL
 70
     0
  9
$DIMTVP
 40
0.0
  9
$DIMTIX
 70
     0
  9
$DIMSOXD
 70
     0
  9
$DIMSAH
 70
     0
  9
$DIMBLK1
  1

  9
$DIMBLK2
  1

  9
$DIMSTYLE
  2
STANDARD
  9
$DIMCLRD
 70
     0
  9
$DIMCLRE
 70
     0
  9
$DIMCLRT
 70
     0
  9
$DIMTFAC
 40
1.0
  9
$DIMGAP
 40
0.09
  9
$DIMJUST
 70
     0
  9
$DIMSD1
 70
     0
  9
$DIMSD2
 70
     0
  9
$DIMTOLJ
 70
     1
  9
$DIMTZIN
 70
     0
  9
$DIMALTZ
 70
     0
  9
$DIMALTTZ
 70
     0
  9
$DIMUPT
 70
     0
  9
$DIMDEC
 70
     4
  9
$DIMTDEC
 70
     4
  9
$DIMALTU
 70
     2
  9
$DIMALTTD
 70
     2
  9
$DIMTXSTY
  7
STANDARD
  9
$DIMAUNIT
 70
     0
  9
$DIMADEC
 70
     0
  9
$DIMALTRND
 40
0.0
  9
$DIMAZIN
 70
     0
  9
$DIMDSEP
 70
    46
  9
$DIMATFIT
 70
     3
  9
$DIMFRAC
 70
     0
  9
$DIMLDRBLK
  1

  9
$DIMLUNIT
 70
     2
  9
$DIMLWD
 70
    -2
  9
$DIMLWE
 70
    -2
  9
$DIMTMOVE
 70
     2
  9
$LUNITS
 70
     2
  9
$LUPREC
 70
     4
  9
$SKETCHINC
 40
0.1
  9
$FILLETRAD
 40
0.0
  9
$AUNITS
 70
     0
  9
$AUPREC
 70
     0
  9
$MENU
  1
.
  9
$ELEVATION
 40
0.0
  9
$PELEVATION
 40
0.0
  9
$THICKNESS
 40
0.0
  9
$LIMCHECK
 70
     0
  9
$CHAMFERA
 40
0.0
  9
$CHAMFERB
 40
0.0
  9
$CHAMFERC
 40
0.0
  9
$CHAMFERD
 40
0.0
  9
$SKPOLY
 70
     0
  9
$TDCREATE
 40
2452488.423151215
  9
$TDUCREATE
 40
2452488.048151215
  9
$TDUPDATE
 40
2456899.667074224
  9
$TDUUPDATE
 40
2456899.292074224
  9
$TDINDWG
 40
0.1185654861
  9
$TDUSRTIMER
 40
0.1185647685
  9
$USRTIMER
 70
     1
  9
$ANGBASE
 50
0.0
  9
$ANGDIR
 70
     0
  9
$PDMODE
 70
     0
  9
$PDSIZE
 40
0.0
  9
$PLINEWID
 40
0.0
  9
$SPLFRAME
 70
     0
  9
$SPLINETYPE
 70
     6
  9
$SPLINESEGS
 70
     8
  9
$HANDSEED
  5
2232
  9
$SURFTAB1
 70
     6
  9
$SURFTAB2
 70
     6
  9
$SURFTYPE
 70
     6
  9
$SURFU
 70
     6
  9
$SURFV
 70
     6
  9
$UCSBASE
  2

  9
$UCSNAME
  2

  9
$UCSORG
 10
0.0
 20
0.0
 30
0.0
  9
$UCSXDIR
 10
1.0
 20
0.0
 30
0.0
  9
$UCSYDIR
 10
0.0
 20
1.0
 30
0.0
  9
$UCSORTHOREF
  2

  9
$UCSORTHOVIEW
 70
     0
  9
$UCSORGTOP
 10
0.0
 20
0.0
 30
0.0
  9
$UCSORGBOTTOM
 10
0.0
 20
0.0
 30
0.0
  9
$UCSORGLEFT
 10
0.0
 20
0.0
 30
0.0
  9
$UCSORGRIGHT
 10
0.0
 20
0.0
 30
0.0
  9
$UCSORGFRONT
 10
0.0
 20
0.0
 30
0.0
  9
$UCSORGBACK
 10
0.0
 20
0.0
 30
0.0
  9
$PUCSBASE
  2

  9
$PUCSNAME
  2

  9
$PUCSORG
 10
0.0
 20
0.0
 30
0.0
  9
$PUCSXDIR
 10
1.0
 20
0.0
 30
0.0
  9
$PUCSYDIR
 10
0.0
 20
1.0
 30
0.0
  9
$PUCSORTHOREF
  2

  9
$PUCSORTHOVIEW
 70
     0
  9
$PUCSORGTOP
 10
0.0
 20
0.0
 30
0.0
  9
$PUCSORGBOTTOM
 10
0.0
 20
0.0
 30
0.0
  9
$PUCSORGLEFT
 10
0.0
 20
0.0
 30
0.0
  9
$PUCSORGRIGHT
 10
0.0
 20
0.0
 30
0.0
  9
$PUCSORGFRONT
 10
0.0
 20
0.0
 30
0.0
  9
$PUCSORGBACK
 10
0.0
 20
0.0
 30
0.0
  9
$USERI1
 70
     0
  9
$USERI2
 70
     0
  9
$USERI3
 70
     0
  9
$USERI4
 70
     0
  9
$USERI5
 70
     0
  9
$USERR1
 40
0.0
  9
$USERR2
 40
0.0
  9
$USERR3
 40
0.0
  9
$USERR4
 40
0.0
  9
$USERR5
 40
0.0
  9
$WORLDVIEW
 70
     1
  9
$SHADEDGE
 70
     3
  9
$SHADEDIF
 70
    70
  9
$TILEMODE
 70
     1
  9
$MAXACTVP
 70
    48
  9
$PINSBASE
 10
0.0
 20
0.0
 30
0.0
  9
$PLIMCHECK
 70
     0
  9
$PEXTMIN
 10
-44.912933
 20
-21.841471
 30
0.0
  9
$PEXTMAX
 10
153.5627299999999
 20
105.04179
 30
0.0
  9
$PLIMMIN
 10
-44.912933
 20
-21.841471
  9
$PLIMMAX
 10
153.5627299999999
 20
105.04179
  9
$UNITMODE
 70
     0
  9
$VISRETAIN
 70
     1
  9
$PLINEGEN
 70
     0
  9
$PSLTSCALE
 70
     1
  9
$TREEDEPTH
 70
  3020
  9
$CMLSTYLE
  2
Standard
  9
$CMLJUST
 70
     0
  9
$CMLSCALE
 40
1.0
  9
$PROXYGRAPHICS
 70
     1
  9
$MEASUREMENT
 70
     0
  9
$CELWEIGHT
370
    -1
  9
$ENDCAPS
280
     0
  9
$JOINSTYLE
280
     0
  9
$LWDISPLAY
290
     0
  9
$INSUNITS
 70
     0
  9
$HYPERLINKBASE
  1

  9
$STYLESHEET
  1

  9
$XEDIT
290
     1
  9
$CEPSNTYPE
380
     0
  9
$PSTYLEMODE
290
     1
  9
$FINGERPRINTGUID
  2
{D6165B0B-7330-4F3F-A464-05170034872E}
  9
$VERSIONGUID
  2
{D6D80ABA-22D1-4B98-B4B6-42DBF1C16E28}
  9
$EXTNAMES
290
     1
  9
$PSVPSCALE
 40
0.0
  9
$OLESTARTUP
290
     0
  0
ENDSEC
  0
SECTION
  2
CLASSES
  0
CLASS
  1
ACDBDICTIONARYWDFLT
  2
AcDbDictionaryWithDefault
  3
AutoCAD 2000
 90
        0
280
     0
281
     0
  0
CLASS
  1
ACDBPLACEHOLDER
  2
AcDbPlaceHolder
  3
AutoCAD 2000
 90
        0
280
     0
281
     0
  0
CLASS
  1
LAYOUT
  2
AcDbLayout
  3
AutoCAD 2000
 90
        0
280
     0
281
     0
  0
CLASS
  1
DICTIONARYVAR
  2
AcDbDictionaryVar
  3
AutoCAD 2000
 90
        0
280
     0
281
     0
  0
CLASS
  1
LONG_TRANSACTION
  2
AcDbLongTransaction
  3
AutoCAD 2000
 90
    32768
280
     0
281
     0
  0
CLASS
  1
LWPOLYLINE
  2
AcDbPolyline
  3
AutoCAD 2000
 90
    32768
280
     0
281
     1
  0
CLASS
  1
HATCH
  2
AcDbHatch
  3
AutoCAD 2000
 90
    32768
280
     0
281
     1
  0
CLASS
  1
XRECORD
  2
AcDbXrecord
  3
AutoCAD 2000
 90
    32768
280
     0
281
     0
  0
ENDSEC
  0
SECTION
  2
TABLES
  0
TABLE
  2
VPORT
  5
2004
330
0
100
AcDbSymbolTable
 70
     2
  0
VPORT
  5
2231
330
2004
100
AcDbSymbolTableRecord
100
AcDbViewportTableRecord
  2
*Active
 70
     0
 10
0.0
 20
0.0
 11
1.0
 21
1.0
 12
416.4349855550704
 22
362.2291477970995
 13
0.0
 23
0.0
 14
1.0
 24
1.0
 15
0.0
 25
0.0
 16
0.0
 26
0.0
 36
1.0
 17
0.0
 27
0.0
 37
0.0
 40
624.055134934023
 41
1.592161016949152
 42
50.0
 43
0.0
 44
0.0
 50
0.0
 51
0.0
 71
     0
 72
   100
 73
     1
 74
     3
 75
     0
 76
     0
 77
     0
 78
     0
281
     0
 65
     1
110
0.0
120
0.0
130
0.0
111
1.0
121
0.0
131
0.0
112
0.0
122
1.0
132
0.0
 79
     0
146
0.0
  0
ENDTAB
  0
TABLE
  2
LTYPE
  5
2001
330
0
100
AcDbSymbolTable
 70
     2
  0
LTYPE
  5
200F
330
2001
100
AcDbSymbolTableRecord
100
AcDbLinetypeTableRecord
  2
ByBlock
 70
     0
  3

 72
    65
 73
     0
 40
0.0
  0
LTYPE
  5
2010
330
2001
100
AcDbSymbolTableRecord
100
AcDbLinetypeTableRecord
  2
ByLayer
 70
     0
  3

 72
    65
 73
     0
 40
0.0
  0
LTYPE
  5
2011
330
2001
100
AcDbSymbolTableRecord
100
AcDbLinetypeTableRecord
  2
CONTINUOUS
 70
     0
  3
Solid line
 72
    65
 73
     0
 40
0.0
  0
LTYPE
  5
2061
330
2001
100
AcDbSymbolTableRecord
100
AcDbLinetypeTableRecord
  2
CENTER
 70
     0
  3
__ . __
 72
    65
 73
     4
 40
7.0
 49
4.0
 74
     0
 49
-1.0
 74
     0
 49
1.0
 74
     0
 49
-1.0
 74
     0
  0
ENDTAB
  0
TABLE
  2
LAYER
  5
1FFE
102
{ACAD_XDICTIONARY
360
2062
102
}
330
0
100
AcDbSymbolTable
 70
     1
  0
LAYER
  5
200C
330
1FFE
100
AcDbSymbolTableRecord
100
AcDbLayerTableRecord
  2
0
 70
     0
 62
     7
  6
CONTINUOUS
370
    -3
390
200B
  0
ENDTAB
  0
TABLE
  2
STYLE
  5
1FFF
330
0
100
AcDbSymbolTable
 70
     1
  0
STYLE
  5
200D
330
1FFF
100
AcDbSymbolTableRecord
100
AcDbTextStyleTableRecord
  2
STANDARD
 70
     0
 40
0.0
 41
1.0
 50
0.0
 71
     0
 42
0.2
  3
txt
  4

  0
ENDTAB
  0
TABLE
  2
VIEW
  5
2002
330
0
100
AcDbSymbolTable
 70
     0
  0
ENDTAB
  0
TABLE
  2
UCS
  5
2003
330
0
100
AcDbSymbolTable
 70
     0
  0
ENDTAB
  0
TABLE
  2
APPID
  5
2005
330
0
100
AcDbSymbolTable
 70
    10
  0
APPID
  5
200E
330
2005
100
AcDbSymbolTableRecord
100
AcDbRegAppTableRecord
  2
ACAD
 70
     0
  0
APPID
  5
201F
330
2005
100
AcDbSymbolTableRecord
100
AcDbRegAppTableRecord
  2
MCAD_NO_VIS
 70
     0
  0
APPID
  5
2020
330
2005
100
AcDbSymbolTableRecord
100
AcDbRegAppTableRecord
  2
ACAD_TEMP_GRAPHIC
 70
     0
  0
APPID
  5
2021
330
2005
100
AcDbSymbolTableRecord
100
AcDbRegAppTableRecord
  2
ACATTRIBSERVICES
 70
     0
  0
APPID
  5
2086
330
2005
100
AcDbSymbolTableRecord
100
AcDbRegAppTableRecord
  2
ACAD_DSTYLE_DIMARC_LENGTH_SYMBOL
 70
     0
  0
APPID
  5
2087
330
2005
100
AcDbSymbolTableRecord
100
AcDbRegAppTableRecord
  2
ACAD_DSTYLE_DIMJOGGED_JOGANGLE_SYMBOL
 70
     0
  0
APPID
  5
2088
330
2005
100
AcDbSymbolTableRecord
100
AcDbRegAppTableRecord
  2
AcAecLayerStandard
 70
     0
  0
APPID
  5
2089
330
2005
100
AcDbSymbolTableRecord
100
AcDbRegAppTableRecord
  2
ACAD_DSTYLE_DIMEXT_LENGTH
 70
     0
  0
APPID
  5
208A
330
2005
100
AcDbSymbolTableRecord
100
AcDbRegAppTableRecord
  2
ACAD_DSTYLE_DIMEXT_ENABLED
 70
     0
  0
APPID
  5
208B
330
2005
100
AcDbSymbolTableRecord
100
AcDbRegAppTableRecord
  2
ACAD_PSEXT
 70
     0
  0
ENDTAB
  0
TABLE
  2
DIMSTYLE
  5
2006
330
0
100
AcDbSymbolTable
 70
     1
100
AcDbDimStyleTable
 71
     1
340
2022
  0
DIMSTYLE
105
2022
330
2006
100
AcDbSymbolTableRecord
100
AcDbDimStyleTableRecord
  2
STANDARD
 70
     0
279
     2
340
200D
  0
ENDTAB
  0
TABLE
  2
BLOCK_RECORD
  5
1FFD
330
0
100
AcDbSymbolTable
 70
     0
  0
BLOCK_RECORD
  5
201A
102
{ACAD_XDICTIONARY
360
202A
102
}
330
1FFD
100
AcDbSymbolTableRecord
100
AcDbBlockTableRecord
  2
*Model_Space
340
201D
  0
BLOCK_RECORD
  5
2016
102
{ACAD_XDICTIONARY
360
202C
102
}
330
1FFD
100
AcDbSymbolTableRecord
100
AcDbBlockTableRecord
  2
*Paper_Space
340
2019
  0
ENDTAB
  0
ENDSEC
  0
SECTION
  2
BLOCKS
  0
BLOCK
  5
201B
330
201A
100
AcDbEntity
  8
0
100
AcDbBlockBegin
  2
*Model_Space
 70
     0
 10
0.0
 20
0.0
 30
0.0
  3
*Model_Space
  1

  0
ENDBLK
  5
201C
330
201A
100
AcDbEntity
  8
0
100
AcDbBlockEnd
  0
BLOCK
  5
2017
330
2016
100
AcDbEntity
 67
     1
  8
0
100
AcDbBlockBegin
  2
*Paper_Space
 70
     0
 10
0.0
 20
0.0
 30
0.0
  3
*Paper_Space
  1

  0
ENDBLK
  5
2018
330
2016
100
AcDbEntity
 67
     1
  8
0
100
AcDbBlockEnd
  0
ENDSEC
  0
SECTION
  2
ENTITIES
  0
LINE
  5
1431
330
201A
100
AcDbEntity
  8
0
100
AcDbLine
 10
113.6700156835959
 20
130.0
 30
0.0
 11
173.670015683596
 21
130.0
 31
0.0
  0
LINE
  5
1432
330
201A
100
AcDbEntity
  8
0
100
AcDbLine
 10
130.170015683596
 20
150.0
 30
0.0
 11
130.170015683596
 21
133.0
 31
0.0
  0
LINE
  5
1433
330
201A
100
AcDbEntity
  8
0
100
AcDbLine
 10
157.170015683596
 20
150.0
 30
0.0
 11
157.170015683596
 21
133.0
 31
0.0
  0
LINE
  5
1434
330
201A
100
AcDbEntity
  8
0
100
AcDbLine
 10
113.6700156835959
 20
133.0
 30
0.0
 11
173.670015683596
 21
133.0
 31
0.0
  0
LINE
  5
1435
330
201A
100
AcDbEntity
  8
0
100
AcDbLine
 10
173.670015683596
 20
133.0
 30
0.0
 11
173.670015683596
 21
129.999998
 31
0.0
  0
LINE
  5
1436
330
201A
100
AcDbEntity
  8
0
100
AcDbLine
 10
113.6700156835959
 20
133.0
 30
0.0
 11
113.6700156835959
 21
129.999998
 31
0.0
  0
LINE
  5
1437
330
201A
100
AcDbEntity
  8
0
100
AcDbLine
 10
98.67001568359604
 20
150.0
 30
0.0
 11
188.6700156835958
 21
150.0
 31
0.0
  0
LINE
  5
1438
330
201A
100
AcDbEntity
  8
0
100
AcDbLine
 10
111.1757006835954
 20
153.906962
 30
0.0
 11
108.9200086835959
 21
149.999988
 31
0.0
  0
LINE
  5
1439
330
201A
100
AcDbEntity
  8
0
100
AcDbLine
 10
111.1757146835957
 20
153.9069759999998
 30
0.0
 11
123.6700106835959
 21
155.000086
 31
0.0
  0
LINE
  5
143A
330
201A
100
AcDbEntity
  8
0
100
AcDbLine
 10
108.6700766835954
 20
160.0
 30
0.0
 11
98.67001568359604
 21
160.0
 31
0.0
  0
LINE
  5
143B
330
201A
100
AcDbEntity
  8
0
100
AcDbLine
 10
98.67001568359604
 20
160.0
 30
0.0
 11
98.67001568359604
 21
150.0
 31
0.0
  0
LINE
  5
143C
330
201A
100
AcDbEntity
  8
0
100
AcDbLine
 10
108.6700646835959
 20
159.9999869999997
 30
0.0
 11
118.1644706835958
 21
154.5183889999998
 31
0.0
  0
LINE
  5
143D
330
201A
100
AcDbEntity
  8
0
100
AcDbLine
 10
163.6706866835958
 20
155.0
 30
0.0
 11
146.6700156835958
 21
155.0
 31
0.0
  0
LINE
  5
143E
330
201A
100
AcDbEntity
  8
0
100
AcDbLine
 10
176.1643676835958
 20
153.906958
 30
0.0
 11
178.4200456835958
 21
150.000009999999
 31
0.0
  0
LINE
  5
143F
330
201A
100
AcDbEntity
  8
0
100
AcDbLine
 10
176.1643676835958
 20
153.9069449999998
 30
0.0
 11
163.6707106835954
 21
154.999998
 31
0.0
  0
LINE
  5
1440
330
201A
100
AcDbEntity
  8
0
100
AcDbLine
 10
178.670015683596
 20
160.0
 30
0.0
 11
188.6700156835958
 21
160.0
 31
0.0
  0
LINE
  5
1441
330
201A
100
AcDbEntity
  8
0
100
AcDbLine
 10
188.6700156835958
 20
160.0
 30
0.0
 11
188.6700156835958
 21
150.0
 31
0.0
  0
LINE
  5
1442
330
201A
100
AcDbEntity
  8
0
100
AcDbLine
 10
178.670036683596
 20
159.999974
 30
0.0
 11
169.1756036835959
 21
154.51836
 31
0.0
  0
LINE
  5
1443
330
201A
100
AcDbEntity
  8
0
100
AcDbLine
 10
140.670015683596
 20
176.920517
 30
0.0
 11
140.670015683596
 21
153.0
 31
0.0
  0
LINE
  5
1444
330
201A
100
AcDbEntity
  8
0
100
AcDbLine
 10
146.6700156835958
 20
176.920517
 30
0.0
 11
146.6700156835958
 21
153.0
 31
0.0
  0
LINE
  5
1445
330
201A
100
AcDbEntity
  8
0
100
AcDbLine
 10
151.670015683596
 20
182.4433289999998
 30
0.0
 11
151.670015683596
 21
162.0500179999978
 31
0.0
  0
LINE
  5
1446
330
201A
100
AcDbEntity
  8
0
100
AcDbLine
 10
157.6700156835958
 20
181.487701
 30
0.0
 11
151.670015683596
 21
181.487701
 31
0.0
  0
LINE
  5
1447
330
201A
100
AcDbEntity
  8
0
100
AcDbLine
 10
162.6700156835958
 20
162.0500179999978
 30
0.0
 11
162.6700156835958
 21
155.0
 31
0.0
  0
LINE
  5
1448
330
201A
100
AcDbEntity
  8
0
100
AcDbLine
 10
135.670015683596
 20
182.4433289999998
 30
0.0
 11
135.670015683596
 21
162.0500179999978
 31
0.0
  0
LINE
  5
1449
330
201A
100
AcDbEntity
  8
0
100
AcDbLine
 10
129.6700156835957
 20
181.487701
 30
0.0
 11
129.6700156835957
 21
162.0500179999978
 31
0.0
  0
LINE
  5
144A
330
201A
100
AcDbEntity
  8
0
100
AcDbLine
 10
129.6700156835957
 20
181.487701
 30
0.0
 11
135.670015683596
 21
181.487701
 31
0.0
  0
LINE
  5
144B
330
201A
100
AcDbEntity
  8
0
100
AcDbLine
 10
124.670015683596
 20
162.0500179999978
 30
0.0
 11
124.670015683596
 21
155.0
 31
0.0
  0
LINE
  5
144C
330
201A
100
AcDbEntity
  8
0
100
AcDbLine
 10
162.6700156835958
 20
162.0500179999978
 30
0.0
 11
146.6700156835958
 21
162.0500179999978
 31
0.0
  0
LINE
  5
144D
330
201A
100
AcDbEntity
  8
0
100
AcDbLine
 10
157.6700156835958
 20
181.487701
 30
0.0
 11
157.6700156835958
 21
162.0500179999978
 31
0.0
  0
LINE
  5
1450
330
201A
100
AcDbEntity
  8
0
100
AcDbLine
 10
135.670015683596
 20
182.4433289999998
 30
0.0
 11
137.6700156835961
 21
182.4433289999998
 31
0.0
  0
LINE
  5
1452
330
201A
100
AcDbEntity
  8
0
100
AcDbLine
 10
135.670015683596
 20
176.920517
 30
0.0
 11
140.670015683596
 21
176.920517
 31
0.0
  0
LINE
  5
1453
330
201A
100
AcDbEntity
  8
0
100
AcDbLine
 10
146.6700156835958
 20
176.920517
 30
0.0
 11
151.670015683596
 21
176.920517
 31
0.0
  0
LINE
  5
1454
330
201A
100
AcDbEntity
  8
0
100
AcDbLine
 10
140.670015683596
 20
162.0500179999978
 30
0.0
 11
124.670015683596
 21
162.0500179999978
 31
0.0
  0
LINE
  5
1455
330
201A
100
AcDbEntity
  8
0
100
AcDbLine
 10
140.670015683596
 20
155.0
 30
0.0
 11
123.670015683596
 21
155.0
 31
0.0
  0
ARC
  5
1456
330
201A
100
AcDbEntity
  8
0
100
AcDbCircle
 10
143.670015683596
 20
100.0
 30
0.0
 40
37.0
100
AcDbArc
 50
125.8247800000005
 51
54.17521299999626
  0
CIRCLE
  5
1457
330
201A
100
AcDbEntity
  8
0
100
AcDbCircle
 10
143.670015683596
 20
100.0
 30
0.0
 40
12.699982
  0
CIRCLE
  5
1458
330
201A
100
AcDbEntity
  8
0
100
AcDbCircle
 10
103.670015683596
 20
155.0
 30
0.0
 40
2.6500001
  0
CIRCLE
  5
1459
330
201A
100
AcDbEntity
  8
0
100
AcDbCircle
 10
183.6700156835958
 20
155.0
 30
0.0
 40
2.6500001
  0
ARC
  5
145A
330
201A
100
AcDbEntity
  8
0
100
AcDbCircle
 10
143.670015683596
 20
153.0
 30
0.0
 40
3.0
100
AcDbArc
 50
179.9999899999988
 51
0.0
  0
LINE
  5
149B
330
201A
100
AcDbEntity
  8
0
100
AcDbLine
 10
415.9999849999998
 20
62.99999200000002
 30
0.0
 11
384.000015
 21
62.99999200000002
 31
0.0
  0
LINE
  5
149C
330
201A
100
AcDbEntity
  8
0
100
AcDbLine
 10
384.000015
 20
62.99999200000002
 30
0.0
 11
384.000015
 21
130.0
 31
0.0
  0
LINE
  5
149D
330
201A
100
AcDbEntity
  8
0
100
AcDbLine
 10
415.9999849999998
 20
62.99999200000002
 30
0.0
 11
415.9999849999998
 21
130.0
 31
0.0
  0
LINE
  5
149E
330
201A
100
AcDbEntity
  8
0
100
AcDbLine
 10
415.9999849999998
 20
130.0
 30
0.0
 11
384.000015
 21
130.0
 31
0.0
  0
LINE
  5
14A7
330
201A
100
AcDbEntity
  8
0
100
AcDbLine
 10
371.9145519999997
 20
174.4554369999999
 30
0.0
 11
420.8100278298884
 21
183.0770286555871
 31
0.0
  0
LINE
  5
14A9
330
201A
100
AcDbEntity
  8
0
100
AcDbLine
 10
358.9361009999998
 20
155.9202989999999
 30
0.0
 11
371.9145529999998
 21
174.4554499999999
 31
0.0
  0
LINE
  5
14AA
330
201A
100
AcDbEntity
  8
0
100
AcDbLine
 10
358.936103
 20
155.920298
 30
0.0
 11
361.6429089999998
 21
150.115536
 31
0.0
  0
LINE
  5
14AB
330
201A
100
AcDbEntity
  8
0
100
AcDbLine
 10
371.6027839999981
 20
154.2653229999999
 30
0.0
 11
374.102145
 21
158.5943429999999
 31
0.0
  0
LINE
  5
14AC
330
201A
100
AcDbEntity
  8
0
100
AcDbLine
 10
374.1021229999989
 20
158.5943389999999
 30
0.0
 11
382.7663159999998
 21
160.1220699999998
 31
0.0
  0
LINE
  5
14AE
330
201A
100
AcDbEntity
  8
0
100
AcDbLine
 10
419.0
 20
162.0500179999978
 30
0.0
 11
419.0
 21
154.9999849999998
 31
0.0
  0
LINE
  5
14AF
330
201A
100
AcDbEntity
  8
0
100
AcDbLine
 10
381.0
 20
159.3029629999998
 30
0.0
 11
381.0
 21
154.9999849999998
 31
0.0
  0
LINE
  5
14B0
330
201A
100
AcDbEntity
  8
0
100
AcDbLine
 10
419.0
 20
162.050003
 30
0.0
 11
417.233704
 21
162.050003
 31
0.0
  0
LINE
  5
14B1
330
201A
100
AcDbEntity
  8
0
100
AcDbLine
 10
417.2336729999988
 20
182.4464419999999
 30
0.0
 11
417.2336729999988
 21
162.0500179999978
 31
0.0
  0
LINE
  5
14B2
330
201A
100
AcDbEntity
  8
0
100
AcDbLine
 10
382.7662959999997
 20
176.3689119999988
 30
0.0
 11
382.7662959999997
 21
159.6144099999999
 31
0.0
  0
LINE
  5
14B3
330
201A
100
AcDbEntity
  8
0
100
AcDbLine
 10
382.7663079999998
 20
159.6143869999999
 30
0.0
 11
381.000007
 21
159.3029399999998
 31
0.0
  0
LINE
  5
14B4
330
201A
100
AcDbEntity
  8
0
100
AcDbLine
 10
412.845245
 20
181.6726379999998
 30
0.0
 11
412.845245
 21
162.0500179999978
 31
0.0
  0
LINE
  5
14B5
330
201A
100
AcDbEntity
  8
0
100
AcDbLine
 10
387.1547549999999
 20
177.142714999999
 30
0.0
 11
387.1547549999999
 21
162.050003
 31
0.0
  0
LINE
  5
14B6
330
201A
100
AcDbEntity
  8
0
100
AcDbLine
 10
412.845245
 20
162.050003
 30
0.0
 11
387.1547549999999
 21
162.050003
 31
0.0
  0
LINE
  5
14B7
330
201A
100
AcDbEntity
  8
0
100
AcDbLine
 10
380.0000609999997
 20
154.9999849999998
 30
0.0
 11
405.0
 21
154.9999849999998
 31
0.0
  0
LINE
  5
14B8
330
201A
100
AcDbEntity
  8
0
100
AcDbLine
 10
410.0
 20
159.9999849999998
 30
0.0
 11
410.0
 21
130.1999949999998
 31
0.0
  0
LINE
  5
14B9
330
201A
100
AcDbEntity
  8
0
100
AcDbLine
 10
405.0
 20
159.9999849999998
 30
0.0
 11
405.0
 21
149.9999849999998
 31
0.0
  0
LINE
  5
14BA
330
201A
100
AcDbEntity
  8
0
100
AcDbLine
 10
361.696777
 20
149.9999849999998
 30
0.0
 11
410.0
 21
149.9999849999998
 31
0.0
  0
LINE
  5
14BB
330
201A
100
AcDbEntity
  8
0
100
AcDbLine
 10
367.5057159999987
 20
153.906848
 30
0.0
 11
365.25007
 21
149.999955
 31
0.0
  0
LINE
  5
14BC
330
201A
100
AcDbEntity
  8
0
100
AcDbLine
 10
367.505660999998
 20
153.9069269999999
 30
0.0
 11
380.000017
 21
155.0000409999999
 31
0.0
  0
LINE
  5
14BD
330
201A
100
AcDbEntity
  8
0
100
AcDbLine
 10
386.5
 20
149.9999849999998
 30
0.0
 11
386.5
 21
132.9999849999997
 31
0.0
  0
LINE
  5
14BE
330
201A
100
AcDbEntity
  8
0
100
AcDbLine
 10
405.0
 20
159.9999849999998
 30
0.0
 11
410.0
 21
159.9999849999998
 31
0.0
  0
LINE
  5
14BF
330
201A
100
AcDbEntity
  8
0
100
AcDbLine
 10
381.4999999999992
 20
132.9999849999997
 30
0.0
 11
410.0
 21
132.9999849999997
 31
0.0
  0
LINE
  5
14C0
330
201A
100
AcDbEntity
  8
0
100
AcDbLine
 10
410.0
 20
154.9999849999998
 30
0.0
 11
419.0
 21
154.9999849999998
 31
0.0
  0
LINE
  5
14C1
330
201A
100
AcDbEntity
  8
0
100
AcDbLine
 10
417.2336849999998
 20
166.199597
 30
0.0
 11
420.9793588160946
 21
166.8600605057027
 31
0.0
  0
LINE
  5
14C2
330
201A
100
AcDbEntity
  8
0
100
AcDbLine
 10
381.4999999999992
 20
132.9999849999997
 30
0.0
 11
381.4999999999992
 21
127.999998
 31
0.0
  0
LINE
  5
14C3
330
201A
100
AcDbEntity
  8
0
100
AcDbLine
 10
381.4999999999992
 20
127.999998
 30
0.0
 11
384.0
 21
127.999998
 31
0.0
  0
LINE
  5
14C4
330
201A
100
AcDbEntity
  8
0
100
AcDbLine
 10
384.0
 20
129.999998
 30
0.0
 11
384.0
 21
127.999998
 31
0.0
  0
CIRCLE
  5
14CC
330
201A
100
AcDbEntity
  8
0
100
AcDbCircle
 10
393.0
 20
170.0500179999978
 30
0.0
 40
4.150000099999997
  0
CIRCLE
  5
14CD
330
201A
100
AcDbEntity
  8
0
100
AcDbCircle
 10
393.0
 20
170.0500179999978
 30
0.0
 40
4.150000099999997
  0
LINE
  5
14D2
330
201A
100
AcDbEntity
  8
0
100
AcDbLine
 10
659.1891410998049
 20
130.0
 30
0.0
 11
719.1891410998053
 21
130.0
 31
0.0
  0
LINE
  5
14D3
330
201A
100
AcDbEntity
  8
0
100
AcDbLine
 10
675.6891410998052
 20
150.0
 30
0.0
 11
675.6891410998052
 21
133.0
 31
0.0
  0
LINE
  5
14D4
330
201A
100
AcDbEntity
  8
0
100
AcDbLine
 10
702.6891410998053
 20
150.0
 30
0.0
 11
702.6891410998053
 21
133.0
 31
0.0
  0
LINE
  5
14D5
330
201A
100
AcDbEntity
  8
0
100
AcDbLine
 10
659.1891410998049
 20
133.0
 30
0.0
 11
675.6891410998052
 21
133.0
 31
0.0
  0
LINE
  5
14D6
330
201A
100
AcDbEntity
  8
0
100
AcDbLine
 10
719.1891410998053
 20
133.0
 30
0.0
 11
719.1891410998053
 21
129.999998
 31
0.0
  0
LINE
  5
14D7
330
201A
100
AcDbEntity
  8
0
100
AcDbLine
 10
659.1891410998049
 20
133.0
 30
0.0
 11
659.1891410998049
 21
129.999998
 31
0.0
  0
LINE
  5
14D8
330
201A
100
AcDbEntity
  8
0
100
AcDbLine
 10
644.1891410998049
 20
150.0
 30
0.0
 11
675.6891410998052
 21
150.0
 31
0.0
  0
LINE
  5
14D9
330
201A
100
AcDbEntity
  8
0
100
AcDbLine
 10
663.683588099805
 20
154.5184119999998
 30
0.0
 11
669.1891340998048
 21
155.0000849999999
 31
0.0
  0
LINE
  5
14DA
330
201A
100
AcDbEntity
  8
0
100
AcDbLine
 10
654.189191099804
 20
160.0
 30
0.0
 11
644.1891410998049
 21
160.0
 31
0.0
  0
LINE
  5
14DB
330
201A
100
AcDbEntity
  8
0
100
AcDbLine
 10
644.1891410998049
 20
160.0
 30
0.0
 11
644.1891410998049
 21
150.0
 31
0.0
  0
LINE
  5
14DC
330
201A
100
AcDbEntity
  8
0
100
AcDbLine
 10
654.1891770998041
 20
159.9999799999999
 30
0.0
 11
663.683583099805
 21
154.5183819999998
 31
0.0
  0
LINE
  5
14DD
330
201A
100
AcDbEntity
  8
0
100
AcDbLine
 10
714.6947140998048
 20
154.5183989999975
 30
0.0
 11
709.1898130998047
 21
155.0000159999999
 31
0.0
  0
LINE
  5
14DE
330
201A
100
AcDbEntity
  8
0
100
AcDbLine
 10
724.189149099805
 20
160.0
 30
0.0
 11
734.1891410998051
 21
160.0
 31
0.0
  0
LINE
  5
14DF
330
201A
100
AcDbEntity
  8
0
100
AcDbLine
 10
734.1891410998051
 20
160.0
 30
0.0
 11
734.1891410998051
 21
150.0
 31
0.0
  0
LINE
  5
14E0
330
201A
100
AcDbEntity
  8
0
100
AcDbLine
 10
724.1891520998039
 20
159.99999
 30
0.0
 11
714.6947130998053
 21
154.5183729999999
 31
0.0
  0
LINE
  5
14E1
330
201A
100
AcDbEntity
  8
0
100
AcDbLine
 10
697.1891410998052
 20
181.487701
 30
0.0
 11
697.1891410998052
 21
162.0500179999978
 31
0.0
  0
LINE
  5
14E2
330
201A
100
AcDbEntity
  8
0
100
AcDbLine
 10
703.1891410998053
 20
181.487701
 30
0.0
 11
697.1891410998052
 21
181.487701
 31
0.0
  0
LINE
  5
14E3
330
201A
100
AcDbEntity
  8
0
100
AcDbLine
 10
708.1891410998053
 20
162.0500179999978
 30
0.0
 11
708.1891410998053
 21
155.0
 31
0.0
  0
LINE
  5
14E4
330
201A
100
AcDbEntity
  8
0
100
AcDbLine
 10
681.1891410998049
 20
181.487701
 30
0.0
 11
681.1891410998049
 21
162.0500179999978
 31
0.0
  0
LINE
  5
14E5
330
201A
100
AcDbEntity
  8
0
100
AcDbLine
 10
675.1891410998052
 20
181.487701
 30
0.0
 11
675.1891410998052
 21
162.0500179999978
 31
0.0
  0
LINE
  5
14E6
330
201A
100
AcDbEntity
  8
0
100
AcDbLine
 10
675.1891410998052
 20
181.487701
 30
0.0
 11
681.1891410998049
 21
181.487701
 31
0.0
  0
LINE
  5
14E7
330
201A
100
AcDbEntity
  8
0
100
AcDbLine
 10
670.1891410998049
 20
162.0500179999978
 30
0.0
 11
670.1891410998049
 21
155.0
 31
0.0
  0
LINE
  5
14E8
330
201A
100
AcDbEntity
  8
0
100
AcDbLine
 10
703.1891410998053
 20
181.487701
 30
0.0
 11
703.1891410998053
 21
162.0500179999978
 31
0.0
  0
LINE
  5
14EC
330
201A
100
AcDbEntity
  8
0
100
AcDbLine
 10
708.1891410998053
 20
162.0500179999978
 30
0.0
 11
670.1891410998049
 21
162.0500179999978
 31
0.0
  0
LINE
  5
14ED
330
201A
100
AcDbEntity
  8
0
100
AcDbLine
 10
709.1898100998053
 20
155.0
 30
0.0
 11
669.1891410998049
 21
155.0
 31
0.0
  0
LINE
  5
14EE
330
201A
100
AcDbEntity
  8
0
100
AcDbLine
 10
702.6891410998053
 20
150.0
 30
0.0
 11
734.1891410998051
 21
150.0
 31
0.0
  0
LINE
  5
14EF
330
201A
100
AcDbEntity
  8
0
100
AcDbLine
 10
678.1891410998049
 20
155.0
 30
0.0
 11
678.1891410998049
 21
129.999998
 31
0.0
  0
LINE
  5
14F0
330
201A
100
AcDbEntity
  8
0
100
AcDbLine
 10
700.1891410998053
 20
155.0
 30
0.0
 11
700.1891410998053
 21
129.999998
 31
0.0
  0
LINE
  5
14F1
330
201A
100
AcDbEntity
  8
0
100
AcDbLine
 10
702.6891410998053
 20
133.0
 30
0.0
 11
719.1891410998053
 21
133.0
 31
0.0
  0
ARC
  5
14F2
330
201A
100
AcDbEntity
  8
0
100
AcDbCircle
 10
689.1891410998052
 20
100.0
 30
0.0
 40
37.0
100
AcDbArc
 50
125.8247800000005
 51
54.17521299999626
  0
CIRCLE
  5
14F3
330
201A
100
AcDbEntity
  8
0
100
AcDbCircle
 10
689.1891410998052
 20
100.0
 30
0.0
 40
12.699982
  0
CIRCLE
  5
14F4
330
201A
100
AcDbEntity
  8
0
100
AcDbCircle
 10
649.1891410998049
 20
155.0
 30
0.0
 40
2.6500001
  0
CIRCLE
  5
14F5
330
201A
100
AcDbEntity
  8
0
100
AcDbCircle
 10
729.1891410998052
 20
155.0
 30
0.0
 40
2.6500001
  0
TEXT
  5
14F8
330
201A
100
AcDbEntity
  8
0
100
AcDbText
 10
139.5793562591408
 20
624.2668952992338
 30
0.0
 40
48.000002
  1
BVL__ 1S
 41
1.40267
100
AcDbText
  0
LINE
  5
1503
330
201A
100
AcDbEntity
  8
0
100
AcDbLine
 10
415.9999849999998
 20
339.4902407356218
 30
0.0
 11
410.0
 21
339.4902407356218
 31
0.0
  0
LINE
  5
1504
330
201A
100
AcDbEntity
  8
0
100
AcDbLine
 10
384.000015
 20
339.4902407356218
 30
0.0
 11
384.000015
 21
346.207199735622
 31
0.0
  0
LINE
  5
1505
330
201A
100
AcDbEntity
  8
0
100
AcDbLine
 10
415.9999849999998
 20
339.4902407356218
 30
0.0
 11
415.9999849999998
 21
366.2432737356216
 31
0.0
  0
LINE
  5
1506
330
201A
100
AcDbEntity
  8
0
100
AcDbLine
 10
415.9999849999998
 20
363.7902827356217
 30
0.0
 11
420.0
 21
363.7902827356217
 31
0.0
  0
LINE
  5
1507
330
201A
100
AcDbEntity
  8
0
100
AcDbLine
 10
415.9999849999998
 20
389.1902537356227
 30
0.0
 11
420.0
 21
389.1902537356227
 31
0.0
  0
LINE
  5
150C
330
201A
100
AcDbEntity
  8
0
100
AcDbLine
 10
415.9999849999998
 20
413.4902567356219
 30
0.0
 11
410.0
 21
413.4902567356219
 31
0.0
  0
LINE
  5
150F
330
201A
100
AcDbEntity
  8
0
100
AcDbLine
 10
410.0
 20
421.4902487356217
 30
0.0
 11
410.0
 21
392.6457357356217
 31
0.0
  0
LINE
  5
1510
330
201A
100
AcDbEntity
  8
0
100
AcDbLine
 10
405.0
 20
421.4902487356217
 30
0.0
 11
405.0
 21
402.9957417356228
 31
0.0
  0
LINE
  5
1511
330
201A
100
AcDbEntity
  8
0
100
AcDbLine
 10
405.0
 20
331.4902177356218
 30
0.0
 11
410.0
 21
331.4902177356218
 31
0.0
  0
LINE
  5
1512
330
201A
100
AcDbEntity
  8
0
100
AcDbLine
 10
405.0
 20
421.4902487356217
 30
0.0
 11
410.0
 21
421.4902487356217
 31
0.0
  0
LINE
  5
1513
330
201A
100
AcDbEntity
  8
0
100
AcDbLine
 10
406.0
 20
341.4902487356219
 30
0.0
 11
409.0
 21
341.4902487356219
 31
0.0
  0
LINE
  5
1514
330
201A
100
AcDbEntity
  8
0
100
AcDbLine
 10
405.0
 20
331.4902177356218
 30
0.0
 11
405.0
 21
349.984785735621
 31
0.0
  0
LINE
  5
1517
330
201A
100
AcDbEntity
  8
0
100
AcDbLine
 10
406.0
 20
411.4902487356228
 30
0.0
 11
409.0
 21
411.4902487356228
 31
0.0
  0
LINE
  5
1518
330
201A
100
AcDbEntity
  8
0
100
AcDbLine
 10
412.845215
 20
362.4902487356217
 30
0.0
 11
387.1547549999999
 21
362.4902487356217
 31
0.0
  0
LINE
  5
1519
330
201A
100
AcDbEntity
  8
0
100
AcDbLine
 10
412.845215
 20
390.4902487356217
 30
0.0
 11
387.1547549999999
 21
390.4902487356217
 31
0.0
  0
LINE
  5
151A
330
201A
100
AcDbEntity
  8
0
100
AcDbLine
 10
410.0
 20
360.3347617356217
 30
0.0
 11
410.0
 21
331.4902177356218
 31
0.0
  0
LINE
  5
151C
330
201A
100
AcDbEntity
  8
0
100
AcDbLine
 10
419.5898129999999
 20
368.4902487356226
 30
0.0
 11
382.7662959999992
 21
368.4902487356226
 31
0.0
  0
LINE
  5
151D
330
201A
100
AcDbEntity
  8
0
100
AcDbLine
 10
419.5898129999999
 20
384.4902487356225
 30
0.0
 11
382.7662959999992
 21
384.4902487356225
 31
0.0
  0
LINE
  5
151E
330
201A
100
AcDbEntity
  8
0
100
AcDbLine
 10
381.2383420000001
 20
379.4902487356228
 30
0.0
 11
362.6876219999987
 21
379.4902487356228
 31
0.0
  0
LINE
  5
151F
330
201A
100
AcDbEntity
  8
0
100
AcDbLine
 10
381.2383420000001
 20
373.4902487356217
 30
0.0
 11
362.6876219999987
 21
373.4902487356217
 31
0.0
  0
LINE
  5
1520
330
201A
100
AcDbEntity
  8
0
100
AcDbLine
 10
419.5898129999999
 20
384.4902487356225
 30
0.0
 11
419.5898129999999
 21
382.4902487356217
 31
0.0
  0
LINE
  5
1523
330
201A
100
AcDbEntity
  8
0
100
AcDbLine
 10
384.000015
 20
406.773297735622
 30
0.0
 11
384.000015
 21
413.4902567356219
 31
0.0
  0
LINE
  5
1524
330
201A
100
AcDbEntity
  8
0
100
AcDbLine
 10
405.0
 20
339.4902407356218
 30
0.0
 11
384.000015
 21
339.4902407356218
 31
0.0
  0
LINE
  5
1525
330
201A
100
AcDbEntity
  8
0
100
AcDbLine
 10
405.0
 20
413.4902567356219
 30
0.0
 11
384.000015
 21
413.4902567356219
 31
0.0
  0
LINE
  5
1526
330
201A
100
AcDbEntity
  8
0
100
AcDbLine
 10
415.9999849999998
 20
386.7372237356218
 30
0.0
 11
415.9999849999998
 21
413.4902567356219
 31
0.0
  0
ARC
  5
1529
330
201A
100
AcDbEntity
  8
0
100
AcDbCircle
 10
400.0
 20
376.4902487356217
 30
0.0
 40
34.25
100
AcDbArc
 50
81.60565199999401
 51
174.97495
  0
ARC
  5
152A
330
201A
100
AcDbEntity
  8
0
100
AcDbCircle
 10
362.6876219999987
 20
376.4902487356217
 30
0.0
 40
3.0
100
AcDbArc
 50
90.00000299999769
 51
270.0
  0
ARC
  5
152B
330
201A
100
AcDbEntity
  8
0
100
AcDbCircle
 10
400.0
 20
376.4902487356217
 30
0.0
 40
19.0
100
AcDbArc
 50
24.90106299999964
 51
170.9152799999938
  0
ARC
  5
152D
330
201A
100
AcDbEntity
  8
0
100
AcDbCircle
 10
400.0
 20
376.4902487356217
 30
0.0
 40
34.25
100
AcDbArc
 50
185.0250499999999
 51
278.3943500000052
  0
ARC
  5
152E
330
201A
100
AcDbEntity
  8
0
100
AcDbCircle
 10
400.0
 20
376.4902487356217
 30
0.0
 40
19.0
100
AcDbArc
 50
189.084720000006
 51
335.0989400000051
  0
LINE
  5
1866
330
201A
100
AcDbEntity
  8
0
100
AcDbLine
 10
360.0
 20
125.2499999999992
 30
0.0
 11
362.8499999
 21
125.2499999999992
 31
0.0
  0
LINE
  5
1867
330
201A
100
AcDbEntity
  8
0
100
AcDbLine
 10
362.8499996999987
 20
125.2499999999992
 30
0.0
 11
367.4178265
 21
112.7
 31
0.0
  0
LINE
  5
1868
330
201A
100
AcDbEntity
  8
0
100
AcDbLine
 10
367.4178267000001
 20
112.7
 30
0.0
 11
384.000015
 21
112.7
 31
0.0
  0
LINE
  5
1869
330
201A
100
AcDbEntity
  8
0
100
AcDbLine
 10
360.0
 20
74.75
 30
0.0
 11
360.0
 21
125.2499999999992
 31
0.0
  0
LINE
  5
186A
330
201A
100
AcDbEntity
  8
0
100
AcDbLine
 10
367.4178267000001
 20
87.29999999999996
 30
0.0
 11
384.000015
 21
87.29999999999996
 31
0.0
  0
LINE
  5
186B
330
201A
100
AcDbEntity
  8
0
100
AcDbLine
 10
362.8499996999987
 20
74.75
 30
0.0
 11
367.4178265
 21
87.29999999999996
 31
0.0
  0
LINE
  5
186C
330
201A
100
AcDbEntity
  8
0
100
AcDbLine
 10
360.0
 20
74.75
 30
0.0
 11
362.8499999
 21
74.75
 31
0.0
  0
LINE
  5
186E
330
201A
100
AcDbEntity
  8
0
100
AcDbLine
 10
367.4178267000001
 20
112.7
 30
0.0
 11
367.4178267000001
 21
87.29999999999996
 31
0.0
  0
LINE
  5
1871
330
201A
100
AcDbEntity
  8
0
100
AcDbLine
 10
439.9999999999992
 20
74.75
 30
0.0
 11
437.1500000999989
 21
74.75
 31
0.0
  0
LINE
  5
1872
330
201A
100
AcDbEntity
  8
0
100
AcDbLine
 10
437.1500002999987
 20
74.75
 30
0.0
 11
432.5821734999989
 21
87.29999999999996
 31
0.0
  0
LINE
  5
1873
330
201A
100
AcDbEntity
  8
0
100
AcDbLine
 10
432.5821732999992
 20
87.29999999999996
 30
0.0
 11
415.9999849999998
 21
87.29999999999996
 31
0.0
  0
LINE
  5
1874
330
201A
100
AcDbEntity
  8
0
100
AcDbLine
 10
439.9999999999992
 20
125.2499999999992
 30
0.0
 11
439.9999999999992
 21
74.75
 31
0.0
  0
LINE
  5
1875
330
201A
100
AcDbEntity
  8
0
100
AcDbLine
 10
432.5821732999992
 20
112.7
 30
0.0
 11
415.9999849999998
 21
112.7
 31
0.0
  0
LINE
  5
1876
330
201A
100
AcDbEntity
  8
0
100
AcDbLine
 10
437.1500002999987
 20
125.2499999999992
 30
0.0
 11
432.5821734999989
 21
112.7
 31
0.0
  0
LINE
  5
1877
330
201A
100
AcDbEntity
  8
0
100
AcDbLine
 10
439.9999999999992
 20
125.2499999999992
 30
0.0
 11
437.1500000999989
 21
125.2499999999992
 31
0.0
  0
LINE
  5
1879
330
201A
100
AcDbEntity
  8
0
100
AcDbLine
 10
432.5821732999992
 20
87.29999999999996
 30
0.0
 11
432.5821732999992
 21
112.7
 31
0.0
  0
LINE
  5
18D5
330
201A
100
AcDbEntity
  8
0
100
AcDbLine
 10
432.5821732999992
 20
363.7902682356218
 30
0.0
 11
432.5821732999992
 21
370.4902487356207
 31
0.0
  0
LINE
  5
18D6
330
201A
100
AcDbEntity
  8
0
100
AcDbLine
 10
440.0
 20
401.7402682356216
 30
0.0
 11
440.0
 21
382.4902487356228
 31
0.0
  0
LINE
  5
18D7
330
201A
100
AcDbEntity
  8
0
100
AcDbLine
 10
432.5821732999992
 20
363.7902682356218
 30
0.0
 11
415.9999849999998
 21
363.7902682356218
 31
0.0
  0
LINE
  5
18D8
330
201A
100
AcDbEntity
  8
0
100
AcDbLine
 10
437.1500003000001
 20
351.2402682356217
 30
0.0
 11
432.5821734999989
 21
363.7902682356218
 31
0.0
  0
LINE
  5
18D9
330
201A
100
AcDbEntity
  8
0
100
AcDbLine
 10
440.0
 20
351.2402682356217
 30
0.0
 11
437.1500000999989
 21
351.2402682356217
 31
0.0
  0
LINE
  5
18DA
330
201A
100
AcDbEntity
  8
0
100
AcDbLine
 10
432.5821732999992
 20
389.1902682356231
 30
0.0
 11
415.9999849999998
 21
389.1902682356231
 31
0.0
  0
LINE
  5
18DB
330
201A
100
AcDbEntity
  8
0
100
AcDbLine
 10
440.0
 20
401.7402682356216
 30
0.0
 11
437.1500000999989
 21
401.7402682356216
 31
0.0
  0
LINE
  5
18DC
330
201A
100
AcDbEntity
  8
0
100
AcDbLine
 10
437.1500003000001
 20
401.7402682356216
 30
0.0
 11
432.5821734999989
 21
389.1902682356231
 31
0.0
  0
LINE
  5
18DE
330
201A
100
AcDbEntity
  8
0
100
AcDbLine
 10
360.0
 20
351.2402682356217
 30
0.0
 11
360.0
 21
401.7402682356209
 31
0.0
  0
LINE
  5
18DF
330
201A
100
AcDbEntity
  8
0
100
AcDbLine
 10
362.8499996999987
 20
351.2402682356217
 30
0.0
 11
367.4178265
 21
363.7902682356218
 31
0.0
  0
LINE
  5
18E0
330
201A
100
AcDbEntity
  8
0
100
AcDbLine
 10
360.0
 20
351.2402682356217
 30
0.0
 11
362.8499999
 21
351.2402682356217
 31
0.0
  0
LINE
  5
18E2
330
201A
100
AcDbEntity
  8
0
100
AcDbLine
 10
362.8499996999987
 20
401.7402682356209
 30
0.0
 11
367.4178265
 21
389.1902682356217
 31
0.0
  0
LINE
  5
18E3
330
201A
100
AcDbEntity
  8
0
100
AcDbLine
 10
360.0
 20
401.7402682356209
 30
0.0
 11
362.8499999
 21
401.7402682356209
 31
0.0
  0
LINE
  5
18E5
330
201A
100
AcDbEntity
  8
0
100
AcDbLine
 10
440.0
 20
370.4902487356217
 30
0.0
 11
440.0
 21
351.2402682356217
 31
0.0
  0
LINE
  5
18E6
330
201A
100
AcDbEntity
  8
0
100
AcDbLine
 10
432.5821732999992
 20
382.4902487356228
 30
0.0
 11
432.5821732999992
 21
389.1902682356231
 31
0.0
  0
CIRCLE
  5
18E7
330
201A
100
AcDbEntity
  8
0
100
AcDbCircle
 10
689.1891410998052
 20
100.0
 30
0.0
 40
25.25
  0
CIRCLE
  5
18E9
330
201A
100
AcDbEntity
  8
0
100
AcDbCircle
 10
143.670015683596
 20
100.0
 30
0.0
 40
25.25
  0
LINE
  5
206E
330
201A
100
AcDbEntity
  8
0
  6
CENTER
100
AcDbLine
 10
689.1891410998052
 20
52.18020014355784
 30
0.0
 11
689.1891410998052
 21
200.9355132307486
 31
0.0
  0
LINE
  5
206F
330
201A
100
AcDbEntity
  8
0
  6
CENTER
100
AcDbLine
 10
643.3523122003942
 20
100.0
 30
0.0
 11
735.0259699992164
 21
100.0
 31
0.0
  0
LINE
  5
2071
330
201A
100
AcDbEntity
  8
0
  6
CENTER
100
AcDbLine
 10
354.1631711005889
 20
99.9999999999996
 30
0.0
 11
445.8368288994111
 21
99.9999999999996
 31
0.0
  0
LINE
  5
2072
330
201A
100
AcDbEntity
  8
0
  6
CENTER
100
AcDbLine
 10
400.0
 20
327.7848060994677
 30
0.0
 11
400.0
 21
425.1956913717758
 31
0.0
  0
LINE
  5
2074
330
201A
100
AcDbEntity
  8
0
  6
CENTER
100
AcDbLine
 10
400.0
 20
52.18020014355744
 30
0.0
 11
400.0
 21
191.6209068699517
 31
0.0
  0
LINE
  5
2075
330
201A
100
AcDbEntity
  8
0
  6
CENTER
100
AcDbLine
 10
143.670015683596
 20
52.18020014355784
 30
0.0
 11
143.670015683596
 21
200.9355132307486
 31
0.0
  0
LINE
  5
2076
330
201A
100
AcDbEntity
  8
0
  6
CENTER
100
AcDbLine
 10
97.83318678418494
 20
100.0
 30
0.0
 11
189.5068445830071
 21
100.0
 31
0.0
  0
LINE
  5
20C7
330
201A
100
AcDbEntity
  8
0
100
AcDbLine
 10
419.5898129999999
 20
370.4902487356217
 30
0.0
 11
528.2820499999998
 21
370.4902487356217
 31
0.0
  0
LINE
  5
20C8
330
201A
100
AcDbEntity
  8
0
100
AcDbLine
 10
419.5898129999999
 20
382.4902487356217
 30
0.0
 11
528.2820499999998
 21
382.4902487356217
 31
0.0
  0
LINE
  5
20C9
330
201A
100
AcDbEntity
  8
0
  6
CENTER
100
AcDbLine
 10
550.5692299999999
 20
376.4902487356217
 30
0.0
 11
345.553015664242
 21
376.4902487356217
 31
0.0
  0
LINE
  5
20CA
330
201A
100
AcDbEntity
  8
0
100
AcDbLine
 10
533.2820499999999
 20
369.1504987356218
 30
0.0
 11
543.0692299999999
 21
363.4998587356217
 31
0.0
  0
ARC
  5
20CB
330
201A
100
AcDbEntity
  8
0
100
AcDbCircle
 10
550.5692299999999
 20
376.4902487356217
 30
0.0
 40
15.0
100
AcDbArc
 50
240.0000099999997
 51
119.9999900000002
  0
LINE
  5
20CC
330
201A
100
AcDbEntity
  8
0
100
AcDbLine
 10
533.2820499999999
 20
383.8299887356217
 30
0.0
 11
543.0692299999999
 21
389.4806187356217
 31
0.0
  0
ARC
  5
20CD
330
201A
100
AcDbEntity
  8
0
100
AcDbCircle
 10
528.2820499999998
 20
360.4902487356217
 30
0.0
 40
10.0
100
AcDbArc
 50
59.99998199999991
 51
90.0
  0
ARC
  5
20CE
330
201A
100
AcDbEntity
  8
0
100
AcDbCircle
 10
528.2820499999998
 20
392.4902487356217
 30
0.0
 40
10.0
100
AcDbArc
 50
270.0
 51
300.0000199999954
  0
LINE
  5
20D0
330
201A
100
AcDbEntity
  8
0
100
AcDbLine
 10
422.3419749526633
 20
376.8494028356618
 30
0.0
 11
436.4585373664607
 21
379.9209617140521
 31
0.0
  0
LINE
  5
20D1
330
201A
100
AcDbEntity
  8
0
100
AcDbLine
 10
422.3333840166441
 20
376.1329638984582
 30
0.0
 11
436.4585374176601
 21
373.0595357462289
 31
0.0
  0
LINE
  5
20D2
330
201A
100
AcDbEntity
  8
0
100
AcDbLine
 10
437.2491698445097
 20
382.4902487356217
 30
0.0
 11
437.2491698445097
 21
380.8987987356217
 31
0.0
  0
ARC
  5
20D3
330
201A
100
AcDbEntity
  8
0
100
AcDbCircle
 10
441.7032898445098
 20
376.4902487356217
 30
0.0
 40
6.0
100
AcDbArc
 50
109.8411499999988
 51
132.4629100000046
  0
ARC
  5
20D4
330
201A
100
AcDbEntity
  8
0
100
AcDbCircle
 10
436.2491698445097
 20
380.8987987356217
 30
0.0
 40
1.0
100
AcDbArc
 50
282.0852899999962
 51
0.0
  0
ARC
  5
20D5
330
201A
100
AcDbEntity
  8
0
100
AcDbCircle
 10
436.2491698445097
 20
372.0816987356217
 30
0.0
 40
1.0
100
AcDbArc
 50
0.0
 51
77.91470699999665
  0
LINE
  5
20D6
330
201A
100
AcDbEntity
  8
0
100
AcDbLine
 10
437.2491698445097
 20
372.0816987356217
 30
0.0
 11
437.2491698445097
 21
370.4902487356217
 31
0.0
  0
ARC
  5
20D7
330
201A
100
AcDbEntity
  8
0
100
AcDbCircle
 10
441.7032898445098
 20
376.4902487356217
 30
0.0
 40
6.0
100
AcDbArc
 50
227.7108799999993
 51
248.238849999999
  0
ARC
  5
20E7
330
201A
100
AcDbEntity
  8
0
100
AcDbCircle
 10
143.670015683596
 20
200.9355132307486
 30
0.0
 40
15.0
100
AcDbArc
 50
293.5781784782005
 51
246.4218215217994
  0
LINE
  5
20E8
330
201A
100
AcDbEntity
  8
0
100
AcDbLine
 10
137.670015683596
 20
186.9232662388338
 30
0.0
 11
143.670015683596
 21
182.9086250972743
 31
0.0
  0
LINE
  5
20E9
330
201A
100
AcDbEntity
  8
0
100
AcDbLine
 10
137.6700156835961
 20
182.4433289999998
 30
0.0
 11
137.670015683596
 21
197.4232186191694
 31
0.0
  0
LINE
  5
20EA
330
201A
100
AcDbEntity
  8
0
100
AcDbLine
 10
149.670015683596
 20
182.4433289999998
 30
0.0
 11
149.670015683596
 21
197.4232186191694
 31
0.0
  0
LINE
  5
20EB
330
201A
100
AcDbEntity
  8
0
100
AcDbLine
 10
143.670015683596
 20
182.9086250972743
 30
0.0
 11
149.670015683596
 21
186.9232662388338
 31
0.0
  0
LINE
  5
20EC
330
201A
100
AcDbEntity
  8
0
100
AcDbLine
 10
419.5898129999999
 20
370.4902487356217
 30
0.0
 11
419.5898129999999
 21
368.4902487356226
 31
0.0
  0
ARC
  5
2207
330
201A
100
AcDbEntity
  8
0
100
AcDbCircle
 10
550.0166021963357
 20
200.9355132307486
 30
0.0
 40
15.0
100
AcDbArc
 50
249.9999970332833
 51
129.9999770332818
  0
ARC
  5
2208
330
201A
100
AcDbEntity
  8
0
100
AcDbCircle
 10
530.8463809403929
 20
181.3084653286672
 30
0.0
 40
10.0
100
AcDbArc
 50
69.999969033279
 51
99.9999870332815
  0
LINE
  5
2209
330
201A
100
AcDbEntity
  8
0
100
AcDbLine
 10
438.5720628712081
 20
175.1923006722945
 30
0.0
 11
529.1099013924609
 21
191.1565432517754
 31
0.0
  0
LINE
  5
220A
330
201A
100
AcDbEntity
  8
0
100
AcDbLine
 10
534.2665852014492
 20
190.7053867859931
 30
0.0
 11
544.8862966729912
 21
186.8401261207208
 31
0.0
  0
LINE
  5
220B
330
201A
100
AcDbEntity
  8
0
100
AcDbLine
 10
531.7175217855419
 20
205.161862925142
 30
0.0
 11
540.3747925714974
 21
212.4261711708003
 31
0.0
  0
ARC
  5
220C
330
201A
100
AcDbEntity
  8
0
100
AcDbCircle
 10
525.2896463870102
 20
212.8223146826138
 30
0.0
 40
10.0
100
AcDbArc
 50
279.9999870332815
 51
310.0000070332823
  0
LINE
  5
220D
330
201A
100
AcDbEntity
  8
0
100
AcDbLine
 10
436.4879883474339
 20
187.0099414466443
 30
0.0
 11
527.0261259349424
 21
202.9742367595054
 31
0.0
  0
LINE
  5
220E
330
201A
100
AcDbEntity
  8
0
100
AcDbLine
 10
420.8100278298884
 20
183.0770286555871
 30
0.0
 11
436.4879883474339
 21
187.0099414466443
 31
0.0
  0
LINE
  5
220F
330
201A
100
AcDbEntity
  8
0
100
AcDbLine
 10
421.805734681192
 20
173.4544604430126
 30
0.0
 11
438.5720628712081
 21
175.1923006722945
 31
0.0
  0
LINE
  5
2211
330
201A
100
AcDbEntity
  8
0
100
AcDbLine
 10
420.9793588160946
 20
166.8600605057027
 30
0.0
 11
420.9793748972511
 21
172.4696838257103
 31
0.0
  0
ARC
  5
2212
330
201A
100
AcDbEntity
  8
0
100
AcDbCircle
 10
421.9793826359851
 20
172.4696526507018
 30
0.0
 40
1.0
100
AcDbArc
 50
99.9999870332815
 51
180.0001070332792
  0
LINE
  5
2215
330
201A
100
AcDbEntity
  8
0
  6
CENTER
100
AcDbLine
 10
403.8928139093536
 20
175.1699809301457
 30
0.0
 11
550.0166021963357
 21
200.9355132307486
 31
0.0
  0
CIRCLE
  5
2219
330
201A
100
AcDbEntity
  8
0
  6
Continuous
100
AcDbCircle
 10
689.1891410998052
 20
200.9355132307486
 30
0.0
 40
15.0
  0
LINE
  5
2220
330
201A
100
AcDbEntity
  8
0
100
AcDbLine
 10
149.670015683596
 20
182.4433289999998
 30
0.0
 11
151.670015683596
 21
182.4433289999998
 31
0.0
  0
LINE
  5
2221
330
201A
100
AcDbEntity
  8
0
100
AcDbLine
 10
683.1891410998053
 20
174.7384799999999
 30
0.0
 11
683.1891410998053
 21
187.187786145881
 31
0.0
  0
LINE
  5
2222
330
201A
100
AcDbEntity
  8
0
100
AcDbLine
 10
695.1891410998053
 20
174.7384799999999
 30
0.0
 11
695.1891410998053
 21
187.1877861458811
 31
0.0
  0
ARC
  5
2224
330
201A
100
AcDbEntity
  8
0
  6
Continuous
100
AcDbCircle
 10
689.1891410998052
 20
174.7384799999999
 30
0.0
 40
5.999999999999886
100
AcDbArc
 50
180.0
 51
0.0
  0
ENDSEC
  0
SECTION
  2
OBJECTS
  0
DICTIONARY
  5
2008
330
0
100
AcDbDictionary
281
     1
  3
ACAD_GROUP
350
2009
  3
ACAD_LAYOUT
350
2015
  3
ACAD_MLINESTYLE
350
2012
  3
ACAD_PLOTSETTINGS
350
2014
  3
ACAD_PLOTSTYLENAME
350
200A
  3
AcDbVariableDictionary
350
205C
  0
DICTIONARY
  5
2062
330
1FFE
100
AcDbDictionary
280
     1
281
     1
  3
ACAD_LAYERSTATES
360
2063
  0
DICTIONARY
  5
202A
330
201A
100
AcDbDictionary
280
     1
281
     1
  3
ACAD_LAYOUTSELFREF
360
2059
  0
DICTIONARY
  5
202C
330
2016
100
AcDbDictionary
280
     1
281
     1
  3
ACAD_LAYOUTSELFREF
360
2058
  0
DICTIONARY
  5
2009
102
{ACAD_REACTORS
330
2008
102
}
330
2008
100
AcDbDictionary
281
     1
  0
DICTIONARY
  5
2015
102
{ACAD_REACTORS
330
2008
102
}
330
2008
100
AcDbDictionary
281
     1
  3
Model
350
201D
  3
ﾚｲｱｳﾄ1
350
2019
  0
DICTIONARY
  5
2012
102
{ACAD_REACTORS
330
2008
102
}
330
2008
100
AcDbDictionary
281
     1
  3
Standard
350
2013
  0
DICTIONARY
  5
2014
102
{ACAD_REACTORS
330
2008
102
}
330
2008
100
AcDbDictionary
281
     1
  0
ACDBDICTIONARYWDFLT
  5
200A
102
{ACAD_REACTORS
330
2008
102
}
330
2008
100
AcDbDictionary
281
     1
  3
Normal
350
200B
100
AcDbDictionaryWithDefault
340
200B
  0
DICTIONARY
  5
205C
102
{ACAD_REACTORS
330
2008
102
}
330
2008
100
AcDbDictionary
281
     1
  3
DIMASSOC
350
205D
  0
DICTIONARY
  5
2063
102
{ACAD_REACTORS
330
2062
102
}
330
2062
100
AcDbDictionary
281
     1
  0
XRECORD
  5
2059
102
{ACAD_REACTORS
330
202A
102
}
330
202A
100
AcDbXrecord
280
     1
340
201A
  0
XRECORD
  5
2058
102
{ACAD_REACTORS
330
202C
102
}
330
202C
100
AcDbXrecord
280
     1
340
2016
  0
LAYOUT
  5
201D
102
{ACAD_REACTORS
330
2015
102
}
330
2015
100
AcDbPlotSettings
  1

  2
SII LP-2150 (D-SCAN C2)
  4

  6

 40
0.0
 41
0.0
 42
0.0
 43
0.0
 44
0.0
 45
0.0
 46
0.0
 47
0.0
 48
0.0
 49
0.0
140
0.0
141
0.0
142
1.0
143
1.0
 70
  1712
 72
     0
 73
     0
 74
     0
  7

 75
     0
147
1.0
148
0.0
149
0.0
100
AcDbLayout
  1
Model
 70
     1
 71
     0
 10
0.0
 20
0.0
 11
12.0
 21
9.0
 12
0.0
 22
0.0
 32
0.0
 14
0.0
 24
0.0
 34
0.0
 15
0.0
 25
0.0
 35
0.0
146
0.0
 13
0.0
 23
0.0
 33
0.0
 16
1.0
 26
0.0
 36
0.0
 17
0.0
 27
1.0
 37
0.0
 76
     0
330
201A
  0
LAYOUT
  5
2019
102
{ACAD_REACTORS
330
2015
102
}
330
2015
100
AcDbPlotSettings
  1

  2
SII LP-2150 (D-SCAN C2)
  4

  6

 40
0.0
 41
0.0
 42
0.0
 43
0.0
 44
0.0
 45
0.0
 46
0.0
 47
0.0
 48
0.0
 49
0.0
140
0.0
141
0.0
142
1.0
143
1.0
 70
   688
 72
     0
 73
     0
 74
     5
  7

 75
    16
147
1.0
148
0.0
149
0.0
100
AcDbLayout
  1
ﾚｲｱｳﾄ1
 70
     1
 71
     1
 10
-44.912933
 20
-21.841471
 11
153.5627299999999
 21
105.04179
 12
0.0
 22
0.0
 32
0.0
 14
-44.912933
 24
-21.841471
 34
0.0
 15
153.5627299999999
 25
105.04179
 35
0.0
146
0.0
 13
0.0
 23
0.0
 33
0.0
 16
1.0
 26
0.0
 36
0.0
 17
0.0
 27
1.0
 37
0.0
 76
     0
330
2016
  0
MLINESTYLE
  5
2013
102
{ACAD_REACTORS
330
2012
102
}
330
2012
100
AcDbMlineStyle
  2
STANDARD
 70
     0
  3

 62
   256
 51
90.0
 52
90.0
 71
     2
 49
0.5
 62
   256
  6
BYLAYER
 49
-0.5
 62
   256
  6
BYLAYER
  0
ACDBPLACEHOLDER
  5
200B
102
{ACAD_REACTORS
330
200A
102
}
330
200A
  0
DICTIONARYVAR
  5
205D
102
{ACAD_REACTORS
330
205C
102
}
330
205C
100
DictionaryVariables
280
     0
  1
1
  0
ENDSEC
  0
EOF
