  0
SECTION
  2
HEADER
  9
$ACADVER
  1
AC1015
  9
$ACADMAINTVER
 70
    14
  9
$DWGCODEPAGE
  3
ANSI_932
  9
$INSBASE
 10
0.0
 20
0.0
 30
0.0
  9
$EXTMIN
 10
106.8132545226142
 20
161.3044713456486
 30
-0.0000000000112498
  9
$EXTMAX
 10
690.3582454590543
 20
646.1295303237991
 30
0.0000000000002956
  9
$LIMMIN
 10
-44.912933
 20
-21.841471
  9
$LIMMAX
 10
153.5627299999999
 20
105.04179
  9
$ORTHOMODE
 70
     0
  9
$REGENMODE
 70
     1
  9
$FILLMODE
 70
     1
  9
$QTEXTMODE
 70
     0
  9
$MIRRTEXT
 70
     1
  9
$LTSCALE
 40
1.0
  9
$ATTMODE
 70
     1
  9
$TEXTSIZE
 40
0.2
  9
$TRACEWID
 40
0.05
  9
$TEXTSTYLE
  7
STANDARD
  9
$CLAYER
  8
0
  9
$CELTYPE
  6
CONTINUOUS
  9
$CECOLOR
 62
   256
  9
$CELTSCALE
 40
1.0
  9
$DISPSILH
 70
     0
  9
$DIMSCALE
 40
1.0
  9
$DIMASZ
 40
0.18
  9
$DIMEXO
 40
0.0625
  9
$DIMDLI
 40
0.38
  9
$DIMRND
 40
0.0
  9
$DIMDLE
 40
0.0
  9
$DIMEXE
 40
0.18
  9
$DIMTP
 40
0.0
  9
$DIMTM
 40
0.0
  9
$DIMTXT
 40
0.18
  9
$DIMCEN
 40
0.09
  9
$DIMTSZ
 40
0.0
  9
$DIMTOL
 70
     0
  9
$DIMLIM
 70
     0
  9
$DIMTIH
 70
     1
  9
$DIMTOH
 70
     1
  9
$DIMSE1
 70
     0
  9
$DIMSE2
 70
     0
  9
$DIMTAD
 70
     0
  9
$DIMZIN
 70
     0
  9
$DIMBLK
  1

  9
$DIMASO
 70
     1
  9
$DIMSHO
 70
     0
  9
$DIMPOST
  1

  9
$DIMAPOST
  1

  9
$DIMALT
 70
     0
  9
$DIMALTD
 70
     2
  9
$DIMALTF
 40
25.4
  9
$DIMLFAC
 40
1.0
  9
$DIMTOFL
 70
     0
  9
$DIMTVP
 40
0.0
  9
$DIMTIX
 70
     0
  9
$DIMSOXD
 70
     0
  9
$DIMSAH
 70
     0
  9
$DIMBLK1
  1

  9
$DIMBLK2
  1

  9
$DIMSTYLE
  2
STANDARD
  9
$DIMCLRD
 70
     0
  9
$DIMCLRE
 70
     0
  9
$DIMCLRT
 70
     0
  9
$DIMTFAC
 40
1.0
  9
$DIMGAP
 40
0.09
  9
$DIMJUST
 70
     0
  9
$DIMSD1
 70
     0
  9
$DIMSD2
 70
     0
  9
$DIMTOLJ
 70
     1
  9
$DIMTZIN
 70
     0
  9
$DIMALTZ
 70
     0
  9
$DIMALTTZ
 70
     0
  9
$DIMUPT
 70
     0
  9
$DIMDEC
 70
     4
  9
$DIMTDEC
 70
     4
  9
$DIMALTU
 70
     2
  9
$DIMALTTD
 70
     2
  9
$DIMTXSTY
  7
STANDARD
  9
$DIMAUNIT
 70
     0
  9
$DIMADEC
 70
     0
  9
$DIMALTRND
 40
0.0
  9
$DIMAZIN
 70
     0
  9
$DIMDSEP
 70
    46
  9
$DIMATFIT
 70
     3
  9
$DIMFRAC
 70
     0
  9
$DIMLDRBLK
  1

  9
$DIMLUNIT
 70
     2
  9
$DIMLWD
 70
    -2
  9
$DIMLWE
 70
    -2
  9
$DIMTMOVE
 70
     2
  9
$LUNITS
 70
     2
  9
$LUPREC
 70
     4
  9
$SKETCHINC
 40
0.1
  9
$FILLETRAD
 40
0.0
  9
$AUNITS
 70
     0
  9
$AUPREC
 70
     0
  9
$MENU
  1
.
  9
$ELEVATION
 40
0.0
  9
$PELEVATION
 40
0.0
  9
$THICKNESS
 40
0.0
  9
$LIMCHECK
 70
     0
  9
$CHAMFERA
 40
0.0
  9
$CHAMFERB
 40
0.0
  9
$CHAMFERC
 40
0.0
  9
$CHAMFERD
 40
0.0
  9
$SKPOLY
 70
     0
  9
$TDCREATE
 40
2452488.423151215
  9
$TDUCREATE
 40
2452488.048151215
  9
$TDUPDATE
 40
2456899.666843461
  9
$TDUUPDATE
 40
2456899.291843461
  9
$TDINDWG
 40
0.1007505324
  9
$TDUSRTIMER
 40
0.1007498032
  9
$USRTIMER
 70
     1
  9
$ANGBASE
 50
0.0
  9
$ANGDIR
 70
     0
  9
$PDMODE
 70
     0
  9
$PDSIZE
 40
0.0
  9
$PLINEWID
 40
0.0
  9
$SPLFRAME
 70
     0
  9
$SPLINETYPE
 70
     6
  9
$SPLINESEGS
 70
     8
  9
$HANDSEED
  5
2B9F
  9
$SURFTAB1
 70
     6
  9
$SURFTAB2
 70
     6
  9
$SURFTYPE
 70
     6
  9
$SURFU
 70
     6
  9
$SURFV
 70
     6
  9
$UCSBASE
  2

  9
$UCSNAME
  2

  9
$UCSORG
 10
0.0
 20
0.0
 30
0.0
  9
$UCSXDIR
 10
1.0
 20
0.0
 30
0.0
  9
$UCSYDIR
 10
0.0
 20
1.0
 30
0.0
  9
$UCSORTHOREF
  2

  9
$UCSORTHOVIEW
 70
     0
  9
$UCSORGTOP
 10
0.0
 20
0.0
 30
0.0
  9
$UCSORGBOTTOM
 10
0.0
 20
0.0
 30
0.0
  9
$UCSORGLEFT
 10
0.0
 20
0.0
 30
0.0
  9
$UCSORGRIGHT
 10
0.0
 20
0.0
 30
0.0
  9
$UCSORGFRONT
 10
0.0
 20
0.0
 30
0.0
  9
$UCSORGBACK
 10
0.0
 20
0.0
 30
0.0
  9
$PUCSBASE
  2

  9
$PUCSNAME
  2

  9
$PUCSORG
 10
0.0
 20
0.0
 30
0.0
  9
$PUCSXDIR
 10
1.0
 20
0.0
 30
0.0
  9
$PUCSYDIR
 10
0.0
 20
1.0
 30
0.0
  9
$PUCSORTHOREF
  2

  9
$PUCSORTHOVIEW
 70
     0
  9
$PUCSORGTOP
 10
0.0
 20
0.0
 30
0.0
  9
$PUCSORGBOTTOM
 10
0.0
 20
0.0
 30
0.0
  9
$PUCSORGLEFT
 10
0.0
 20
0.0
 30
0.0
  9
$PUCSORGRIGHT
 10
0.0
 20
0.0
 30
0.0
  9
$PUCSORGFRONT
 10
0.0
 20
0.0
 30
0.0
  9
$PUCSORGBACK
 10
0.0
 20
0.0
 30
0.0
  9
$USERI1
 70
     0
  9
$USERI2
 70
     0
  9
$USERI3
 70
     0
  9
$USERI4
 70
     0
  9
$USERI5
 70
     0
  9
$USERR1
 40
0.0
  9
$USERR2
 40
0.0
  9
$USERR3
 40
0.0
  9
$USERR4
 40
0.0
  9
$USERR5
 40
0.0
  9
$WORLDVIEW
 70
     1
  9
$SHADEDGE
 70
     3
  9
$SHADEDIF
 70
    70
  9
$TILEMODE
 70
     1
  9
$MAXACTVP
 70
    48
  9
$PINSBASE
 10
0.0
 20
0.0
 30
0.0
  9
$PLIMCHECK
 70
     0
  9
$PEXTMIN
 10
-44.912933
 20
-21.841471
 30
0.0
  9
$PEXTMAX
 10
153.5627299999999
 20
105.04179
 30
0.0
  9
$PLIMMIN
 10
-44.912933
 20
-21.841471
  9
$PLIMMAX
 10
153.5627299999999
 20
105.04179
  9
$UNITMODE
 70
     0
  9
$VISRETAIN
 70
     1
  9
$PLINEGEN
 70
     0
  9
$PSLTSCALE
 70
     1
  9
$TREEDEPTH
 70
  3020
  9
$CMLSTYLE
  2
Standard
  9
$CMLJUST
 70
     0
  9
$CMLSCALE
 40
1.0
  9
$PROXYGRAPHICS
 70
     1
  9
$MEASUREMENT
 70
     0
  9
$CELWEIGHT
370
    -1
  9
$ENDCAPS
280
     0
  9
$JOINSTYLE
280
     0
  9
$LWDISPLAY
290
     0
  9
$INSUNITS
 70
     0
  9
$HYPERLINKBASE
  1

  9
$STYLESHEET
  1

  9
$XEDIT
290
     1
  9
$CEPSNTYPE
380
     0
  9
$PSTYLEMODE
290
     1
  9
$FINGERPRINTGUID
  2
{D771A901-06E9-4B83-85D9-B285B1C592B0}
  9
$VERSIONGUID
  2
{145BD06D-1945-4E78-BC52-5DBB38568FD3}
  9
$EXTNAMES
290
     1
  9
$PSVPSCALE
 40
0.0
  9
$OLESTARTUP
290
     0
  0
ENDSEC
  0
SECTION
  2
CLASSES
  0
CLASS
  1
ACDBDICTIONARYWDFLT
  2
AcDbDictionaryWithDefault
  3
AutoCAD 2000
 90
        0
280
     0
281
     0
  0
CLASS
  1
ACDBPLACEHOLDER
  2
AcDbPlaceHolder
  3
AutoCAD 2000
 90
        0
280
     0
281
     0
  0
CLASS
  1
LAYOUT
  2
AcDbLayout
  3
AutoCAD 2000
 90
        0
280
     0
281
     0
  0
CLASS
  1
DICTIONARYVAR
  2
AcDbDictionaryVar
  3
AutoCAD 2000
 90
        0
280
     0
281
     0
  0
CLASS
  1
LONG_TRANSACTION
  2
AcDbLongTransaction
  3
AutoCAD 2000
 90
    32768
280
     0
281
     0
  0
CLASS
  1
LWPOLYLINE
  2
AcDbPolyline
  3
AutoCAD 2000
 90
    32768
280
     0
281
     1
  0
CLASS
  1
HATCH
  2
AcDbHatch
  3
AutoCAD 2000
 90
    32768
280
     0
281
     1
  0
CLASS
  1
XRECORD
  2
AcDbXrecord
  3
AutoCAD 2000
 90
    32768
280
     0
281
     0
  0
ENDSEC
  0
SECTION
  2
TABLES
  0
TABLE
  2
VPORT
  5
2AFD
330
0
100
AcDbSymbolTable
 70
     2
  0
VPORT
  5
2B9E
330
2AFD
100
AcDbSymbolTableRecord
100
AcDbViewportTableRecord
  2
*Active
 70
     0
 10
0.0
 20
0.0
 11
1.0
 21
1.0
 12
398.5857499908342
 22
403.7170008347239
 13
0.0
 23
0.0
 14
1.0
 24
1.0
 15
0.0
 25
0.0
 16
0.0
 26
0.0
 36
1.0
 17
0.0
 27
0.0
 37
0.0
 40
487.9033133208689
 41
1.592161016949152
 42
50.0
 43
0.0
 44
0.0
 50
0.0
 51
0.0
 71
     0
 72
   100
 73
     1
 74
     3
 75
     0
 76
     0
 77
     0
 78
     0
281
     0
 65
     1
110
0.0
120
0.0
130
0.0
111
1.0
121
0.0
131
0.0
112
0.0
122
1.0
132
0.0
 79
     0
146
0.0
  0
ENDTAB
  0
TABLE
  2
LTYPE
  5
2AFA
330
0
100
AcDbSymbolTable
 70
     2
  0
LTYPE
  5
2B08
330
2AFA
100
AcDbSymbolTableRecord
100
AcDbLinetypeTableRecord
  2
ByBlock
 70
     0
  3

 72
    65
 73
     0
 40
0.0
  0
LTYPE
  5
2B09
330
2AFA
100
AcDbSymbolTableRecord
100
AcDbLinetypeTableRecord
  2
ByLayer
 70
     0
  3

 72
    65
 73
     0
 40
0.0
  0
LTYPE
  5
2B0A
330
2AFA
100
AcDbSymbolTableRecord
100
AcDbLinetypeTableRecord
  2
CONTINUOUS
 70
     0
  3
Solid line
 72
    65
 73
     0
 40
0.0
  0
LTYPE
  5
2B1A
330
2AFA
100
AcDbSymbolTableRecord
100
AcDbLinetypeTableRecord
  2
CENTER
 70
     0
  3
Center ____ _ ____ _ ____ _ ____ _ ____ _ ____
 72
    65
 73
     4
 40
2.0
 49
1.25
 74
     0
 49
-0.25
 74
     0
 49
0.25
 74
     0
 49
-0.25
 74
     0
  0
ENDTAB
  0
TABLE
  2
LAYER
  5
2AF7
102
{ACAD_XDICTIONARY
360
2B7C
102
}
330
0
100
AcDbSymbolTable
 70
     1
  0
LAYER
  5
2B05
330
2AF7
100
AcDbSymbolTableRecord
100
AcDbLayerTableRecord
  2
0
 70
     0
 62
     7
  6
CONTINUOUS
370
    -3
390
2B04
  0
ENDTAB
  0
TABLE
  2
STYLE
  5
2AF8
330
0
100
AcDbSymbolTable
 70
     1
  0
STYLE
  5
2B06
330
2AF8
100
AcDbSymbolTableRecord
100
AcDbTextStyleTableRecord
  2
STANDARD
 70
     0
 40
0.0
 41
1.0
 50
0.0
 71
     0
 42
0.2
  3
txt
  4

  0
ENDTAB
  0
TABLE
  2
VIEW
  5
2AFB
330
0
100
AcDbSymbolTable
 70
     0
  0
ENDTAB
  0
TABLE
  2
UCS
  5
2AFC
330
0
100
AcDbSymbolTable
 70
     0
  0
ENDTAB
  0
TABLE
  2
APPID
  5
2AFE
330
0
100
AcDbSymbolTable
 70
     4
  0
APPID
  5
2B07
330
2AFE
100
AcDbSymbolTableRecord
100
AcDbRegAppTableRecord
  2
ACAD
 70
     0
  0
APPID
  5
2B23
330
2AFE
100
AcDbSymbolTableRecord
100
AcDbRegAppTableRecord
  2
MCAD_NO_VIS
 70
     0
  0
APPID
  5
2B24
330
2AFE
100
AcDbSymbolTableRecord
100
AcDbRegAppTableRecord
  2
ACAD_TEMP_GRAPHIC
 70
     0
  0
APPID
  5
2B25
330
2AFE
100
AcDbSymbolTableRecord
100
AcDbRegAppTableRecord
  2
ACATTRIBSERVICES
 70
     0
  0
ENDTAB
  0
TABLE
  2
DIMSTYLE
  5
2AFF
330
0
100
AcDbSymbolTable
 70
     1
100
AcDbDimStyleTable
 71
     1
340
2B26
  0
DIMSTYLE
105
2B26
330
2AFF
100
AcDbSymbolTableRecord
100
AcDbDimStyleTableRecord
  2
STANDARD
 70
     0
279
     2
340
2B06
  0
ENDTAB
  0
TABLE
  2
BLOCK_RECORD
  5
2AF6
330
0
100
AcDbSymbolTable
 70
     0
  0
BLOCK_RECORD
  5
2B13
102
{ACAD_XDICTIONARY
360
2B37
102
}
330
2AF6
100
AcDbSymbolTableRecord
100
AcDbBlockTableRecord
  2
*Model_Space
340
2B16
  0
BLOCK_RECORD
  5
2B0F
102
{ACAD_XDICTIONARY
360
2B39
102
}
330
2AF6
100
AcDbSymbolTableRecord
100
AcDbBlockTableRecord
  2
*Paper_Space
340
2B12
  0
ENDTAB
  0
ENDSEC
  0
SECTION
  2
BLOCKS
  0
BLOCK
  5
2B14
330
2B13
100
AcDbEntity
  8
0
100
AcDbBlockBegin
  2
*Model_Space
 70
     0
 10
0.0
 20
0.0
 30
0.0
  3
*Model_Space
  1

  0
ENDBLK
  5
2B15
330
2B13
100
AcDbEntity
  8
0
100
AcDbBlockEnd
  0
BLOCK
  5
2B10
330
2B0F
100
AcDbEntity
 67
     1
  8
0
100
AcDbBlockBegin
  2
*Paper_Space
 70
     0
 10
0.0
 20
0.0
 30
0.0
  3
*Paper_Space
  1

  0
ENDBLK
  5
2B11
330
2B0F
100
AcDbEntity
 67
     1
  8
0
100
AcDbBlockEnd
  0
ENDSEC
  0
SECTION
  2
ENTITIES
  0
LINE
  5
13C1
330
2B13
100
AcDbEntity
  8
0
100
AcDbLine
 10
552.5043455644105
 20
224.6976902578044
 30
0.0
 11
529.2052735644107
 21
224.6976902578044
 31
0.0
  0
LINE
  5
13C2
330
2B13
100
AcDbEntity
  8
0
100
AcDbLine
 10
558.1048095644107
 20
235.1976902578044
 30
0.0
 11
558.1048095644107
 21
230.1976902578044
 31
0.0
  0
LINE
  5
13C3
330
2B13
100
AcDbEntity
  8
0
100
AcDbLine
 10
523.6048095644107
 20
235.1976902578044
 30
0.0
 11
523.6048095644107
 21
230.1976902578044
 31
0.0
  0
LINE
  5
13C4
330
2B13
100
AcDbEntity
  8
0
100
AcDbLine
 10
529.2052735644107
 20
230.1976902578044
 30
0.0
 11
529.2052735644107
 21
224.6976902578044
 31
0.0
  0
LINE
  5
13C5
330
2B13
100
AcDbEntity
  8
0
100
AcDbLine
 10
552.5043455644105
 20
230.1976902578044
 30
0.0
 11
552.5043455644105
 21
224.6976902578044
 31
0.0
  0
LINE
  5
13C6
330
2B13
100
AcDbEntity
  8
0
100
AcDbLine
 10
558.1048095644107
 20
230.1976902578044
 30
0.0
 11
523.6048095644107
 21
230.1976902578044
 31
0.0
  0
LINE
  5
13C7
330
2B13
100
AcDbEntity
  8
0
100
AcDbLine
 10
550.8548095644107
 20
285.9992450578045
 30
0.0
 11
550.8548095644107
 21
235.1976902578044
 31
0.0
  0
LINE
  5
13C8
330
2B13
100
AcDbEntity
  8
0
100
AcDbLine
 10
530.8548095644107
 20
285.9992447318064
 30
0.0
 11
530.8548095644107
 21
235.1976902578044
 31
0.0
  0
LINE
  5
13C9
330
2B13
100
AcDbEntity
  8
0
100
AcDbLine
 10
558.1048095644107
 20
243.2269072578044
 30
0.0
 11
558.1048095644107
 21
235.1976902578044
 31
0.0
  0
LINE
  5
13CA
330
2B13
100
AcDbEntity
  8
0
100
AcDbLine
 10
523.6048095644107
 20
243.2269072578044
 30
0.0
 11
523.6048095644107
 21
235.1976902578044
 31
0.0
  0
LINE
  5
13CB
330
2B13
100
AcDbEntity
  8
0
100
AcDbLine
 10
535.854809783754
 20
278.8965236078044
 30
0.0
 11
535.854809783754
 21
274.2599886078036
 31
0.0
  0
LINE
  5
13CC
330
2B13
100
AcDbEntity
  8
0
100
AcDbLine
 10
545.8548097837539
 20
278.8965236078044
 30
0.0
 11
545.8548097837539
 21
274.2599886078036
 31
0.0
  0
LINE
  5
13CD
330
2B13
100
AcDbEntity
  8
0
100
AcDbLine
 10
558.1048095644107
 20
235.1976902578044
 30
0.0
 11
523.6048095644107
 21
235.1976902578044
 31
0.0
  0
ARC
  5
13CE
330
2B13
100
AcDbEntity
  8
0
100
AcDbCircle
 10
540.8548095644107
 20
203.1976902578044
 30
0.0
 40
32.0
100
AcDbArc
 50
122.4617399999994
 51
57.53826099999896
  0
ARC
  5
13D0
330
2B13
100
AcDbEntity
  8
0
100
AcDbCircle
 10
540.8548095644107
 20
188.0368932578044
 30
0.0
 40
60.0
100
AcDbArc
 50
75.52248800000223
 51
104.4775100000028
  0
ARC
  5
13D1
330
2B13
100
AcDbEntity
  8
0
100
AcDbCircle
 10
526.6048095644107
 20
243.2269072578044
 30
0.0
 40
3.0
100
AcDbArc
 50
104.4775100000028
 51
180.0000100000009
  0
ARC
  5
13D2
330
2B13
100
AcDbEntity
  8
0
100
AcDbCircle
 10
555.1048095644107
 20
243.2269072578044
 30
0.0
 40
3.0
100
AcDbArc
 50
0.0
 51
75.52248800000223
  0
ARC
  5
13D3
330
2B13
100
AcDbEntity
  8
0
100
AcDbCircle
 10
528.8548095644107
 20
248.8645182578034
 30
0.0
 40
2.0
100
AcDbArc
 50
281.1599400000003
 51
0.0
  0
ARC
  5
13D4
330
2B13
100
AcDbEntity
  8
0
100
AcDbCircle
 10
552.8548095644107
 20
248.8645182578034
 30
0.0
 40
2.0
100
AcDbArc
 50
179.9999899999988
 51
258.8400699999998
  0
POLYLINE
  5
13D6
330
2B13
100
AcDbEntity
  8
0
100
AcDb3dPolyline
 66
     1
 10
0.0
 20
0.0
 30
0.0
 70
     8
  0
VERTEX
  5
1A52
330
13D6
100
AcDbEntity
  8
0
100
AcDbVertex
100
AcDb3dPolylineVertex
 10
535.8544979613185
 20
274.2576902578034
 30
0.0
 70
    32
  0
VERTEX
  5
1A53
330
13D6
100
AcDbEntity
  8
0
100
AcDbVertex
100
AcDb3dPolylineVertex
 10
535.8564979613182
 20
274.1876902578044
 30
0.0
 70
    32
  0
VERTEX
  5
1A54
330
13D6
100
AcDbEntity
  8
0
100
AcDbVertex
100
AcDb3dPolylineVertex
 10
535.8604979613184
 20
274.1176902578045
 30
0.0
 70
    32
  0
VERTEX
  5
1A55
330
13D6
100
AcDbEntity
  8
0
100
AcDbVertex
100
AcDb3dPolylineVertex
 10
535.8684979613185
 20
274.0476902578042
 30
0.0
 70
    32
  0
VERTEX
  5
1A56
330
13D6
100
AcDbEntity
  8
0
100
AcDbVertex
100
AcDb3dPolylineVertex
 10
535.8784979613185
 20
273.9776902578037
 30
0.0
 70
    32
  0
VERTEX
  5
1A57
330
13D6
100
AcDbEntity
  8
0
100
AcDbVertex
100
AcDb3dPolylineVertex
 10
535.8924979613183
 20
273.9076902578044
 30
0.0
 70
    32
  0
VERTEX
  5
1A58
330
13D6
100
AcDbEntity
  8
0
100
AcDbVertex
100
AcDb3dPolylineVertex
 10
535.9084979613185
 20
273.8376902578044
 30
0.0
 70
    32
  0
VERTEX
  5
1A59
330
13D6
100
AcDbEntity
  8
0
100
AcDbVertex
100
AcDb3dPolylineVertex
 10
535.9284979613184
 20
273.7676902578042
 30
0.0
 70
    32
  0
VERTEX
  5
1A5A
330
13D6
100
AcDbEntity
  8
0
100
AcDbVertex
100
AcDb3dPolylineVertex
 10
535.9504979613183
 20
273.6976902578044
 30
0.0
 70
    32
  0
VERTEX
  5
1A5B
330
13D6
100
AcDbEntity
  8
0
100
AcDbVertex
100
AcDb3dPolylineVertex
 10
535.9764979613185
 20
273.6276902578044
 30
0.0
 70
    32
  0
VERTEX
  5
1A5C
330
13D6
100
AcDbEntity
  8
0
100
AcDbVertex
100
AcDb3dPolylineVertex
 10
536.0044979613185
 20
273.5576902578034
 30
0.0
 70
    32
  0
VERTEX
  5
1A5D
330
13D6
100
AcDbEntity
  8
0
100
AcDbVertex
100
AcDb3dPolylineVertex
 10
536.0354979613183
 20
273.4876902578042
 30
0.0
 70
    32
  0
VERTEX
  5
1A5E
330
13D6
100
AcDbEntity
  8
0
100
AcDbVertex
100
AcDb3dPolylineVertex
 10
536.0704979613185
 20
273.4176902578044
 30
0.0
 70
    32
  0
VERTEX
  5
1A5F
330
13D6
100
AcDbEntity
  8
0
100
AcDbVertex
100
AcDb3dPolylineVertex
 10
536.1074979613182
 20
273.3576902578044
 30
0.0
 70
    32
  0
VERTEX
  5
1A60
330
13D6
100
AcDbEntity
  8
0
100
AcDbVertex
100
AcDb3dPolylineVertex
 10
536.1474979613185
 20
273.2876902578043
 30
0.0
 70
    32
  0
VERTEX
  5
1A61
330
13D6
100
AcDbEntity
  8
0
100
AcDbVertex
100
AcDb3dPolylineVertex
 10
536.1894979613183
 20
273.2176902578044
 30
0.0
 70
    32
  0
VERTEX
  5
1A62
330
13D6
100
AcDbEntity
  8
0
100
AcDbVertex
100
AcDb3dPolylineVertex
 10
536.2354979613185
 20
273.1576902578044
 30
0.0
 70
    32
  0
VERTEX
  5
1A63
330
13D6
100
AcDbEntity
  8
0
100
AcDbVertex
100
AcDb3dPolylineVertex
 10
536.2834979613185
 20
273.0876902578044
 30
0.0
 70
    32
  0
VERTEX
  5
1A64
330
13D6
100
AcDbEntity
  8
0
100
AcDbVertex
100
AcDb3dPolylineVertex
 10
536.3344979613185
 20
273.0276902578042
 30
0.0
 70
    32
  0
VERTEX
  5
1A65
330
13D6
100
AcDbEntity
  8
0
100
AcDbVertex
100
AcDb3dPolylineVertex
 10
536.3884979613185
 20
272.9576902578044
 30
0.0
 70
    32
  0
VERTEX
  5
1A66
330
13D6
100
AcDbEntity
  8
0
100
AcDbVertex
100
AcDb3dPolylineVertex
 10
536.4454979613185
 20
272.8976902578021
 30
0.0
 70
    32
  0
VERTEX
  5
1A67
330
13D6
100
AcDbEntity
  8
0
100
AcDbVertex
100
AcDb3dPolylineVertex
 10
536.5044979613185
 20
272.8376902578044
 30
0.0
 70
    32
  0
VERTEX
  5
1A68
330
13D6
100
AcDbEntity
  8
0
100
AcDbVertex
100
AcDb3dPolylineVertex
 10
536.5664979613185
 20
272.7776902578034
 30
0.0
 70
    32
  0
VERTEX
  5
1A69
330
13D6
100
AcDbEntity
  8
0
100
AcDbVertex
100
AcDb3dPolylineVertex
 10
536.6304979613182
 20
272.7176902578043
 30
0.0
 70
    32
  0
VERTEX
  5
1A6A
330
13D6
100
AcDbEntity
  8
0
100
AcDbVertex
100
AcDb3dPolylineVertex
 10
536.6974979613185
 20
272.6576902578043
 30
0.0
 70
    32
  0
VERTEX
  5
1A6B
330
13D6
100
AcDbEntity
  8
0
100
AcDbVertex
100
AcDb3dPolylineVertex
 10
536.7664979613183
 20
272.5976902578044
 30
0.0
 70
    32
  0
VERTEX
  5
1A6C
330
13D6
100
AcDbEntity
  8
0
100
AcDbVertex
100
AcDb3dPolylineVertex
 10
536.8384979613185
 20
272.5376902578042
 30
0.0
 70
    32
  0
VERTEX
  5
1A6D
330
13D6
100
AcDbEntity
  8
0
100
AcDbVertex
100
AcDb3dPolylineVertex
 10
536.9134979613185
 20
272.4876902578042
 30
0.0
 70
    32
  0
VERTEX
  5
1A6E
330
13D6
100
AcDbEntity
  8
0
100
AcDbVertex
100
AcDb3dPolylineVertex
 10
536.9894979613185
 20
272.4276902578036
 30
0.0
 70
    32
  0
VERTEX
  5
1A6F
330
13D6
100
AcDbEntity
  8
0
100
AcDbVertex
100
AcDb3dPolylineVertex
 10
537.0684979613184
 20
272.3776902578044
 30
0.0
 70
    32
  0
VERTEX
  5
1A70
330
13D6
100
AcDbEntity
  8
0
100
AcDbVertex
100
AcDb3dPolylineVertex
 10
537.1504979613185
 20
272.3176902578034
 30
0.0
 70
    32
  0
VERTEX
  5
1A71
330
13D6
100
AcDbEntity
  8
0
100
AcDbVertex
100
AcDb3dPolylineVertex
 10
537.2334979613185
 20
272.2676902578043
 30
0.0
 70
    32
  0
VERTEX
  5
1A72
330
13D6
100
AcDbEntity
  8
0
100
AcDbVertex
100
AcDb3dPolylineVertex
 10
537.3194979613185
 20
272.2176902578044
 30
0.0
 70
    32
  0
VERTEX
  5
1A73
330
13D6
100
AcDbEntity
  8
0
100
AcDbVertex
100
AcDb3dPolylineVertex
 10
537.4074979613182
 20
272.1676902578043
 30
0.0
 70
    32
  0
VERTEX
  5
1A74
330
13D6
100
AcDbEntity
  8
0
100
AcDbVertex
100
AcDb3dPolylineVertex
 10
537.4974979613183
 20
272.117690257803
 30
0.0
 70
    32
  0
VERTEX
  5
1A75
330
13D6
100
AcDbEntity
  8
0
100
AcDbVertex
100
AcDb3dPolylineVertex
 10
537.5884979613186
 20
272.0776902578044
 30
0.0
 70
    32
  0
VERTEX
  5
1A76
330
13D6
100
AcDbEntity
  8
0
100
AcDbVertex
100
AcDb3dPolylineVertex
 10
537.6824979613185
 20
272.0276902578033
 30
0.0
 70
    32
  0
VERTEX
  5
1A77
330
13D6
100
AcDbEntity
  8
0
100
AcDbVertex
100
AcDb3dPolylineVertex
 10
537.7784979613185
 20
271.9876902578036
 30
0.0
 70
    32
  0
VERTEX
  5
1A78
330
13D6
100
AcDbEntity
  8
0
100
AcDbVertex
100
AcDb3dPolylineVertex
 10
537.8764979613182
 20
271.9376902578044
 30
0.0
 70
    32
  0
VERTEX
  5
1A79
330
13D6
100
AcDbEntity
  8
0
100
AcDbVertex
100
AcDb3dPolylineVertex
 10
537.9754979613185
 20
271.8976902578044
 30
0.0
 70
    32
  0
VERTEX
  5
1A7A
330
13D6
100
AcDbEntity
  8
0
100
AcDbVertex
100
AcDb3dPolylineVertex
 10
538.0764979613185
 20
271.8576902578044
 30
0.0
 70
    32
  0
VERTEX
  5
1A7B
330
13D6
100
AcDbEntity
  8
0
100
AcDbVertex
100
AcDb3dPolylineVertex
 10
538.1794979613183
 20
271.8176902578022
 30
0.0
 70
    32
  0
VERTEX
  5
1A7C
330
13D6
100
AcDbEntity
  8
0
100
AcDbVertex
100
AcDb3dPolylineVertex
 10
538.2844979613182
 20
271.7876902578042
 30
0.0
 70
    32
  0
VERTEX
  5
1A7D
330
13D6
100
AcDbEntity
  8
0
100
AcDbVertex
100
AcDb3dPolylineVertex
 10
538.3904979613182
 20
271.7476902578043
 30
0.0
 70
    32
  0
VERTEX
  5
1A7E
330
13D6
100
AcDbEntity
  8
0
100
AcDbVertex
100
AcDb3dPolylineVertex
 10
538.4974979613183
 20
271.7176902578044
 30
0.0
 70
    32
  0
VERTEX
  5
1A7F
330
13D6
100
AcDbEntity
  8
0
100
AcDbVertex
100
AcDb3dPolylineVertex
 10
538.6064979613182
 20
271.6776902578037
 30
0.0
 70
    32
  0
VERTEX
  5
1A80
330
13D6
100
AcDbEntity
  8
0
100
AcDbVertex
100
AcDb3dPolylineVertex
 10
538.7174979613185
 20
271.6476902578022
 30
0.0
 70
    32
  0
VERTEX
  5
1A81
330
13D6
100
AcDbEntity
  8
0
100
AcDbVertex
100
AcDb3dPolylineVertex
 10
538.8284979613182
 20
271.6176902578045
 30
0.0
 70
    32
  0
VERTEX
  5
1A82
330
13D6
100
AcDbEntity
  8
0
100
AcDbVertex
100
AcDb3dPolylineVertex
 10
538.9414979613185
 20
271.5976902578044
 30
0.0
 70
    32
  0
VERTEX
  5
1A83
330
13D6
100
AcDbEntity
  8
0
100
AcDbVertex
100
AcDb3dPolylineVertex
 10
539.0554979613185
 20
271.5676902578034
 30
0.0
 70
    32
  0
VERTEX
  5
1A84
330
13D6
100
AcDbEntity
  8
0
100
AcDbVertex
100
AcDb3dPolylineVertex
 10
539.1704979613185
 20
271.5376902578033
 30
0.0
 70
    32
  0
VERTEX
  5
1A85
330
13D6
100
AcDbEntity
  8
0
100
AcDbVertex
100
AcDb3dPolylineVertex
 10
539.2864979613185
 20
271.5176902578043
 30
0.0
 70
    32
  0
VERTEX
  5
1A86
330
13D6
100
AcDbEntity
  8
0
100
AcDbVertex
100
AcDb3dPolylineVertex
 10
539.4034979613182
 20
271.4976902578043
 30
0.0
 70
    32
  0
VERTEX
  5
1A87
330
13D6
100
AcDbEntity
  8
0
100
AcDbVertex
100
AcDb3dPolylineVertex
 10
539.5214979613183
 20
271.4776902578043
 30
0.0
 70
    32
  0
VERTEX
  5
1A88
330
13D6
100
AcDbEntity
  8
0
100
AcDbVertex
100
AcDb3dPolylineVertex
 10
539.6394979613185
 20
271.4576902578044
 30
0.0
 70
    32
  0
VERTEX
  5
1A89
330
13D6
100
AcDbEntity
  8
0
100
AcDbVertex
100
AcDb3dPolylineVertex
 10
539.7594979613184
 20
271.4476902578044
 30
0.0
 70
    32
  0
VERTEX
  5
1A8A
330
13D6
100
AcDbEntity
  8
0
100
AcDbVertex
100
AcDb3dPolylineVertex
 10
539.8794979613183
 20
271.4276902578043
 30
0.0
 70
    32
  0
VERTEX
  5
1A8B
330
13D6
100
AcDbEntity
  8
0
100
AcDbVertex
100
AcDb3dPolylineVertex
 10
540.0004979613185
 20
271.4176902578044
 30
0.0
 70
    32
  0
VERTEX
  5
1A8C
330
13D6
100
AcDbEntity
  8
0
100
AcDbVertex
100
AcDb3dPolylineVertex
 10
540.1214979613182
 20
271.4076902578044
 30
0.0
 70
    32
  0
VERTEX
  5
1A8D
330
13D6
100
AcDbEntity
  8
0
100
AcDbVertex
100
AcDb3dPolylineVertex
 10
540.2424979613186
 20
271.3976902578044
 30
0.0
 70
    32
  0
VERTEX
  5
1A8E
330
13D6
100
AcDbEntity
  8
0
100
AcDbVertex
100
AcDb3dPolylineVertex
 10
540.3644979613185
 20
271.3876902578044
 30
0.0
 70
    32
  0
VERTEX
  5
1A8F
330
13D6
100
AcDbEntity
  8
0
100
AcDbVertex
100
AcDb3dPolylineVertex
 10
540.4864979613185
 20
271.3776902578044
 30
0.0
 70
    32
  0
VERTEX
  5
1A90
330
13D6
100
AcDbEntity
  8
0
100
AcDbVertex
100
AcDb3dPolylineVertex
 10
540.6094979613185
 20
271.3776902578044
 30
0.0
 70
    32
  0
VERTEX
  5
1A91
330
13D6
100
AcDbEntity
  8
0
100
AcDbVertex
100
AcDb3dPolylineVertex
 10
540.7324979613186
 20
271.3776902578044
 30
0.0
 70
    32
  0
VERTEX
  5
1A92
330
13D6
100
AcDbEntity
  8
0
100
AcDbVertex
100
AcDb3dPolylineVertex
 10
540.8544979613185
 20
271.3776902578044
 30
0.0
 70
    32
  0
VERTEX
  5
1A93
330
13D6
100
AcDbEntity
  8
0
100
AcDbVertex
100
AcDb3dPolylineVertex
 10
540.9774979613183
 20
271.3776902578044
 30
0.0
 70
    32
  0
VERTEX
  5
1A94
330
13D6
100
AcDbEntity
  8
0
100
AcDbVertex
100
AcDb3dPolylineVertex
 10
541.1004979613185
 20
271.3776902578044
 30
0.0
 70
    32
  0
VERTEX
  5
1A95
330
13D6
100
AcDbEntity
  8
0
100
AcDbVertex
100
AcDb3dPolylineVertex
 10
541.2224979613182
 20
271.3776902578044
 30
0.0
 70
    32
  0
VERTEX
  5
1A96
330
13D6
100
AcDbEntity
  8
0
100
AcDbVertex
100
AcDb3dPolylineVertex
 10
541.3444979613183
 20
271.3876902578044
 30
0.0
 70
    32
  0
VERTEX
  5
1A97
330
13D6
100
AcDbEntity
  8
0
100
AcDbVertex
100
AcDb3dPolylineVertex
 10
541.4664979613185
 20
271.3976902578044
 30
0.0
 70
    32
  0
VERTEX
  5
1A98
330
13D6
100
AcDbEntity
  8
0
100
AcDbVertex
100
AcDb3dPolylineVertex
 10
541.5884979613183
 20
271.4076902578044
 30
0.0
 70
    32
  0
VERTEX
  5
1A99
330
13D6
100
AcDbEntity
  8
0
100
AcDbVertex
100
AcDb3dPolylineVertex
 10
541.7094979613185
 20
271.4176902578044
 30
0.0
 70
    32
  0
VERTEX
  5
1A9A
330
13D6
100
AcDbEntity
  8
0
100
AcDbVertex
100
AcDb3dPolylineVertex
 10
541.8304979613185
 20
271.4276902578043
 30
0.0
 70
    32
  0
VERTEX
  5
1A9B
330
13D6
100
AcDbEntity
  8
0
100
AcDbVertex
100
AcDb3dPolylineVertex
 10
541.9504979613183
 20
271.4476902578044
 30
0.0
 70
    32
  0
VERTEX
  5
1A9C
330
13D6
100
AcDbEntity
  8
0
100
AcDbVertex
100
AcDb3dPolylineVertex
 10
542.0694979613183
 20
271.4576902578044
 30
0.0
 70
    32
  0
VERTEX
  5
1A9D
330
13D6
100
AcDbEntity
  8
0
100
AcDbVertex
100
AcDb3dPolylineVertex
 10
542.1884979613182
 20
271.4776902578043
 30
0.0
 70
    32
  0
VERTEX
  5
1A9E
330
13D6
100
AcDbEntity
  8
0
100
AcDbVertex
100
AcDb3dPolylineVertex
 10
542.3064979613183
 20
271.4976902578043
 30
0.0
 70
    32
  0
VERTEX
  5
1A9F
330
13D6
100
AcDbEntity
  8
0
100
AcDbVertex
100
AcDb3dPolylineVertex
 10
542.4234979613185
 20
271.5176902578043
 30
0.0
 70
    32
  0
VERTEX
  5
1AA0
330
13D6
100
AcDbEntity
  8
0
100
AcDbVertex
100
AcDb3dPolylineVertex
 10
542.5394979613184
 20
271.5376902578033
 30
0.0
 70
    32
  0
VERTEX
  5
1AA1
330
13D6
100
AcDbEntity
  8
0
100
AcDbVertex
100
AcDb3dPolylineVertex
 10
542.6544979613184
 20
271.5676902578034
 30
0.0
 70
    32
  0
VERTEX
  5
1AA2
330
13D6
100
AcDbEntity
  8
0
100
AcDbVertex
100
AcDb3dPolylineVertex
 10
542.7684979613185
 20
271.5976902578044
 30
0.0
 70
    32
  0
VERTEX
  5
1AA3
330
13D6
100
AcDbEntity
  8
0
100
AcDbVertex
100
AcDb3dPolylineVertex
 10
542.8814979613185
 20
271.6176902578045
 30
0.0
 70
    32
  0
VERTEX
  5
1AA4
330
13D6
100
AcDbEntity
  8
0
100
AcDbVertex
100
AcDb3dPolylineVertex
 10
542.9924979613183
 20
271.6476902578022
 30
0.0
 70
    32
  0
VERTEX
  5
1AA5
330
13D6
100
AcDbEntity
  8
0
100
AcDbVertex
100
AcDb3dPolylineVertex
 10
543.1024979613185
 20
271.6776902578037
 30
0.0
 70
    32
  0
VERTEX
  5
1AA6
330
13D6
100
AcDbEntity
  8
0
100
AcDbVertex
100
AcDb3dPolylineVertex
 10
543.2114979613185
 20
271.7176902578044
 30
0.0
 70
    32
  0
VERTEX
  5
1AA7
330
13D6
100
AcDbEntity
  8
0
100
AcDbVertex
100
AcDb3dPolylineVertex
 10
543.3194979613183
 20
271.7476902578043
 30
0.0
 70
    32
  0
VERTEX
  5
1AA8
330
13D6
100
AcDbEntity
  8
0
100
AcDbVertex
100
AcDb3dPolylineVertex
 10
543.4254979613184
 20
271.7876902578042
 30
0.0
 70
    32
  0
VERTEX
  5
1AA9
330
13D6
100
AcDbEntity
  8
0
100
AcDbVertex
100
AcDb3dPolylineVertex
 10
543.5294979613185
 20
271.8176902578022
 30
0.0
 70
    32
  0
VERTEX
  5
1AAA
330
13D6
100
AcDbEntity
  8
0
100
AcDbVertex
100
AcDb3dPolylineVertex
 10
543.6324979613186
 20
271.8576902578044
 30
0.0
 70
    32
  0
VERTEX
  5
1AAB
330
13D6
100
AcDbEntity
  8
0
100
AcDbVertex
100
AcDb3dPolylineVertex
 10
543.7334979613186
 20
271.8976902578044
 30
0.0
 70
    32
  0
VERTEX
  5
1AAC
330
13D6
100
AcDbEntity
  8
0
100
AcDbVertex
100
AcDb3dPolylineVertex
 10
543.8334979613183
 20
271.9376902578044
 30
0.0
 70
    32
  0
VERTEX
  5
1AAD
330
13D6
100
AcDbEntity
  8
0
100
AcDbVertex
100
AcDb3dPolylineVertex
 10
543.9304979613186
 20
271.9876902578036
 30
0.0
 70
    32
  0
VERTEX
  5
1AAE
330
13D6
100
AcDbEntity
  8
0
100
AcDbVertex
100
AcDb3dPolylineVertex
 10
544.0264979613182
 20
272.0276902578033
 30
0.0
 70
    32
  0
VERTEX
  5
1AAF
330
13D6
100
AcDbEntity
  8
0
100
AcDbVertex
100
AcDb3dPolylineVertex
 10
544.1204979613185
 20
272.0776902578044
 30
0.0
 70
    32
  0
VERTEX
  5
1AB0
330
13D6
100
AcDbEntity
  8
0
100
AcDbVertex
100
AcDb3dPolylineVertex
 10
544.2124979613184
 20
272.117690257803
 30
0.0
 70
    32
  0
VERTEX
  5
1AB1
330
13D6
100
AcDbEntity
  8
0
100
AcDbVertex
100
AcDb3dPolylineVertex
 10
544.3024979613185
 20
272.1676902578043
 30
0.0
 70
    32
  0
VERTEX
  5
1AB2
330
13D6
100
AcDbEntity
  8
0
100
AcDbVertex
100
AcDb3dPolylineVertex
 10
544.3904979613185
 20
272.2176902578044
 30
0.0
 70
    32
  0
VERTEX
  5
1AB3
330
13D6
100
AcDbEntity
  8
0
100
AcDbVertex
100
AcDb3dPolylineVertex
 10
544.4764979613185
 20
272.2676902578043
 30
0.0
 70
    32
  0
VERTEX
  5
1AB4
330
13D6
100
AcDbEntity
  8
0
100
AcDbVertex
100
AcDb3dPolylineVertex
 10
544.5594979613183
 20
272.3176902578034
 30
0.0
 70
    32
  0
VERTEX
  5
1AB5
330
13D6
100
AcDbEntity
  8
0
100
AcDbVertex
100
AcDb3dPolylineVertex
 10
544.6404979613182
 20
272.3776902578044
 30
0.0
 70
    32
  0
VERTEX
  5
1AB6
330
13D6
100
AcDbEntity
  8
0
100
AcDbVertex
100
AcDb3dPolylineVertex
 10
544.7194979613183
 20
272.4276902578036
 30
0.0
 70
    32
  0
VERTEX
  5
1AB7
330
13D6
100
AcDbEntity
  8
0
100
AcDbVertex
100
AcDb3dPolylineVertex
 10
544.7964979613183
 20
272.4876902578042
 30
0.0
 70
    32
  0
VERTEX
  5
1AB8
330
13D6
100
AcDbEntity
  8
0
100
AcDbVertex
100
AcDb3dPolylineVertex
 10
544.8704979613185
 20
272.5376902578042
 30
0.0
 70
    32
  0
VERTEX
  5
1AB9
330
13D6
100
AcDbEntity
  8
0
100
AcDbVertex
100
AcDb3dPolylineVertex
 10
544.9424979613182
 20
272.5976902578044
 30
0.0
 70
    32
  0
VERTEX
  5
1ABA
330
13D6
100
AcDbEntity
  8
0
100
AcDbVertex
100
AcDb3dPolylineVertex
 10
545.0124979613185
 20
272.6576902578043
 30
0.0
 70
    32
  0
VERTEX
  5
1ABB
330
13D6
100
AcDbEntity
  8
0
100
AcDbVertex
100
AcDb3dPolylineVertex
 10
545.0794979613185
 20
272.7176902578043
 30
0.0
 70
    32
  0
VERTEX
  5
1ABC
330
13D6
100
AcDbEntity
  8
0
100
AcDbVertex
100
AcDb3dPolylineVertex
 10
545.1434979613185
 20
272.7776902578034
 30
0.0
 70
    32
  0
VERTEX
  5
1ABD
330
13D6
100
AcDbEntity
  8
0
100
AcDbVertex
100
AcDb3dPolylineVertex
 10
545.2054979613185
 20
272.8376902578044
 30
0.0
 70
    32
  0
VERTEX
  5
1ABE
330
13D6
100
AcDbEntity
  8
0
100
AcDbVertex
100
AcDb3dPolylineVertex
 10
545.2644979613185
 20
272.8976902578021
 30
0.0
 70
    32
  0
VERTEX
  5
1ABF
330
13D6
100
AcDbEntity
  8
0
100
AcDbVertex
100
AcDb3dPolylineVertex
 10
545.3204979613185
 20
272.9576902578044
 30
0.0
 70
    32
  0
VERTEX
  5
1AC0
330
13D6
100
AcDbEntity
  8
0
100
AcDbVertex
100
AcDb3dPolylineVertex
 10
545.3744979613185
 20
273.0276902578042
 30
0.0
 70
    32
  0
VERTEX
  5
1AC1
330
13D6
100
AcDbEntity
  8
0
100
AcDbVertex
100
AcDb3dPolylineVertex
 10
545.4254979613184
 20
273.0876902578044
 30
0.0
 70
    32
  0
VERTEX
  5
1AC2
330
13D6
100
AcDbEntity
  8
0
100
AcDbVertex
100
AcDb3dPolylineVertex
 10
545.4744979613185
 20
273.1576902578044
 30
0.0
 70
    32
  0
VERTEX
  5
1AC3
330
13D6
100
AcDbEntity
  8
0
100
AcDbVertex
100
AcDb3dPolylineVertex
 10
545.5194979613184
 20
273.2176902578044
 30
0.0
 70
    32
  0
VERTEX
  5
1AC4
330
13D6
100
AcDbEntity
  8
0
100
AcDbVertex
100
AcDb3dPolylineVertex
 10
545.5624979613185
 20
273.2876902578043
 30
0.0
 70
    32
  0
VERTEX
  5
1AC5
330
13D6
100
AcDbEntity
  8
0
100
AcDbVertex
100
AcDb3dPolylineVertex
 10
545.6024979613183
 20
273.3576902578044
 30
0.0
 70
    32
  0
VERTEX
  5
1AC6
330
13D6
100
AcDbEntity
  8
0
100
AcDbVertex
100
AcDb3dPolylineVertex
 10
545.6394979613182
 20
273.4176902578044
 30
0.0
 70
    32
  0
VERTEX
  5
1AC7
330
13D6
100
AcDbEntity
  8
0
100
AcDbVertex
100
AcDb3dPolylineVertex
 10
545.6734979613185
 20
273.4876902578042
 30
0.0
 70
    32
  0
VERTEX
  5
1AC8
330
13D6
100
AcDbEntity
  8
0
100
AcDbVertex
100
AcDb3dPolylineVertex
 10
545.7044979613185
 20
273.5576902578034
 30
0.0
 70
    32
  0
VERTEX
  5
1AC9
330
13D6
100
AcDbEntity
  8
0
100
AcDbVertex
100
AcDb3dPolylineVertex
 10
545.7334979613185
 20
273.6276902578044
 30
0.0
 70
    32
  0
VERTEX
  5
1ACA
330
13D6
100
AcDbEntity
  8
0
100
AcDbVertex
100
AcDb3dPolylineVertex
 10
545.7584979613185
 20
273.6976902578044
 30
0.0
 70
    32
  0
VERTEX
  5
1ACB
330
13D6
100
AcDbEntity
  8
0
100
AcDbVertex
100
AcDb3dPolylineVertex
 10
545.7814979613186
 20
273.7676902578042
 30
0.0
 70
    32
  0
VERTEX
  5
1ACC
330
13D6
100
AcDbEntity
  8
0
100
AcDbVertex
100
AcDb3dPolylineVertex
 10
545.8004979613185
 20
273.8376902578044
 30
0.0
 70
    32
  0
VERTEX
  5
1ACD
330
13D6
100
AcDbEntity
  8
0
100
AcDbVertex
100
AcDb3dPolylineVertex
 10
545.8174979613183
 20
273.9076902578044
 30
0.0
 70
    32
  0
VERTEX
  5
1ACE
330
13D6
100
AcDbEntity
  8
0
100
AcDbVertex
100
AcDb3dPolylineVertex
 10
545.8304979613185
 20
273.9776902578037
 30
0.0
 70
    32
  0
VERTEX
  5
1ACF
330
13D6
100
AcDbEntity
  8
0
100
AcDbVertex
100
AcDb3dPolylineVertex
 10
545.8414979613182
 20
274.0476902578042
 30
0.0
 70
    32
  0
VERTEX
  5
1AD0
330
13D6
100
AcDbEntity
  8
0
100
AcDbVertex
100
AcDb3dPolylineVertex
 10
545.8484979613184
 20
274.1176902578045
 30
0.0
 70
    32
  0
VERTEX
  5
1AD1
330
13D6
100
AcDbEntity
  8
0
100
AcDbVertex
100
AcDb3dPolylineVertex
 10
545.8534979613185
 20
274.1876902578044
 30
0.0
 70
    32
  0
VERTEX
  5
1AD2
330
13D6
100
AcDbEntity
  8
0
100
AcDbVertex
100
AcDb3dPolylineVertex
 10
545.8544979613185
 20
274.2576902578034
 30
0.0
 70
    32
  0
SEQEND
  5
1AD3
330
13D6
100
AcDbEntity
  8
0
  0
POLYLINE
  5
13D7
330
2B13
100
AcDbEntity
  8
0
100
AcDb3dPolyline
 66
     1
 10
0.0
 20
0.0
 30
0.0
 70
     8
  0
VERTEX
  5
1AD4
330
13D7
100
AcDbEntity
  8
0
100
AcDbVertex
100
AcDb3dPolylineVertex
 10
545.8544979613185
 20
278.8976902578044
 30
0.0
 70
    32
  0
VERTEX
  5
1AD5
330
13D7
100
AcDbEntity
  8
0
100
AcDbVertex
100
AcDb3dPolylineVertex
 10
545.8534979613185
 20
278.9676902578036
 30
0.0
 70
    32
  0
VERTEX
  5
1AD6
330
13D7
100
AcDbEntity
  8
0
100
AcDbVertex
100
AcDb3dPolylineVertex
 10
545.8484979613184
 20
279.0376902578033
 30
0.0
 70
    32
  0
VERTEX
  5
1AD7
330
13D7
100
AcDbEntity
  8
0
100
AcDbVertex
100
AcDb3dPolylineVertex
 10
545.8414979613182
 20
279.1076902578044
 30
0.0
 70
    32
  0
VERTEX
  5
1AD8
330
13D7
100
AcDbEntity
  8
0
100
AcDbVertex
100
AcDb3dPolylineVertex
 10
545.8304979613185
 20
279.1776902578043
 30
0.0
 70
    32
  0
VERTEX
  5
1AD9
330
13D7
100
AcDbEntity
  8
0
100
AcDbVertex
100
AcDb3dPolylineVertex
 10
545.8174979613183
 20
279.2476902578044
 30
0.0
 70
    32
  0
VERTEX
  5
1ADA
330
13D7
100
AcDbEntity
  8
0
100
AcDbVertex
100
AcDb3dPolylineVertex
 10
545.8004979613185
 20
279.3176902578043
 30
0.0
 70
    32
  0
VERTEX
  5
1ADB
330
13D7
100
AcDbEntity
  8
0
100
AcDbVertex
100
AcDb3dPolylineVertex
 10
545.7814979613186
 20
279.3876902578044
 30
0.0
 70
    32
  0
VERTEX
  5
1ADC
330
13D7
100
AcDbEntity
  8
0
100
AcDbVertex
100
AcDb3dPolylineVertex
 10
545.7584979613185
 20
279.4576902578044
 30
0.0
 70
    32
  0
VERTEX
  5
1ADD
330
13D7
100
AcDbEntity
  8
0
100
AcDbVertex
100
AcDb3dPolylineVertex
 10
545.7334979613185
 20
279.5276902578042
 30
0.0
 70
    32
  0
VERTEX
  5
1ADE
330
13D7
100
AcDbEntity
  8
0
100
AcDbVertex
100
AcDb3dPolylineVertex
 10
545.7044979613185
 20
279.5976902578044
 30
0.0
 70
    32
  0
VERTEX
  5
1ADF
330
13D7
100
AcDbEntity
  8
0
100
AcDbVertex
100
AcDb3dPolylineVertex
 10
545.6734979613185
 20
279.6676902578044
 30
0.0
 70
    32
  0
VERTEX
  5
1AE0
330
13D7
100
AcDbEntity
  8
0
100
AcDbVertex
100
AcDb3dPolylineVertex
 10
545.6394979613182
 20
279.7376902578042
 30
0.0
 70
    32
  0
VERTEX
  5
1AE1
330
13D7
100
AcDbEntity
  8
0
100
AcDbVertex
100
AcDb3dPolylineVertex
 10
545.6024979613183
 20
279.7976902578034
 30
0.0
 70
    32
  0
VERTEX
  5
1AE2
330
13D7
100
AcDbEntity
  8
0
100
AcDbVertex
100
AcDb3dPolylineVertex
 10
545.5624979613185
 20
279.8676902578045
 30
0.0
 70
    32
  0
VERTEX
  5
1AE3
330
13D7
100
AcDbEntity
  8
0
100
AcDbVertex
100
AcDb3dPolylineVertex
 10
545.5194979613184
 20
279.9376902578044
 30
0.0
 70
    32
  0
VERTEX
  5
1AE4
330
13D7
100
AcDbEntity
  8
0
100
AcDbVertex
100
AcDb3dPolylineVertex
 10
545.4744979613185
 20
279.9976902578043
 30
0.0
 70
    32
  0
VERTEX
  5
1AE5
330
13D7
100
AcDbEntity
  8
0
100
AcDbVertex
100
AcDb3dPolylineVertex
 10
545.4254979613184
 20
280.0676902578043
 30
0.0
 70
    32
  0
VERTEX
  5
1AE6
330
13D7
100
AcDbEntity
  8
0
100
AcDbVertex
100
AcDb3dPolylineVertex
 10
545.3744979613185
 20
280.1276902578044
 30
0.0
 70
    32
  0
VERTEX
  5
1AE7
330
13D7
100
AcDbEntity
  8
0
100
AcDbVertex
100
AcDb3dPolylineVertex
 10
545.3204979613185
 20
280.1976902578044
 30
0.0
 70
    32
  0
VERTEX
  5
1AE8
330
13D7
100
AcDbEntity
  8
0
100
AcDbVertex
100
AcDb3dPolylineVertex
 10
545.2644979613185
 20
280.2576902578034
 30
0.0
 70
    32
  0
VERTEX
  5
1AE9
330
13D7
100
AcDbEntity
  8
0
100
AcDbVertex
100
AcDb3dPolylineVertex
 10
545.2054979613185
 20
280.3176902578043
 30
0.0
 70
    32
  0
VERTEX
  5
1AEA
330
13D7
100
AcDbEntity
  8
0
100
AcDbVertex
100
AcDb3dPolylineVertex
 10
545.1434979613185
 20
280.3776902578044
 30
0.0
 70
    32
  0
VERTEX
  5
1AEB
330
13D7
100
AcDbEntity
  8
0
100
AcDbVertex
100
AcDb3dPolylineVertex
 10
545.0794979613185
 20
280.4376902578044
 30
0.0
 70
    32
  0
VERTEX
  5
1AEC
330
13D7
100
AcDbEntity
  8
0
100
AcDbVertex
100
AcDb3dPolylineVertex
 10
545.0124979613185
 20
280.4976902578022
 30
0.0
 70
    32
  0
VERTEX
  5
1AED
330
13D7
100
AcDbEntity
  8
0
100
AcDbVertex
100
AcDb3dPolylineVertex
 10
544.9424979613182
 20
280.5576902578043
 30
0.0
 70
    32
  0
VERTEX
  5
1AEE
330
13D7
100
AcDbEntity
  8
0
100
AcDbVertex
100
AcDb3dPolylineVertex
 10
544.8704979613185
 20
280.6176902578044
 30
0.0
 70
    32
  0
VERTEX
  5
1AEF
330
13D7
100
AcDbEntity
  8
0
100
AcDbVertex
100
AcDb3dPolylineVertex
 10
544.7964979613183
 20
280.6676902578043
 30
0.0
 70
    32
  0
VERTEX
  5
1AF0
330
13D7
100
AcDbEntity
  8
0
100
AcDbVertex
100
AcDb3dPolylineVertex
 10
544.7194979613183
 20
280.7276902578044
 30
0.0
 70
    32
  0
VERTEX
  5
1AF1
330
13D7
100
AcDbEntity
  8
0
100
AcDbVertex
100
AcDb3dPolylineVertex
 10
544.6404979613182
 20
280.7776902578043
 30
0.0
 70
    32
  0
VERTEX
  5
1AF2
330
13D7
100
AcDbEntity
  8
0
100
AcDbVertex
100
AcDb3dPolylineVertex
 10
544.5594979613183
 20
280.8376902578044
 30
0.0
 70
    32
  0
VERTEX
  5
1AF3
330
13D7
100
AcDbEntity
  8
0
100
AcDbVertex
100
AcDb3dPolylineVertex
 10
544.4764979613185
 20
280.8876902578044
 30
0.0
 70
    32
  0
VERTEX
  5
1AF4
330
13D7
100
AcDbEntity
  8
0
100
AcDbVertex
100
AcDb3dPolylineVertex
 10
544.3904979613185
 20
280.9376902578044
 30
0.0
 70
    32
  0
VERTEX
  5
1AF5
330
13D7
100
AcDbEntity
  8
0
100
AcDbVertex
100
AcDb3dPolylineVertex
 10
544.3024979613185
 20
280.9876902578037
 30
0.0
 70
    32
  0
VERTEX
  5
1AF6
330
13D7
100
AcDbEntity
  8
0
100
AcDbVertex
100
AcDb3dPolylineVertex
 10
544.2124979613184
 20
281.0376902578033
 30
0.0
 70
    32
  0
VERTEX
  5
1AF7
330
13D7
100
AcDbEntity
  8
0
100
AcDbVertex
100
AcDb3dPolylineVertex
 10
544.1204979613185
 20
281.0776902578044
 30
0.0
 70
    32
  0
VERTEX
  5
1AF8
330
13D7
100
AcDbEntity
  8
0
100
AcDbVertex
100
AcDb3dPolylineVertex
 10
544.0264979613182
 20
281.1276902578031
 30
0.0
 70
    32
  0
VERTEX
  5
1AF9
330
13D7
100
AcDbEntity
  8
0
100
AcDbVertex
100
AcDb3dPolylineVertex
 10
543.9304979613186
 20
281.1676902578044
 30
0.0
 70
    32
  0
VERTEX
  5
1AFA
330
13D7
100
AcDbEntity
  8
0
100
AcDbVertex
100
AcDb3dPolylineVertex
 10
543.8334979613183
 20
281.2176902578044
 30
0.0
 70
    32
  0
VERTEX
  5
1AFB
330
13D7
100
AcDbEntity
  8
0
100
AcDbVertex
100
AcDb3dPolylineVertex
 10
543.7334979613186
 20
281.2576902578043
 30
0.0
 70
    32
  0
VERTEX
  5
1AFC
330
13D7
100
AcDbEntity
  8
0
100
AcDbVertex
100
AcDb3dPolylineVertex
 10
543.6324979613186
 20
281.2976902578034
 30
0.0
 70
    32
  0
VERTEX
  5
1AFD
330
13D7
100
AcDbEntity
  8
0
100
AcDbVertex
100
AcDb3dPolylineVertex
 10
543.5294979613185
 20
281.3376902578044
 30
0.0
 70
    32
  0
VERTEX
  5
1AFE
330
13D7
100
AcDbEntity
  8
0
100
AcDbVertex
100
AcDb3dPolylineVertex
 10
543.4254979613184
 20
281.3676902578044
 30
0.0
 70
    32
  0
VERTEX
  5
1AFF
330
13D7
100
AcDbEntity
  8
0
100
AcDbVertex
100
AcDb3dPolylineVertex
 10
543.3194979613183
 20
281.4076902578022
 30
0.0
 70
    32
  0
VERTEX
  5
1B00
330
13D7
100
AcDbEntity
  8
0
100
AcDbVertex
100
AcDb3dPolylineVertex
 10
543.2114979613185
 20
281.4376902578036
 30
0.0
 70
    32
  0
VERTEX
  5
1B01
330
13D7
100
AcDbEntity
  8
0
100
AcDbVertex
100
AcDb3dPolylineVertex
 10
543.1024979613185
 20
281.4776902578044
 30
0.0
 70
    32
  0
VERTEX
  5
1B02
330
13D7
100
AcDbEntity
  8
0
100
AcDbVertex
100
AcDb3dPolylineVertex
 10
542.9924979613183
 20
281.5076902578043
 30
0.0
 70
    32
  0
VERTEX
  5
1B03
330
13D7
100
AcDbEntity
  8
0
100
AcDbVertex
100
AcDb3dPolylineVertex
 10
542.8814979613185
 20
281.5376902578043
 30
0.0
 70
    32
  0
VERTEX
  5
1B04
330
13D7
100
AcDbEntity
  8
0
100
AcDbVertex
100
AcDb3dPolylineVertex
 10
542.7684979613185
 20
281.5676902578043
 30
0.0
 70
    32
  0
VERTEX
  5
1B05
330
13D7
100
AcDbEntity
  8
0
100
AcDbVertex
100
AcDb3dPolylineVertex
 10
542.6544979613184
 20
281.5876902578044
 30
0.0
 70
    32
  0
VERTEX
  5
1B06
330
13D7
100
AcDbEntity
  8
0
100
AcDbVertex
100
AcDb3dPolylineVertex
 10
542.5394979613184
 20
281.6176902578045
 30
0.0
 70
    32
  0
VERTEX
  5
1B07
330
13D7
100
AcDbEntity
  8
0
100
AcDbVertex
100
AcDb3dPolylineVertex
 10
542.4234979613185
 20
281.6376902578043
 30
0.0
 70
    32
  0
VERTEX
  5
1B08
330
13D7
100
AcDbEntity
  8
0
100
AcDbVertex
100
AcDb3dPolylineVertex
 10
542.3064979613183
 20
281.6576902578043
 30
0.0
 70
    32
  0
VERTEX
  5
1B09
330
13D7
100
AcDbEntity
  8
0
100
AcDbVertex
100
AcDb3dPolylineVertex
 10
542.1884979613182
 20
281.6776902578043
 30
0.0
 70
    32
  0
VERTEX
  5
1B0A
330
13D7
100
AcDbEntity
  8
0
100
AcDbVertex
100
AcDb3dPolylineVertex
 10
542.0694979613183
 20
281.6976902578043
 30
0.0
 70
    32
  0
VERTEX
  5
1B0B
330
13D7
100
AcDbEntity
  8
0
100
AcDbVertex
100
AcDb3dPolylineVertex
 10
541.9504979613183
 20
281.7176902578036
 30
0.0
 70
    32
  0
VERTEX
  5
1B0C
330
13D7
100
AcDbEntity
  8
0
100
AcDbVertex
100
AcDb3dPolylineVertex
 10
541.8304979613185
 20
281.7276902578043
 30
0.0
 70
    32
  0
VERTEX
  5
1B0D
330
13D7
100
AcDbEntity
  8
0
100
AcDbVertex
100
AcDb3dPolylineVertex
 10
541.7094979613185
 20
281.7376902578036
 30
0.0
 70
    32
  0
VERTEX
  5
1B0E
330
13D7
100
AcDbEntity
  8
0
100
AcDbVertex
100
AcDb3dPolylineVertex
 10
541.5884979613183
 20
281.7476902578033
 30
0.0
 70
    32
  0
VERTEX
  5
1B0F
330
13D7
100
AcDbEntity
  8
0
100
AcDbVertex
100
AcDb3dPolylineVertex
 10
541.4664979613185
 20
281.7576902578043
 30
0.0
 70
    32
  0
VERTEX
  5
1B10
330
13D7
100
AcDbEntity
  8
0
100
AcDbVertex
100
AcDb3dPolylineVertex
 10
541.3444979613183
 20
281.7676902578034
 30
0.0
 70
    32
  0
VERTEX
  5
1B11
330
13D7
100
AcDbEntity
  8
0
100
AcDbVertex
100
AcDb3dPolylineVertex
 10
541.2224979613182
 20
281.7776902578042
 30
0.0
 70
    32
  0
VERTEX
  5
1B12
330
13D7
100
AcDbEntity
  8
0
100
AcDbVertex
100
AcDb3dPolylineVertex
 10
541.1004979613185
 20
281.7776902578042
 30
0.0
 70
    32
  0
VERTEX
  5
1B13
330
13D7
100
AcDbEntity
  8
0
100
AcDbVertex
100
AcDb3dPolylineVertex
 10
540.9774979613183
 20
281.7776902578042
 30
0.0
 70
    32
  0
VERTEX
  5
1B14
330
13D7
100
AcDbEntity
  8
0
100
AcDbVertex
100
AcDb3dPolylineVertex
 10
540.8544979613185
 20
281.7876902578033
 30
0.0
 70
    32
  0
VERTEX
  5
1B15
330
13D7
100
AcDbEntity
  8
0
100
AcDbVertex
100
AcDb3dPolylineVertex
 10
540.7324979613186
 20
281.7776902578042
 30
0.0
 70
    32
  0
VERTEX
  5
1B16
330
13D7
100
AcDbEntity
  8
0
100
AcDbVertex
100
AcDb3dPolylineVertex
 10
540.6094979613185
 20
281.7776902578042
 30
0.0
 70
    32
  0
VERTEX
  5
1B17
330
13D7
100
AcDbEntity
  8
0
100
AcDbVertex
100
AcDb3dPolylineVertex
 10
540.4864979613185
 20
281.7776902578042
 30
0.0
 70
    32
  0
VERTEX
  5
1B18
330
13D7
100
AcDbEntity
  8
0
100
AcDbVertex
100
AcDb3dPolylineVertex
 10
540.3644979613185
 20
281.7676902578034
 30
0.0
 70
    32
  0
VERTEX
  5
1B19
330
13D7
100
AcDbEntity
  8
0
100
AcDbVertex
100
AcDb3dPolylineVertex
 10
540.2424979613186
 20
281.7576902578043
 30
0.0
 70
    32
  0
VERTEX
  5
1B1A
330
13D7
100
AcDbEntity
  8
0
100
AcDbVertex
100
AcDb3dPolylineVertex
 10
540.1214979613182
 20
281.7476902578033
 30
0.0
 70
    32
  0
VERTEX
  5
1B1B
330
13D7
100
AcDbEntity
  8
0
100
AcDbVertex
100
AcDb3dPolylineVertex
 10
540.0004979613185
 20
281.7376902578036
 30
0.0
 70
    32
  0
VERTEX
  5
1B1C
330
13D7
100
AcDbEntity
  8
0
100
AcDbVertex
100
AcDb3dPolylineVertex
 10
539.8794979613183
 20
281.7276902578043
 30
0.0
 70
    32
  0
VERTEX
  5
1B1D
330
13D7
100
AcDbEntity
  8
0
100
AcDbVertex
100
AcDb3dPolylineVertex
 10
539.7594979613184
 20
281.7176902578036
 30
0.0
 70
    32
  0
VERTEX
  5
1B1E
330
13D7
100
AcDbEntity
  8
0
100
AcDbVertex
100
AcDb3dPolylineVertex
 10
539.6394979613185
 20
281.6976902578043
 30
0.0
 70
    32
  0
VERTEX
  5
1B1F
330
13D7
100
AcDbEntity
  8
0
100
AcDbVertex
100
AcDb3dPolylineVertex
 10
539.5214979613183
 20
281.6776902578043
 30
0.0
 70
    32
  0
VERTEX
  5
1B20
330
13D7
100
AcDbEntity
  8
0
100
AcDbVertex
100
AcDb3dPolylineVertex
 10
539.4034979613182
 20
281.6576902578043
 30
0.0
 70
    32
  0
VERTEX
  5
1B21
330
13D7
100
AcDbEntity
  8
0
100
AcDbVertex
100
AcDb3dPolylineVertex
 10
539.2864979613185
 20
281.6376902578043
 30
0.0
 70
    32
  0
VERTEX
  5
1B22
330
13D7
100
AcDbEntity
  8
0
100
AcDbVertex
100
AcDb3dPolylineVertex
 10
539.1704979613185
 20
281.6176902578045
 30
0.0
 70
    32
  0
VERTEX
  5
1B23
330
13D7
100
AcDbEntity
  8
0
100
AcDbVertex
100
AcDb3dPolylineVertex
 10
539.0554979613185
 20
281.5876902578044
 30
0.0
 70
    32
  0
VERTEX
  5
1B24
330
13D7
100
AcDbEntity
  8
0
100
AcDbVertex
100
AcDb3dPolylineVertex
 10
538.9414979613185
 20
281.5676902578043
 30
0.0
 70
    32
  0
VERTEX
  5
1B25
330
13D7
100
AcDbEntity
  8
0
100
AcDbVertex
100
AcDb3dPolylineVertex
 10
538.8284979613182
 20
281.5376902578043
 30
0.0
 70
    32
  0
VERTEX
  5
1B26
330
13D7
100
AcDbEntity
  8
0
100
AcDbVertex
100
AcDb3dPolylineVertex
 10
538.7174979613185
 20
281.5076902578043
 30
0.0
 70
    32
  0
VERTEX
  5
1B27
330
13D7
100
AcDbEntity
  8
0
100
AcDbVertex
100
AcDb3dPolylineVertex
 10
538.6064979613182
 20
281.4776902578044
 30
0.0
 70
    32
  0
VERTEX
  5
1B28
330
13D7
100
AcDbEntity
  8
0
100
AcDbVertex
100
AcDb3dPolylineVertex
 10
538.4974979613183
 20
281.4376902578036
 30
0.0
 70
    32
  0
VERTEX
  5
1B29
330
13D7
100
AcDbEntity
  8
0
100
AcDbVertex
100
AcDb3dPolylineVertex
 10
538.3904979613182
 20
281.4076902578022
 30
0.0
 70
    32
  0
VERTEX
  5
1B2A
330
13D7
100
AcDbEntity
  8
0
100
AcDbVertex
100
AcDb3dPolylineVertex
 10
538.2844979613182
 20
281.3676902578044
 30
0.0
 70
    32
  0
VERTEX
  5
1B2B
330
13D7
100
AcDbEntity
  8
0
100
AcDbVertex
100
AcDb3dPolylineVertex
 10
538.1794979613183
 20
281.3376902578044
 30
0.0
 70
    32
  0
VERTEX
  5
1B2C
330
13D7
100
AcDbEntity
  8
0
100
AcDbVertex
100
AcDb3dPolylineVertex
 10
538.0764979613185
 20
281.2976902578034
 30
0.0
 70
    32
  0
VERTEX
  5
1B2D
330
13D7
100
AcDbEntity
  8
0
100
AcDbVertex
100
AcDb3dPolylineVertex
 10
537.9754979613185
 20
281.2576902578043
 30
0.0
 70
    32
  0
VERTEX
  5
1B2E
330
13D7
100
AcDbEntity
  8
0
100
AcDbVertex
100
AcDb3dPolylineVertex
 10
537.8764979613182
 20
281.2176902578044
 30
0.0
 70
    32
  0
VERTEX
  5
1B2F
330
13D7
100
AcDbEntity
  8
0
100
AcDbVertex
100
AcDb3dPolylineVertex
 10
537.7784979613185
 20
281.1676902578044
 30
0.0
 70
    32
  0
VERTEX
  5
1B30
330
13D7
100
AcDbEntity
  8
0
100
AcDbVertex
100
AcDb3dPolylineVertex
 10
537.6824979613185
 20
281.1276902578031
 30
0.0
 70
    32
  0
VERTEX
  5
1B31
330
13D7
100
AcDbEntity
  8
0
100
AcDbVertex
100
AcDb3dPolylineVertex
 10
537.5884979613186
 20
281.0776902578044
 30
0.0
 70
    32
  0
VERTEX
  5
1B32
330
13D7
100
AcDbEntity
  8
0
100
AcDbVertex
100
AcDb3dPolylineVertex
 10
537.4974979613183
 20
281.0376902578033
 30
0.0
 70
    32
  0
VERTEX
  5
1B33
330
13D7
100
AcDbEntity
  8
0
100
AcDbVertex
100
AcDb3dPolylineVertex
 10
537.4074979613182
 20
280.9876902578037
 30
0.0
 70
    32
  0
VERTEX
  5
1B34
330
13D7
100
AcDbEntity
  8
0
100
AcDbVertex
100
AcDb3dPolylineVertex
 10
537.3194979613185
 20
280.9376902578044
 30
0.0
 70
    32
  0
VERTEX
  5
1B35
330
13D7
100
AcDbEntity
  8
0
100
AcDbVertex
100
AcDb3dPolylineVertex
 10
537.2334979613185
 20
280.8876902578044
 30
0.0
 70
    32
  0
VERTEX
  5
1B36
330
13D7
100
AcDbEntity
  8
0
100
AcDbVertex
100
AcDb3dPolylineVertex
 10
537.1504979613185
 20
280.8376902578044
 30
0.0
 70
    32
  0
VERTEX
  5
1B37
330
13D7
100
AcDbEntity
  8
0
100
AcDbVertex
100
AcDb3dPolylineVertex
 10
537.0684979613184
 20
280.7776902578043
 30
0.0
 70
    32
  0
VERTEX
  5
1B38
330
13D7
100
AcDbEntity
  8
0
100
AcDbVertex
100
AcDb3dPolylineVertex
 10
536.9894979613185
 20
280.7276902578044
 30
0.0
 70
    32
  0
VERTEX
  5
1B39
330
13D7
100
AcDbEntity
  8
0
100
AcDbVertex
100
AcDb3dPolylineVertex
 10
536.9134979613185
 20
280.6676902578043
 30
0.0
 70
    32
  0
VERTEX
  5
1B3A
330
13D7
100
AcDbEntity
  8
0
100
AcDbVertex
100
AcDb3dPolylineVertex
 10
536.8384979613185
 20
280.6176902578044
 30
0.0
 70
    32
  0
VERTEX
  5
1B3B
330
13D7
100
AcDbEntity
  8
0
100
AcDbVertex
100
AcDb3dPolylineVertex
 10
536.7664979613183
 20
280.5576902578043
 30
0.0
 70
    32
  0
VERTEX
  5
1B3C
330
13D7
100
AcDbEntity
  8
0
100
AcDbVertex
100
AcDb3dPolylineVertex
 10
536.6974979613185
 20
280.4976902578022
 30
0.0
 70
    32
  0
VERTEX
  5
1B3D
330
13D7
100
AcDbEntity
  8
0
100
AcDbVertex
100
AcDb3dPolylineVertex
 10
536.6304979613182
 20
280.4376902578044
 30
0.0
 70
    32
  0
VERTEX
  5
1B3E
330
13D7
100
AcDbEntity
  8
0
100
AcDbVertex
100
AcDb3dPolylineVertex
 10
536.5664979613185
 20
280.3776902578044
 30
0.0
 70
    32
  0
VERTEX
  5
1B3F
330
13D7
100
AcDbEntity
  8
0
100
AcDbVertex
100
AcDb3dPolylineVertex
 10
536.5044979613185
 20
280.3176902578043
 30
0.0
 70
    32
  0
VERTEX
  5
1B40
330
13D7
100
AcDbEntity
  8
0
100
AcDbVertex
100
AcDb3dPolylineVertex
 10
536.4454979613185
 20
280.2576902578034
 30
0.0
 70
    32
  0
VERTEX
  5
1B41
330
13D7
100
AcDbEntity
  8
0
100
AcDbVertex
100
AcDb3dPolylineVertex
 10
536.3884979613185
 20
280.1976902578044
 30
0.0
 70
    32
  0
VERTEX
  5
1B42
330
13D7
100
AcDbEntity
  8
0
100
AcDbVertex
100
AcDb3dPolylineVertex
 10
536.3344979613185
 20
280.1276902578044
 30
0.0
 70
    32
  0
VERTEX
  5
1B43
330
13D7
100
AcDbEntity
  8
0
100
AcDbVertex
100
AcDb3dPolylineVertex
 10
536.2834979613185
 20
280.0676902578043
 30
0.0
 70
    32
  0
VERTEX
  5
1B44
330
13D7
100
AcDbEntity
  8
0
100
AcDbVertex
100
AcDb3dPolylineVertex
 10
536.2354979613185
 20
279.9976902578043
 30
0.0
 70
    32
  0
VERTEX
  5
1B45
330
13D7
100
AcDbEntity
  8
0
100
AcDbVertex
100
AcDb3dPolylineVertex
 10
536.1894979613183
 20
279.9376902578044
 30
0.0
 70
    32
  0
VERTEX
  5
1B46
330
13D7
100
AcDbEntity
  8
0
100
AcDbVertex
100
AcDb3dPolylineVertex
 10
536.1474979613185
 20
279.8676902578045
 30
0.0
 70
    32
  0
VERTEX
  5
1B47
330
13D7
100
AcDbEntity
  8
0
100
AcDbVertex
100
AcDb3dPolylineVertex
 10
536.1074979613182
 20
279.7976902578034
 30
0.0
 70
    32
  0
VERTEX
  5
1B48
330
13D7
100
AcDbEntity
  8
0
100
AcDbVertex
100
AcDb3dPolylineVertex
 10
536.0704979613185
 20
279.7376902578042
 30
0.0
 70
    32
  0
VERTEX
  5
1B49
330
13D7
100
AcDbEntity
  8
0
100
AcDbVertex
100
AcDb3dPolylineVertex
 10
536.0354979613183
 20
279.6676902578044
 30
0.0
 70
    32
  0
VERTEX
  5
1B4A
330
13D7
100
AcDbEntity
  8
0
100
AcDbVertex
100
AcDb3dPolylineVertex
 10
536.0044979613185
 20
279.5976902578044
 30
0.0
 70
    32
  0
VERTEX
  5
1B4B
330
13D7
100
AcDbEntity
  8
0
100
AcDbVertex
100
AcDb3dPolylineVertex
 10
535.9764979613185
 20
279.5276902578042
 30
0.0
 70
    32
  0
VERTEX
  5
1B4C
330
13D7
100
AcDbEntity
  8
0
100
AcDbVertex
100
AcDb3dPolylineVertex
 10
535.9504979613183
 20
279.4576902578044
 30
0.0
 70
    32
  0
VERTEX
  5
1B4D
330
13D7
100
AcDbEntity
  8
0
100
AcDbVertex
100
AcDb3dPolylineVertex
 10
535.9284979613184
 20
279.3876902578044
 30
0.0
 70
    32
  0
VERTEX
  5
1B4E
330
13D7
100
AcDbEntity
  8
0
100
AcDbVertex
100
AcDb3dPolylineVertex
 10
535.9084979613185
 20
279.3176902578043
 30
0.0
 70
    32
  0
VERTEX
  5
1B4F
330
13D7
100
AcDbEntity
  8
0
100
AcDbVertex
100
AcDb3dPolylineVertex
 10
535.8924979613183
 20
279.2476902578044
 30
0.0
 70
    32
  0
VERTEX
  5
1B50
330
13D7
100
AcDbEntity
  8
0
100
AcDbVertex
100
AcDb3dPolylineVertex
 10
535.8784979613185
 20
279.1776902578043
 30
0.0
 70
    32
  0
VERTEX
  5
1B51
330
13D7
100
AcDbEntity
  8
0
100
AcDbVertex
100
AcDb3dPolylineVertex
 10
535.8684979613185
 20
279.1076902578044
 30
0.0
 70
    32
  0
VERTEX
  5
1B52
330
13D7
100
AcDbEntity
  8
0
100
AcDbVertex
100
AcDb3dPolylineVertex
 10
535.8604979613184
 20
279.0376902578033
 30
0.0
 70
    32
  0
VERTEX
  5
1B53
330
13D7
100
AcDbEntity
  8
0
100
AcDbVertex
100
AcDb3dPolylineVertex
 10
535.8564979613182
 20
278.9676902578036
 30
0.0
 70
    32
  0
VERTEX
  5
1B54
330
13D7
100
AcDbEntity
  8
0
100
AcDbVertex
100
AcDb3dPolylineVertex
 10
535.8544979613185
 20
278.8976902578044
 30
0.0
 70
    32
  0
SEQEND
  5
1B55
330
13D7
100
AcDbEntity
  8
0
  0
POLYLINE
  5
13D8
330
2B13
100
AcDbEntity
  8
0
100
AcDb3dPolyline
 66
     1
 10
0.0
 20
0.0
 30
0.0
 70
     8
  0
VERTEX
  5
1B56
330
13D8
100
AcDbEntity
  8
0
100
AcDbVertex
100
AcDb3dPolylineVertex
 10
550.8544979613185
 20
285.9976902578043
 30
0.0
 70
    32
  0
VERTEX
  5
1B57
330
13D8
100
AcDbEntity
  8
0
100
AcDbVertex
100
AcDb3dPolylineVertex
 10
550.8514979613185
 20
286.1676902578043
 30
0.0
 70
    32
  0
VERTEX
  5
1B58
330
13D8
100
AcDbEntity
  8
0
100
AcDbVertex
100
AcDb3dPolylineVertex
 10
550.8424979613185
 20
286.3476902578045
 30
0.0
 70
    32
  0
VERTEX
  5
1B59
330
13D8
100
AcDbEntity
  8
0
100
AcDbVertex
100
AcDb3dPolylineVertex
 10
550.8274979613185
 20
286.5176902578033
 30
0.0
 70
    32
  0
VERTEX
  5
1B5A
330
13D8
100
AcDbEntity
  8
0
100
AcDbVertex
100
AcDb3dPolylineVertex
 10
550.8064979613183
 20
286.6876902578043
 30
0.0
 70
    32
  0
VERTEX
  5
1B5B
330
13D8
100
AcDbEntity
  8
0
100
AcDbVertex
100
AcDb3dPolylineVertex
 10
550.7794979613183
 20
286.8576902578045
 30
0.0
 70
    32
  0
VERTEX
  5
1B5C
330
13D8
100
AcDbEntity
  8
0
100
AcDbVertex
100
AcDb3dPolylineVertex
 10
550.7464979613184
 20
287.0276902578043
 30
0.0
 70
    32
  0
VERTEX
  5
1B5D
330
13D8
100
AcDbEntity
  8
0
100
AcDbVertex
100
AcDb3dPolylineVertex
 10
550.7074979613181
 20
287.1976902578044
 30
0.0
 70
    32
  0
VERTEX
  5
1B5E
330
13D8
100
AcDbEntity
  8
0
100
AcDbVertex
100
AcDb3dPolylineVertex
 10
550.6624979613181
 20
287.367690257803
 30
0.0
 70
    32
  0
VERTEX
  5
1B5F
330
13D8
100
AcDbEntity
  8
0
100
AcDbVertex
100
AcDb3dPolylineVertex
 10
550.6114979613181
 20
287.5376902578033
 30
0.0
 70
    32
  0
VERTEX
  5
1B60
330
13D8
100
AcDbEntity
  8
0
100
AcDbVertex
100
AcDb3dPolylineVertex
 10
550.5554979613186
 20
287.7076902578036
 30
0.0
 70
    32
  0
VERTEX
  5
1B61
330
13D8
100
AcDbEntity
  8
0
100
AcDbVertex
100
AcDb3dPolylineVertex
 10
550.4924979613185
 20
287.8776902578043
 30
0.0
 70
    32
  0
VERTEX
  5
1B62
330
13D8
100
AcDbEntity
  8
0
100
AcDbVertex
100
AcDb3dPolylineVertex
 10
550.4244979613185
 20
288.0376902578033
 30
0.0
 70
    32
  0
VERTEX
  5
1B63
330
13D8
100
AcDbEntity
  8
0
100
AcDbVertex
100
AcDb3dPolylineVertex
 10
550.3504979613185
 20
288.1976902578043
 30
0.0
 70
    32
  0
VERTEX
  5
1B64
330
13D8
100
AcDbEntity
  8
0
100
AcDbVertex
100
AcDb3dPolylineVertex
 10
550.2704979613183
 20
288.3676902578045
 30
0.0
 70
    32
  0
VERTEX
  5
1B65
330
13D8
100
AcDbEntity
  8
0
100
AcDbVertex
100
AcDb3dPolylineVertex
 10
550.1844979613183
 20
288.5276902578043
 30
0.0
 70
    32
  0
VERTEX
  5
1B66
330
13D8
100
AcDbEntity
  8
0
100
AcDbVertex
100
AcDb3dPolylineVertex
 10
550.0934979613183
 20
288.6876902578043
 30
0.0
 70
    32
  0
VERTEX
  5
1B67
330
13D8
100
AcDbEntity
  8
0
100
AcDbVertex
100
AcDb3dPolylineVertex
 10
549.9964979613182
 20
288.8476902578045
 30
0.0
 70
    32
  0
VERTEX
  5
1B68
330
13D8
100
AcDbEntity
  8
0
100
AcDbVertex
100
AcDb3dPolylineVertex
 10
549.8944979613184
 20
288.9976902578043
 30
0.0
 70
    32
  0
VERTEX
  5
1B69
330
13D8
100
AcDbEntity
  8
0
100
AcDbVertex
100
AcDb3dPolylineVertex
 10
549.7874979613181
 20
289.1576902578043
 30
0.0
 70
    32
  0
VERTEX
  5
1B6A
330
13D8
100
AcDbEntity
  8
0
100
AcDbVertex
100
AcDb3dPolylineVertex
 10
549.6744979613183
 20
289.3076902578043
 30
0.0
 70
    32
  0
VERTEX
  5
1B6B
330
13D8
100
AcDbEntity
  8
0
100
AcDbVertex
100
AcDb3dPolylineVertex
 10
549.5554979613185
 20
289.4576902578043
 30
0.0
 70
    32
  0
VERTEX
  5
1B6C
330
13D8
100
AcDbEntity
  8
0
100
AcDbVertex
100
AcDb3dPolylineVertex
 10
549.4324979613184
 20
289.6076902578045
 30
0.0
 70
    32
  0
VERTEX
  5
1B6D
330
13D8
100
AcDbEntity
  8
0
100
AcDbVertex
100
AcDb3dPolylineVertex
 10
549.3034979613184
 20
289.7576902578043
 30
0.0
 70
    32
  0
VERTEX
  5
1B6E
330
13D8
100
AcDbEntity
  8
0
100
AcDbVertex
100
AcDb3dPolylineVertex
 10
549.1694979613185
 20
289.8976902578045
 30
0.0
 70
    32
  0
VERTEX
  5
1B6F
330
13D8
100
AcDbEntity
  8
0
100
AcDbVertex
100
AcDb3dPolylineVertex
 10
549.0304979613183
 20
290.0476902578042
 30
0.0
 70
    32
  0
VERTEX
  5
1B70
330
13D8
100
AcDbEntity
  8
0
100
AcDbVertex
100
AcDb3dPolylineVertex
 10
548.8864979613183
 20
290.1876902578043
 30
0.0
 70
    32
  0
VERTEX
  5
1B71
330
13D8
100
AcDbEntity
  8
0
100
AcDbVertex
100
AcDb3dPolylineVertex
 10
548.7384979613183
 20
290.3176902578034
 30
0.0
 70
    32
  0
VERTEX
  5
1B72
330
13D8
100
AcDbEntity
  8
0
100
AcDbVertex
100
AcDb3dPolylineVertex
 10
548.5844979613185
 20
290.4576902578043
 30
0.0
 70
    32
  0
VERTEX
  5
1B73
330
13D8
100
AcDbEntity
  8
0
100
AcDbVertex
100
AcDb3dPolylineVertex
 10
548.4264979613185
 20
290.5876902578044
 30
0.0
 70
    32
  0
VERTEX
  5
1B74
330
13D8
100
AcDbEntity
  8
0
100
AcDbVertex
100
AcDb3dPolylineVertex
 10
548.2644979613183
 20
290.7176902578043
 30
0.0
 70
    32
  0
VERTEX
  5
1B75
330
13D8
100
AcDbEntity
  8
0
100
AcDbVertex
100
AcDb3dPolylineVertex
 10
548.0974979613185
 20
290.8476902578044
 30
0.0
 70
    32
  0
VERTEX
  5
1B76
330
13D8
100
AcDbEntity
  8
0
100
AcDbVertex
100
AcDb3dPolylineVertex
 10
547.9254979613183
 20
290.9676902578042
 30
0.0
 70
    32
  0
VERTEX
  5
1B77
330
13D8
100
AcDbEntity
  8
0
100
AcDbVertex
100
AcDb3dPolylineVertex
 10
547.7504979613184
 20
291.0876902578044
 30
0.0
 70
    32
  0
VERTEX
  5
1B78
330
13D8
100
AcDbEntity
  8
0
100
AcDbVertex
100
AcDb3dPolylineVertex
 10
547.5704979613185
 20
291.2076902578043
 30
0.0
 70
    32
  0
VERTEX
  5
1B79
330
13D8
100
AcDbEntity
  8
0
100
AcDbVertex
100
AcDb3dPolylineVertex
 10
547.3864979613185
 20
291.3176902578043
 30
0.0
 70
    32
  0
VERTEX
  5
1B7A
330
13D8
100
AcDbEntity
  8
0
100
AcDbVertex
100
AcDb3dPolylineVertex
 10
547.1984979613185
 20
291.4276902578043
 30
0.0
 70
    32
  0
VERTEX
  5
1B7B
330
13D8
100
AcDbEntity
  8
0
100
AcDbVertex
100
AcDb3dPolylineVertex
 10
547.0074979613185
 20
291.5376902578033
 30
0.0
 70
    32
  0
VERTEX
  5
1B7C
330
13D8
100
AcDbEntity
  8
0
100
AcDbVertex
100
AcDb3dPolylineVertex
 10
546.8114979613185
 20
291.6376902578031
 30
0.0
 70
    32
  0
VERTEX
  5
1B7D
330
13D8
100
AcDbEntity
  8
0
100
AcDbVertex
100
AcDb3dPolylineVertex
 10
546.6124979613183
 20
291.7376902578043
 30
0.0
 70
    32
  0
VERTEX
  5
1B7E
330
13D8
100
AcDbEntity
  8
0
100
AcDbVertex
100
AcDb3dPolylineVertex
 10
546.4104979613185
 20
291.8376902578044
 30
0.0
 70
    32
  0
VERTEX
  5
1B7F
330
13D8
100
AcDbEntity
  8
0
100
AcDbVertex
100
AcDb3dPolylineVertex
 10
546.2044979613185
 20
291.9376902578043
 30
0.0
 70
    32
  0
VERTEX
  5
1B80
330
13D8
100
AcDbEntity
  8
0
100
AcDbVertex
100
AcDb3dPolylineVertex
 10
545.9954979613184
 20
292.0276902578042
 30
0.0
 70
    32
  0
VERTEX
  5
1B81
330
13D8
100
AcDbEntity
  8
0
100
AcDbVertex
100
AcDb3dPolylineVertex
 10
545.7834979613185
 20
292.1076902578045
 30
0.0
 70
    32
  0
VERTEX
  5
1B82
330
13D8
100
AcDbEntity
  8
0
100
AcDbVertex
100
AcDb3dPolylineVertex
 10
545.5684979613184
 20
292.1976902578043
 30
0.0
 70
    32
  0
VERTEX
  5
1B83
330
13D8
100
AcDbEntity
  8
0
100
AcDbVertex
100
AcDb3dPolylineVertex
 10
545.3504979613184
 20
292.2776902578033
 30
0.0
 70
    32
  0
VERTEX
  5
1B84
330
13D8
100
AcDbEntity
  8
0
100
AcDbVertex
100
AcDb3dPolylineVertex
 10
545.1304979613182
 20
292.3476902578045
 30
0.0
 70
    32
  0
VERTEX
  5
1B85
330
13D8
100
AcDbEntity
  8
0
100
AcDbVertex
100
AcDb3dPolylineVertex
 10
544.9074979613182
 20
292.417690257802
 30
0.0
 70
    32
  0
VERTEX
  5
1B86
330
13D8
100
AcDbEntity
  8
0
100
AcDbVertex
100
AcDb3dPolylineVertex
 10
544.6814979613183
 20
292.4876902578044
 30
0.0
 70
    32
  0
VERTEX
  5
1B87
330
13D8
100
AcDbEntity
  8
0
100
AcDbVertex
100
AcDb3dPolylineVertex
 10
544.4534979613186
 20
292.5576902578022
 30
0.0
 70
    32
  0
VERTEX
  5
1B88
330
13D8
100
AcDbEntity
  8
0
100
AcDbVertex
100
AcDb3dPolylineVertex
 10
544.2234979613186
 20
292.6176902578045
 30
0.0
 70
    32
  0
VERTEX
  5
1B89
330
13D8
100
AcDbEntity
  8
0
100
AcDbVertex
100
AcDb3dPolylineVertex
 10
543.9914979613186
 20
292.6676902578043
 30
0.0
 70
    32
  0
VERTEX
  5
1B8A
330
13D8
100
AcDbEntity
  8
0
100
AcDbVertex
100
AcDb3dPolylineVertex
 10
543.7574979613185
 20
292.7176902578036
 30
0.0
 70
    32
  0
VERTEX
  5
1B8B
330
13D8
100
AcDbEntity
  8
0
100
AcDbVertex
100
AcDb3dPolylineVertex
 10
543.5214979613183
 20
292.7676902578033
 30
0.0
 70
    32
  0
VERTEX
  5
1B8C
330
13D8
100
AcDbEntity
  8
0
100
AcDbVertex
100
AcDb3dPolylineVertex
 10
543.2844979613182
 20
292.8176902578043
 30
0.0
 70
    32
  0
VERTEX
  5
1B8D
330
13D8
100
AcDbEntity
  8
0
100
AcDbVertex
100
AcDb3dPolylineVertex
 10
543.0454979613183
 20
292.8576902578031
 30
0.0
 70
    32
  0
VERTEX
  5
1B8E
330
13D8
100
AcDbEntity
  8
0
100
AcDbVertex
100
AcDb3dPolylineVertex
 10
542.8054979613185
 20
292.8876902578045
 30
0.0
 70
    32
  0
VERTEX
  5
1B8F
330
13D8
100
AcDbEntity
  8
0
100
AcDbVertex
100
AcDb3dPolylineVertex
 10
542.5644979613183
 20
292.9176902578043
 30
0.0
 70
    32
  0
VERTEX
  5
1B90
330
13D8
100
AcDbEntity
  8
0
100
AcDbVertex
100
AcDb3dPolylineVertex
 10
542.3224979613181
 20
292.9476902578043
 30
0.0
 70
    32
  0
VERTEX
  5
1B91
330
13D8
100
AcDbEntity
  8
0
100
AcDbVertex
100
AcDb3dPolylineVertex
 10
542.0784979613182
 20
292.9676902578043
 30
0.0
 70
    32
  0
VERTEX
  5
1B92
330
13D8
100
AcDbEntity
  8
0
100
AcDbVertex
100
AcDb3dPolylineVertex
 10
541.8344979613185
 20
292.9876902578044
 30
0.0
 70
    32
  0
VERTEX
  5
1B93
330
13D8
100
AcDbEntity
  8
0
100
AcDbVertex
100
AcDb3dPolylineVertex
 10
541.5904979613185
 20
293.0076902578043
 30
0.0
 70
    32
  0
VERTEX
  5
1B94
330
13D8
100
AcDbEntity
  8
0
100
AcDbVertex
100
AcDb3dPolylineVertex
 10
541.3454979613184
 20
293.0176902578043
 30
0.0
 70
    32
  0
VERTEX
  5
1B95
330
13D8
100
AcDbEntity
  8
0
100
AcDbVertex
100
AcDb3dPolylineVertex
 10
541.1004979613185
 20
293.0176902578043
 30
0.0
 70
    32
  0
VERTEX
  5
1B96
330
13D8
100
AcDbEntity
  8
0
100
AcDbVertex
100
AcDb3dPolylineVertex
 10
540.8544979613185
 20
293.0276902578033
 30
0.0
 70
    32
  0
VERTEX
  5
1B97
330
13D8
100
AcDbEntity
  8
0
100
AcDbVertex
100
AcDb3dPolylineVertex
 10
540.6094979613185
 20
293.0176902578043
 30
0.0
 70
    32
  0
VERTEX
  5
1B98
330
13D8
100
AcDbEntity
  8
0
100
AcDbVertex
100
AcDb3dPolylineVertex
 10
540.3644979613185
 20
293.0176902578043
 30
0.0
 70
    32
  0
VERTEX
  5
1B99
330
13D8
100
AcDbEntity
  8
0
100
AcDbVertex
100
AcDb3dPolylineVertex
 10
540.1194979613185
 20
293.0076902578043
 30
0.0
 70
    32
  0
VERTEX
  5
1B9A
330
13D8
100
AcDbEntity
  8
0
100
AcDbVertex
100
AcDb3dPolylineVertex
 10
539.8744979613184
 20
292.9876902578044
 30
0.0
 70
    32
  0
VERTEX
  5
1B9B
330
13D8
100
AcDbEntity
  8
0
100
AcDbVertex
100
AcDb3dPolylineVertex
 10
539.6304979613185
 20
292.9676902578043
 30
0.0
 70
    32
  0
VERTEX
  5
1B9C
330
13D8
100
AcDbEntity
  8
0
100
AcDbVertex
100
AcDb3dPolylineVertex
 10
539.3874979613185
 20
292.9476902578043
 30
0.0
 70
    32
  0
VERTEX
  5
1B9D
330
13D8
100
AcDbEntity
  8
0
100
AcDbVertex
100
AcDb3dPolylineVertex
 10
539.1454979613182
 20
292.9176902578043
 30
0.0
 70
    32
  0
VERTEX
  5
1B9E
330
13D8
100
AcDbEntity
  8
0
100
AcDbVertex
100
AcDb3dPolylineVertex
 10
538.9034979613184
 20
292.8876902578045
 30
0.0
 70
    32
  0
VERTEX
  5
1B9F
330
13D8
100
AcDbEntity
  8
0
100
AcDbVertex
100
AcDb3dPolylineVertex
 10
538.6634979613185
 20
292.8576902578031
 30
0.0
 70
    32
  0
VERTEX
  5
1BA0
330
13D8
100
AcDbEntity
  8
0
100
AcDbVertex
100
AcDb3dPolylineVertex
 10
538.4254979613184
 20
292.8176902578043
 30
0.0
 70
    32
  0
VERTEX
  5
1BA1
330
13D8
100
AcDbEntity
  8
0
100
AcDbVertex
100
AcDb3dPolylineVertex
 10
538.1874979613185
 20
292.7676902578033
 30
0.0
 70
    32
  0
VERTEX
  5
1BA2
330
13D8
100
AcDbEntity
  8
0
100
AcDbVertex
100
AcDb3dPolylineVertex
 10
537.9514979613185
 20
292.7176902578036
 30
0.0
 70
    32
  0
VERTEX
  5
1BA3
330
13D8
100
AcDbEntity
  8
0
100
AcDbVertex
100
AcDb3dPolylineVertex
 10
537.7174979613182
 20
292.6676902578043
 30
0.0
 70
    32
  0
VERTEX
  5
1BA4
330
13D8
100
AcDbEntity
  8
0
100
AcDbVertex
100
AcDb3dPolylineVertex
 10
537.4854979613185
 20
292.6176902578045
 30
0.0
 70
    32
  0
VERTEX
  5
1BA5
330
13D8
100
AcDbEntity
  8
0
100
AcDbVertex
100
AcDb3dPolylineVertex
 10
537.2554979613185
 20
292.5576902578022
 30
0.0
 70
    32
  0
VERTEX
  5
1BA6
330
13D8
100
AcDbEntity
  8
0
100
AcDbVertex
100
AcDb3dPolylineVertex
 10
537.0274979613183
 20
292.4876902578044
 30
0.0
 70
    32
  0
VERTEX
  5
1BA7
330
13D8
100
AcDbEntity
  8
0
100
AcDbVertex
100
AcDb3dPolylineVertex
 10
536.8024979613185
 20
292.417690257802
 30
0.0
 70
    32
  0
VERTEX
  5
1BA8
330
13D8
100
AcDbEntity
  8
0
100
AcDbVertex
100
AcDb3dPolylineVertex
 10
536.5794979613185
 20
292.3476902578045
 30
0.0
 70
    32
  0
VERTEX
  5
1BA9
330
13D8
100
AcDbEntity
  8
0
100
AcDbVertex
100
AcDb3dPolylineVertex
 10
536.3584979613185
 20
292.2776902578033
 30
0.0
 70
    32
  0
VERTEX
  5
1BAA
330
13D8
100
AcDbEntity
  8
0
100
AcDbVertex
100
AcDb3dPolylineVertex
 10
536.1404979613182
 20
292.1976902578043
 30
0.0
 70
    32
  0
VERTEX
  5
1BAB
330
13D8
100
AcDbEntity
  8
0
100
AcDbVertex
100
AcDb3dPolylineVertex
 10
535.9254979613184
 20
292.1076902578045
 30
0.0
 70
    32
  0
VERTEX
  5
1BAC
330
13D8
100
AcDbEntity
  8
0
100
AcDbVertex
100
AcDb3dPolylineVertex
 10
535.7134979613183
 20
292.0276902578042
 30
0.0
 70
    32
  0
VERTEX
  5
1BAD
330
13D8
100
AcDbEntity
  8
0
100
AcDbVertex
100
AcDb3dPolylineVertex
 10
535.5044979613185
 20
291.9376902578043
 30
0.0
 70
    32
  0
VERTEX
  5
1BAE
330
13D8
100
AcDbEntity
  8
0
100
AcDbVertex
100
AcDb3dPolylineVertex
 10
535.2994979613184
 20
291.8376902578044
 30
0.0
 70
    32
  0
VERTEX
  5
1BAF
330
13D8
100
AcDbEntity
  8
0
100
AcDbVertex
100
AcDb3dPolylineVertex
 10
535.096497961318
 20
291.7376902578043
 30
0.0
 70
    32
  0
VERTEX
  5
1BB0
330
13D8
100
AcDbEntity
  8
0
100
AcDbVertex
100
AcDb3dPolylineVertex
 10
534.8974979613185
 20
291.6376902578031
 30
0.0
 70
    32
  0
VERTEX
  5
1BB1
330
13D8
100
AcDbEntity
  8
0
100
AcDbVertex
100
AcDb3dPolylineVertex
 10
534.7024979613182
 20
291.5376902578033
 30
0.0
 70
    32
  0
VERTEX
  5
1BB2
330
13D8
100
AcDbEntity
  8
0
100
AcDbVertex
100
AcDb3dPolylineVertex
 10
534.5104979613185
 20
291.4276902578043
 30
0.0
 70
    32
  0
VERTEX
  5
1BB3
330
13D8
100
AcDbEntity
  8
0
100
AcDbVertex
100
AcDb3dPolylineVertex
 10
534.3234979613185
 20
291.3176902578043
 30
0.0
 70
    32
  0
VERTEX
  5
1BB4
330
13D8
100
AcDbEntity
  8
0
100
AcDbVertex
100
AcDb3dPolylineVertex
 10
534.1394979613185
 20
291.2076902578043
 30
0.0
 70
    32
  0
VERTEX
  5
1BB5
330
13D8
100
AcDbEntity
  8
0
100
AcDbVertex
100
AcDb3dPolylineVertex
 10
533.9594979613186
 20
291.0876902578044
 30
0.0
 70
    32
  0
VERTEX
  5
1BB6
330
13D8
100
AcDbEntity
  8
0
100
AcDbVertex
100
AcDb3dPolylineVertex
 10
533.7834979613185
 20
290.9676902578042
 30
0.0
 70
    32
  0
VERTEX
  5
1BB7
330
13D8
100
AcDbEntity
  8
0
100
AcDbVertex
100
AcDb3dPolylineVertex
 10
533.6124979613185
 20
290.8476902578044
 30
0.0
 70
    32
  0
VERTEX
  5
1BB8
330
13D8
100
AcDbEntity
  8
0
100
AcDbVertex
100
AcDb3dPolylineVertex
 10
533.4454979613185
 20
290.7176902578043
 30
0.0
 70
    32
  0
VERTEX
  5
1BB9
330
13D8
100
AcDbEntity
  8
0
100
AcDbVertex
100
AcDb3dPolylineVertex
 10
533.2824979613183
 20
290.5876902578044
 30
0.0
 70
    32
  0
VERTEX
  5
1BBA
330
13D8
100
AcDbEntity
  8
0
100
AcDbVertex
100
AcDb3dPolylineVertex
 10
533.1244979613185
 20
290.4576902578043
 30
0.0
 70
    32
  0
VERTEX
  5
1BBB
330
13D8
100
AcDbEntity
  8
0
100
AcDbVertex
100
AcDb3dPolylineVertex
 10
532.9714979613185
 20
290.3176902578034
 30
0.0
 70
    32
  0
VERTEX
  5
1BBC
330
13D8
100
AcDbEntity
  8
0
100
AcDbVertex
100
AcDb3dPolylineVertex
 10
532.8224979613183
 20
290.1876902578043
 30
0.0
 70
    32
  0
VERTEX
  5
1BBD
330
13D8
100
AcDbEntity
  8
0
100
AcDbVertex
100
AcDb3dPolylineVertex
 10
532.6784979613185
 20
290.0476902578042
 30
0.0
 70
    32
  0
VERTEX
  5
1BBE
330
13D8
100
AcDbEntity
  8
0
100
AcDbVertex
100
AcDb3dPolylineVertex
 10
532.5404979613185
 20
289.8976902578045
 30
0.0
 70
    32
  0
VERTEX
  5
1BBF
330
13D8
100
AcDbEntity
  8
0
100
AcDbVertex
100
AcDb3dPolylineVertex
 10
532.4064979613186
 20
289.7576902578043
 30
0.0
 70
    32
  0
VERTEX
  5
1BC0
330
13D8
100
AcDbEntity
  8
0
100
AcDbVertex
100
AcDb3dPolylineVertex
 10
532.2774979613183
 20
289.6076902578045
 30
0.0
 70
    32
  0
VERTEX
  5
1BC1
330
13D8
100
AcDbEntity
  8
0
100
AcDbVertex
100
AcDb3dPolylineVertex
 10
532.1534979613184
 20
289.4576902578043
 30
0.0
 70
    32
  0
VERTEX
  5
1BC2
330
13D8
100
AcDbEntity
  8
0
100
AcDbVertex
100
AcDb3dPolylineVertex
 10
532.0354979613183
 20
289.3076902578043
 30
0.0
 70
    32
  0
VERTEX
  5
1BC3
330
13D8
100
AcDbEntity
  8
0
100
AcDbVertex
100
AcDb3dPolylineVertex
 10
531.9224979613184
 20
289.1576902578043
 30
0.0
 70
    32
  0
VERTEX
  5
1BC4
330
13D8
100
AcDbEntity
  8
0
100
AcDbVertex
100
AcDb3dPolylineVertex
 10
531.8144979613183
 20
288.9976902578043
 30
0.0
 70
    32
  0
VERTEX
  5
1BC5
330
13D8
100
AcDbEntity
  8
0
100
AcDbVertex
100
AcDb3dPolylineVertex
 10
531.7124979613184
 20
288.8476902578045
 30
0.0
 70
    32
  0
VERTEX
  5
1BC6
330
13D8
100
AcDbEntity
  8
0
100
AcDbVertex
100
AcDb3dPolylineVertex
 10
531.6164979613184
 20
288.6876902578043
 30
0.0
 70
    32
  0
VERTEX
  5
1BC7
330
13D8
100
AcDbEntity
  8
0
100
AcDbVertex
100
AcDb3dPolylineVertex
 10
531.5244979613185
 20
288.5276902578043
 30
0.0
 70
    32
  0
VERTEX
  5
1BC8
330
13D8
100
AcDbEntity
  8
0
100
AcDbVertex
100
AcDb3dPolylineVertex
 10
531.4394979613183
 20
288.3676902578045
 30
0.0
 70
    32
  0
VERTEX
  5
1BC9
330
13D8
100
AcDbEntity
  8
0
100
AcDbVertex
100
AcDb3dPolylineVertex
 10
531.3594979613185
 20
288.1976902578043
 30
0.0
 70
    32
  0
VERTEX
  5
1BCA
330
13D8
100
AcDbEntity
  8
0
100
AcDbVertex
100
AcDb3dPolylineVertex
 10
531.2854979613184
 20
288.0376902578033
 30
0.0
 70
    32
  0
VERTEX
  5
1BCB
330
13D8
100
AcDbEntity
  8
0
100
AcDbVertex
100
AcDb3dPolylineVertex
 10
531.2174979613184
 20
287.8776902578043
 30
0.0
 70
    32
  0
VERTEX
  5
1BCC
330
13D8
100
AcDbEntity
  8
0
100
AcDbVertex
100
AcDb3dPolylineVertex
 10
531.1544979613183
 20
287.7076902578036
 30
0.0
 70
    32
  0
VERTEX
  5
1BCD
330
13D8
100
AcDbEntity
  8
0
100
AcDbVertex
100
AcDb3dPolylineVertex
 10
531.0974979613185
 20
287.5376902578033
 30
0.0
 70
    32
  0
VERTEX
  5
1BCE
330
13D8
100
AcDbEntity
  8
0
100
AcDbVertex
100
AcDb3dPolylineVertex
 10
531.0464979613183
 20
287.367690257803
 30
0.0
 70
    32
  0
VERTEX
  5
1BCF
330
13D8
100
AcDbEntity
  8
0
100
AcDbVertex
100
AcDb3dPolylineVertex
 10
531.002497961318
 20
287.1976902578044
 30
0.0
 70
    32
  0
VERTEX
  5
1BD0
330
13D8
100
AcDbEntity
  8
0
100
AcDbVertex
100
AcDb3dPolylineVertex
 10
530.9634979613186
 20
287.0276902578043
 30
0.0
 70
    32
  0
VERTEX
  5
1BD1
330
13D8
100
AcDbEntity
  8
0
100
AcDbVertex
100
AcDb3dPolylineVertex
 10
530.9304979613186
 20
286.8576902578045
 30
0.0
 70
    32
  0
VERTEX
  5
1BD2
330
13D8
100
AcDbEntity
  8
0
100
AcDbVertex
100
AcDb3dPolylineVertex
 10
530.9024979613183
 20
286.6876902578043
 30
0.0
 70
    32
  0
VERTEX
  5
1BD3
330
13D8
100
AcDbEntity
  8
0
100
AcDbVertex
100
AcDb3dPolylineVertex
 10
530.8814979613185
 20
286.5176902578033
 30
0.0
 70
    32
  0
VERTEX
  5
1BD4
330
13D8
100
AcDbEntity
  8
0
100
AcDbVertex
100
AcDb3dPolylineVertex
 10
530.8664979613182
 20
286.3476902578045
 30
0.0
 70
    32
  0
VERTEX
  5
1BD5
330
13D8
100
AcDbEntity
  8
0
100
AcDbVertex
100
AcDb3dPolylineVertex
 10
530.8574979613182
 20
286.1676902578043
 30
0.0
 70
    32
  0
VERTEX
  5
1BD6
330
13D8
100
AcDbEntity
  8
0
100
AcDbVertex
100
AcDb3dPolylineVertex
 10
530.8544979613185
 20
285.9976902578043
 30
0.0
 70
    32
  0
SEQEND
  5
1BD7
330
13D8
100
AcDbEntity
  8
0
  0
LINE
  5
13DB
330
2B13
100
AcDbEntity
  8
0
100
AcDbLine
 10
244.8785646116156
 20
224.6976902578044
 30
0.0
 11
221.5794926116155
 21
224.6976902578044
 31
0.0
  0
LINE
  5
13DC
330
2B13
100
AcDbEntity
  8
0
100
AcDbLine
 10
250.4790286116154
 20
235.1976902578044
 30
0.0
 11
250.4790286116154
 21
230.1976902578044
 31
0.0
  0
LINE
  5
13DD
330
2B13
100
AcDbEntity
  8
0
100
AcDbLine
 10
215.9790286116156
 20
235.1976902578044
 30
0.0
 11
215.9790286116156
 21
230.1976902578044
 31
0.0
  0
LINE
  5
13DE
330
2B13
100
AcDbEntity
  8
0
100
AcDbLine
 10
221.5794926116155
 20
230.1976902578044
 30
0.0
 11
221.5794926116155
 21
224.6976902578044
 31
0.0
  0
LINE
  5
13DF
330
2B13
100
AcDbEntity
  8
0
100
AcDbLine
 10
244.8785646116156
 20
230.1976902578044
 30
0.0
 11
244.8785646116156
 21
224.6976902578044
 31
0.0
  0
LINE
  5
13E0
330
2B13
100
AcDbEntity
  8
0
100
AcDbLine
 10
250.4790286116154
 20
230.1976902578044
 30
0.0
 11
215.9790286116156
 21
230.1976902578044
 31
0.0
  0
LINE
  5
13E1
330
2B13
100
AcDbEntity
  8
0
100
AcDbLine
 10
243.2290286116156
 20
285.9992450578045
 30
0.0
 11
243.2290286116156
 21
248.8645182578034
 31
0.0
  0
LINE
  5
13E2
330
2B13
100
AcDbEntity
  8
0
100
AcDbLine
 10
223.2290286116155
 20
285.9992447318064
 30
0.0
 11
223.2290286116155
 21
248.8645182578034
 31
0.0
  0
LINE
  5
13E3
330
2B13
100
AcDbEntity
  8
0
100
AcDbLine
 10
250.4790286116154
 20
243.2269072578044
 30
0.0
 11
250.4790286116154
 21
235.1976902578044
 31
0.0
  0
LINE
  5
13E4
330
2B13
100
AcDbEntity
  8
0
100
AcDbLine
 10
215.9790286116156
 20
243.2269072578044
 30
0.0
 11
215.9790286116156
 21
235.1976902578044
 31
0.0
  0
LINE
  5
13E5
330
2B13
100
AcDbEntity
  8
0
100
AcDbLine
 10
228.2290286116156
 20
279.8468142578044
 30
0.0
 11
228.2290286116156
 21
275.2102792578034
 31
0.0
  0
LINE
  5
13E6
330
2B13
100
AcDbEntity
  8
0
100
AcDbLine
 10
238.2290286116155
 20
279.8468142578044
 30
0.0
 11
238.2290286116155
 21
275.2102792578034
 31
0.0
  0
LINE
  5
13E7
330
2B13
100
AcDbEntity
  8
0
100
AcDbLine
 10
250.4790286116154
 20
235.1976902578044
 30
0.0
 11
215.9790286116156
 21
235.1976902578044
 31
0.0
  0
ARC
  5
13E8
330
2B13
100
AcDbEntity
  8
0
100
AcDbCircle
 10
233.2290286116156
 20
203.1976902578044
 30
0.0
 40
32.0
100
AcDbArc
 50
122.4617399999994
 51
57.53826100000032
  0
ARC
  5
13EA
330
2B13
100
AcDbEntity
  8
0
100
AcDbCircle
 10
233.2290286116156
 20
188.0368932578044
 30
0.0
 40
60.0
100
AcDbArc
 50
75.52248800000066
 51
104.4775099999998
  0
ARC
  5
13EB
330
2B13
100
AcDbEntity
  8
0
100
AcDbCircle
 10
218.9790286116154
 20
243.2269072578044
 30
0.0
 40
3.0
100
AcDbArc
 50
104.4775099999998
 51
180.0000100000009
  0
ARC
  5
13EC
330
2B13
100
AcDbEntity
  8
0
100
AcDbCircle
 10
247.4790286116156
 20
243.2269072578044
 30
0.0
 40
3.0
100
AcDbArc
 50
0.0
 51
75.52248800000066
  0
ARC
  5
13ED
330
2B13
100
AcDbEntity
  8
0
100
AcDbCircle
 10
221.2290286116155
 20
248.8645182578034
 30
0.0
 40
2.0
100
AcDbArc
 50
281.1599400000019
 51
0.0
  0
ARC
  5
13EE
330
2B13
100
AcDbEntity
  8
0
100
AcDbCircle
 10
245.2290286116156
 20
248.8645182578034
 30
0.0
 40
2.0
100
AcDbArc
 50
179.9999899999988
 51
258.8400699999998
  0
POLYLINE
  5
13F0
330
2B13
100
AcDbEntity
  8
0
100
AcDb3dPolyline
 66
     1
 10
0.0
 20
0.0
 30
0.0
 70
     8
  0
VERTEX
  5
1BD8
330
13F0
100
AcDbEntity
  8
0
100
AcDbVertex
100
AcDb3dPolylineVertex
 10
228.2290286116156
 20
275.2076902578044
 30
0.0
 70
    32
  0
VERTEX
  5
1BD9
330
13F0
100
AcDbEntity
  8
0
100
AcDbVertex
100
AcDb3dPolylineVertex
 10
228.2310286116156
 20
275.1376902578044
 30
0.0
 70
    32
  0
VERTEX
  5
1BDA
330
13F0
100
AcDbEntity
  8
0
100
AcDbVertex
100
AcDb3dPolylineVertex
 10
228.2350286116153
 20
275.0676902578043
 30
0.0
 70
    32
  0
VERTEX
  5
1BDB
330
13F0
100
AcDbEntity
  8
0
100
AcDbVertex
100
AcDb3dPolylineVertex
 10
228.2430286116156
 20
274.9976902578044
 30
0.0
 70
    32
  0
VERTEX
  5
1BDC
330
13F0
100
AcDbEntity
  8
0
100
AcDbVertex
100
AcDb3dPolylineVertex
 10
228.2530286116154
 20
274.9276902578043
 30
0.0
 70
    32
  0
VERTEX
  5
1BDD
330
13F0
100
AcDbEntity
  8
0
100
AcDbVertex
100
AcDb3dPolylineVertex
 10
228.2670286116154
 20
274.8576902578044
 30
0.0
 70
    32
  0
VERTEX
  5
1BDE
330
13F0
100
AcDbEntity
  8
0
100
AcDbVertex
100
AcDb3dPolylineVertex
 10
228.2830286116156
 20
274.7876902578033
 30
0.0
 70
    32
  0
VERTEX
  5
1BDF
330
13F0
100
AcDbEntity
  8
0
100
AcDbVertex
100
AcDb3dPolylineVertex
 10
228.3030286116155
 20
274.7176902578043
 30
0.0
 70
    32
  0
VERTEX
  5
1BE0
330
13F0
100
AcDbEntity
  8
0
100
AcDbVertex
100
AcDb3dPolylineVertex
 10
228.3250286116154
 20
274.6476902578044
 30
0.0
 70
    32
  0
VERTEX
  5
1BE1
330
13F0
100
AcDbEntity
  8
0
100
AcDbVertex
100
AcDb3dPolylineVertex
 10
228.3500286116154
 20
274.5776902578044
 30
0.0
 70
    32
  0
VERTEX
  5
1BE2
330
13F0
100
AcDbEntity
  8
0
100
AcDbVertex
100
AcDb3dPolylineVertex
 10
228.3790286116156
 20
274.5076902578043
 30
0.0
 70
    32
  0
VERTEX
  5
1BE3
330
13F0
100
AcDbEntity
  8
0
100
AcDbVertex
100
AcDb3dPolylineVertex
 10
228.4100286116154
 20
274.4376902578044
 30
0.0
 70
    32
  0
VERTEX
  5
1BE4
330
13F0
100
AcDbEntity
  8
0
100
AcDbVertex
100
AcDb3dPolylineVertex
 10
228.4440286116154
 20
274.3676902578044
 30
0.0
 70
    32
  0
VERTEX
  5
1BE5
330
13F0
100
AcDbEntity
  8
0
100
AcDbVertex
100
AcDb3dPolylineVertex
 10
228.4810286116154
 20
274.3076902578034
 30
0.0
 70
    32
  0
VERTEX
  5
1BE6
330
13F0
100
AcDbEntity
  8
0
100
AcDbVertex
100
AcDb3dPolylineVertex
 10
228.5210286116154
 20
274.2376902578044
 30
0.0
 70
    32
  0
VERTEX
  5
1BE7
330
13F0
100
AcDbEntity
  8
0
100
AcDbVertex
100
AcDb3dPolylineVertex
 10
228.5640286116155
 20
274.1676902578043
 30
0.0
 70
    32
  0
VERTEX
  5
1BE8
330
13F0
100
AcDbEntity
  8
0
100
AcDbVertex
100
AcDb3dPolylineVertex
 10
228.6100286116154
 20
274.1076902578044
 30
0.0
 70
    32
  0
VERTEX
  5
1BE9
330
13F0
100
AcDbEntity
  8
0
100
AcDbVertex
100
AcDb3dPolylineVertex
 10
228.6580286116155
 20
274.0376902578042
 30
0.0
 70
    32
  0
VERTEX
  5
1BEA
330
13F0
100
AcDbEntity
  8
0
100
AcDbVertex
100
AcDb3dPolylineVertex
 10
228.7090286116155
 20
273.9776902578037
 30
0.0
 70
    32
  0
VERTEX
  5
1BEB
330
13F0
100
AcDbEntity
  8
0
100
AcDbVertex
100
AcDb3dPolylineVertex
 10
228.7630286116155
 20
273.9076902578044
 30
0.0
 70
    32
  0
VERTEX
  5
1BEC
330
13F0
100
AcDbEntity
  8
0
100
AcDbVertex
100
AcDb3dPolylineVertex
 10
228.8190286116154
 20
273.8476902578044
 30
0.0
 70
    32
  0
VERTEX
  5
1BED
330
13F0
100
AcDbEntity
  8
0
100
AcDbVertex
100
AcDb3dPolylineVertex
 10
228.8790286116156
 20
273.7876902578022
 30
0.0
 70
    32
  0
VERTEX
  5
1BEE
330
13F0
100
AcDbEntity
  8
0
100
AcDbVertex
100
AcDb3dPolylineVertex
 10
228.9400286116154
 20
273.7276902578043
 30
0.0
 70
    32
  0
VERTEX
  5
1BEF
330
13F0
100
AcDbEntity
  8
0
100
AcDbVertex
100
AcDb3dPolylineVertex
 10
229.0050286116156
 20
273.6676902578032
 30
0.0
 70
    32
  0
VERTEX
  5
1BF0
330
13F0
100
AcDbEntity
  8
0
100
AcDbVertex
100
AcDb3dPolylineVertex
 10
229.0720286116155
 20
273.6076902578044
 30
0.0
 70
    32
  0
VERTEX
  5
1BF1
330
13F0
100
AcDbEntity
  8
0
100
AcDbVertex
100
AcDb3dPolylineVertex
 10
229.1410286116156
 20
273.5476902578042
 30
0.0
 70
    32
  0
VERTEX
  5
1BF2
330
13F0
100
AcDbEntity
  8
0
100
AcDbVertex
100
AcDb3dPolylineVertex
 10
229.2130286116154
 20
273.4876902578042
 30
0.0
 70
    32
  0
VERTEX
  5
1BF3
330
13F0
100
AcDbEntity
  8
0
100
AcDbVertex
100
AcDb3dPolylineVertex
 10
229.2870286116154
 20
273.4376902578044
 30
0.0
 70
    32
  0
VERTEX
  5
1BF4
330
13F0
100
AcDbEntity
  8
0
100
AcDbVertex
100
AcDb3dPolylineVertex
 10
229.3640286116155
 20
273.3776902578044
 30
0.0
 70
    32
  0
VERTEX
  5
1BF5
330
13F0
100
AcDbEntity
  8
0
100
AcDbVertex
100
AcDb3dPolylineVertex
 10
229.4430286116156
 20
273.3276902578044
 30
0.0
 70
    32
  0
VERTEX
  5
1BF6
330
13F0
100
AcDbEntity
  8
0
100
AcDbVertex
100
AcDb3dPolylineVertex
 10
229.5240286116155
 20
273.2676902578043
 30
0.0
 70
    32
  0
VERTEX
  5
1BF7
330
13F0
100
AcDbEntity
  8
0
100
AcDbVertex
100
AcDb3dPolylineVertex
 10
229.6080286116155
 20
273.2176902578044
 30
0.0
 70
    32
  0
VERTEX
  5
1BF8
330
13F0
100
AcDbEntity
  8
0
100
AcDbVertex
100
AcDb3dPolylineVertex
 10
229.6930286116156
 20
273.1676902578044
 30
0.0
 70
    32
  0
VERTEX
  5
1BF9
330
13F0
100
AcDbEntity
  8
0
100
AcDbVertex
100
AcDb3dPolylineVertex
 10
229.7810286116155
 20
273.1176902578045
 30
0.0
 70
    32
  0
VERTEX
  5
1BFA
330
13F0
100
AcDbEntity
  8
0
100
AcDbVertex
100
AcDb3dPolylineVertex
 10
229.8710286116155
 20
273.0676902578033
 30
0.0
 70
    32
  0
VERTEX
  5
1BFB
330
13F0
100
AcDbEntity
  8
0
100
AcDbVertex
100
AcDb3dPolylineVertex
 10
229.9630286116156
 20
273.0276902578042
 30
0.0
 70
    32
  0
VERTEX
  5
1BFC
330
13F0
100
AcDbEntity
  8
0
100
AcDbVertex
100
AcDb3dPolylineVertex
 10
230.0570286116156
 20
272.9776902578044
 30
0.0
 70
    32
  0
VERTEX
  5
1BFD
330
13F0
100
AcDbEntity
  8
0
100
AcDbVertex
100
AcDb3dPolylineVertex
 10
230.1530286116156
 20
272.9376902578044
 30
0.0
 70
    32
  0
VERTEX
  5
1BFE
330
13F0
100
AcDbEntity
  8
0
100
AcDbVertex
100
AcDb3dPolylineVertex
 10
230.2510286116155
 20
272.8876902578044
 30
0.0
 70
    32
  0
VERTEX
  5
1BFF
330
13F0
100
AcDbEntity
  8
0
100
AcDbVertex
100
AcDb3dPolylineVertex
 10
230.3500286116154
 20
272.8476902578044
 30
0.0
 70
    32
  0
VERTEX
  5
1C00
330
13F0
100
AcDbEntity
  8
0
100
AcDbVertex
100
AcDb3dPolylineVertex
 10
230.4510286116156
 20
272.8076902578034
 30
0.0
 70
    32
  0
VERTEX
  5
1C01
330
13F0
100
AcDbEntity
  8
0
100
AcDbVertex
100
AcDb3dPolylineVertex
 10
230.5540286116155
 20
272.7676902578043
 30
0.0
 70
    32
  0
VERTEX
  5
1C02
330
13F0
100
AcDbEntity
  8
0
100
AcDbVertex
100
AcDb3dPolylineVertex
 10
230.6580286116155
 20
272.7376902578042
 30
0.0
 70
    32
  0
VERTEX
  5
1C03
330
13F0
100
AcDbEntity
  8
0
100
AcDbVertex
100
AcDb3dPolylineVertex
 10
230.7650286116154
 20
272.6976902578044
 30
0.0
 70
    32
  0
VERTEX
  5
1C04
330
13F0
100
AcDbEntity
  8
0
100
AcDbVertex
100
AcDb3dPolylineVertex
 10
230.8720286116156
 20
272.6676902578044
 30
0.0
 70
    32
  0
VERTEX
  5
1C05
330
13F0
100
AcDbEntity
  8
0
100
AcDbVertex
100
AcDb3dPolylineVertex
 10
230.9810286116156
 20
272.6276902578044
 30
0.0
 70
    32
  0
VERTEX
  5
1C06
330
13F0
100
AcDbEntity
  8
0
100
AcDbVertex
100
AcDb3dPolylineVertex
 10
231.0910286116155
 20
272.5976902578044
 30
0.0
 70
    32
  0
VERTEX
  5
1C07
330
13F0
100
AcDbEntity
  8
0
100
AcDbVertex
100
AcDb3dPolylineVertex
 10
231.2030286116155
 20
272.5676902578022
 30
0.0
 70
    32
  0
VERTEX
  5
1C08
330
13F0
100
AcDbEntity
  8
0
100
AcDbVertex
100
AcDb3dPolylineVertex
 10
231.3160286116155
 20
272.5476902578042
 30
0.0
 70
    32
  0
VERTEX
  5
1C09
330
13F0
100
AcDbEntity
  8
0
100
AcDbVertex
100
AcDb3dPolylineVertex
 10
231.4300286116155
 20
272.5176902578043
 30
0.0
 70
    32
  0
VERTEX
  5
1C0A
330
13F0
100
AcDbEntity
  8
0
100
AcDbVertex
100
AcDb3dPolylineVertex
 10
231.5450286116154
 20
272.4876902578042
 30
0.0
 70
    32
  0
VERTEX
  5
1C0B
330
13F0
100
AcDbEntity
  8
0
100
AcDbVertex
100
AcDb3dPolylineVertex
 10
231.6610286116155
 20
272.4676902578043
 30
0.0
 70
    32
  0
VERTEX
  5
1C0C
330
13F0
100
AcDbEntity
  8
0
100
AcDbVertex
100
AcDb3dPolylineVertex
 10
231.7780286116156
 20
272.4476902578036
 30
0.0
 70
    32
  0
VERTEX
  5
1C0D
330
13F0
100
AcDbEntity
  8
0
100
AcDbVertex
100
AcDb3dPolylineVertex
 10
231.8950286116156
 20
272.4276902578036
 30
0.0
 70
    32
  0
VERTEX
  5
1C0E
330
13F0
100
AcDbEntity
  8
0
100
AcDbVertex
100
AcDb3dPolylineVertex
 10
232.0140286116155
 20
272.4076902578044
 30
0.0
 70
    32
  0
VERTEX
  5
1C0F
330
13F0
100
AcDbEntity
  8
0
100
AcDbVertex
100
AcDb3dPolylineVertex
 10
232.1330286116156
 20
272.3976902578044
 30
0.0
 70
    32
  0
VERTEX
  5
1C10
330
13F0
100
AcDbEntity
  8
0
100
AcDbVertex
100
AcDb3dPolylineVertex
 10
232.2540286116154
 20
272.3776902578044
 30
0.0
 70
    32
  0
VERTEX
  5
1C11
330
13F0
100
AcDbEntity
  8
0
100
AcDbVertex
100
AcDb3dPolylineVertex
 10
232.3740286116156
 20
272.3676902578044
 30
0.0
 70
    32
  0
VERTEX
  5
1C12
330
13F0
100
AcDbEntity
  8
0
100
AcDbVertex
100
AcDb3dPolylineVertex
 10
232.4950286116155
 20
272.3576902578044
 30
0.0
 70
    32
  0
VERTEX
  5
1C13
330
13F0
100
AcDbEntity
  8
0
100
AcDbVertex
100
AcDb3dPolylineVertex
 10
232.6170286116155
 20
272.3476902578044
 30
0.0
 70
    32
  0
VERTEX
  5
1C14
330
13F0
100
AcDbEntity
  8
0
100
AcDbVertex
100
AcDb3dPolylineVertex
 10
232.7390286116155
 20
272.3376902578044
 30
0.0
 70
    32
  0
VERTEX
  5
1C15
330
13F0
100
AcDbEntity
  8
0
100
AcDbVertex
100
AcDb3dPolylineVertex
 10
232.8610286116155
 20
272.3276902578045
 30
0.0
 70
    32
  0
VERTEX
  5
1C16
330
13F0
100
AcDbEntity
  8
0
100
AcDbVertex
100
AcDb3dPolylineVertex
 10
232.9840286116156
 20
272.3276902578045
 30
0.0
 70
    32
  0
VERTEX
  5
1C17
330
13F0
100
AcDbEntity
  8
0
100
AcDbVertex
100
AcDb3dPolylineVertex
 10
233.1060286116156
 20
272.3276902578045
 30
0.0
 70
    32
  0
VERTEX
  5
1C18
330
13F0
100
AcDbEntity
  8
0
100
AcDbVertex
100
AcDb3dPolylineVertex
 10
233.2290286116156
 20
272.3276902578045
 30
0.0
 70
    32
  0
VERTEX
  5
1C19
330
13F0
100
AcDbEntity
  8
0
100
AcDbVertex
100
AcDb3dPolylineVertex
 10
233.3520286116156
 20
272.3276902578045
 30
0.0
 70
    32
  0
VERTEX
  5
1C1A
330
13F0
100
AcDbEntity
  8
0
100
AcDbVertex
100
AcDb3dPolylineVertex
 10
233.4740286116156
 20
272.3276902578045
 30
0.0
 70
    32
  0
VERTEX
  5
1C1B
330
13F0
100
AcDbEntity
  8
0
100
AcDbVertex
100
AcDb3dPolylineVertex
 10
233.5970286116156
 20
272.3276902578045
 30
0.0
 70
    32
  0
VERTEX
  5
1C1C
330
13F0
100
AcDbEntity
  8
0
100
AcDbVertex
100
AcDb3dPolylineVertex
 10
233.7190286116156
 20
272.3376902578044
 30
0.0
 70
    32
  0
VERTEX
  5
1C1D
330
13F0
100
AcDbEntity
  8
0
100
AcDbVertex
100
AcDb3dPolylineVertex
 10
233.8410286116156
 20
272.3476902578044
 30
0.0
 70
    32
  0
VERTEX
  5
1C1E
330
13F0
100
AcDbEntity
  8
0
100
AcDbVertex
100
AcDb3dPolylineVertex
 10
233.9630286116156
 20
272.3576902578044
 30
0.0
 70
    32
  0
VERTEX
  5
1C1F
330
13F0
100
AcDbEntity
  8
0
100
AcDbVertex
100
AcDb3dPolylineVertex
 10
234.0840286116156
 20
272.3676902578044
 30
0.0
 70
    32
  0
VERTEX
  5
1C20
330
13F0
100
AcDbEntity
  8
0
100
AcDbVertex
100
AcDb3dPolylineVertex
 10
234.2040286116155
 20
272.3776902578044
 30
0.0
 70
    32
  0
VERTEX
  5
1C21
330
13F0
100
AcDbEntity
  8
0
100
AcDbVertex
100
AcDb3dPolylineVertex
 10
234.3250286116154
 20
272.3976902578044
 30
0.0
 70
    32
  0
VERTEX
  5
1C22
330
13F0
100
AcDbEntity
  8
0
100
AcDbVertex
100
AcDb3dPolylineVertex
 10
234.4440286116156
 20
272.4076902578044
 30
0.0
 70
    32
  0
VERTEX
  5
1C23
330
13F0
100
AcDbEntity
  8
0
100
AcDbVertex
100
AcDb3dPolylineVertex
 10
234.5630286116155
 20
272.4276902578036
 30
0.0
 70
    32
  0
VERTEX
  5
1C24
330
13F0
100
AcDbEntity
  8
0
100
AcDbVertex
100
AcDb3dPolylineVertex
 10
234.6800286116156
 20
272.4476902578036
 30
0.0
 70
    32
  0
VERTEX
  5
1C25
330
13F0
100
AcDbEntity
  8
0
100
AcDbVertex
100
AcDb3dPolylineVertex
 10
234.7970286116154
 20
272.4676902578043
 30
0.0
 70
    32
  0
VERTEX
  5
1C26
330
13F0
100
AcDbEntity
  8
0
100
AcDbVertex
100
AcDb3dPolylineVertex
 10
234.9130286116156
 20
272.4876902578042
 30
0.0
 70
    32
  0
VERTEX
  5
1C27
330
13F0
100
AcDbEntity
  8
0
100
AcDbVertex
100
AcDb3dPolylineVertex
 10
235.0280286116156
 20
272.5176902578043
 30
0.0
 70
    32
  0
VERTEX
  5
1C28
330
13F0
100
AcDbEntity
  8
0
100
AcDbVertex
100
AcDb3dPolylineVertex
 10
235.1420286116154
 20
272.5476902578042
 30
0.0
 70
    32
  0
VERTEX
  5
1C29
330
13F0
100
AcDbEntity
  8
0
100
AcDbVertex
100
AcDb3dPolylineVertex
 10
235.2550286116154
 20
272.5676902578022
 30
0.0
 70
    32
  0
VERTEX
  5
1C2A
330
13F0
100
AcDbEntity
  8
0
100
AcDbVertex
100
AcDb3dPolylineVertex
 10
235.3670286116156
 20
272.5976902578044
 30
0.0
 70
    32
  0
VERTEX
  5
1C2B
330
13F0
100
AcDbEntity
  8
0
100
AcDbVertex
100
AcDb3dPolylineVertex
 10
235.4770286116155
 20
272.6276902578044
 30
0.0
 70
    32
  0
VERTEX
  5
1C2C
330
13F0
100
AcDbEntity
  8
0
100
AcDbVertex
100
AcDb3dPolylineVertex
 10
235.5860286116154
 20
272.6676902578044
 30
0.0
 70
    32
  0
VERTEX
  5
1C2D
330
13F0
100
AcDbEntity
  8
0
100
AcDbVertex
100
AcDb3dPolylineVertex
 10
235.6930286116156
 20
272.6976902578044
 30
0.0
 70
    32
  0
VERTEX
  5
1C2E
330
13F0
100
AcDbEntity
  8
0
100
AcDbVertex
100
AcDb3dPolylineVertex
 10
235.8000286116156
 20
272.7376902578042
 30
0.0
 70
    32
  0
VERTEX
  5
1C2F
330
13F0
100
AcDbEntity
  8
0
100
AcDbVertex
100
AcDb3dPolylineVertex
 10
235.9040286116155
 20
272.7676902578043
 30
0.0
 70
    32
  0
VERTEX
  5
1C30
330
13F0
100
AcDbEntity
  8
0
100
AcDbVertex
100
AcDb3dPolylineVertex
 10
236.0070286116155
 20
272.8076902578034
 30
0.0
 70
    32
  0
VERTEX
  5
1C31
330
13F0
100
AcDbEntity
  8
0
100
AcDbVertex
100
AcDb3dPolylineVertex
 10
236.1080286116155
 20
272.8476902578044
 30
0.0
 70
    32
  0
VERTEX
  5
1C32
330
13F0
100
AcDbEntity
  8
0
100
AcDbVertex
100
AcDb3dPolylineVertex
 10
236.2070286116153
 20
272.8876902578044
 30
0.0
 70
    32
  0
VERTEX
  5
1C33
330
13F0
100
AcDbEntity
  8
0
100
AcDbVertex
100
AcDb3dPolylineVertex
 10
236.3050286116155
 20
272.9376902578044
 30
0.0
 70
    32
  0
VERTEX
  5
1C34
330
13F0
100
AcDbEntity
  8
0
100
AcDbVertex
100
AcDb3dPolylineVertex
 10
236.4010286116154
 20
272.9776902578044
 30
0.0
 70
    32
  0
VERTEX
  5
1C35
330
13F0
100
AcDbEntity
  8
0
100
AcDbVertex
100
AcDb3dPolylineVertex
 10
236.4950286116155
 20
273.0276902578042
 30
0.0
 70
    32
  0
VERTEX
  5
1C36
330
13F0
100
AcDbEntity
  8
0
100
AcDbVertex
100
AcDb3dPolylineVertex
 10
236.5870286116156
 20
273.0676902578033
 30
0.0
 70
    32
  0
VERTEX
  5
1C37
330
13F0
100
AcDbEntity
  8
0
100
AcDbVertex
100
AcDb3dPolylineVertex
 10
236.6770286116154
 20
273.1176902578045
 30
0.0
 70
    32
  0
VERTEX
  5
1C38
330
13F0
100
AcDbEntity
  8
0
100
AcDbVertex
100
AcDb3dPolylineVertex
 10
236.7650286116154
 20
273.1676902578044
 30
0.0
 70
    32
  0
VERTEX
  5
1C39
330
13F0
100
AcDbEntity
  8
0
100
AcDbVertex
100
AcDb3dPolylineVertex
 10
236.8500286116155
 20
273.2176902578044
 30
0.0
 70
    32
  0
VERTEX
  5
1C3A
330
13F0
100
AcDbEntity
  8
0
100
AcDbVertex
100
AcDb3dPolylineVertex
 10
236.9340286116155
 20
273.2676902578043
 30
0.0
 70
    32
  0
VERTEX
  5
1C3B
330
13F0
100
AcDbEntity
  8
0
100
AcDbVertex
100
AcDb3dPolylineVertex
 10
237.0150286116154
 20
273.3276902578044
 30
0.0
 70
    32
  0
VERTEX
  5
1C3C
330
13F0
100
AcDbEntity
  8
0
100
AcDbVertex
100
AcDb3dPolylineVertex
 10
237.0940286116156
 20
273.3776902578044
 30
0.0
 70
    32
  0
VERTEX
  5
1C3D
330
13F0
100
AcDbEntity
  8
0
100
AcDbVertex
100
AcDb3dPolylineVertex
 10
237.1710286116156
 20
273.4376902578044
 30
0.0
 70
    32
  0
VERTEX
  5
1C3E
330
13F0
100
AcDbEntity
  8
0
100
AcDbVertex
100
AcDb3dPolylineVertex
 10
237.2450286116155
 20
273.4876902578042
 30
0.0
 70
    32
  0
VERTEX
  5
1C3F
330
13F0
100
AcDbEntity
  8
0
100
AcDbVertex
100
AcDb3dPolylineVertex
 10
237.3170286116156
 20
273.5476902578042
 30
0.0
 70
    32
  0
VERTEX
  5
1C40
330
13F0
100
AcDbEntity
  8
0
100
AcDbVertex
100
AcDb3dPolylineVertex
 10
237.3860286116156
 20
273.6076902578044
 30
0.0
 70
    32
  0
VERTEX
  5
1C41
330
13F0
100
AcDbEntity
  8
0
100
AcDbVertex
100
AcDb3dPolylineVertex
 10
237.4530286116156
 20
273.6676902578032
 30
0.0
 70
    32
  0
VERTEX
  5
1C42
330
13F0
100
AcDbEntity
  8
0
100
AcDbVertex
100
AcDb3dPolylineVertex
 10
237.5180286116155
 20
273.7276902578043
 30
0.0
 70
    32
  0
VERTEX
  5
1C43
330
13F0
100
AcDbEntity
  8
0
100
AcDbVertex
100
AcDb3dPolylineVertex
 10
237.5790286116155
 20
273.7876902578022
 30
0.0
 70
    32
  0
VERTEX
  5
1C44
330
13F0
100
AcDbEntity
  8
0
100
AcDbVertex
100
AcDb3dPolylineVertex
 10
237.6390286116154
 20
273.8476902578044
 30
0.0
 70
    32
  0
VERTEX
  5
1C45
330
13F0
100
AcDbEntity
  8
0
100
AcDbVertex
100
AcDb3dPolylineVertex
 10
237.6950286116155
 20
273.9076902578044
 30
0.0
 70
    32
  0
VERTEX
  5
1C46
330
13F0
100
AcDbEntity
  8
0
100
AcDbVertex
100
AcDb3dPolylineVertex
 10
237.7490286116154
 20
273.9776902578037
 30
0.0
 70
    32
  0
VERTEX
  5
1C47
330
13F0
100
AcDbEntity
  8
0
100
AcDbVertex
100
AcDb3dPolylineVertex
 10
237.8000286116156
 20
274.0376902578042
 30
0.0
 70
    32
  0
VERTEX
  5
1C48
330
13F0
100
AcDbEntity
  8
0
100
AcDbVertex
100
AcDb3dPolylineVertex
 10
237.8480286116156
 20
274.1076902578044
 30
0.0
 70
    32
  0
VERTEX
  5
1C49
330
13F0
100
AcDbEntity
  8
0
100
AcDbVertex
100
AcDb3dPolylineVertex
 10
237.8940286116156
 20
274.1676902578043
 30
0.0
 70
    32
  0
VERTEX
  5
1C4A
330
13F0
100
AcDbEntity
  8
0
100
AcDbVertex
100
AcDb3dPolylineVertex
 10
237.9370286116154
 20
274.2376902578044
 30
0.0
 70
    32
  0
VERTEX
  5
1C4B
330
13F0
100
AcDbEntity
  8
0
100
AcDbVertex
100
AcDb3dPolylineVertex
 10
237.9770286116155
 20
274.3076902578034
 30
0.0
 70
    32
  0
VERTEX
  5
1C4C
330
13F0
100
AcDbEntity
  8
0
100
AcDbVertex
100
AcDb3dPolylineVertex
 10
238.0140286116155
 20
274.3676902578044
 30
0.0
 70
    32
  0
VERTEX
  5
1C4D
330
13F0
100
AcDbEntity
  8
0
100
AcDbVertex
100
AcDb3dPolylineVertex
 10
238.0480286116155
 20
274.4376902578044
 30
0.0
 70
    32
  0
VERTEX
  5
1C4E
330
13F0
100
AcDbEntity
  8
0
100
AcDbVertex
100
AcDb3dPolylineVertex
 10
238.0790286116155
 20
274.5076902578043
 30
0.0
 70
    32
  0
VERTEX
  5
1C4F
330
13F0
100
AcDbEntity
  8
0
100
AcDbVertex
100
AcDb3dPolylineVertex
 10
238.1080286116155
 20
274.5776902578044
 30
0.0
 70
    32
  0
VERTEX
  5
1C50
330
13F0
100
AcDbEntity
  8
0
100
AcDbVertex
100
AcDb3dPolylineVertex
 10
238.1330286116156
 20
274.6476902578044
 30
0.0
 70
    32
  0
VERTEX
  5
1C51
330
13F0
100
AcDbEntity
  8
0
100
AcDbVertex
100
AcDb3dPolylineVertex
 10
238.1550286116155
 20
274.7176902578043
 30
0.0
 70
    32
  0
VERTEX
  5
1C52
330
13F0
100
AcDbEntity
  8
0
100
AcDbVertex
100
AcDb3dPolylineVertex
 10
238.1750286116154
 20
274.7876902578033
 30
0.0
 70
    32
  0
VERTEX
  5
1C53
330
13F0
100
AcDbEntity
  8
0
100
AcDbVertex
100
AcDb3dPolylineVertex
 10
238.1910286116155
 20
274.8576902578044
 30
0.0
 70
    32
  0
VERTEX
  5
1C54
330
13F0
100
AcDbEntity
  8
0
100
AcDbVertex
100
AcDb3dPolylineVertex
 10
238.2050286116156
 20
274.9276902578043
 30
0.0
 70
    32
  0
VERTEX
  5
1C55
330
13F0
100
AcDbEntity
  8
0
100
AcDbVertex
100
AcDb3dPolylineVertex
 10
238.2150286116155
 20
274.9976902578044
 30
0.0
 70
    32
  0
VERTEX
  5
1C56
330
13F0
100
AcDbEntity
  8
0
100
AcDbVertex
100
AcDb3dPolylineVertex
 10
238.2230286116155
 20
275.0676902578043
 30
0.0
 70
    32
  0
VERTEX
  5
1C57
330
13F0
100
AcDbEntity
  8
0
100
AcDbVertex
100
AcDb3dPolylineVertex
 10
238.2270286116156
 20
275.1376902578044
 30
0.0
 70
    32
  0
VERTEX
  5
1C58
330
13F0
100
AcDbEntity
  8
0
100
AcDbVertex
100
AcDb3dPolylineVertex
 10
238.2290286116155
 20
275.2076902578044
 30
0.0
 70
    32
  0
SEQEND
  5
1C59
330
13F0
100
AcDbEntity
  8
0
  0
POLYLINE
  5
13F1
330
2B13
100
AcDbEntity
  8
0
100
AcDb3dPolyline
 66
     1
 10
0.0
 20
0.0
 30
0.0
 70
     8
  0
VERTEX
  5
1C5A
330
13F1
100
AcDbEntity
  8
0
100
AcDbVertex
100
AcDb3dPolylineVertex
 10
238.2290286116155
 20
279.8476902578044
 30
0.0
 70
    32
  0
VERTEX
  5
1C5B
330
13F1
100
AcDbEntity
  8
0
100
AcDbVertex
100
AcDb3dPolylineVertex
 10
238.2270286116156
 20
279.917690257802
 30
0.0
 70
    32
  0
VERTEX
  5
1C5C
330
13F1
100
AcDbEntity
  8
0
100
AcDbVertex
100
AcDb3dPolylineVertex
 10
238.2230286116155
 20
279.9876902578044
 30
0.0
 70
    32
  0
VERTEX
  5
1C5D
330
13F1
100
AcDbEntity
  8
0
100
AcDbVertex
100
AcDb3dPolylineVertex
 10
238.2150286116155
 20
280.0576902578043
 30
0.0
 70
    32
  0
VERTEX
  5
1C5E
330
13F1
100
AcDbEntity
  8
0
100
AcDbVertex
100
AcDb3dPolylineVertex
 10
238.2050286116156
 20
280.1276902578044
 30
0.0
 70
    32
  0
VERTEX
  5
1C5F
330
13F1
100
AcDbEntity
  8
0
100
AcDbVertex
100
AcDb3dPolylineVertex
 10
238.1910286116155
 20
280.1976902578044
 30
0.0
 70
    32
  0
VERTEX
  5
1C60
330
13F1
100
AcDbEntity
  8
0
100
AcDbVertex
100
AcDb3dPolylineVertex
 10
238.1750286116154
 20
280.2676902578033
 30
0.0
 70
    32
  0
VERTEX
  5
1C61
330
13F1
100
AcDbEntity
  8
0
100
AcDbVertex
100
AcDb3dPolylineVertex
 10
238.1550286116155
 20
280.3376902578044
 30
0.0
 70
    32
  0
VERTEX
  5
1C62
330
13F1
100
AcDbEntity
  8
0
100
AcDbVertex
100
AcDb3dPolylineVertex
 10
238.1330286116156
 20
280.4076902578044
 30
0.0
 70
    32
  0
VERTEX
  5
1C63
330
13F1
100
AcDbEntity
  8
0
100
AcDbVertex
100
AcDb3dPolylineVertex
 10
238.1080286116155
 20
280.4776902578044
 30
0.0
 70
    32
  0
VERTEX
  5
1C64
330
13F1
100
AcDbEntity
  8
0
100
AcDbVertex
100
AcDb3dPolylineVertex
 10
238.0790286116155
 20
280.5476902578034
 30
0.0
 70
    32
  0
VERTEX
  5
1C65
330
13F1
100
AcDbEntity
  8
0
100
AcDbVertex
100
AcDb3dPolylineVertex
 10
238.0480286116155
 20
280.6176902578044
 30
0.0
 70
    32
  0
VERTEX
  5
1C66
330
13F1
100
AcDbEntity
  8
0
100
AcDbVertex
100
AcDb3dPolylineVertex
 10
238.0140286116155
 20
280.6876902578037
 30
0.0
 70
    32
  0
VERTEX
  5
1C67
330
13F1
100
AcDbEntity
  8
0
100
AcDbVertex
100
AcDb3dPolylineVertex
 10
237.9770286116155
 20
280.7476902578043
 30
0.0
 70
    32
  0
VERTEX
  5
1C68
330
13F1
100
AcDbEntity
  8
0
100
AcDbVertex
100
AcDb3dPolylineVertex
 10
237.9370286116154
 20
280.8176902578043
 30
0.0
 70
    32
  0
VERTEX
  5
1C69
330
13F1
100
AcDbEntity
  8
0
100
AcDbVertex
100
AcDb3dPolylineVertex
 10
237.8940286116156
 20
280.8876902578044
 30
0.0
 70
    32
  0
VERTEX
  5
1C6A
330
13F1
100
AcDbEntity
  8
0
100
AcDbVertex
100
AcDb3dPolylineVertex
 10
237.8480286116156
 20
280.9476902578044
 30
0.0
 70
    32
  0
VERTEX
  5
1C6B
330
13F1
100
AcDbEntity
  8
0
100
AcDbVertex
100
AcDb3dPolylineVertex
 10
237.8000286116156
 20
281.0176902578033
 30
0.0
 70
    32
  0
VERTEX
  5
1C6C
330
13F1
100
AcDbEntity
  8
0
100
AcDbVertex
100
AcDb3dPolylineVertex
 10
237.7490286116154
 20
281.0776902578044
 30
0.0
 70
    32
  0
VERTEX
  5
1C6D
330
13F1
100
AcDbEntity
  8
0
100
AcDbVertex
100
AcDb3dPolylineVertex
 10
237.6950286116155
 20
281.1476902578044
 30
0.0
 70
    32
  0
VERTEX
  5
1C6E
330
13F1
100
AcDbEntity
  8
0
100
AcDbVertex
100
AcDb3dPolylineVertex
 10
237.6390286116154
 20
281.2076902578044
 30
0.0
 70
    32
  0
VERTEX
  5
1C6F
330
13F1
100
AcDbEntity
  8
0
100
AcDbVertex
100
AcDb3dPolylineVertex
 10
237.5790286116155
 20
281.2676902578033
 30
0.0
 70
    32
  0
VERTEX
  5
1C70
330
13F1
100
AcDbEntity
  8
0
100
AcDbVertex
100
AcDb3dPolylineVertex
 10
237.5180286116155
 20
281.3276902578044
 30
0.0
 70
    32
  0
VERTEX
  5
1C71
330
13F1
100
AcDbEntity
  8
0
100
AcDbVertex
100
AcDb3dPolylineVertex
 10
237.4530286116156
 20
281.3876902578044
 30
0.0
 70
    32
  0
VERTEX
  5
1C72
330
13F1
100
AcDbEntity
  8
0
100
AcDbVertex
100
AcDb3dPolylineVertex
 10
237.3860286116156
 20
281.4476902578044
 30
0.0
 70
    32
  0
VERTEX
  5
1C73
330
13F1
100
AcDbEntity
  8
0
100
AcDbVertex
100
AcDb3dPolylineVertex
 10
237.3170286116156
 20
281.5076902578043
 30
0.0
 70
    32
  0
VERTEX
  5
1C74
330
13F1
100
AcDbEntity
  8
0
100
AcDbVertex
100
AcDb3dPolylineVertex
 10
237.2450286116155
 20
281.5676902578043
 30
0.0
 70
    32
  0
VERTEX
  5
1C75
330
13F1
100
AcDbEntity
  8
0
100
AcDbVertex
100
AcDb3dPolylineVertex
 10
237.1710286116156
 20
281.6276902578043
 30
0.0
 70
    32
  0
VERTEX
  5
1C76
330
13F1
100
AcDbEntity
  8
0
100
AcDbVertex
100
AcDb3dPolylineVertex
 10
237.0940286116156
 20
281.6776902578043
 30
0.0
 70
    32
  0
VERTEX
  5
1C77
330
13F1
100
AcDbEntity
  8
0
100
AcDbVertex
100
AcDb3dPolylineVertex
 10
237.0150286116154
 20
281.7276902578043
 30
0.0
 70
    32
  0
VERTEX
  5
1C78
330
13F1
100
AcDbEntity
  8
0
100
AcDbVertex
100
AcDb3dPolylineVertex
 10
236.9340286116155
 20
281.7876902578033
 30
0.0
 70
    32
  0
VERTEX
  5
1C79
330
13F1
100
AcDbEntity
  8
0
100
AcDbVertex
100
AcDb3dPolylineVertex
 10
236.8500286116155
 20
281.8376902578044
 30
0.0
 70
    32
  0
VERTEX
  5
1C7A
330
13F1
100
AcDbEntity
  8
0
100
AcDbVertex
100
AcDb3dPolylineVertex
 10
236.7650286116154
 20
281.8876902578043
 30
0.0
 70
    32
  0
VERTEX
  5
1C7B
330
13F1
100
AcDbEntity
  8
0
100
AcDbVertex
100
AcDb3dPolylineVertex
 10
236.6770286116154
 20
281.9376902578044
 30
0.0
 70
    32
  0
VERTEX
  5
1C7C
330
13F1
100
AcDbEntity
  8
0
100
AcDbVertex
100
AcDb3dPolylineVertex
 10
236.5870286116156
 20
281.9876902578044
 30
0.0
 70
    32
  0
VERTEX
  5
1C7D
330
13F1
100
AcDbEntity
  8
0
100
AcDbVertex
100
AcDb3dPolylineVertex
 10
236.4950286116155
 20
282.0376902578042
 30
0.0
 70
    32
  0
VERTEX
  5
1C7E
330
13F1
100
AcDbEntity
  8
0
100
AcDbVertex
100
AcDb3dPolylineVertex
 10
236.4010286116154
 20
282.0776902578044
 30
0.0
 70
    32
  0
VERTEX
  5
1C7F
330
13F1
100
AcDbEntity
  8
0
100
AcDbVertex
100
AcDb3dPolylineVertex
 10
236.3050286116155
 20
282.1176902578045
 30
0.0
 70
    32
  0
VERTEX
  5
1C80
330
13F1
100
AcDbEntity
  8
0
100
AcDbVertex
100
AcDb3dPolylineVertex
 10
236.2070286116153
 20
282.1676902578044
 30
0.0
 70
    32
  0
VERTEX
  5
1C81
330
13F1
100
AcDbEntity
  8
0
100
AcDbVertex
100
AcDb3dPolylineVertex
 10
236.1080286116155
 20
282.2076902578036
 30
0.0
 70
    32
  0
VERTEX
  5
1C82
330
13F1
100
AcDbEntity
  8
0
100
AcDbVertex
100
AcDb3dPolylineVertex
 10
236.0070286116155
 20
282.2476902578043
 30
0.0
 70
    32
  0
VERTEX
  5
1C83
330
13F1
100
AcDbEntity
  8
0
100
AcDbVertex
100
AcDb3dPolylineVertex
 10
235.9040286116155
 20
282.2876902578043
 30
0.0
 70
    32
  0
VERTEX
  5
1C84
330
13F1
100
AcDbEntity
  8
0
100
AcDbVertex
100
AcDb3dPolylineVertex
 10
235.8000286116156
 20
282.3276902578021
 30
0.0
 70
    32
  0
VERTEX
  5
1C85
330
13F1
100
AcDbEntity
  8
0
100
AcDbVertex
100
AcDb3dPolylineVertex
 10
235.6930286116156
 20
282.3576902578045
 30
0.0
 70
    32
  0
VERTEX
  5
1C86
330
13F1
100
AcDbEntity
  8
0
100
AcDbVertex
100
AcDb3dPolylineVertex
 10
235.5860286116154
 20
282.3976902578043
 30
0.0
 70
    32
  0
VERTEX
  5
1C87
330
13F1
100
AcDbEntity
  8
0
100
AcDbVertex
100
AcDb3dPolylineVertex
 10
235.4770286116155
 20
282.4276902578044
 30
0.0
 70
    32
  0
VERTEX
  5
1C88
330
13F1
100
AcDbEntity
  8
0
100
AcDbVertex
100
AcDb3dPolylineVertex
 10
235.3670286116156
 20
282.4576902578043
 30
0.0
 70
    32
  0
VERTEX
  5
1C89
330
13F1
100
AcDbEntity
  8
0
100
AcDbVertex
100
AcDb3dPolylineVertex
 10
235.2550286116154
 20
282.4876902578036
 30
0.0
 70
    32
  0
VERTEX
  5
1C8A
330
13F1
100
AcDbEntity
  8
0
100
AcDbVertex
100
AcDb3dPolylineVertex
 10
235.1420286116154
 20
282.5176902578034
 30
0.0
 70
    32
  0
VERTEX
  5
1C8B
330
13F1
100
AcDbEntity
  8
0
100
AcDbVertex
100
AcDb3dPolylineVertex
 10
235.0280286116156
 20
282.5376902578033
 30
0.0
 70
    32
  0
VERTEX
  5
1C8C
330
13F1
100
AcDbEntity
  8
0
100
AcDbVertex
100
AcDb3dPolylineVertex
 10
234.9130286116156
 20
282.5676902578034
 30
0.0
 70
    32
  0
VERTEX
  5
1C8D
330
13F1
100
AcDbEntity
  8
0
100
AcDbVertex
100
AcDb3dPolylineVertex
 10
234.7970286116154
 20
282.5876902578044
 30
0.0
 70
    32
  0
VERTEX
  5
1C8E
330
13F1
100
AcDbEntity
  8
0
100
AcDbVertex
100
AcDb3dPolylineVertex
 10
234.6800286116156
 20
282.6076902578045
 30
0.0
 70
    32
  0
VERTEX
  5
1C8F
330
13F1
100
AcDbEntity
  8
0
100
AcDbVertex
100
AcDb3dPolylineVertex
 10
234.5630286116155
 20
282.6276902578022
 30
0.0
 70
    32
  0
VERTEX
  5
1C90
330
13F1
100
AcDbEntity
  8
0
100
AcDbVertex
100
AcDb3dPolylineVertex
 10
234.4440286116156
 20
282.6476902578043
 30
0.0
 70
    32
  0
VERTEX
  5
1C91
330
13F1
100
AcDbEntity
  8
0
100
AcDbVertex
100
AcDb3dPolylineVertex
 10
234.3250286116154
 20
282.6676902578043
 30
0.0
 70
    32
  0
VERTEX
  5
1C92
330
13F1
100
AcDbEntity
  8
0
100
AcDbVertex
100
AcDb3dPolylineVertex
 10
234.2040286116155
 20
282.6776902578044
 30
0.0
 70
    32
  0
VERTEX
  5
1C93
330
13F1
100
AcDbEntity
  8
0
100
AcDbVertex
100
AcDb3dPolylineVertex
 10
234.0840286116156
 20
282.6876902578043
 30
0.0
 70
    32
  0
VERTEX
  5
1C94
330
13F1
100
AcDbEntity
  8
0
100
AcDbVertex
100
AcDb3dPolylineVertex
 10
233.9630286116156
 20
282.6976902578043
 30
0.0
 70
    32
  0
VERTEX
  5
1C95
330
13F1
100
AcDbEntity
  8
0
100
AcDbVertex
100
AcDb3dPolylineVertex
 10
233.8410286116156
 20
282.7076902578043
 30
0.0
 70
    32
  0
VERTEX
  5
1C96
330
13F1
100
AcDbEntity
  8
0
100
AcDbVertex
100
AcDb3dPolylineVertex
 10
233.7190286116156
 20
282.7176902578042
 30
0.0
 70
    32
  0
VERTEX
  5
1C97
330
13F1
100
AcDbEntity
  8
0
100
AcDbVertex
100
AcDb3dPolylineVertex
 10
233.5970286116156
 20
282.7276902578044
 30
0.0
 70
    32
  0
VERTEX
  5
1C98
330
13F1
100
AcDbEntity
  8
0
100
AcDbVertex
100
AcDb3dPolylineVertex
 10
233.4740286116156
 20
282.7276902578044
 30
0.0
 70
    32
  0
VERTEX
  5
1C99
330
13F1
100
AcDbEntity
  8
0
100
AcDbVertex
100
AcDb3dPolylineVertex
 10
233.3520286116156
 20
282.7376902578042
 30
0.0
 70
    32
  0
VERTEX
  5
1C9A
330
13F1
100
AcDbEntity
  8
0
100
AcDbVertex
100
AcDb3dPolylineVertex
 10
233.2290286116156
 20
282.7376902578042
 30
0.0
 70
    32
  0
VERTEX
  5
1C9B
330
13F1
100
AcDbEntity
  8
0
100
AcDbVertex
100
AcDb3dPolylineVertex
 10
233.1060286116156
 20
282.7376902578042
 30
0.0
 70
    32
  0
VERTEX
  5
1C9C
330
13F1
100
AcDbEntity
  8
0
100
AcDbVertex
100
AcDb3dPolylineVertex
 10
232.9840286116156
 20
282.7276902578044
 30
0.0
 70
    32
  0
VERTEX
  5
1C9D
330
13F1
100
AcDbEntity
  8
0
100
AcDbVertex
100
AcDb3dPolylineVertex
 10
232.8610286116155
 20
282.7276902578044
 30
0.0
 70
    32
  0
VERTEX
  5
1C9E
330
13F1
100
AcDbEntity
  8
0
100
AcDbVertex
100
AcDb3dPolylineVertex
 10
232.7390286116155
 20
282.7176902578042
 30
0.0
 70
    32
  0
VERTEX
  5
1C9F
330
13F1
100
AcDbEntity
  8
0
100
AcDbVertex
100
AcDb3dPolylineVertex
 10
232.6170286116155
 20
282.7076902578043
 30
0.0
 70
    32
  0
VERTEX
  5
1CA0
330
13F1
100
AcDbEntity
  8
0
100
AcDbVertex
100
AcDb3dPolylineVertex
 10
232.4950286116155
 20
282.6976902578043
 30
0.0
 70
    32
  0
VERTEX
  5
1CA1
330
13F1
100
AcDbEntity
  8
0
100
AcDbVertex
100
AcDb3dPolylineVertex
 10
232.3740286116156
 20
282.6876902578043
 30
0.0
 70
    32
  0
VERTEX
  5
1CA2
330
13F1
100
AcDbEntity
  8
0
100
AcDbVertex
100
AcDb3dPolylineVertex
 10
232.2540286116154
 20
282.6776902578044
 30
0.0
 70
    32
  0
VERTEX
  5
1CA3
330
13F1
100
AcDbEntity
  8
0
100
AcDbVertex
100
AcDb3dPolylineVertex
 10
232.1330286116156
 20
282.6676902578043
 30
0.0
 70
    32
  0
VERTEX
  5
1CA4
330
13F1
100
AcDbEntity
  8
0
100
AcDbVertex
100
AcDb3dPolylineVertex
 10
232.0140286116155
 20
282.6476902578043
 30
0.0
 70
    32
  0
VERTEX
  5
1CA5
330
13F1
100
AcDbEntity
  8
0
100
AcDbVertex
100
AcDb3dPolylineVertex
 10
231.8950286116156
 20
282.6276902578022
 30
0.0
 70
    32
  0
VERTEX
  5
1CA6
330
13F1
100
AcDbEntity
  8
0
100
AcDbVertex
100
AcDb3dPolylineVertex
 10
231.7780286116156
 20
282.6076902578045
 30
0.0
 70
    32
  0
VERTEX
  5
1CA7
330
13F1
100
AcDbEntity
  8
0
100
AcDbVertex
100
AcDb3dPolylineVertex
 10
231.6610286116155
 20
282.5876902578044
 30
0.0
 70
    32
  0
VERTEX
  5
1CA8
330
13F1
100
AcDbEntity
  8
0
100
AcDbVertex
100
AcDb3dPolylineVertex
 10
231.5450286116154
 20
282.5676902578034
 30
0.0
 70
    32
  0
VERTEX
  5
1CA9
330
13F1
100
AcDbEntity
  8
0
100
AcDbVertex
100
AcDb3dPolylineVertex
 10
231.4300286116155
 20
282.5376902578033
 30
0.0
 70
    32
  0
VERTEX
  5
1CAA
330
13F1
100
AcDbEntity
  8
0
100
AcDbVertex
100
AcDb3dPolylineVertex
 10
231.3160286116155
 20
282.5176902578034
 30
0.0
 70
    32
  0
VERTEX
  5
1CAB
330
13F1
100
AcDbEntity
  8
0
100
AcDbVertex
100
AcDb3dPolylineVertex
 10
231.2030286116155
 20
282.4876902578036
 30
0.0
 70
    32
  0
VERTEX
  5
1CAC
330
13F1
100
AcDbEntity
  8
0
100
AcDbVertex
100
AcDb3dPolylineVertex
 10
231.0910286116155
 20
282.4576902578043
 30
0.0
 70
    32
  0
VERTEX
  5
1CAD
330
13F1
100
AcDbEntity
  8
0
100
AcDbVertex
100
AcDb3dPolylineVertex
 10
230.9810286116156
 20
282.4276902578044
 30
0.0
 70
    32
  0
VERTEX
  5
1CAE
330
13F1
100
AcDbEntity
  8
0
100
AcDbVertex
100
AcDb3dPolylineVertex
 10
230.8720286116156
 20
282.3976902578043
 30
0.0
 70
    32
  0
VERTEX
  5
1CAF
330
13F1
100
AcDbEntity
  8
0
100
AcDbVertex
100
AcDb3dPolylineVertex
 10
230.7650286116154
 20
282.3576902578045
 30
0.0
 70
    32
  0
VERTEX
  5
1CB0
330
13F1
100
AcDbEntity
  8
0
100
AcDbVertex
100
AcDb3dPolylineVertex
 10
230.6580286116155
 20
282.3276902578021
 30
0.0
 70
    32
  0
VERTEX
  5
1CB1
330
13F1
100
AcDbEntity
  8
0
100
AcDbVertex
100
AcDb3dPolylineVertex
 10
230.5540286116155
 20
282.2876902578043
 30
0.0
 70
    32
  0
VERTEX
  5
1CB2
330
13F1
100
AcDbEntity
  8
0
100
AcDbVertex
100
AcDb3dPolylineVertex
 10
230.4510286116156
 20
282.2476902578043
 30
0.0
 70
    32
  0
VERTEX
  5
1CB3
330
13F1
100
AcDbEntity
  8
0
100
AcDbVertex
100
AcDb3dPolylineVertex
 10
230.3500286116154
 20
282.2076902578036
 30
0.0
 70
    32
  0
VERTEX
  5
1CB4
330
13F1
100
AcDbEntity
  8
0
100
AcDbVertex
100
AcDb3dPolylineVertex
 10
230.2510286116155
 20
282.1676902578044
 30
0.0
 70
    32
  0
VERTEX
  5
1CB5
330
13F1
100
AcDbEntity
  8
0
100
AcDbVertex
100
AcDb3dPolylineVertex
 10
230.1530286116156
 20
282.1176902578045
 30
0.0
 70
    32
  0
VERTEX
  5
1CB6
330
13F1
100
AcDbEntity
  8
0
100
AcDbVertex
100
AcDb3dPolylineVertex
 10
230.0570286116156
 20
282.0776902578044
 30
0.0
 70
    32
  0
VERTEX
  5
1CB7
330
13F1
100
AcDbEntity
  8
0
100
AcDbVertex
100
AcDb3dPolylineVertex
 10
229.9630286116156
 20
282.0376902578042
 30
0.0
 70
    32
  0
VERTEX
  5
1CB8
330
13F1
100
AcDbEntity
  8
0
100
AcDbVertex
100
AcDb3dPolylineVertex
 10
229.8710286116155
 20
281.9876902578044
 30
0.0
 70
    32
  0
VERTEX
  5
1CB9
330
13F1
100
AcDbEntity
  8
0
100
AcDbVertex
100
AcDb3dPolylineVertex
 10
229.7810286116155
 20
281.9376902578044
 30
0.0
 70
    32
  0
VERTEX
  5
1CBA
330
13F1
100
AcDbEntity
  8
0
100
AcDbVertex
100
AcDb3dPolylineVertex
 10
229.6930286116156
 20
281.8876902578043
 30
0.0
 70
    32
  0
VERTEX
  5
1CBB
330
13F1
100
AcDbEntity
  8
0
100
AcDbVertex
100
AcDb3dPolylineVertex
 10
229.6080286116155
 20
281.8376902578044
 30
0.0
 70
    32
  0
VERTEX
  5
1CBC
330
13F1
100
AcDbEntity
  8
0
100
AcDbVertex
100
AcDb3dPolylineVertex
 10
229.5240286116155
 20
281.7876902578033
 30
0.0
 70
    32
  0
VERTEX
  5
1CBD
330
13F1
100
AcDbEntity
  8
0
100
AcDbVertex
100
AcDb3dPolylineVertex
 10
229.4430286116156
 20
281.7276902578043
 30
0.0
 70
    32
  0
VERTEX
  5
1CBE
330
13F1
100
AcDbEntity
  8
0
100
AcDbVertex
100
AcDb3dPolylineVertex
 10
229.3640286116155
 20
281.6776902578043
 30
0.0
 70
    32
  0
VERTEX
  5
1CBF
330
13F1
100
AcDbEntity
  8
0
100
AcDbVertex
100
AcDb3dPolylineVertex
 10
229.2870286116154
 20
281.6276902578043
 30
0.0
 70
    32
  0
VERTEX
  5
1CC0
330
13F1
100
AcDbEntity
  8
0
100
AcDbVertex
100
AcDb3dPolylineVertex
 10
229.2130286116154
 20
281.5676902578043
 30
0.0
 70
    32
  0
VERTEX
  5
1CC1
330
13F1
100
AcDbEntity
  8
0
100
AcDbVertex
100
AcDb3dPolylineVertex
 10
229.1410286116156
 20
281.5076902578043
 30
0.0
 70
    32
  0
VERTEX
  5
1CC2
330
13F1
100
AcDbEntity
  8
0
100
AcDbVertex
100
AcDb3dPolylineVertex
 10
229.0720286116155
 20
281.4476902578044
 30
0.0
 70
    32
  0
VERTEX
  5
1CC3
330
13F1
100
AcDbEntity
  8
0
100
AcDbVertex
100
AcDb3dPolylineVertex
 10
229.0050286116156
 20
281.3876902578044
 30
0.0
 70
    32
  0
VERTEX
  5
1CC4
330
13F1
100
AcDbEntity
  8
0
100
AcDbVertex
100
AcDb3dPolylineVertex
 10
228.9400286116154
 20
281.3276902578044
 30
0.0
 70
    32
  0
VERTEX
  5
1CC5
330
13F1
100
AcDbEntity
  8
0
100
AcDbVertex
100
AcDb3dPolylineVertex
 10
228.8790286116156
 20
281.2676902578033
 30
0.0
 70
    32
  0
VERTEX
  5
1CC6
330
13F1
100
AcDbEntity
  8
0
100
AcDbVertex
100
AcDb3dPolylineVertex
 10
228.8190286116154
 20
281.2076902578044
 30
0.0
 70
    32
  0
VERTEX
  5
1CC7
330
13F1
100
AcDbEntity
  8
0
100
AcDbVertex
100
AcDb3dPolylineVertex
 10
228.7630286116155
 20
281.1476902578044
 30
0.0
 70
    32
  0
VERTEX
  5
1CC8
330
13F1
100
AcDbEntity
  8
0
100
AcDbVertex
100
AcDb3dPolylineVertex
 10
228.7090286116155
 20
281.0776902578044
 30
0.0
 70
    32
  0
VERTEX
  5
1CC9
330
13F1
100
AcDbEntity
  8
0
100
AcDbVertex
100
AcDb3dPolylineVertex
 10
228.6580286116155
 20
281.0176902578033
 30
0.0
 70
    32
  0
VERTEX
  5
1CCA
330
13F1
100
AcDbEntity
  8
0
100
AcDbVertex
100
AcDb3dPolylineVertex
 10
228.6100286116154
 20
280.9476902578044
 30
0.0
 70
    32
  0
VERTEX
  5
1CCB
330
13F1
100
AcDbEntity
  8
0
100
AcDbVertex
100
AcDb3dPolylineVertex
 10
228.5640286116155
 20
280.8876902578044
 30
0.0
 70
    32
  0
VERTEX
  5
1CCC
330
13F1
100
AcDbEntity
  8
0
100
AcDbVertex
100
AcDb3dPolylineVertex
 10
228.5210286116154
 20
280.8176902578043
 30
0.0
 70
    32
  0
VERTEX
  5
1CCD
330
13F1
100
AcDbEntity
  8
0
100
AcDbVertex
100
AcDb3dPolylineVertex
 10
228.4810286116154
 20
280.7476902578043
 30
0.0
 70
    32
  0
VERTEX
  5
1CCE
330
13F1
100
AcDbEntity
  8
0
100
AcDbVertex
100
AcDb3dPolylineVertex
 10
228.4440286116154
 20
280.6876902578037
 30
0.0
 70
    32
  0
VERTEX
  5
1CCF
330
13F1
100
AcDbEntity
  8
0
100
AcDbVertex
100
AcDb3dPolylineVertex
 10
228.4100286116154
 20
280.6176902578044
 30
0.0
 70
    32
  0
VERTEX
  5
1CD0
330
13F1
100
AcDbEntity
  8
0
100
AcDbVertex
100
AcDb3dPolylineVertex
 10
228.3790286116156
 20
280.5476902578034
 30
0.0
 70
    32
  0
VERTEX
  5
1CD1
330
13F1
100
AcDbEntity
  8
0
100
AcDbVertex
100
AcDb3dPolylineVertex
 10
228.3500286116154
 20
280.4776902578044
 30
0.0
 70
    32
  0
VERTEX
  5
1CD2
330
13F1
100
AcDbEntity
  8
0
100
AcDbVertex
100
AcDb3dPolylineVertex
 10
228.3250286116154
 20
280.4076902578044
 30
0.0
 70
    32
  0
VERTEX
  5
1CD3
330
13F1
100
AcDbEntity
  8
0
100
AcDbVertex
100
AcDb3dPolylineVertex
 10
228.3030286116155
 20
280.3376902578044
 30
0.0
 70
    32
  0
VERTEX
  5
1CD4
330
13F1
100
AcDbEntity
  8
0
100
AcDbVertex
100
AcDb3dPolylineVertex
 10
228.2830286116156
 20
280.2676902578033
 30
0.0
 70
    32
  0
VERTEX
  5
1CD5
330
13F1
100
AcDbEntity
  8
0
100
AcDbVertex
100
AcDb3dPolylineVertex
 10
228.2670286116154
 20
280.1976902578044
 30
0.0
 70
    32
  0
VERTEX
  5
1CD6
330
13F1
100
AcDbEntity
  8
0
100
AcDbVertex
100
AcDb3dPolylineVertex
 10
228.2530286116154
 20
280.1276902578044
 30
0.0
 70
    32
  0
VERTEX
  5
1CD7
330
13F1
100
AcDbEntity
  8
0
100
AcDbVertex
100
AcDb3dPolylineVertex
 10
228.2430286116156
 20
280.0576902578043
 30
0.0
 70
    32
  0
VERTEX
  5
1CD8
330
13F1
100
AcDbEntity
  8
0
100
AcDbVertex
100
AcDb3dPolylineVertex
 10
228.2350286116153
 20
279.9876902578044
 30
0.0
 70
    32
  0
VERTEX
  5
1CD9
330
13F1
100
AcDbEntity
  8
0
100
AcDbVertex
100
AcDb3dPolylineVertex
 10
228.2310286116156
 20
279.917690257802
 30
0.0
 70
    32
  0
VERTEX
  5
1CDA
330
13F1
100
AcDbEntity
  8
0
100
AcDbVertex
100
AcDb3dPolylineVertex
 10
228.2290286116156
 20
279.8476902578044
 30
0.0
 70
    32
  0
SEQEND
  5
1CDB
330
13F1
100
AcDbEntity
  8
0
  0
POLYLINE
  5
13F2
330
2B13
100
AcDbEntity
  8
0
100
AcDb3dPolyline
 66
     1
 10
0.0
 20
0.0
 30
0.0
 70
     8
  0
VERTEX
  5
1CDC
330
13F2
100
AcDbEntity
  8
0
100
AcDbVertex
100
AcDb3dPolylineVertex
 10
243.2290286116156
 20
285.9976902578043
 30
0.0
 70
    32
  0
VERTEX
  5
1CDD
330
13F2
100
AcDbEntity
  8
0
100
AcDbVertex
100
AcDb3dPolylineVertex
 10
243.2260286116155
 20
286.1676902578043
 30
0.0
 70
    32
  0
VERTEX
  5
1CDE
330
13F2
100
AcDbEntity
  8
0
100
AcDbVertex
100
AcDb3dPolylineVertex
 10
243.2170286116156
 20
286.3476902578045
 30
0.0
 70
    32
  0
VERTEX
  5
1CDF
330
13F2
100
AcDbEntity
  8
0
100
AcDbVertex
100
AcDb3dPolylineVertex
 10
243.2020286116155
 20
286.5176902578033
 30
0.0
 70
    32
  0
VERTEX
  5
1CE0
330
13F2
100
AcDbEntity
  8
0
100
AcDbVertex
100
AcDb3dPolylineVertex
 10
243.1810286116156
 20
286.6876902578043
 30
0.0
 70
    32
  0
VERTEX
  5
1CE1
330
13F2
100
AcDbEntity
  8
0
100
AcDbVertex
100
AcDb3dPolylineVertex
 10
243.1540286116156
 20
286.8576902578045
 30
0.0
 70
    32
  0
VERTEX
  5
1CE2
330
13F2
100
AcDbEntity
  8
0
100
AcDbVertex
100
AcDb3dPolylineVertex
 10
243.1210286116156
 20
287.0276902578043
 30
0.0
 70
    32
  0
VERTEX
  5
1CE3
330
13F2
100
AcDbEntity
  8
0
100
AcDbVertex
100
AcDb3dPolylineVertex
 10
243.0820286116154
 20
287.1976902578044
 30
0.0
 70
    32
  0
VERTEX
  5
1CE4
330
13F2
100
AcDbEntity
  8
0
100
AcDbVertex
100
AcDb3dPolylineVertex
 10
243.0370286116155
 20
287.367690257803
 30
0.0
 70
    32
  0
VERTEX
  5
1CE5
330
13F2
100
AcDbEntity
  8
0
100
AcDbVertex
100
AcDb3dPolylineVertex
 10
242.9860286116156
 20
287.5376902578033
 30
0.0
 70
    32
  0
VERTEX
  5
1CE6
330
13F2
100
AcDbEntity
  8
0
100
AcDbVertex
100
AcDb3dPolylineVertex
 10
242.9290286116155
 20
287.7076902578036
 30
0.0
 70
    32
  0
VERTEX
  5
1CE7
330
13F2
100
AcDbEntity
  8
0
100
AcDbVertex
100
AcDb3dPolylineVertex
 10
242.8670286116155
 20
287.8776902578043
 30
0.0
 70
    32
  0
VERTEX
  5
1CE8
330
13F2
100
AcDbEntity
  8
0
100
AcDbVertex
100
AcDb3dPolylineVertex
 10
242.7980286116155
 20
288.0376902578033
 30
0.0
 70
    32
  0
VERTEX
  5
1CE9
330
13F2
100
AcDbEntity
  8
0
100
AcDbVertex
100
AcDb3dPolylineVertex
 10
242.7240286116154
 20
288.1976902578043
 30
0.0
 70
    32
  0
VERTEX
  5
1CEA
330
13F2
100
AcDbEntity
  8
0
100
AcDbVertex
100
AcDb3dPolylineVertex
 10
242.6440286116155
 20
288.3676902578045
 30
0.0
 70
    32
  0
VERTEX
  5
1CEB
330
13F2
100
AcDbEntity
  8
0
100
AcDbVertex
100
AcDb3dPolylineVertex
 10
242.5590286116155
 20
288.5276902578043
 30
0.0
 70
    32
  0
VERTEX
  5
1CEC
330
13F2
100
AcDbEntity
  8
0
100
AcDbVertex
100
AcDb3dPolylineVertex
 10
242.4680286116155
 20
288.6876902578043
 30
0.0
 70
    32
  0
VERTEX
  5
1CED
330
13F2
100
AcDbEntity
  8
0
100
AcDbVertex
100
AcDb3dPolylineVertex
 10
242.3710286116154
 20
288.8476902578045
 30
0.0
 70
    32
  0
VERTEX
  5
1CEE
330
13F2
100
AcDbEntity
  8
0
100
AcDbVertex
100
AcDb3dPolylineVertex
 10
242.2690286116155
 20
288.9976902578043
 30
0.0
 70
    32
  0
VERTEX
  5
1CEF
330
13F2
100
AcDbEntity
  8
0
100
AcDbVertex
100
AcDb3dPolylineVertex
 10
242.1610286116155
 20
289.1576902578043
 30
0.0
 70
    32
  0
VERTEX
  5
1CF0
330
13F2
100
AcDbEntity
  8
0
100
AcDbVertex
100
AcDb3dPolylineVertex
 10
242.0480286116155
 20
289.3076902578043
 30
0.0
 70
    32
  0
VERTEX
  5
1CF1
330
13F2
100
AcDbEntity
  8
0
100
AcDbVertex
100
AcDb3dPolylineVertex
 10
241.9300286116154
 20
289.4576902578043
 30
0.0
 70
    32
  0
VERTEX
  5
1CF2
330
13F2
100
AcDbEntity
  8
0
100
AcDbVertex
100
AcDb3dPolylineVertex
 10
241.8060286116156
 20
289.6076902578045
 30
0.0
 70
    32
  0
VERTEX
  5
1CF3
330
13F2
100
AcDbEntity
  8
0
100
AcDbVertex
100
AcDb3dPolylineVertex
 10
241.6780286116155
 20
289.7576902578043
 30
0.0
 70
    32
  0
VERTEX
  5
1CF4
330
13F2
100
AcDbEntity
  8
0
100
AcDbVertex
100
AcDb3dPolylineVertex
 10
241.5440286116154
 20
289.8976902578045
 30
0.0
 70
    32
  0
VERTEX
  5
1CF5
330
13F2
100
AcDbEntity
  8
0
100
AcDbVertex
100
AcDb3dPolylineVertex
 10
241.4050286116156
 20
290.0476902578042
 30
0.0
 70
    32
  0
VERTEX
  5
1CF6
330
13F2
100
AcDbEntity
  8
0
100
AcDbVertex
100
AcDb3dPolylineVertex
 10
241.2610286116154
 20
290.1876902578043
 30
0.0
 70
    32
  0
VERTEX
  5
1CF7
330
13F2
100
AcDbEntity
  8
0
100
AcDbVertex
100
AcDb3dPolylineVertex
 10
241.1120286116155
 20
290.3176902578034
 30
0.0
 70
    32
  0
VERTEX
  5
1CF8
330
13F2
100
AcDbEntity
  8
0
100
AcDbVertex
100
AcDb3dPolylineVertex
 10
240.9590286116155
 20
290.4576902578043
 30
0.0
 70
    32
  0
VERTEX
  5
1CF9
330
13F2
100
AcDbEntity
  8
0
100
AcDbVertex
100
AcDb3dPolylineVertex
 10
240.8010286116156
 20
290.5876902578044
 30
0.0
 70
    32
  0
VERTEX
  5
1CFA
330
13F2
100
AcDbEntity
  8
0
100
AcDbVertex
100
AcDb3dPolylineVertex
 10
240.6390286116156
 20
290.7176902578043
 30
0.0
 70
    32
  0
VERTEX
  5
1CFB
330
13F2
100
AcDbEntity
  8
0
100
AcDbVertex
100
AcDb3dPolylineVertex
 10
240.4710286116155
 20
290.8476902578044
 30
0.0
 70
    32
  0
VERTEX
  5
1CFC
330
13F2
100
AcDbEntity
  8
0
100
AcDbVertex
100
AcDb3dPolylineVertex
 10
240.3000286116156
 20
290.9676902578042
 30
0.0
 70
    32
  0
VERTEX
  5
1CFD
330
13F2
100
AcDbEntity
  8
0
100
AcDbVertex
100
AcDb3dPolylineVertex
 10
240.1240286116156
 20
291.0876902578044
 30
0.0
 70
    32
  0
VERTEX
  5
1CFE
330
13F2
100
AcDbEntity
  8
0
100
AcDbVertex
100
AcDb3dPolylineVertex
 10
239.9450286116154
 20
291.2076902578043
 30
0.0
 70
    32
  0
VERTEX
  5
1CFF
330
13F2
100
AcDbEntity
  8
0
100
AcDbVertex
100
AcDb3dPolylineVertex
 10
239.7610286116156
 20
291.3176902578043
 30
0.0
 70
    32
  0
VERTEX
  5
1D00
330
13F2
100
AcDbEntity
  8
0
100
AcDbVertex
100
AcDb3dPolylineVertex
 10
239.5730286116155
 20
291.4276902578043
 30
0.0
 70
    32
  0
VERTEX
  5
1D01
330
13F2
100
AcDbEntity
  8
0
100
AcDbVertex
100
AcDb3dPolylineVertex
 10
239.3810286116155
 20
291.5376902578033
 30
0.0
 70
    32
  0
VERTEX
  5
1D02
330
13F2
100
AcDbEntity
  8
0
100
AcDbVertex
100
AcDb3dPolylineVertex
 10
239.1860286116155
 20
291.6376902578031
 30
0.0
 70
    32
  0
VERTEX
  5
1D03
330
13F2
100
AcDbEntity
  8
0
100
AcDbVertex
100
AcDb3dPolylineVertex
 10
238.9870286116154
 20
291.7376902578043
 30
0.0
 70
    32
  0
VERTEX
  5
1D04
330
13F2
100
AcDbEntity
  8
0
100
AcDbVertex
100
AcDb3dPolylineVertex
 10
238.7850286116154
 20
291.8376902578044
 30
0.0
 70
    32
  0
VERTEX
  5
1D05
330
13F2
100
AcDbEntity
  8
0
100
AcDbVertex
100
AcDb3dPolylineVertex
 10
238.5790286116156
 20
291.9376902578043
 30
0.0
 70
    32
  0
VERTEX
  5
1D06
330
13F2
100
AcDbEntity
  8
0
100
AcDbVertex
100
AcDb3dPolylineVertex
 10
238.3700286116155
 20
292.0276902578042
 30
0.0
 70
    32
  0
VERTEX
  5
1D07
330
13F2
100
AcDbEntity
  8
0
100
AcDbVertex
100
AcDb3dPolylineVertex
 10
238.1580286116156
 20
292.1076902578045
 30
0.0
 70
    32
  0
VERTEX
  5
1D08
330
13F2
100
AcDbEntity
  8
0
100
AcDbVertex
100
AcDb3dPolylineVertex
 10
237.9430286116156
 20
292.1976902578043
 30
0.0
 70
    32
  0
VERTEX
  5
1D09
330
13F2
100
AcDbEntity
  8
0
100
AcDbVertex
100
AcDb3dPolylineVertex
 10
237.7250286116154
 20
292.2776902578033
 30
0.0
 70
    32
  0
VERTEX
  5
1D0A
330
13F2
100
AcDbEntity
  8
0
100
AcDbVertex
100
AcDb3dPolylineVertex
 10
237.5050286116154
 20
292.3476902578045
 30
0.0
 70
    32
  0
VERTEX
  5
1D0B
330
13F2
100
AcDbEntity
  8
0
100
AcDbVertex
100
AcDb3dPolylineVertex
 10
237.2810286116155
 20
292.417690257802
 30
0.0
 70
    32
  0
VERTEX
  5
1D0C
330
13F2
100
AcDbEntity
  8
0
100
AcDbVertex
100
AcDb3dPolylineVertex
 10
237.0560286116154
 20
292.4876902578044
 30
0.0
 70
    32
  0
VERTEX
  5
1D0D
330
13F2
100
AcDbEntity
  8
0
100
AcDbVertex
100
AcDb3dPolylineVertex
 10
236.8280286116155
 20
292.5576902578022
 30
0.0
 70
    32
  0
VERTEX
  5
1D0E
330
13F2
100
AcDbEntity
  8
0
100
AcDbVertex
100
AcDb3dPolylineVertex
 10
236.5980286116156
 20
292.6176902578045
 30
0.0
 70
    32
  0
VERTEX
  5
1D0F
330
13F2
100
AcDbEntity
  8
0
100
AcDbVertex
100
AcDb3dPolylineVertex
 10
236.3660286116155
 20
292.6676902578043
 30
0.0
 70
    32
  0
VERTEX
  5
1D10
330
13F2
100
AcDbEntity
  8
0
100
AcDbVertex
100
AcDb3dPolylineVertex
 10
236.1320286116156
 20
292.7176902578036
 30
0.0
 70
    32
  0
VERTEX
  5
1D11
330
13F2
100
AcDbEntity
  8
0
100
AcDbVertex
100
AcDb3dPolylineVertex
 10
235.8960286116156
 20
292.7676902578033
 30
0.0
 70
    32
  0
VERTEX
  5
1D12
330
13F2
100
AcDbEntity
  8
0
100
AcDbVertex
100
AcDb3dPolylineVertex
 10
235.6590286116156
 20
292.8176902578043
 30
0.0
 70
    32
  0
VERTEX
  5
1D13
330
13F2
100
AcDbEntity
  8
0
100
AcDbVertex
100
AcDb3dPolylineVertex
 10
235.4200286116153
 20
292.8576902578031
 30
0.0
 70
    32
  0
VERTEX
  5
1D14
330
13F2
100
AcDbEntity
  8
0
100
AcDbVertex
100
AcDb3dPolylineVertex
 10
235.1800286116155
 20
292.8876902578045
 30
0.0
 70
    32
  0
VERTEX
  5
1D15
330
13F2
100
AcDbEntity
  8
0
100
AcDbVertex
100
AcDb3dPolylineVertex
 10
234.9390286116156
 20
292.9176902578043
 30
0.0
 70
    32
  0
VERTEX
  5
1D16
330
13F2
100
AcDbEntity
  8
0
100
AcDbVertex
100
AcDb3dPolylineVertex
 10
234.6960286116155
 20
292.9476902578043
 30
0.0
 70
    32
  0
VERTEX
  5
1D17
330
13F2
100
AcDbEntity
  8
0
100
AcDbVertex
100
AcDb3dPolylineVertex
 10
234.4530286116155
 20
292.9676902578043
 30
0.0
 70
    32
  0
VERTEX
  5
1D18
330
13F2
100
AcDbEntity
  8
0
100
AcDbVertex
100
AcDb3dPolylineVertex
 10
234.2090286116155
 20
292.9876902578044
 30
0.0
 70
    32
  0
VERTEX
  5
1D19
330
13F2
100
AcDbEntity
  8
0
100
AcDbVertex
100
AcDb3dPolylineVertex
 10
233.9650286116155
 20
293.0076902578043
 30
0.0
 70
    32
  0
VERTEX
  5
1D1A
330
13F2
100
AcDbEntity
  8
0
100
AcDbVertex
100
AcDb3dPolylineVertex
 10
233.7200286116154
 20
293.0176902578043
 30
0.0
 70
    32
  0
VERTEX
  5
1D1B
330
13F2
100
AcDbEntity
  8
0
100
AcDbVertex
100
AcDb3dPolylineVertex
 10
233.4740286116156
 20
293.0176902578043
 30
0.0
 70
    32
  0
VERTEX
  5
1D1C
330
13F2
100
AcDbEntity
  8
0
100
AcDbVertex
100
AcDb3dPolylineVertex
 10
233.2290286116156
 20
293.0276902578033
 30
0.0
 70
    32
  0
VERTEX
  5
1D1D
330
13F2
100
AcDbEntity
  8
0
100
AcDbVertex
100
AcDb3dPolylineVertex
 10
232.9840286116156
 20
293.0176902578043
 30
0.0
 70
    32
  0
VERTEX
  5
1D1E
330
13F2
100
AcDbEntity
  8
0
100
AcDbVertex
100
AcDb3dPolylineVertex
 10
232.7380286116154
 20
293.0176902578043
 30
0.0
 70
    32
  0
VERTEX
  5
1D1F
330
13F2
100
AcDbEntity
  8
0
100
AcDbVertex
100
AcDb3dPolylineVertex
 10
232.4930286116156
 20
293.0076902578043
 30
0.0
 70
    32
  0
VERTEX
  5
1D20
330
13F2
100
AcDbEntity
  8
0
100
AcDbVertex
100
AcDb3dPolylineVertex
 10
232.2490286116156
 20
292.9876902578044
 30
0.0
 70
    32
  0
VERTEX
  5
1D21
330
13F2
100
AcDbEntity
  8
0
100
AcDbVertex
100
AcDb3dPolylineVertex
 10
232.0050286116154
 20
292.9676902578043
 30
0.0
 70
    32
  0
VERTEX
  5
1D22
330
13F2
100
AcDbEntity
  8
0
100
AcDbVertex
100
AcDb3dPolylineVertex
 10
231.7620286116155
 20
292.9476902578043
 30
0.0
 70
    32
  0
VERTEX
  5
1D23
330
13F2
100
AcDbEntity
  8
0
100
AcDbVertex
100
AcDb3dPolylineVertex
 10
231.5190286116155
 20
292.9176902578043
 30
0.0
 70
    32
  0
VERTEX
  5
1D24
330
13F2
100
AcDbEntity
  8
0
100
AcDbVertex
100
AcDb3dPolylineVertex
 10
231.2780286116154
 20
292.8876902578045
 30
0.0
 70
    32
  0
VERTEX
  5
1D25
330
13F2
100
AcDbEntity
  8
0
100
AcDbVertex
100
AcDb3dPolylineVertex
 10
231.0380286116155
 20
292.8576902578031
 30
0.0
 70
    32
  0
VERTEX
  5
1D26
330
13F2
100
AcDbEntity
  8
0
100
AcDbVertex
100
AcDb3dPolylineVertex
 10
230.7990286116154
 20
292.8176902578043
 30
0.0
 70
    32
  0
VERTEX
  5
1D27
330
13F2
100
AcDbEntity
  8
0
100
AcDbVertex
100
AcDb3dPolylineVertex
 10
230.5620286116154
 20
292.7676902578033
 30
0.0
 70
    32
  0
VERTEX
  5
1D28
330
13F2
100
AcDbEntity
  8
0
100
AcDbVertex
100
AcDb3dPolylineVertex
 10
230.3260286116155
 20
292.7176902578036
 30
0.0
 70
    32
  0
VERTEX
  5
1D29
330
13F2
100
AcDbEntity
  8
0
100
AcDbVertex
100
AcDb3dPolylineVertex
 10
230.0920286116156
 20
292.6676902578043
 30
0.0
 70
    32
  0
VERTEX
  5
1D2A
330
13F2
100
AcDbEntity
  8
0
100
AcDbVertex
100
AcDb3dPolylineVertex
 10
229.8600286116154
 20
292.6176902578045
 30
0.0
 70
    32
  0
VERTEX
  5
1D2B
330
13F2
100
AcDbEntity
  8
0
100
AcDbVertex
100
AcDb3dPolylineVertex
 10
229.6300286116154
 20
292.5576902578022
 30
0.0
 70
    32
  0
VERTEX
  5
1D2C
330
13F2
100
AcDbEntity
  8
0
100
AcDbVertex
100
AcDb3dPolylineVertex
 10
229.4020286116156
 20
292.4876902578044
 30
0.0
 70
    32
  0
VERTEX
  5
1D2D
330
13F2
100
AcDbEntity
  8
0
100
AcDbVertex
100
AcDb3dPolylineVertex
 10
229.1770286116153
 20
292.417690257802
 30
0.0
 70
    32
  0
VERTEX
  5
1D2E
330
13F2
100
AcDbEntity
  8
0
100
AcDbVertex
100
AcDb3dPolylineVertex
 10
228.9530286116155
 20
292.3476902578045
 30
0.0
 70
    32
  0
VERTEX
  5
1D2F
330
13F2
100
AcDbEntity
  8
0
100
AcDbVertex
100
AcDb3dPolylineVertex
 10
228.7330286116155
 20
292.2776902578033
 30
0.0
 70
    32
  0
VERTEX
  5
1D30
330
13F2
100
AcDbEntity
  8
0
100
AcDbVertex
100
AcDb3dPolylineVertex
 10
228.5150286116155
 20
292.1976902578043
 30
0.0
 70
    32
  0
VERTEX
  5
1D31
330
13F2
100
AcDbEntity
  8
0
100
AcDbVertex
100
AcDb3dPolylineVertex
 10
228.3000286116155
 20
292.1076902578045
 30
0.0
 70
    32
  0
VERTEX
  5
1D32
330
13F2
100
AcDbEntity
  8
0
100
AcDbVertex
100
AcDb3dPolylineVertex
 10
228.0880286116156
 20
292.0276902578042
 30
0.0
 70
    32
  0
VERTEX
  5
1D33
330
13F2
100
AcDbEntity
  8
0
100
AcDbVertex
100
AcDb3dPolylineVertex
 10
227.8790286116155
 20
291.9376902578043
 30
0.0
 70
    32
  0
VERTEX
  5
1D34
330
13F2
100
AcDbEntity
  8
0
100
AcDbVertex
100
AcDb3dPolylineVertex
 10
227.6730286116155
 20
291.8376902578044
 30
0.0
 70
    32
  0
VERTEX
  5
1D35
330
13F2
100
AcDbEntity
  8
0
100
AcDbVertex
100
AcDb3dPolylineVertex
 10
227.4710286116155
 20
291.7376902578043
 30
0.0
 70
    32
  0
VERTEX
  5
1D36
330
13F2
100
AcDbEntity
  8
0
100
AcDbVertex
100
AcDb3dPolylineVertex
 10
227.2720286116156
 20
291.6376902578031
 30
0.0
 70
    32
  0
VERTEX
  5
1D37
330
13F2
100
AcDbEntity
  8
0
100
AcDbVertex
100
AcDb3dPolylineVertex
 10
227.0770286116155
 20
291.5376902578033
 30
0.0
 70
    32
  0
VERTEX
  5
1D38
330
13F2
100
AcDbEntity
  8
0
100
AcDbVertex
100
AcDb3dPolylineVertex
 10
226.8850286116154
 20
291.4276902578043
 30
0.0
 70
    32
  0
VERTEX
  5
1D39
330
13F2
100
AcDbEntity
  8
0
100
AcDbVertex
100
AcDb3dPolylineVertex
 10
226.6970286116155
 20
291.3176902578043
 30
0.0
 70
    32
  0
VERTEX
  5
1D3A
330
13F2
100
AcDbEntity
  8
0
100
AcDbVertex
100
AcDb3dPolylineVertex
 10
226.5130286116155
 20
291.2076902578043
 30
0.0
 70
    32
  0
VERTEX
  5
1D3B
330
13F2
100
AcDbEntity
  8
0
100
AcDbVertex
100
AcDb3dPolylineVertex
 10
226.3340286116155
 20
291.0876902578044
 30
0.0
 70
    32
  0
VERTEX
  5
1D3C
330
13F2
100
AcDbEntity
  8
0
100
AcDbVertex
100
AcDb3dPolylineVertex
 10
226.1580286116156
 20
290.9676902578042
 30
0.0
 70
    32
  0
VERTEX
  5
1D3D
330
13F2
100
AcDbEntity
  8
0
100
AcDbVertex
100
AcDb3dPolylineVertex
 10
225.9870286116155
 20
290.8476902578044
 30
0.0
 70
    32
  0
VERTEX
  5
1D3E
330
13F2
100
AcDbEntity
  8
0
100
AcDbVertex
100
AcDb3dPolylineVertex
 10
225.8190286116156
 20
290.7176902578043
 30
0.0
 70
    32
  0
VERTEX
  5
1D3F
330
13F2
100
AcDbEntity
  8
0
100
AcDbVertex
100
AcDb3dPolylineVertex
 10
225.6570286116154
 20
290.5876902578044
 30
0.0
 70
    32
  0
VERTEX
  5
1D40
330
13F2
100
AcDbEntity
  8
0
100
AcDbVertex
100
AcDb3dPolylineVertex
 10
225.4990286116156
 20
290.4576902578043
 30
0.0
 70
    32
  0
VERTEX
  5
1D41
330
13F2
100
AcDbEntity
  8
0
100
AcDbVertex
100
AcDb3dPolylineVertex
 10
225.3460286116156
 20
290.3176902578034
 30
0.0
 70
    32
  0
VERTEX
  5
1D42
330
13F2
100
AcDbEntity
  8
0
100
AcDbVertex
100
AcDb3dPolylineVertex
 10
225.1970286116155
 20
290.1876902578043
 30
0.0
 70
    32
  0
VERTEX
  5
1D43
330
13F2
100
AcDbEntity
  8
0
100
AcDbVertex
100
AcDb3dPolylineVertex
 10
225.0530286116156
 20
290.0476902578042
 30
0.0
 70
    32
  0
VERTEX
  5
1D44
330
13F2
100
AcDbEntity
  8
0
100
AcDbVertex
100
AcDb3dPolylineVertex
 10
224.9140286116156
 20
289.8976902578045
 30
0.0
 70
    32
  0
VERTEX
  5
1D45
330
13F2
100
AcDbEntity
  8
0
100
AcDbVertex
100
AcDb3dPolylineVertex
 10
224.7800286116155
 20
289.7576902578043
 30
0.0
 70
    32
  0
VERTEX
  5
1D46
330
13F2
100
AcDbEntity
  8
0
100
AcDbVertex
100
AcDb3dPolylineVertex
 10
224.6520286116155
 20
289.6076902578045
 30
0.0
 70
    32
  0
VERTEX
  5
1D47
330
13F2
100
AcDbEntity
  8
0
100
AcDbVertex
100
AcDb3dPolylineVertex
 10
224.5280286116156
 20
289.4576902578043
 30
0.0
 70
    32
  0
VERTEX
  5
1D48
330
13F2
100
AcDbEntity
  8
0
100
AcDbVertex
100
AcDb3dPolylineVertex
 10
224.4100286116154
 20
289.3076902578043
 30
0.0
 70
    32
  0
VERTEX
  5
1D49
330
13F2
100
AcDbEntity
  8
0
100
AcDbVertex
100
AcDb3dPolylineVertex
 10
224.2970286116154
 20
289.1576902578043
 30
0.0
 70
    32
  0
VERTEX
  5
1D4A
330
13F2
100
AcDbEntity
  8
0
100
AcDbVertex
100
AcDb3dPolylineVertex
 10
224.1890286116156
 20
288.9976902578043
 30
0.0
 70
    32
  0
VERTEX
  5
1D4B
330
13F2
100
AcDbEntity
  8
0
100
AcDbVertex
100
AcDb3dPolylineVertex
 10
224.0870286116156
 20
288.8476902578045
 30
0.0
 70
    32
  0
VERTEX
  5
1D4C
330
13F2
100
AcDbEntity
  8
0
100
AcDbVertex
100
AcDb3dPolylineVertex
 10
223.9900286116156
 20
288.6876902578043
 30
0.0
 70
    32
  0
VERTEX
  5
1D4D
330
13F2
100
AcDbEntity
  8
0
100
AcDbVertex
100
AcDb3dPolylineVertex
 10
223.8990286116155
 20
288.5276902578043
 30
0.0
 70
    32
  0
VERTEX
  5
1D4E
330
13F2
100
AcDbEntity
  8
0
100
AcDbVertex
100
AcDb3dPolylineVertex
 10
223.8140286116156
 20
288.3676902578045
 30
0.0
 70
    32
  0
VERTEX
  5
1D4F
330
13F2
100
AcDbEntity
  8
0
100
AcDbVertex
100
AcDb3dPolylineVertex
 10
223.7340286116155
 20
288.1976902578043
 30
0.0
 70
    32
  0
VERTEX
  5
1D50
330
13F2
100
AcDbEntity
  8
0
100
AcDbVertex
100
AcDb3dPolylineVertex
 10
223.6600286116154
 20
288.0376902578033
 30
0.0
 70
    32
  0
VERTEX
  5
1D51
330
13F2
100
AcDbEntity
  8
0
100
AcDbVertex
100
AcDb3dPolylineVertex
 10
223.5910286116156
 20
287.8776902578043
 30
0.0
 70
    32
  0
VERTEX
  5
1D52
330
13F2
100
AcDbEntity
  8
0
100
AcDbVertex
100
AcDb3dPolylineVertex
 10
223.5290286116156
 20
287.7076902578036
 30
0.0
 70
    32
  0
VERTEX
  5
1D53
330
13F2
100
AcDbEntity
  8
0
100
AcDbVertex
100
AcDb3dPolylineVertex
 10
223.4720286116155
 20
287.5376902578033
 30
0.0
 70
    32
  0
VERTEX
  5
1D54
330
13F2
100
AcDbEntity
  8
0
100
AcDbVertex
100
AcDb3dPolylineVertex
 10
223.4210286116156
 20
287.367690257803
 30
0.0
 70
    32
  0
VERTEX
  5
1D55
330
13F2
100
AcDbEntity
  8
0
100
AcDbVertex
100
AcDb3dPolylineVertex
 10
223.3760286116155
 20
287.1976902578044
 30
0.0
 70
    32
  0
VERTEX
  5
1D56
330
13F2
100
AcDbEntity
  8
0
100
AcDbVertex
100
AcDb3dPolylineVertex
 10
223.3370286116155
 20
287.0276902578043
 30
0.0
 70
    32
  0
VERTEX
  5
1D57
330
13F2
100
AcDbEntity
  8
0
100
AcDbVertex
100
AcDb3dPolylineVertex
 10
223.3040286116156
 20
286.8576902578045
 30
0.0
 70
    32
  0
VERTEX
  5
1D58
330
13F2
100
AcDbEntity
  8
0
100
AcDbVertex
100
AcDb3dPolylineVertex
 10
223.2770286116154
 20
286.6876902578043
 30
0.0
 70
    32
  0
VERTEX
  5
1D59
330
13F2
100
AcDbEntity
  8
0
100
AcDbVertex
100
AcDb3dPolylineVertex
 10
223.2560286116155
 20
286.5176902578033
 30
0.0
 70
    32
  0
VERTEX
  5
1D5A
330
13F2
100
AcDbEntity
  8
0
100
AcDbVertex
100
AcDb3dPolylineVertex
 10
223.2410286116154
 20
286.3476902578045
 30
0.0
 70
    32
  0
VERTEX
  5
1D5B
330
13F2
100
AcDbEntity
  8
0
100
AcDbVertex
100
AcDb3dPolylineVertex
 10
223.2320286116154
 20
286.1676902578043
 30
0.0
 70
    32
  0
VERTEX
  5
1D5C
330
13F2
100
AcDbEntity
  8
0
100
AcDbVertex
100
AcDb3dPolylineVertex
 10
223.2290286116155
 20
285.9976902578043
 30
0.0
 70
    32
  0
SEQEND
  5
1D5D
330
13F2
100
AcDbEntity
  8
0
  0
LINE
  5
13F7
330
2B13
100
AcDbEntity
  8
0
100
AcDbLine
 10
371.2290286116154
 20
230.1976902578044
 30
0.0
 11
371.2290286116154
 21
173.5328972578045
 31
0.0
  0
LINE
  5
13F8
330
2B13
100
AcDbEntity
  8
0
100
AcDbLine
 10
395.2290286116156
 20
230.1976902578044
 30
0.0
 11
395.2290286116156
 21
173.5328972578045
 31
0.0
  0
LINE
  5
13F9
330
2B13
100
AcDbEntity
  8
0
100
AcDbLine
 10
371.2290286116154
 20
230.1976902578044
 30
0.0
 11
395.2290286116156
 21
230.1976902578044
 31
0.0
  0
LINE
  5
13FA
330
2B13
100
AcDbEntity
  8
0
100
AcDbLine
 10
362.9290486116153
 20
248.3988012578044
 30
0.0
 11
362.9290486116153
 21
235.3976952578042
 31
0.0
  0
LINE
  5
13FB
330
2B13
100
AcDbEntity
  8
0
100
AcDbLine
 10
381.3057940116154
 20
235.1976822578044
 30
0.0
 11
400.4790276116154
 21
242.1761692578045
 31
0.0
  0
LINE
  5
13FC
330
2B13
100
AcDbEntity
  8
0
100
AcDbLine
 10
440.2213056116154
 20
293.0235062578044
 30
0.0
 11
442.8713076116156
 21
288.4335692578043
 31
0.0
  0
LINE
  5
13FD
330
2B13
100
AcDbEntity
  8
0
100
AcDbLine
 10
407.9790546116154
 20
268.2885172578044
 30
0.0
 11
442.8713076116156
 21
288.4335692578043
 31
0.0
  0
LINE
  5
13FE
330
2B13
100
AcDbEntity
  8
0
100
AcDbLine
 10
362.9290486116153
 20
248.3988002578044
 30
0.0
 11
440.2213056116154
 21
293.0235062578044
 31
0.0
  0
LINE
  5
13FF
330
2B13
100
AcDbEntity
  8
0
100
AcDbLine
 10
400.4790286116154
 20
255.2981312578022
 30
0.0
 11
400.4790286116154
 21
242.1761672578044
 31
0.0
  0
LINE
  5
1400
330
2B13
100
AcDbEntity
  8
0
100
AcDbLine
 10
369.1544746116156
 20
224.6976902578044
 30
0.0
 11
371.2290286116154
 21
224.6976902578044
 31
0.0
  0
LINE
  5
1401
330
2B13
100
AcDbEntity
  8
0
100
AcDbLine
 10
400.4790286116154
 20
235.1976822578044
 30
0.0
 11
400.4790286116154
 21
230.1976902578044
 31
0.0
  0
LINE
  5
1402
330
2B13
100
AcDbEntity
  8
0
100
AcDbLine
 10
365.9790286116156
 20
235.1976822578044
 30
0.0
 11
365.9790286116156
 21
230.1976902578044
 31
0.0
  0
LINE
  5
1403
330
2B13
100
AcDbEntity
  8
0
100
AcDbLine
 10
365.9790116116153
 20
230.1976632578043
 30
0.0
 11
369.1544336116156
 21
224.6976702578044
 31
0.0
  0
LINE
  5
1404
330
2B13
100
AcDbEntity
  8
0
100
AcDbLine
 10
397.3036136116156
 20
224.6976902578044
 30
0.0
 11
395.2290286116156
 21
224.6976902578044
 31
0.0
  0
LINE
  5
1405
330
2B13
100
AcDbEntity
  8
0
100
AcDbLine
 10
400.4790136116155
 20
230.1977042578044
 30
0.0
 11
397.3035826116155
 21
224.6976982578036
 31
0.0
  0
LINE
  5
1406
330
2B13
100
AcDbEntity
  8
0
100
AcDbLine
 10
365.9790286116156
 20
235.1976822578044
 30
0.0
 11
400.4790286116154
 21
235.1976822578044
 31
0.0
  0
LINE
  5
1407
330
2B13
100
AcDbEntity
  8
0
100
AcDbLine
 10
415.7290286116156
 20
197.1976902578044
 30
0.0
 11
415.7290286116156
 21
209.1976902578044
 31
0.0
  0
LINE
  5
1408
330
2B13
100
AcDbEntity
  8
0
100
AcDbLine
 10
350.7290286116155
 20
197.1976902578044
 30
0.0
 11
350.7290286116155
 21
209.1976902578044
 31
0.0
  0
ARC
  5
1409
330
2B13
100
AcDbEntity
  8
0
100
AcDbCircle
 10
383.2290286116156
 20
203.1976902578044
 30
0.0
 40
32.0
100
AcDbArc
 50
247.9756900000006
 51
292.0243099999992
  0
ARC
  5
140A
330
2B13
100
AcDbEntity
  8
0
100
AcDbCircle
 10
365.9290406116156
 20
235.3976952578042
 30
0.0
 40
3.0
100
AcDbArc
 50
179.9999899999988
 51
270.0
  0
CIRCLE
  5
140B
330
2B13
100
AcDbEntity
  8
0
100
AcDbCircle
 10
383.2290286116156
 20
239.8976952578034
 30
0.0
 40
2.2
  0
ARC
  5
140C
330
2B13
100
AcDbEntity
  8
0
100
AcDbCircle
 10
415.4790596116155
 20
255.2981312578022
 30
0.0
 40
15.0
100
AcDbArc
 50
119.9999999999973
 51
180.0000100000009
  0
ARC
  5
140D
330
2B13
100
AcDbEntity
  8
0
100
AcDbCircle
 10
383.2290286116156
 20
195.1783058578037
 30
0.0
 40
52.019386
100
AcDbArc
 50
70.63364999999888
 51
112.9693500000004
  0
LINE
  5
1412
330
2B13
100
AcDbEntity
  8
0
100
AcDbLine
 10
371.2290286116154
 20
381.4912301170823
 30
0.0
 11
371.2290286116154
 21
398.7639891170823
 31
0.0
  0
LINE
  5
1413
330
2B13
100
AcDbEntity
  8
0
100
AcDbLine
 10
395.2290286116156
 20
381.4912301170823
 30
0.0
 11
395.2290286116156
 21
398.7639891170823
 31
0.0
  0
LINE
  5
1414
330
2B13
100
AcDbEntity
  8
0
100
AcDbLine
 10
415.7290286116156
 20
402.5060235170824
 30
0.0
 11
415.7290286116156
 21
419.8060227170824
 31
0.0
  0
LINE
  5
1416
330
2B13
100
AcDbEntity
  8
0
100
AcDbLine
 10
372.9290406116156
 20
401.1560231170824
 30
0.0
 11
434.2110846116154
 21
401.1560231170824
 31
0.0
  0
LINE
  5
1417
330
2B13
100
AcDbEntity
  8
0
100
AcDbLine
 10
372.9290406116156
 20
421.1560231170824
 30
0.0
 11
434.2110846116154
 21
421.1560231170824
 31
0.0
  0
LINE
  5
1418
330
2B13
100
AcDbEntity
  8
0
100
AcDbLine
 10
413.2303106116156
 20
416.1560231170811
 30
0.0
 11
426.5610596116155
 21
416.1560231170811
 31
0.0
  0
LINE
  5
1419
330
2B13
100
AcDbEntity
  8
0
100
AcDbLine
 10
413.2303106116156
 20
406.1560231170823
 30
0.0
 11
426.5610596116155
 21
406.1560231170823
 31
0.0
  0
LINE
  5
141A
330
2B13
100
AcDbEntity
  8
0
100
AcDbLine
 10
371.2290286116154
 20
440.8208161170813
 30
0.0
 11
371.2290286116154
 21
423.5480571170823
 31
0.0
  0
LINE
  5
141B
330
2B13
100
AcDbEntity
  8
0
100
AcDbLine
 10
395.2290286116156
 20
440.8208161170813
 30
0.0
 11
395.2290286116156
 21
423.5480571170823
 31
0.0
  0
LINE
  5
141C
330
2B13
100
AcDbEntity
  8
0
100
AcDbLine
 10
415.7290286116156
 20
428.1560231170823
 30
0.0
 11
412.8790306116155
 21
428.1560231170823
 31
0.0
  0
LINE
  5
141D
330
2B13
100
AcDbEntity
  8
0
100
AcDbLine
 10
412.8790296116155
 20
428.156024117082
 30
0.0
 11
410.3312376116154
 21
421.156022717082
 31
0.0
  0
LINE
  5
141E
330
2B13
100
AcDbEntity
  8
0
100
AcDbLine
 10
415.7290286116156
 20
394.1560231170823
 30
0.0
 11
415.7290286116156
 21
401.1560231170824
 31
0.0
  0
LINE
  5
141F
330
2B13
100
AcDbEntity
  8
0
100
AcDbLine
 10
412.8790296116155
 20
394.1560221170822
 30
0.0
 11
410.3312376116154
 21
401.1560235170823
 31
0.0
  0
LINE
  5
1420
330
2B13
100
AcDbEntity
  8
0
100
AcDbLine
 10
415.7290286116156
 20
394.1560231170823
 30
0.0
 11
412.8790306116155
 21
394.1560231170823
 31
0.0
  0
LINE
  5
1421
330
2B13
100
AcDbEntity
  8
0
100
AcDbLine
 10
415.7290286116156
 20
421.1560231170824
 30
0.0
 11
415.7290286116156
 21
428.1560231170823
 31
0.0
  0
ARC
  5
1422
330
2B13
100
AcDbEntity
  8
0
100
AcDbCircle
 10
383.2290286116156
 20
411.1560231170823
 30
0.0
 40
32.0
100
AcDbArc
 50
247.9756900000006
 51
292.0243099999992
  0
ARC
  5
1423
330
2B13
100
AcDbEntity
  8
0
100
AcDbCircle
 10
372.9290406116156
 20
411.1560231170823
 30
0.0
 40
10.0
100
AcDbArc
 50
90.00000300000094
 51
270.0
  0
ARC
  5
1424
330
2B13
100
AcDbEntity
  8
0
100
AcDbCircle
 10
383.2290286116156
 20
411.1560231170823
 30
0.0
 40
17.25
100
AcDbArc
 50
211.2936299999954
 51
324.5698400000004
  0
ARC
  5
1425
330
2B13
100
AcDbEntity
  8
0
100
AcDbCircle
 10
413.2303106116156
 20
411.1560231170823
 30
0.0
 40
5.0
100
AcDbArc
 50
90.00000300000094
 51
270.0
  0
ARC
  5
1426
330
2B13
100
AcDbEntity
  8
0
100
AcDbCircle
 10
426.5610596116155
 20
411.1560231170823
 30
0.0
 40
5.0
100
AcDbArc
 50
270.0
 51
90.00000300000094
  0
ARC
  5
1427
330
2B13
100
AcDbEntity
  8
0
100
AcDbCircle
 10
383.2290286116156
 20
411.1560231170823
 30
0.0
 40
17.25
100
AcDbArc
 50
35.43015800000246
 51
148.7063700000043
  0
ARC
  5
1428
330
2B13
100
AcDbEntity
  8
0
100
AcDbCircle
 10
383.2290286116156
 20
411.1560231170823
 30
0.0
 40
32.0
100
AcDbArc
 50
67.97568900000185
 51
112.0243099999992
  0
POLYLINE
  5
1429
330
2B13
100
AcDbEntity
  8
0
100
AcDb3dPolyline
 66
     1
 10
0.0
 20
0.0
 30
0.0
 70
     8
  0
VERTEX
  5
1D5E
330
1429
100
AcDbEntity
  8
0
100
AcDbVertex
100
AcDb3dPolylineVertex
 10
434.2110286116155
 20
401.1560231170824
 30
0.0
 70
    32
  0
VERTEX
  5
1D5F
330
1429
100
AcDbEntity
  8
0
100
AcDbVertex
100
AcDb3dPolylineVertex
 10
434.4100286116154
 20
401.1560231170824
 30
0.0
 70
    32
  0
VERTEX
  5
1D60
330
1429
100
AcDbEntity
  8
0
100
AcDbVertex
100
AcDb3dPolylineVertex
 10
434.6090286116154
 20
401.1660231170823
 30
0.0
 70
    32
  0
VERTEX
  5
1D61
330
1429
100
AcDbEntity
  8
0
100
AcDbVertex
100
AcDb3dPolylineVertex
 10
434.8080286116156
 20
401.1860231170823
 30
0.0
 70
    32
  0
VERTEX
  5
1D62
330
1429
100
AcDbEntity
  8
0
100
AcDbVertex
100
AcDb3dPolylineVertex
 10
435.0060286116153
 20
401.2060231170822
 30
0.0
 70
    32
  0
VERTEX
  5
1D63
330
1429
100
AcDbEntity
  8
0
100
AcDbVertex
100
AcDb3dPolylineVertex
 10
435.2040286116156
 20
401.2360231170815
 30
0.0
 70
    32
  0
VERTEX
  5
1D64
330
1429
100
AcDbEntity
  8
0
100
AcDbVertex
100
AcDb3dPolylineVertex
 10
435.4010286116156
 20
401.2660231170813
 30
0.0
 70
    32
  0
VERTEX
  5
1D65
330
1429
100
AcDbEntity
  8
0
100
AcDbVertex
100
AcDb3dPolylineVertex
 10
435.5980286116156
 20
401.3060231170823
 30
0.0
 70
    32
  0
VERTEX
  5
1D66
330
1429
100
AcDbEntity
  8
0
100
AcDbVertex
100
AcDb3dPolylineVertex
 10
435.7930286116156
 20
401.3460231170823
 30
0.0
 70
    32
  0
VERTEX
  5
1D67
330
1429
100
AcDbEntity
  8
0
100
AcDbVertex
100
AcDb3dPolylineVertex
 10
435.9880286116156
 20
401.3960231170823
 30
0.0
 70
    32
  0
VERTEX
  5
1D68
330
1429
100
AcDbEntity
  8
0
100
AcDbVertex
100
AcDb3dPolylineVertex
 10
436.1820286116155
 20
401.4560231170817
 30
0.0
 70
    32
  0
VERTEX
  5
1D69
330
1429
100
AcDbEntity
  8
0
100
AcDbVertex
100
AcDb3dPolylineVertex
 10
436.3740286116154
 20
401.5160231170822
 30
0.0
 70
    32
  0
VERTEX
  5
1D6A
330
1429
100
AcDbEntity
  8
0
100
AcDbVertex
100
AcDb3dPolylineVertex
 10
436.5660286116153
 20
401.5860231170822
 30
0.0
 70
    32
  0
VERTEX
  5
1D6B
330
1429
100
AcDbEntity
  8
0
100
AcDbVertex
100
AcDb3dPolylineVertex
 10
436.7550286116156
 20
401.6560231170823
 30
0.0
 70
    32
  0
VERTEX
  5
1D6C
330
1429
100
AcDbEntity
  8
0
100
AcDbVertex
100
AcDb3dPolylineVertex
 10
436.9440286116155
 20
401.7360231170814
 30
0.0
 70
    32
  0
VERTEX
  5
1D6D
330
1429
100
AcDbEntity
  8
0
100
AcDbVertex
100
AcDb3dPolylineVertex
 10
437.1300286116156
 20
401.8260231170811
 30
0.0
 70
    32
  0
VERTEX
  5
1D6E
330
1429
100
AcDbEntity
  8
0
100
AcDbVertex
100
AcDb3dPolylineVertex
 10
437.3150286116156
 20
401.9160231170824
 30
0.0
 70
    32
  0
VERTEX
  5
1D6F
330
1429
100
AcDbEntity
  8
0
100
AcDbVertex
100
AcDb3dPolylineVertex
 10
437.4980286116156
 20
402.0160231170813
 30
0.0
 70
    32
  0
VERTEX
  5
1D70
330
1429
100
AcDbEntity
  8
0
100
AcDbVertex
100
AcDb3dPolylineVertex
 10
437.6790286116156
 20
402.1160231170823
 30
0.0
 70
    32
  0
VERTEX
  5
1D71
330
1429
100
AcDbEntity
  8
0
100
AcDbVertex
100
AcDb3dPolylineVertex
 10
437.8580286116155
 20
402.2260231170823
 30
0.0
 70
    32
  0
VERTEX
  5
1D72
330
1429
100
AcDbEntity
  8
0
100
AcDbVertex
100
AcDb3dPolylineVertex
 10
438.0350286116154
 20
402.3360231170823
 30
0.0
 70
    32
  0
VERTEX
  5
1D73
330
1429
100
AcDbEntity
  8
0
100
AcDbVertex
100
AcDb3dPolylineVertex
 10
438.2090286116156
 20
402.4560231170815
 30
0.0
 70
    32
  0
VERTEX
  5
1D74
330
1429
100
AcDbEntity
  8
0
100
AcDbVertex
100
AcDb3dPolylineVertex
 10
438.3810286116156
 20
402.5760231170822
 30
0.0
 70
    32
  0
VERTEX
  5
1D75
330
1429
100
AcDbEntity
  8
0
100
AcDbVertex
100
AcDb3dPolylineVertex
 10
438.5510286116154
 20
402.7060231170823
 30
0.0
 70
    32
  0
VERTEX
  5
1D76
330
1429
100
AcDbEntity
  8
0
100
AcDbVertex
100
AcDb3dPolylineVertex
 10
438.7170286116155
 20
402.8460231170821
 30
0.0
 70
    32
  0
VERTEX
  5
1D77
330
1429
100
AcDbEntity
  8
0
100
AcDbVertex
100
AcDb3dPolylineVertex
 10
438.8820286116156
 20
402.9760231170824
 30
0.0
 70
    32
  0
VERTEX
  5
1D78
330
1429
100
AcDbEntity
  8
0
100
AcDbVertex
100
AcDb3dPolylineVertex
 10
439.0430286116154
 20
403.1260231170823
 30
0.0
 70
    32
  0
VERTEX
  5
1D79
330
1429
100
AcDbEntity
  8
0
100
AcDbVertex
100
AcDb3dPolylineVertex
 10
439.2010286116155
 20
403.2760231170814
 30
0.0
 70
    32
  0
VERTEX
  5
1D7A
330
1429
100
AcDbEntity
  8
0
100
AcDbVertex
100
AcDb3dPolylineVertex
 10
439.3570286116156
 20
403.4260231170817
 30
0.0
 70
    32
  0
VERTEX
  5
1D7B
330
1429
100
AcDbEntity
  8
0
100
AcDbVertex
100
AcDb3dPolylineVertex
 10
439.5090286116156
 20
403.5860231170822
 30
0.0
 70
    32
  0
VERTEX
  5
1D7C
330
1429
100
AcDbEntity
  8
0
100
AcDbVertex
100
AcDb3dPolylineVertex
 10
439.6580286116154
 20
403.7460231170824
 30
0.0
 70
    32
  0
VERTEX
  5
1D7D
330
1429
100
AcDbEntity
  8
0
100
AcDbVertex
100
AcDb3dPolylineVertex
 10
439.8040286116154
 20
403.9160231170823
 30
0.0
 70
    32
  0
VERTEX
  5
1D7E
330
1429
100
AcDbEntity
  8
0
100
AcDbVertex
100
AcDb3dPolylineVertex
 10
439.9470286116156
 20
404.0860231170823
 30
0.0
 70
    32
  0
VERTEX
  5
1D7F
330
1429
100
AcDbEntity
  8
0
100
AcDbVertex
100
AcDb3dPolylineVertex
 10
440.0860286116155
 20
404.2560231170822
 30
0.0
 70
    32
  0
VERTEX
  5
1D80
330
1429
100
AcDbEntity
  8
0
100
AcDbVertex
100
AcDb3dPolylineVertex
 10
440.2210286116154
 20
404.4360231170816
 30
0.0
 70
    32
  0
VERTEX
  5
1D81
330
1429
100
AcDbEntity
  8
0
100
AcDbVertex
100
AcDb3dPolylineVertex
 10
440.3530286116156
 20
404.6260231170805
 30
0.0
 70
    32
  0
VERTEX
  5
1D82
330
1429
100
AcDbEntity
  8
0
100
AcDbVertex
100
AcDb3dPolylineVertex
 10
440.4810286116154
 20
404.8160231170823
 30
0.0
 70
    32
  0
VERTEX
  5
1D83
330
1429
100
AcDbEntity
  8
0
100
AcDbVertex
100
AcDb3dPolylineVertex
 10
440.6060286116152
 20
405.006023117082
 30
0.0
 70
    32
  0
VERTEX
  5
1D84
330
1429
100
AcDbEntity
  8
0
100
AcDbVertex
100
AcDb3dPolylineVertex
 10
440.7260286116152
 20
405.1960231170823
 30
0.0
 70
    32
  0
VERTEX
  5
1D85
330
1429
100
AcDbEntity
  8
0
100
AcDbVertex
100
AcDb3dPolylineVertex
 10
440.8430286116155
 20
405.3960231170809
 30
0.0
 70
    32
  0
VERTEX
  5
1D86
330
1429
100
AcDbEntity
  8
0
100
AcDbVertex
100
AcDb3dPolylineVertex
 10
440.9550286116154
 20
405.5960231170821
 30
0.0
 70
    32
  0
VERTEX
  5
1D87
330
1429
100
AcDbEntity
  8
0
100
AcDbVertex
100
AcDb3dPolylineVertex
 10
441.0640286116155
 20
405.8060231170823
 30
0.0
 70
    32
  0
VERTEX
  5
1D88
330
1429
100
AcDbEntity
  8
0
100
AcDbVertex
100
AcDb3dPolylineVertex
 10
441.1680286116156
 20
406.0160231170813
 30
0.0
 70
    32
  0
VERTEX
  5
1D89
330
1429
100
AcDbEntity
  8
0
100
AcDbVertex
100
AcDb3dPolylineVertex
 10
441.2690286116156
 20
406.2260231170824
 30
0.0
 70
    32
  0
VERTEX
  5
1D8A
330
1429
100
AcDbEntity
  8
0
100
AcDbVertex
100
AcDb3dPolylineVertex
 10
441.3650286116156
 20
406.4460231170811
 30
0.0
 70
    32
  0
VERTEX
  5
1D8B
330
1429
100
AcDbEntity
  8
0
100
AcDbVertex
100
AcDb3dPolylineVertex
 10
441.4560286116155
 20
406.6560231170823
 30
0.0
 70
    32
  0
VERTEX
  5
1D8C
330
1429
100
AcDbEntity
  8
0
100
AcDbVertex
100
AcDb3dPolylineVertex
 10
441.5440286116154
 20
406.8760231170811
 30
0.0
 70
    32
  0
VERTEX
  5
1D8D
330
1429
100
AcDbEntity
  8
0
100
AcDbVertex
100
AcDb3dPolylineVertex
 10
441.6260286116154
 20
407.1060231170823
 30
0.0
 70
    32
  0
VERTEX
  5
1D8E
330
1429
100
AcDbEntity
  8
0
100
AcDbVertex
100
AcDb3dPolylineVertex
 10
441.7050286116156
 20
407.3260231170823
 30
0.0
 70
    32
  0
VERTEX
  5
1D8F
330
1429
100
AcDbEntity
  8
0
100
AcDbVertex
100
AcDb3dPolylineVertex
 10
441.7790286116156
 20
407.5560231170823
 30
0.0
 70
    32
  0
VERTEX
  5
1D90
330
1429
100
AcDbEntity
  8
0
100
AcDbVertex
100
AcDb3dPolylineVertex
 10
441.8480286116156
 20
407.7860231170821
 30
0.0
 70
    32
  0
VERTEX
  5
1D91
330
1429
100
AcDbEntity
  8
0
100
AcDbVertex
100
AcDb3dPolylineVertex
 10
441.9130286116155
 20
408.016023117082
 30
0.0
 70
    32
  0
VERTEX
  5
1D92
330
1429
100
AcDbEntity
  8
0
100
AcDbVertex
100
AcDb3dPolylineVertex
 10
441.9730286116155
 20
408.2560231170814
 30
0.0
 70
    32
  0
VERTEX
  5
1D93
330
1429
100
AcDbEntity
  8
0
100
AcDbVertex
100
AcDb3dPolylineVertex
 10
442.0280286116155
 20
408.4860231170821
 30
0.0
 70
    32
  0
VERTEX
  5
1D94
330
1429
100
AcDbEntity
  8
0
100
AcDbVertex
100
AcDb3dPolylineVertex
 10
442.0790286116156
 20
408.7260231170814
 30
0.0
 70
    32
  0
VERTEX
  5
1D95
330
1429
100
AcDbEntity
  8
0
100
AcDbVertex
100
AcDb3dPolylineVertex
 10
442.1250286116154
 20
408.9660231170824
 30
0.0
 70
    32
  0
VERTEX
  5
1D96
330
1429
100
AcDbEntity
  8
0
100
AcDbVertex
100
AcDb3dPolylineVertex
 10
442.1660286116154
 20
409.2060231170812
 30
0.0
 70
    32
  0
VERTEX
  5
1D97
330
1429
100
AcDbEntity
  8
0
100
AcDbVertex
100
AcDb3dPolylineVertex
 10
442.2030286116154
 20
409.4460231170812
 30
0.0
 70
    32
  0
VERTEX
  5
1D98
330
1429
100
AcDbEntity
  8
0
100
AcDbVertex
100
AcDb3dPolylineVertex
 10
442.2340286116154
 20
409.6860231170823
 30
0.0
 70
    32
  0
VERTEX
  5
1D99
330
1429
100
AcDbEntity
  8
0
100
AcDbVertex
100
AcDb3dPolylineVertex
 10
442.2610286116156
 20
409.9360231170823
 30
0.0
 70
    32
  0
VERTEX
  5
1D9A
330
1429
100
AcDbEntity
  8
0
100
AcDbVertex
100
AcDb3dPolylineVertex
 10
442.2830286116155
 20
410.1760231170823
 30
0.0
 70
    32
  0
VERTEX
  5
1D9B
330
1429
100
AcDbEntity
  8
0
100
AcDbVertex
100
AcDb3dPolylineVertex
 10
442.3000286116155
 20
410.4160231170808
 30
0.0
 70
    32
  0
VERTEX
  5
1D9C
330
1429
100
AcDbEntity
  8
0
100
AcDbVertex
100
AcDb3dPolylineVertex
 10
442.3130286116156
 20
410.6660231170811
 30
0.0
 70
    32
  0
VERTEX
  5
1D9D
330
1429
100
AcDbEntity
  8
0
100
AcDbVertex
100
AcDb3dPolylineVertex
 10
442.3200286116156
 20
410.9060231170824
 30
0.0
 70
    32
  0
VERTEX
  5
1D9E
330
1429
100
AcDbEntity
  8
0
100
AcDbVertex
100
AcDb3dPolylineVertex
 10
442.3220286116156
 20
411.1560231170823
 30
0.0
 70
    32
  0
VERTEX
  5
1D9F
330
1429
100
AcDbEntity
  8
0
100
AcDbVertex
100
AcDb3dPolylineVertex
 10
442.3200286116156
 20
411.4060231170824
 30
0.0
 70
    32
  0
VERTEX
  5
1DA0
330
1429
100
AcDbEntity
  8
0
100
AcDbVertex
100
AcDb3dPolylineVertex
 10
442.3130286116156
 20
411.6460231170809
 30
0.0
 70
    32
  0
VERTEX
  5
1DA1
330
1429
100
AcDbEntity
  8
0
100
AcDbVertex
100
AcDb3dPolylineVertex
 10
442.3000286116155
 20
411.8960231170809
 30
0.0
 70
    32
  0
VERTEX
  5
1DA2
330
1429
100
AcDbEntity
  8
0
100
AcDbVertex
100
AcDb3dPolylineVertex
 10
442.2830286116155
 20
412.1360231170823
 30
0.0
 70
    32
  0
VERTEX
  5
1DA3
330
1429
100
AcDbEntity
  8
0
100
AcDbVertex
100
AcDb3dPolylineVertex
 10
442.2610286116156
 20
412.3760231170823
 30
0.0
 70
    32
  0
VERTEX
  5
1DA4
330
1429
100
AcDbEntity
  8
0
100
AcDbVertex
100
AcDb3dPolylineVertex
 10
442.2340286116154
 20
412.6260231170823
 30
0.0
 70
    32
  0
VERTEX
  5
1DA5
330
1429
100
AcDbEntity
  8
0
100
AcDbVertex
100
AcDb3dPolylineVertex
 10
442.2030286116154
 20
412.8660231170806
 30
0.0
 70
    32
  0
VERTEX
  5
1DA6
330
1429
100
AcDbEntity
  8
0
100
AcDbVertex
100
AcDb3dPolylineVertex
 10
442.1660286116154
 20
413.1060231170811
 30
0.0
 70
    32
  0
VERTEX
  5
1DA7
330
1429
100
AcDbEntity
  8
0
100
AcDbVertex
100
AcDb3dPolylineVertex
 10
442.1250286116154
 20
413.3460231170822
 30
0.0
 70
    32
  0
VERTEX
  5
1DA8
330
1429
100
AcDbEntity
  8
0
100
AcDbVertex
100
AcDb3dPolylineVertex
 10
442.0790286116156
 20
413.5860231170823
 30
0.0
 70
    32
  0
VERTEX
  5
1DA9
330
1429
100
AcDbEntity
  8
0
100
AcDbVertex
100
AcDb3dPolylineVertex
 10
442.0280286116155
 20
413.8260231170822
 30
0.0
 70
    32
  0
VERTEX
  5
1DAA
330
1429
100
AcDbEntity
  8
0
100
AcDbVertex
100
AcDb3dPolylineVertex
 10
441.9730286116155
 20
414.0560231170812
 30
0.0
 70
    32
  0
VERTEX
  5
1DAB
330
1429
100
AcDbEntity
  8
0
100
AcDbVertex
100
AcDb3dPolylineVertex
 10
441.9130286116155
 20
414.2960231170819
 30
0.0
 70
    32
  0
VERTEX
  5
1DAC
330
1429
100
AcDbEntity
  8
0
100
AcDbVertex
100
AcDb3dPolylineVertex
 10
441.8480286116156
 20
414.5260231170814
 30
0.0
 70
    32
  0
VERTEX
  5
1DAD
330
1429
100
AcDbEntity
  8
0
100
AcDbVertex
100
AcDb3dPolylineVertex
 10
441.7790286116156
 20
414.7560231170805
 30
0.0
 70
    32
  0
VERTEX
  5
1DAE
330
1429
100
AcDbEntity
  8
0
100
AcDbVertex
100
AcDb3dPolylineVertex
 10
441.7050286116156
 20
414.9860231170814
 30
0.0
 70
    32
  0
VERTEX
  5
1DAF
330
1429
100
AcDbEntity
  8
0
100
AcDbVertex
100
AcDb3dPolylineVertex
 10
441.6260286116154
 20
415.2060231170823
 30
0.0
 70
    32
  0
VERTEX
  5
1DB0
330
1429
100
AcDbEntity
  8
0
100
AcDbVertex
100
AcDb3dPolylineVertex
 10
441.5440286116154
 20
415.4360231170809
 30
0.0
 70
    32
  0
VERTEX
  5
1DB1
330
1429
100
AcDbEntity
  8
0
100
AcDbVertex
100
AcDb3dPolylineVertex
 10
441.4560286116155
 20
415.6560231170823
 30
0.0
 70
    32
  0
VERTEX
  5
1DB2
330
1429
100
AcDbEntity
  8
0
100
AcDbVertex
100
AcDb3dPolylineVertex
 10
441.3650286116156
 20
415.8660231170824
 30
0.0
 70
    32
  0
VERTEX
  5
1DB3
330
1429
100
AcDbEntity
  8
0
100
AcDbVertex
100
AcDb3dPolylineVertex
 10
441.2690286116156
 20
416.0860231170822
 30
0.0
 70
    32
  0
VERTEX
  5
1DB4
330
1429
100
AcDbEntity
  8
0
100
AcDbVertex
100
AcDb3dPolylineVertex
 10
441.1680286116156
 20
416.2960231170821
 30
0.0
 70
    32
  0
VERTEX
  5
1DB5
330
1429
100
AcDbEntity
  8
0
100
AcDbVertex
100
AcDb3dPolylineVertex
 10
441.0640286116155
 20
416.506023117082
 30
0.0
 70
    32
  0
VERTEX
  5
1DB6
330
1429
100
AcDbEntity
  8
0
100
AcDbVertex
100
AcDb3dPolylineVertex
 10
440.9550286116154
 20
416.7160231170812
 30
0.0
 70
    32
  0
VERTEX
  5
1DB7
330
1429
100
AcDbEntity
  8
0
100
AcDbVertex
100
AcDb3dPolylineVertex
 10
440.8430286116155
 20
416.9160231170811
 30
0.0
 70
    32
  0
VERTEX
  5
1DB8
330
1429
100
AcDbEntity
  8
0
100
AcDbVertex
100
AcDb3dPolylineVertex
 10
440.7260286116152
 20
417.1160231170825
 30
0.0
 70
    32
  0
VERTEX
  5
1DB9
330
1429
100
AcDbEntity
  8
0
100
AcDbVertex
100
AcDb3dPolylineVertex
 10
440.6060286116152
 20
417.3060231170823
 30
0.0
 70
    32
  0
VERTEX
  5
1DBA
330
1429
100
AcDbEntity
  8
0
100
AcDbVertex
100
AcDb3dPolylineVertex
 10
440.4810286116154
 20
417.4960231170805
 30
0.0
 70
    32
  0
VERTEX
  5
1DBB
330
1429
100
AcDbEntity
  8
0
100
AcDbVertex
100
AcDb3dPolylineVertex
 10
440.3530286116156
 20
417.6860231170809
 30
0.0
 70
    32
  0
VERTEX
  5
1DBC
330
1429
100
AcDbEntity
  8
0
100
AcDbVertex
100
AcDb3dPolylineVertex
 10
440.2210286116154
 20
417.8760231170805
 30
0.0
 70
    32
  0
VERTEX
  5
1DBD
330
1429
100
AcDbEntity
  8
0
100
AcDbVertex
100
AcDb3dPolylineVertex
 10
440.0860286116155
 20
418.0560231170821
 30
0.0
 70
    32
  0
VERTEX
  5
1DBE
330
1429
100
AcDbEntity
  8
0
100
AcDbVertex
100
AcDb3dPolylineVertex
 10
439.9470286116156
 20
418.2260231170824
 30
0.0
 70
    32
  0
VERTEX
  5
1DBF
330
1429
100
AcDbEntity
  8
0
100
AcDbVertex
100
AcDb3dPolylineVertex
 10
439.8040286116154
 20
418.3960231170823
 30
0.0
 70
    32
  0
VERTEX
  5
1DC0
330
1429
100
AcDbEntity
  8
0
100
AcDbVertex
100
AcDb3dPolylineVertex
 10
439.6580286116154
 20
418.5660231170823
 30
0.0
 70
    32
  0
VERTEX
  5
1DC1
330
1429
100
AcDbEntity
  8
0
100
AcDbVertex
100
AcDb3dPolylineVertex
 10
439.5090286116156
 20
418.7260231170824
 30
0.0
 70
    32
  0
VERTEX
  5
1DC2
330
1429
100
AcDbEntity
  8
0
100
AcDbVertex
100
AcDb3dPolylineVertex
 10
439.3570286116156
 20
418.8860231170823
 30
0.0
 70
    32
  0
VERTEX
  5
1DC3
330
1429
100
AcDbEntity
  8
0
100
AcDbVertex
100
AcDb3dPolylineVertex
 10
439.2010286116155
 20
419.0360231170821
 30
0.0
 70
    32
  0
VERTEX
  5
1DC4
330
1429
100
AcDbEntity
  8
0
100
AcDbVertex
100
AcDb3dPolylineVertex
 10
439.0430286116154
 20
419.1860231170823
 30
0.0
 70
    32
  0
VERTEX
  5
1DC5
330
1429
100
AcDbEntity
  8
0
100
AcDbVertex
100
AcDb3dPolylineVertex
 10
438.8820286116156
 20
419.3360231170823
 30
0.0
 70
    32
  0
VERTEX
  5
1DC6
330
1429
100
AcDbEntity
  8
0
100
AcDbVertex
100
AcDb3dPolylineVertex
 10
438.7170286116155
 20
419.4660231170812
 30
0.0
 70
    32
  0
VERTEX
  5
1DC7
330
1429
100
AcDbEntity
  8
0
100
AcDbVertex
100
AcDb3dPolylineVertex
 10
438.5510286116154
 20
419.6060231170823
 30
0.0
 70
    32
  0
VERTEX
  5
1DC8
330
1429
100
AcDbEntity
  8
0
100
AcDbVertex
100
AcDb3dPolylineVertex
 10
438.3810286116156
 20
419.7360231170813
 30
0.0
 70
    32
  0
VERTEX
  5
1DC9
330
1429
100
AcDbEntity
  8
0
100
AcDbVertex
100
AcDb3dPolylineVertex
 10
438.2090286116156
 20
419.8560231170803
 30
0.0
 70
    32
  0
VERTEX
  5
1DCA
330
1429
100
AcDbEntity
  8
0
100
AcDbVertex
100
AcDb3dPolylineVertex
 10
438.0350286116154
 20
419.9760231170824
 30
0.0
 70
    32
  0
VERTEX
  5
1DCB
330
1429
100
AcDbEntity
  8
0
100
AcDbVertex
100
AcDb3dPolylineVertex
 10
437.8580286116155
 20
420.0860231170822
 30
0.0
 70
    32
  0
VERTEX
  5
1DCC
330
1429
100
AcDbEntity
  8
0
100
AcDbVertex
100
AcDb3dPolylineVertex
 10
437.6790286116156
 20
420.1960231170823
 30
0.0
 70
    32
  0
VERTEX
  5
1DCD
330
1429
100
AcDbEntity
  8
0
100
AcDbVertex
100
AcDb3dPolylineVertex
 10
437.4980286116156
 20
420.2960231170821
 30
0.0
 70
    32
  0
VERTEX
  5
1DCE
330
1429
100
AcDbEntity
  8
0
100
AcDbVertex
100
AcDb3dPolylineVertex
 10
437.3150286116156
 20
420.3960231170824
 30
0.0
 70
    32
  0
VERTEX
  5
1DCF
330
1429
100
AcDbEntity
  8
0
100
AcDbVertex
100
AcDb3dPolylineVertex
 10
437.1300286116156
 20
420.4860231170814
 30
0.0
 70
    32
  0
VERTEX
  5
1DD0
330
1429
100
AcDbEntity
  8
0
100
AcDbVertex
100
AcDb3dPolylineVertex
 10
436.9440286116155
 20
420.5760231170811
 30
0.0
 70
    32
  0
VERTEX
  5
1DD1
330
1429
100
AcDbEntity
  8
0
100
AcDbVertex
100
AcDb3dPolylineVertex
 10
436.7550286116156
 20
420.6560231170811
 30
0.0
 70
    32
  0
VERTEX
  5
1DD2
330
1429
100
AcDbEntity
  8
0
100
AcDbVertex
100
AcDb3dPolylineVertex
 10
436.5660286116153
 20
420.7260231170822
 30
0.0
 70
    32
  0
VERTEX
  5
1DD3
330
1429
100
AcDbEntity
  8
0
100
AcDbVertex
100
AcDb3dPolylineVertex
 10
436.3740286116154
 20
420.7960231170821
 30
0.0
 70
    32
  0
VERTEX
  5
1DD4
330
1429
100
AcDbEntity
  8
0
100
AcDbVertex
100
AcDb3dPolylineVertex
 10
436.1820286116155
 20
420.8560231170825
 30
0.0
 70
    32
  0
VERTEX
  5
1DD5
330
1429
100
AcDbEntity
  8
0
100
AcDbVertex
100
AcDb3dPolylineVertex
 10
435.9880286116156
 20
420.9160231170823
 30
0.0
 70
    32
  0
VERTEX
  5
1DD6
330
1429
100
AcDbEntity
  8
0
100
AcDbVertex
100
AcDb3dPolylineVertex
 10
435.7930286116156
 20
420.9660231170824
 30
0.0
 70
    32
  0
VERTEX
  5
1DD7
330
1429
100
AcDbEntity
  8
0
100
AcDbVertex
100
AcDb3dPolylineVertex
 10
435.5980286116156
 20
421.0060231170813
 30
0.0
 70
    32
  0
VERTEX
  5
1DD8
330
1429
100
AcDbEntity
  8
0
100
AcDbVertex
100
AcDb3dPolylineVertex
 10
435.4010286116156
 20
421.0460231170819
 30
0.0
 70
    32
  0
VERTEX
  5
1DD9
330
1429
100
AcDbEntity
  8
0
100
AcDbVertex
100
AcDb3dPolylineVertex
 10
435.2040286116156
 20
421.0760231170803
 30
0.0
 70
    32
  0
VERTEX
  5
1DDA
330
1429
100
AcDbEntity
  8
0
100
AcDbVertex
100
AcDb3dPolylineVertex
 10
435.0060286116153
 20
421.1060231170823
 30
0.0
 70
    32
  0
VERTEX
  5
1DDB
330
1429
100
AcDbEntity
  8
0
100
AcDbVertex
100
AcDb3dPolylineVertex
 10
434.8080286116156
 20
421.1260231170824
 30
0.0
 70
    32
  0
VERTEX
  5
1DDC
330
1429
100
AcDbEntity
  8
0
100
AcDbVertex
100
AcDb3dPolylineVertex
 10
434.6090286116154
 20
421.1460231170823
 30
0.0
 70
    32
  0
VERTEX
  5
1DDD
330
1429
100
AcDbEntity
  8
0
100
AcDbVertex
100
AcDb3dPolylineVertex
 10
434.4100286116154
 20
421.1560231170824
 30
0.0
 70
    32
  0
VERTEX
  5
1DDE
330
1429
100
AcDbEntity
  8
0
100
AcDbVertex
100
AcDb3dPolylineVertex
 10
434.2110286116155
 20
421.1560231170824
 30
0.0
 70
    32
  0
SEQEND
  5
1DDF
330
1429
100
AcDbEntity
  8
0
  0
TEXT
  5
14F8
330
2B13
100
AcDbEntity
  8
0
100
AcDbText
 10
106.8362782033041
 20
598.1193326292546
 30
0.0
 40
48.000002
  1
BVH__ 15A
 41
1.40267
100
AcDbText
  0
LINE
  5
1850
330
2B13
100
AcDbEntity
  8
0
100
AcDbLine
 10
415.7290286116156
 20
186.1976902578044
 30
0.0
 11
412.8790292116154
 21
186.1976902578044
 31
0.0
  0
LINE
  5
1851
330
2B13
100
AcDbEntity
  8
0
100
AcDbLine
 10
412.8790292116154
 20
186.1976902578044
 30
0.0
 11
410.6406123116156
 21
192.3476902578044
 31
0.0
  0
LINE
  5
1852
330
2B13
100
AcDbEntity
  8
0
100
AcDbLine
 10
410.6406125116154
 20
192.3476902578044
 30
0.0
 11
395.2290286116156
 21
192.3476902578044
 31
0.0
  0
LINE
  5
1853
330
2B13
100
AcDbEntity
  8
0
100
AcDbLine
 10
415.7290286116156
 20
220.1976902578044
 30
0.0
 11
415.7290286116156
 21
186.1976902578044
 31
0.0
  0
LINE
  5
1854
330
2B13
100
AcDbEntity
  8
0
100
AcDbLine
 10
410.6406125116154
 20
214.0476902578043
 30
0.0
 11
395.2290286116156
 21
214.0476902578043
 31
0.0
  0
LINE
  5
1855
330
2B13
100
AcDbEntity
  8
0
100
AcDbLine
 10
412.8790292116154
 20
220.1976902578044
 30
0.0
 11
410.6406123116156
 21
214.0476902578043
 31
0.0
  0
LINE
  5
1856
330
2B13
100
AcDbEntity
  8
0
100
AcDbLine
 10
415.7290286116156
 20
220.1976902578044
 30
0.0
 11
412.8790292116154
 21
220.1976902578044
 31
0.0
  0
LINE
  5
1858
330
2B13
100
AcDbEntity
  8
0
100
AcDbLine
 10
410.6406125116154
 20
192.3476902578044
 30
0.0
 11
410.6406125116154
 21
214.0476902578043
 31
0.0
  0
LINE
  5
185B
330
2B13
100
AcDbEntity
  8
0
100
AcDbLine
 10
350.7290286116155
 20
220.1976902578044
 30
0.0
 11
353.5790280116155
 21
220.1976902578044
 31
0.0
  0
LINE
  5
185C
330
2B13
100
AcDbEntity
  8
0
100
AcDbLine
 10
353.5790280116155
 20
220.1976902578044
 30
0.0
 11
355.8174449116155
 21
214.0476902578043
 31
0.0
  0
LINE
  5
185D
330
2B13
100
AcDbEntity
  8
0
100
AcDbLine
 10
355.8174447116156
 20
214.0476902578043
 30
0.0
 11
371.2290300804897
 21
214.0476902578043
 31
0.0
  0
LINE
  5
185E
330
2B13
100
AcDbEntity
  8
0
100
AcDbLine
 10
350.7290286116155
 20
186.1976902578044
 30
0.0
 11
350.7290286116155
 21
220.1976902578044
 31
0.0
  0
LINE
  5
185F
330
2B13
100
AcDbEntity
  8
0
100
AcDbLine
 10
355.8174447116156
 20
192.3476902578044
 30
0.0
 11
371.2290286116154
 21
192.3476902578044
 31
0.0
  0
LINE
  5
1860
330
2B13
100
AcDbEntity
  8
0
100
AcDbLine
 10
353.5790280116155
 20
186.1976902578044
 30
0.0
 11
355.8174449116155
 21
192.3476902578044
 31
0.0
  0
LINE
  5
1861
330
2B13
100
AcDbEntity
  8
0
100
AcDbLine
 10
350.7290286116155
 20
186.1976902578044
 30
0.0
 11
353.5790280116155
 21
186.1976902578044
 31
0.0
  0
LINE
  5
1863
330
2B13
100
AcDbEntity
  8
0
100
AcDbLine
 10
355.8174447116156
 20
214.0476902578043
 30
0.0
 11
355.8174447116156
 21
192.3476902578044
 31
0.0
  0
POLYLINE
  5
18C2
330
2B13
100
AcDbEntity
  8
0
100
AcDb3dPolyline
 66
     1
 10
0.0
 20
0.0
 30
0.0
 70
     8
  0
VERTEX
  5
1DE0
330
18C2
100
AcDbEntity
  8
0
100
AcDbVertex
100
AcDb3dPolylineVertex
 10
550.8544979613185
 20
281.4076902578022
 30
0.0
 70
    32
  0
VERTEX
  5
1DE1
330
18C2
100
AcDbEntity
  8
0
100
AcDbVertex
100
AcDb3dPolylineVertex
 10
550.8514979613185
 20
281.5776902578044
 30
0.0
 70
    32
  0
VERTEX
  5
1DE2
330
18C2
100
AcDbEntity
  8
0
100
AcDbVertex
100
AcDb3dPolylineVertex
 10
550.8424979613185
 20
281.7576902578043
 30
0.0
 70
    32
  0
VERTEX
  5
1DE3
330
18C2
100
AcDbEntity
  8
0
100
AcDbVertex
100
AcDb3dPolylineVertex
 10
550.8274979613185
 20
281.9276902578043
 30
0.0
 70
    32
  0
VERTEX
  5
1DE4
330
18C2
100
AcDbEntity
  8
0
100
AcDbVertex
100
AcDb3dPolylineVertex
 10
550.8064979613183
 20
282.0976902578045
 30
0.0
 70
    32
  0
VERTEX
  5
1DE5
330
18C2
100
AcDbEntity
  8
0
100
AcDbVertex
100
AcDb3dPolylineVertex
 10
550.7794979613183
 20
282.2676902578042
 30
0.0
 70
    32
  0
VERTEX
  5
1DE6
330
18C2
100
AcDbEntity
  8
0
100
AcDbVertex
100
AcDb3dPolylineVertex
 10
550.7464979613184
 20
282.4376902578043
 30
0.0
 70
    32
  0
VERTEX
  5
1DE7
330
18C2
100
AcDbEntity
  8
0
100
AcDbVertex
100
AcDb3dPolylineVertex
 10
550.7074979613181
 20
282.6076902578045
 30
0.0
 70
    32
  0
VERTEX
  5
1DE8
330
18C2
100
AcDbEntity
  8
0
100
AcDbVertex
100
AcDb3dPolylineVertex
 10
550.6624979613181
 20
282.7776902578042
 30
0.0
 70
    32
  0
VERTEX
  5
1DE9
330
18C2
100
AcDbEntity
  8
0
100
AcDbVertex
100
AcDb3dPolylineVertex
 10
550.6114979613181
 20
282.9476902578043
 30
0.0
 70
    32
  0
VERTEX
  5
1DEA
330
18C2
100
AcDbEntity
  8
0
100
AcDbVertex
100
AcDb3dPolylineVertex
 10
550.5554979613186
 20
283.1176902578043
 30
0.0
 70
    32
  0
VERTEX
  5
1DEB
330
18C2
100
AcDbEntity
  8
0
100
AcDbVertex
100
AcDb3dPolylineVertex
 10
550.4924979613185
 20
283.2876902578033
 30
0.0
 70
    32
  0
VERTEX
  5
1DEC
330
18C2
100
AcDbEntity
  8
0
100
AcDbVertex
100
AcDb3dPolylineVertex
 10
550.4244979613185
 20
283.4476902578043
 30
0.0
 70
    32
  0
VERTEX
  5
1DED
330
18C2
100
AcDbEntity
  8
0
100
AcDbVertex
100
AcDb3dPolylineVertex
 10
550.3504979613185
 20
283.6176902578045
 30
0.0
 70
    32
  0
VERTEX
  5
1DEE
330
18C2
100
AcDbEntity
  8
0
100
AcDbVertex
100
AcDb3dPolylineVertex
 10
550.2704979613183
 20
283.7776902578033
 30
0.0
 70
    32
  0
VERTEX
  5
1DEF
330
18C2
100
AcDbEntity
  8
0
100
AcDbVertex
100
AcDb3dPolylineVertex
 10
550.1844979613183
 20
283.9376902578043
 30
0.0
 70
    32
  0
VERTEX
  5
1DF0
330
18C2
100
AcDbEntity
  8
0
100
AcDbVertex
100
AcDb3dPolylineVertex
 10
550.0934979613183
 20
284.0976902578045
 30
0.0
 70
    32
  0
VERTEX
  5
1DF1
330
18C2
100
AcDbEntity
  8
0
100
AcDbVertex
100
AcDb3dPolylineVertex
 10
549.9964979613182
 20
284.2576902578043
 30
0.0
 70
    32
  0
VERTEX
  5
1DF2
330
18C2
100
AcDbEntity
  8
0
100
AcDbVertex
100
AcDb3dPolylineVertex
 10
549.8944979613184
 20
284.4076902578043
 30
0.0
 70
    32
  0
VERTEX
  5
1DF3
330
18C2
100
AcDbEntity
  8
0
100
AcDbVertex
100
AcDb3dPolylineVertex
 10
549.7874979613181
 20
284.5676902578043
 30
0.0
 70
    32
  0
VERTEX
  5
1DF4
330
18C2
100
AcDbEntity
  8
0
100
AcDbVertex
100
AcDb3dPolylineVertex
 10
549.6744979613183
 20
284.7176902578042
 30
0.0
 70
    32
  0
VERTEX
  5
1DF5
330
18C2
100
AcDbEntity
  8
0
100
AcDbVertex
100
AcDb3dPolylineVertex
 10
549.5554979613185
 20
284.8676902578045
 30
0.0
 70
    32
  0
VERTEX
  5
1DF6
330
18C2
100
AcDbEntity
  8
0
100
AcDbVertex
100
AcDb3dPolylineVertex
 10
549.4324979613184
 20
285.0176902578043
 30
0.0
 70
    32
  0
VERTEX
  5
1DF7
330
18C2
100
AcDbEntity
  8
0
100
AcDbVertex
100
AcDb3dPolylineVertex
 10
549.3034979613184
 20
285.1676902578044
 30
0.0
 70
    32
  0
VERTEX
  5
1DF8
330
18C2
100
AcDbEntity
  8
0
100
AcDbVertex
100
AcDb3dPolylineVertex
 10
549.1694979613185
 20
285.3076902578034
 30
0.0
 70
    32
  0
VERTEX
  5
1DF9
330
18C2
100
AcDbEntity
  8
0
100
AcDbVertex
100
AcDb3dPolylineVertex
 10
549.0304979613183
 20
285.4576902578043
 30
0.0
 70
    32
  0
VERTEX
  5
1DFA
330
18C2
100
AcDbEntity
  8
0
100
AcDbVertex
100
AcDb3dPolylineVertex
 10
548.8864979613183
 20
285.5976902578045
 30
0.0
 70
    32
  0
VERTEX
  5
1DFB
330
18C2
100
AcDbEntity
  8
0
100
AcDbVertex
100
AcDb3dPolylineVertex
 10
548.7384979613183
 20
285.7276902578037
 30
0.0
 70
    32
  0
VERTEX
  5
1DFC
330
18C2
100
AcDbEntity
  8
0
100
AcDbVertex
100
AcDb3dPolylineVertex
 10
548.5844979613185
 20
285.8676902578045
 30
0.0
 70
    32
  0
VERTEX
  5
1DFD
330
18C2
100
AcDbEntity
  8
0
100
AcDbVertex
100
AcDb3dPolylineVertex
 10
548.4264979613185
 20
285.9976902578043
 30
0.0
 70
    32
  0
VERTEX
  5
1DFE
330
18C2
100
AcDbEntity
  8
0
100
AcDbVertex
100
AcDb3dPolylineVertex
 10
548.2644979613183
 20
286.1276902578022
 30
0.0
 70
    32
  0
VERTEX
  5
1DFF
330
18C2
100
AcDbEntity
  8
0
100
AcDbVertex
100
AcDb3dPolylineVertex
 10
548.0974979613185
 20
286.2576902578043
 30
0.0
 70
    32
  0
VERTEX
  5
1E00
330
18C2
100
AcDbEntity
  8
0
100
AcDbVertex
100
AcDb3dPolylineVertex
 10
547.9254979613183
 20
286.3776902578043
 30
0.0
 70
    32
  0
VERTEX
  5
1E01
330
18C2
100
AcDbEntity
  8
0
100
AcDbVertex
100
AcDb3dPolylineVertex
 10
547.7504979613184
 20
286.4976902578043
 30
0.0
 70
    32
  0
VERTEX
  5
1E02
330
18C2
100
AcDbEntity
  8
0
100
AcDbVertex
100
AcDb3dPolylineVertex
 10
547.5704979613185
 20
286.6176902578045
 30
0.0
 70
    32
  0
VERTEX
  5
1E03
330
18C2
100
AcDbEntity
  8
0
100
AcDbVertex
100
AcDb3dPolylineVertex
 10
547.3864979613185
 20
286.7276902578044
 30
0.0
 70
    32
  0
VERTEX
  5
1E04
330
18C2
100
AcDbEntity
  8
0
100
AcDbVertex
100
AcDb3dPolylineVertex
 10
547.1984979613185
 20
286.8376902578044
 30
0.0
 70
    32
  0
VERTEX
  5
1E05
330
18C2
100
AcDbEntity
  8
0
100
AcDbVertex
100
AcDb3dPolylineVertex
 10
547.0074979613185
 20
286.9476902578036
 30
0.0
 70
    32
  0
VERTEX
  5
1E06
330
18C2
100
AcDbEntity
  8
0
100
AcDbVertex
100
AcDb3dPolylineVertex
 10
546.8114979613185
 20
287.0476902578042
 30
0.0
 70
    32
  0
VERTEX
  5
1E07
330
18C2
100
AcDbEntity
  8
0
100
AcDbVertex
100
AcDb3dPolylineVertex
 10
546.6124979613183
 20
287.1476902578043
 30
0.0
 70
    32
  0
VERTEX
  5
1E08
330
18C2
100
AcDbEntity
  8
0
100
AcDbVertex
100
AcDb3dPolylineVertex
 10
546.4104979613185
 20
287.2476902578043
 30
0.0
 70
    32
  0
VERTEX
  5
1E09
330
18C2
100
AcDbEntity
  8
0
100
AcDbVertex
100
AcDb3dPolylineVertex
 10
546.2044979613185
 20
287.3476902578035
 30
0.0
 70
    32
  0
VERTEX
  5
1E0A
330
18C2
100
AcDbEntity
  8
0
100
AcDbVertex
100
AcDb3dPolylineVertex
 10
545.9954979613184
 20
287.4376902578043
 30
0.0
 70
    32
  0
VERTEX
  5
1E0B
330
18C2
100
AcDbEntity
  8
0
100
AcDbVertex
100
AcDb3dPolylineVertex
 10
545.7834979613185
 20
287.5176902578043
 30
0.0
 70
    32
  0
VERTEX
  5
1E0C
330
18C2
100
AcDbEntity
  8
0
100
AcDbVertex
100
AcDb3dPolylineVertex
 10
545.5684979613184
 20
287.6076902578045
 30
0.0
 70
    32
  0
VERTEX
  5
1E0D
330
18C2
100
AcDbEntity
  8
0
100
AcDbVertex
100
AcDb3dPolylineVertex
 10
545.3504979613184
 20
287.6876902578043
 30
0.0
 70
    32
  0
VERTEX
  5
1E0E
330
18C2
100
AcDbEntity
  8
0
100
AcDbVertex
100
AcDb3dPolylineVertex
 10
545.1304979613182
 20
287.7576902578043
 30
0.0
 70
    32
  0
VERTEX
  5
1E0F
330
18C2
100
AcDbEntity
  8
0
100
AcDbVertex
100
AcDb3dPolylineVertex
 10
544.9074979613182
 20
287.8276902578044
 30
0.0
 70
    32
  0
VERTEX
  5
1E10
330
18C2
100
AcDbEntity
  8
0
100
AcDbVertex
100
AcDb3dPolylineVertex
 10
544.6814979613183
 20
287.8976902578043
 30
0.0
 70
    32
  0
VERTEX
  5
1E11
330
18C2
100
AcDbEntity
  8
0
100
AcDbVertex
100
AcDb3dPolylineVertex
 10
544.4534979613186
 20
287.9676902578043
 30
0.0
 70
    32
  0
VERTEX
  5
1E12
330
18C2
100
AcDbEntity
  8
0
100
AcDbVertex
100
AcDb3dPolylineVertex
 10
544.2234979613186
 20
288.0276902578033
 30
0.0
 70
    32
  0
VERTEX
  5
1E13
330
18C2
100
AcDbEntity
  8
0
100
AcDbVertex
100
AcDb3dPolylineVertex
 10
543.9914979613186
 20
288.0776902578044
 30
0.0
 70
    32
  0
VERTEX
  5
1E14
330
18C2
100
AcDbEntity
  8
0
100
AcDbVertex
100
AcDb3dPolylineVertex
 10
543.7574979613185
 20
288.1276902578043
 30
0.0
 70
    32
  0
VERTEX
  5
1E15
330
18C2
100
AcDbEntity
  8
0
100
AcDbVertex
100
AcDb3dPolylineVertex
 10
543.5214979613183
 20
288.1776902578043
 30
0.0
 70
    32
  0
VERTEX
  5
1E16
330
18C2
100
AcDbEntity
  8
0
100
AcDbVertex
100
AcDb3dPolylineVertex
 10
543.2844979613182
 20
288.2276902578043
 30
0.0
 70
    32
  0
VERTEX
  5
1E17
330
18C2
100
AcDbEntity
  8
0
100
AcDbVertex
100
AcDb3dPolylineVertex
 10
543.0454979613183
 20
288.2676902578042
 30
0.0
 70
    32
  0
VERTEX
  5
1E18
330
18C2
100
AcDbEntity
  8
0
100
AcDbVertex
100
AcDb3dPolylineVertex
 10
542.8054979613185
 20
288.2976902578042
 30
0.0
 70
    32
  0
VERTEX
  5
1E19
330
18C2
100
AcDbEntity
  8
0
100
AcDbVertex
100
AcDb3dPolylineVertex
 10
542.5644979613183
 20
288.3276902578044
 30
0.0
 70
    32
  0
VERTEX
  5
1E1A
330
18C2
100
AcDbEntity
  8
0
100
AcDbVertex
100
AcDb3dPolylineVertex
 10
542.3224979613181
 20
288.3576902578045
 30
0.0
 70
    32
  0
VERTEX
  5
1E1B
330
18C2
100
AcDbEntity
  8
0
100
AcDbVertex
100
AcDb3dPolylineVertex
 10
542.0784979613182
 20
288.3776902578043
 30
0.0
 70
    32
  0
VERTEX
  5
1E1C
330
18C2
100
AcDbEntity
  8
0
100
AcDbVertex
100
AcDb3dPolylineVertex
 10
541.8344979613185
 20
288.3976902578043
 30
0.0
 70
    32
  0
VERTEX
  5
1E1D
330
18C2
100
AcDbEntity
  8
0
100
AcDbVertex
100
AcDb3dPolylineVertex
 10
541.5904979613185
 20
288.4176902578044
 30
0.0
 70
    32
  0
VERTEX
  5
1E1E
330
18C2
100
AcDbEntity
  8
0
100
AcDbVertex
100
AcDb3dPolylineVertex
 10
541.3454979613184
 20
288.4276902578037
 30
0.0
 70
    32
  0
VERTEX
  5
1E1F
330
18C2
100
AcDbEntity
  8
0
100
AcDbVertex
100
AcDb3dPolylineVertex
 10
541.1004979613185
 20
288.4276902578037
 30
0.0
 70
    32
  0
VERTEX
  5
1E20
330
18C2
100
AcDbEntity
  8
0
100
AcDbVertex
100
AcDb3dPolylineVertex
 10
540.8544979613185
 20
288.4376902578043
 30
0.0
 70
    32
  0
VERTEX
  5
1E21
330
18C2
100
AcDbEntity
  8
0
100
AcDbVertex
100
AcDb3dPolylineVertex
 10
540.6094979613185
 20
288.4276902578037
 30
0.0
 70
    32
  0
VERTEX
  5
1E22
330
18C2
100
AcDbEntity
  8
0
100
AcDbVertex
100
AcDb3dPolylineVertex
 10
540.3644979613185
 20
288.4276902578037
 30
0.0
 70
    32
  0
VERTEX
  5
1E23
330
18C2
100
AcDbEntity
  8
0
100
AcDbVertex
100
AcDb3dPolylineVertex
 10
540.1194979613185
 20
288.4176902578044
 30
0.0
 70
    32
  0
VERTEX
  5
1E24
330
18C2
100
AcDbEntity
  8
0
100
AcDbVertex
100
AcDb3dPolylineVertex
 10
539.8744979613184
 20
288.3976902578043
 30
0.0
 70
    32
  0
VERTEX
  5
1E25
330
18C2
100
AcDbEntity
  8
0
100
AcDbVertex
100
AcDb3dPolylineVertex
 10
539.6304979613185
 20
288.3776902578043
 30
0.0
 70
    32
  0
VERTEX
  5
1E26
330
18C2
100
AcDbEntity
  8
0
100
AcDbVertex
100
AcDb3dPolylineVertex
 10
539.3874979613185
 20
288.3576902578045
 30
0.0
 70
    32
  0
VERTEX
  5
1E27
330
18C2
100
AcDbEntity
  8
0
100
AcDbVertex
100
AcDb3dPolylineVertex
 10
539.1454979613182
 20
288.3276902578044
 30
0.0
 70
    32
  0
VERTEX
  5
1E28
330
18C2
100
AcDbEntity
  8
0
100
AcDbVertex
100
AcDb3dPolylineVertex
 10
538.9034979613184
 20
288.2976902578042
 30
0.0
 70
    32
  0
VERTEX
  5
1E29
330
18C2
100
AcDbEntity
  8
0
100
AcDbVertex
100
AcDb3dPolylineVertex
 10
538.6634979613185
 20
288.2676902578042
 30
0.0
 70
    32
  0
VERTEX
  5
1E2A
330
18C2
100
AcDbEntity
  8
0
100
AcDbVertex
100
AcDb3dPolylineVertex
 10
538.4254979613184
 20
288.2276902578043
 30
0.0
 70
    32
  0
VERTEX
  5
1E2B
330
18C2
100
AcDbEntity
  8
0
100
AcDbVertex
100
AcDb3dPolylineVertex
 10
538.1874979613185
 20
288.1776902578043
 30
0.0
 70
    32
  0
VERTEX
  5
1E2C
330
18C2
100
AcDbEntity
  8
0
100
AcDbVertex
100
AcDb3dPolylineVertex
 10
537.9514979613185
 20
288.1276902578043
 30
0.0
 70
    32
  0
VERTEX
  5
1E2D
330
18C2
100
AcDbEntity
  8
0
100
AcDbVertex
100
AcDb3dPolylineVertex
 10
537.7174979613182
 20
288.0776902578044
 30
0.0
 70
    32
  0
VERTEX
  5
1E2E
330
18C2
100
AcDbEntity
  8
0
100
AcDbVertex
100
AcDb3dPolylineVertex
 10
537.4854979613185
 20
288.0276902578033
 30
0.0
 70
    32
  0
VERTEX
  5
1E2F
330
18C2
100
AcDbEntity
  8
0
100
AcDbVertex
100
AcDb3dPolylineVertex
 10
537.2554979613185
 20
287.9676902578043
 30
0.0
 70
    32
  0
VERTEX
  5
1E30
330
18C2
100
AcDbEntity
  8
0
100
AcDbVertex
100
AcDb3dPolylineVertex
 10
537.0274979613183
 20
287.8976902578043
 30
0.0
 70
    32
  0
VERTEX
  5
1E31
330
18C2
100
AcDbEntity
  8
0
100
AcDbVertex
100
AcDb3dPolylineVertex
 10
536.8024979613185
 20
287.8276902578044
 30
0.0
 70
    32
  0
VERTEX
  5
1E32
330
18C2
100
AcDbEntity
  8
0
100
AcDbVertex
100
AcDb3dPolylineVertex
 10
536.5794979613185
 20
287.7576902578043
 30
0.0
 70
    32
  0
VERTEX
  5
1E33
330
18C2
100
AcDbEntity
  8
0
100
AcDbVertex
100
AcDb3dPolylineVertex
 10
536.3584979613185
 20
287.6876902578043
 30
0.0
 70
    32
  0
VERTEX
  5
1E34
330
18C2
100
AcDbEntity
  8
0
100
AcDbVertex
100
AcDb3dPolylineVertex
 10
536.1404979613182
 20
287.6076902578045
 30
0.0
 70
    32
  0
VERTEX
  5
1E35
330
18C2
100
AcDbEntity
  8
0
100
AcDbVertex
100
AcDb3dPolylineVertex
 10
535.9254979613184
 20
287.5176902578043
 30
0.0
 70
    32
  0
VERTEX
  5
1E36
330
18C2
100
AcDbEntity
  8
0
100
AcDbVertex
100
AcDb3dPolylineVertex
 10
535.7134979613183
 20
287.4376902578043
 30
0.0
 70
    32
  0
VERTEX
  5
1E37
330
18C2
100
AcDbEntity
  8
0
100
AcDbVertex
100
AcDb3dPolylineVertex
 10
535.5044979613185
 20
287.3476902578035
 30
0.0
 70
    32
  0
VERTEX
  5
1E38
330
18C2
100
AcDbEntity
  8
0
100
AcDbVertex
100
AcDb3dPolylineVertex
 10
535.2994979613184
 20
287.2476902578043
 30
0.0
 70
    32
  0
VERTEX
  5
1E39
330
18C2
100
AcDbEntity
  8
0
100
AcDbVertex
100
AcDb3dPolylineVertex
 10
535.096497961318
 20
287.1476902578043
 30
0.0
 70
    32
  0
VERTEX
  5
1E3A
330
18C2
100
AcDbEntity
  8
0
100
AcDbVertex
100
AcDb3dPolylineVertex
 10
534.8974979613185
 20
287.0476902578042
 30
0.0
 70
    32
  0
VERTEX
  5
1E3B
330
18C2
100
AcDbEntity
  8
0
100
AcDbVertex
100
AcDb3dPolylineVertex
 10
534.7024979613182
 20
286.9476902578036
 30
0.0
 70
    32
  0
VERTEX
  5
1E3C
330
18C2
100
AcDbEntity
  8
0
100
AcDbVertex
100
AcDb3dPolylineVertex
 10
534.5104979613185
 20
286.8376902578044
 30
0.0
 70
    32
  0
VERTEX
  5
1E3D
330
18C2
100
AcDbEntity
  8
0
100
AcDbVertex
100
AcDb3dPolylineVertex
 10
534.3234979613185
 20
286.7276902578044
 30
0.0
 70
    32
  0
VERTEX
  5
1E3E
330
18C2
100
AcDbEntity
  8
0
100
AcDbVertex
100
AcDb3dPolylineVertex
 10
534.1394979613185
 20
286.6176902578045
 30
0.0
 70
    32
  0
VERTEX
  5
1E3F
330
18C2
100
AcDbEntity
  8
0
100
AcDbVertex
100
AcDb3dPolylineVertex
 10
533.9594979613186
 20
286.4976902578043
 30
0.0
 70
    32
  0
VERTEX
  5
1E40
330
18C2
100
AcDbEntity
  8
0
100
AcDbVertex
100
AcDb3dPolylineVertex
 10
533.7834979613185
 20
286.3776902578043
 30
0.0
 70
    32
  0
VERTEX
  5
1E41
330
18C2
100
AcDbEntity
  8
0
100
AcDbVertex
100
AcDb3dPolylineVertex
 10
533.6124979613185
 20
286.2576902578043
 30
0.0
 70
    32
  0
VERTEX
  5
1E42
330
18C2
100
AcDbEntity
  8
0
100
AcDbVertex
100
AcDb3dPolylineVertex
 10
533.4454979613185
 20
286.1276902578022
 30
0.0
 70
    32
  0
VERTEX
  5
1E43
330
18C2
100
AcDbEntity
  8
0
100
AcDbVertex
100
AcDb3dPolylineVertex
 10
533.2824979613183
 20
285.9976902578043
 30
0.0
 70
    32
  0
VERTEX
  5
1E44
330
18C2
100
AcDbEntity
  8
0
100
AcDbVertex
100
AcDb3dPolylineVertex
 10
533.1244979613185
 20
285.8676902578045
 30
0.0
 70
    32
  0
VERTEX
  5
1E45
330
18C2
100
AcDbEntity
  8
0
100
AcDbVertex
100
AcDb3dPolylineVertex
 10
532.9714979613185
 20
285.7276902578037
 30
0.0
 70
    32
  0
VERTEX
  5
1E46
330
18C2
100
AcDbEntity
  8
0
100
AcDbVertex
100
AcDb3dPolylineVertex
 10
532.8224979613183
 20
285.5976902578045
 30
0.0
 70
    32
  0
VERTEX
  5
1E47
330
18C2
100
AcDbEntity
  8
0
100
AcDbVertex
100
AcDb3dPolylineVertex
 10
532.6784979613185
 20
285.4576902578043
 30
0.0
 70
    32
  0
VERTEX
  5
1E48
330
18C2
100
AcDbEntity
  8
0
100
AcDbVertex
100
AcDb3dPolylineVertex
 10
532.5404979613185
 20
285.3076902578034
 30
0.0
 70
    32
  0
VERTEX
  5
1E49
330
18C2
100
AcDbEntity
  8
0
100
AcDbVertex
100
AcDb3dPolylineVertex
 10
532.4064979613186
 20
285.1676902578044
 30
0.0
 70
    32
  0
VERTEX
  5
1E4A
330
18C2
100
AcDbEntity
  8
0
100
AcDbVertex
100
AcDb3dPolylineVertex
 10
532.2774979613183
 20
285.0176902578043
 30
0.0
 70
    32
  0
VERTEX
  5
1E4B
330
18C2
100
AcDbEntity
  8
0
100
AcDbVertex
100
AcDb3dPolylineVertex
 10
532.1534979613184
 20
284.8676902578045
 30
0.0
 70
    32
  0
VERTEX
  5
1E4C
330
18C2
100
AcDbEntity
  8
0
100
AcDbVertex
100
AcDb3dPolylineVertex
 10
532.0354979613183
 20
284.7176902578042
 30
0.0
 70
    32
  0
VERTEX
  5
1E4D
330
18C2
100
AcDbEntity
  8
0
100
AcDbVertex
100
AcDb3dPolylineVertex
 10
531.9224979613184
 20
284.5676902578043
 30
0.0
 70
    32
  0
VERTEX
  5
1E4E
330
18C2
100
AcDbEntity
  8
0
100
AcDbVertex
100
AcDb3dPolylineVertex
 10
531.8144979613183
 20
284.4076902578043
 30
0.0
 70
    32
  0
VERTEX
  5
1E4F
330
18C2
100
AcDbEntity
  8
0
100
AcDbVertex
100
AcDb3dPolylineVertex
 10
531.7124979613184
 20
284.2576902578043
 30
0.0
 70
    32
  0
VERTEX
  5
1E50
330
18C2
100
AcDbEntity
  8
0
100
AcDbVertex
100
AcDb3dPolylineVertex
 10
531.6164979613184
 20
284.0976902578045
 30
0.0
 70
    32
  0
VERTEX
  5
1E51
330
18C2
100
AcDbEntity
  8
0
100
AcDbVertex
100
AcDb3dPolylineVertex
 10
531.5244979613185
 20
283.9376902578043
 30
0.0
 70
    32
  0
VERTEX
  5
1E52
330
18C2
100
AcDbEntity
  8
0
100
AcDbVertex
100
AcDb3dPolylineVertex
 10
531.4394979613183
 20
283.7776902578033
 30
0.0
 70
    32
  0
VERTEX
  5
1E53
330
18C2
100
AcDbEntity
  8
0
100
AcDbVertex
100
AcDb3dPolylineVertex
 10
531.3594979613185
 20
283.6176902578045
 30
0.0
 70
    32
  0
VERTEX
  5
1E54
330
18C2
100
AcDbEntity
  8
0
100
AcDbVertex
100
AcDb3dPolylineVertex
 10
531.2854979613184
 20
283.4476902578043
 30
0.0
 70
    32
  0
VERTEX
  5
1E55
330
18C2
100
AcDbEntity
  8
0
100
AcDbVertex
100
AcDb3dPolylineVertex
 10
531.2174979613184
 20
283.2876902578033
 30
0.0
 70
    32
  0
VERTEX
  5
1E56
330
18C2
100
AcDbEntity
  8
0
100
AcDbVertex
100
AcDb3dPolylineVertex
 10
531.1544979613183
 20
283.1176902578043
 30
0.0
 70
    32
  0
VERTEX
  5
1E57
330
18C2
100
AcDbEntity
  8
0
100
AcDbVertex
100
AcDb3dPolylineVertex
 10
531.0974979613185
 20
282.9476902578043
 30
0.0
 70
    32
  0
VERTEX
  5
1E58
330
18C2
100
AcDbEntity
  8
0
100
AcDbVertex
100
AcDb3dPolylineVertex
 10
531.0464979613183
 20
282.7776902578042
 30
0.0
 70
    32
  0
VERTEX
  5
1E59
330
18C2
100
AcDbEntity
  8
0
100
AcDbVertex
100
AcDb3dPolylineVertex
 10
531.002497961318
 20
282.6076902578045
 30
0.0
 70
    32
  0
VERTEX
  5
1E5A
330
18C2
100
AcDbEntity
  8
0
100
AcDbVertex
100
AcDb3dPolylineVertex
 10
530.9634979613186
 20
282.4376902578043
 30
0.0
 70
    32
  0
VERTEX
  5
1E5B
330
18C2
100
AcDbEntity
  8
0
100
AcDbVertex
100
AcDb3dPolylineVertex
 10
530.9304979613186
 20
282.2676902578042
 30
0.0
 70
    32
  0
VERTEX
  5
1E5C
330
18C2
100
AcDbEntity
  8
0
100
AcDbVertex
100
AcDb3dPolylineVertex
 10
530.9024979613183
 20
282.0976902578045
 30
0.0
 70
    32
  0
VERTEX
  5
1E5D
330
18C2
100
AcDbEntity
  8
0
100
AcDbVertex
100
AcDb3dPolylineVertex
 10
530.8814979613185
 20
281.9276902578043
 30
0.0
 70
    32
  0
VERTEX
  5
1E5E
330
18C2
100
AcDbEntity
  8
0
100
AcDbVertex
100
AcDb3dPolylineVertex
 10
530.8664979613182
 20
281.7576902578043
 30
0.0
 70
    32
  0
VERTEX
  5
1E5F
330
18C2
100
AcDbEntity
  8
0
100
AcDbVertex
100
AcDb3dPolylineVertex
 10
530.8574979613182
 20
281.5776902578044
 30
0.0
 70
    32
  0
VERTEX
  5
1E60
330
18C2
100
AcDbEntity
  8
0
100
AcDbVertex
100
AcDb3dPolylineVertex
 10
530.8544979613185
 20
281.4076902578022
 30
0.0
 70
    32
  0
SEQEND
  5
1E61
330
18C2
100
AcDbEntity
  8
0
  0
LINE
  5
18C5
330
2B13
100
AcDbEntity
  8
0
100
AcDbLine
 10
355.8174447116156
 20
422.0060231170814
 30
0.0
 11
355.8174447116156
 21
400.3060231170823
 31
0.0
  0
LINE
  5
18C6
330
2B13
100
AcDbEntity
  8
0
100
AcDbLine
 10
350.7290286116155
 20
394.1560231170823
 30
0.0
 11
353.5790280116155
 21
394.1560231170823
 31
0.0
  0
LINE
  5
18C7
330
2B13
100
AcDbEntity
  8
0
100
AcDbLine
 10
353.5790280116155
 20
394.1560231170823
 30
0.0
 11
355.8174449116155
 21
400.3060231170823
 31
0.0
  0
LINE
  5
18C8
330
2B13
100
AcDbEntity
  8
0
100
AcDbLine
 10
350.7290286116155
 20
394.1560231170823
 30
0.0
 11
350.7290286116155
 21
428.1560231170823
 31
0.0
  0
LINE
  5
18C9
330
2B13
100
AcDbEntity
  8
0
100
AcDbLine
 10
353.5790280116155
 20
428.1560231170823
 30
0.0
 11
355.8174449116155
 21
422.0060231170814
 31
0.0
  0
LINE
  5
18CA
330
2B13
100
AcDbEntity
  8
0
100
AcDbLine
 10
350.7290286116155
 20
428.1560231170823
 30
0.0
 11
353.5790280116155
 21
428.1560231170823
 31
0.0
  0
LINE
  5
18CE
330
2B13
100
AcDbEntity
  8
0
100
AcDbLine
 10
355.8174447116156
 20
400.3060231170823
 30
0.0
 11
371.2290286116154
 21
400.3060231170823
 31
0.0
  0
LINE
  5
18CF
330
2B13
100
AcDbEntity
  8
0
100
AcDbLine
 10
355.8174447116156
 20
422.0060231170814
 30
0.0
 11
371.2290300804897
 21
422.0060231170814
 31
0.0
  0
CIRCLE
  5
18D1
330
2B13
100
AcDbEntity
  8
0
100
AcDbCircle
 10
233.2290286116156
 20
203.1976902578044
 30
0.0
 40
10.84999999999991
  0
CIRCLE
  5
18D2
330
2B13
100
AcDbEntity
  8
0
100
AcDbCircle
 10
233.2290286116156
 20
203.1976902578044
 30
0.0
 40
17.0
  0
CIRCLE
  5
18D3
330
2B13
100
AcDbEntity
  8
0
100
AcDbCircle
 10
540.8548095644107
 20
203.1976902578044
 30
0.0
 40
17.0
  0
CIRCLE
  5
18D4
330
2B13
100
AcDbEntity
  8
0
100
AcDbCircle
 10
540.8548095644107
 20
203.1976902578044
 30
0.0
 40
10.84999999999991
  0
LINE
  5
2B8A
330
2B13
100
AcDbEntity
  8
0
  6
CENTER
100
AcDbLine
 10
383.2290286116155
 20
161.3149046725027
 30
0.0
 11
383.2290286116155
 21
279.2164015236897
 31
0.0
  0
LINE
  5
2B8B
330
2B13
100
AcDbEntity
  8
0
  6
CENTER
100
AcDbLine
 10
342.4565823661883
 20
203.1976902578044
 30
0.0
 11
424.0014748570425
 21
203.1976902578044
 31
0.0
  0
LINE
  5
2B8C
330
2B13
100
AcDbEntity
  8
0
  6
CENTER
100
AcDbLine
 10
500.0823633189837
 20
203.1976902578044
 30
0.0
 11
581.6272558098378
 21
203.1976902578044
 31
0.0
  0
LINE
  5
2B8D
330
2B13
100
AcDbEntity
  8
0
  6
CENTER
100
AcDbLine
 10
540.8548095644107
 20
161.3149046725027
 30
0.0
 11
540.8548095644107
 21
301.8798400083035
 31
0.0
  0
LINE
  5
2B8E
330
2B13
100
AcDbEntity
  8
0
  6
CENTER
100
AcDbLine
 10
452.4799378108196
 20
411.1560231170826
 30
0.0
 11
339.8988745267284
 21
411.1560231170823
 31
0.0
  0
LINE
  5
2B8F
330
2B13
100
AcDbEntity
  8
0
  6
CENTER
100
AcDbLine
 10
383.2290286116153
 20
369.743517379675
 30
0.0
 11
383.2290286116153
 21
452.5685288544899
 31
0.0
  0
LINE
  5
2B90
330
2B13
100
AcDbEntity
  8
0
  6
CENTER
100
AcDbLine
 10
192.4565823661889
 20
203.1976902578044
 30
0.0
 11
274.0014748570431
 21
203.1976902578044
 31
0.0
  0
LINE
  5
2B91
330
2B13
100
AcDbEntity
  8
0
  6
CENTER
100
AcDbLine
 10
233.229028611616
 20
161.3149046725027
 30
0.0
 11
233.229028611616
 21
301.8798400083035
 31
0.0
  0
ENDSEC
  0
SECTION
  2
OBJECTS
  0
DICTIONARY
  5
2B01
330
0
100
AcDbDictionary
281
     1
  3
ACAD_GROUP
350
2B02
  3
ACAD_LAYOUT
350
2B0E
  3
ACAD_MLINESTYLE
350
2B0B
  3
ACAD_PLOTSETTINGS
350
2B0D
  3
ACAD_PLOTSTYLENAME
350
2B03
  3
AcDbVariableDictionary
350
2B75
  0
DICTIONARY
  5
2B7C
330
2AF7
100
AcDbDictionary
280
     1
281
     1
  3
ACAD_LAYERSTATES
360
2B7D
  0
DICTIONARY
  5
2B37
330
2B13
100
AcDbDictionary
280
     1
281
     1
  3
ACAD_LAYOUTSELFREF
360
2B66
  0
DICTIONARY
  5
2B39
330
2B0F
100
AcDbDictionary
280
     1
281
     1
  3
ACAD_LAYOUTSELFREF
360
2B65
  0
DICTIONARY
  5
2B02
102
{ACAD_REACTORS
330
2B01
102
}
330
2B01
100
AcDbDictionary
281
     1
  0
DICTIONARY
  5
2B0E
102
{ACAD_REACTORS
330
2B01
102
}
330
2B01
100
AcDbDictionary
281
     1
  3
Model
350
2B16
  3
ﾚｲｱｳﾄ1
350
2B12
  0
DICTIONARY
  5
2B0B
102
{ACAD_REACTORS
330
2B01
102
}
330
2B01
100
AcDbDictionary
281
     1
  3
Standard
350
2B0C
  0
DICTIONARY
  5
2B0D
102
{ACAD_REACTORS
330
2B01
102
}
330
2B01
100
AcDbDictionary
281
     1
  0
ACDBDICTIONARYWDFLT
  5
2B03
102
{ACAD_REACTORS
330
2B01
102
}
330
2B01
100
AcDbDictionary
281
     1
  3
Normal
350
2B04
100
AcDbDictionaryWithDefault
340
2B04
  0
DICTIONARY
  5
2B75
102
{ACAD_REACTORS
330
2B01
102
}
330
2B01
100
AcDbDictionary
281
     1
  3
DIMASSOC
350
2B76
  0
DICTIONARY
  5
2B7D
102
{ACAD_REACTORS
330
2B7C
102
}
330
2B7C
100
AcDbDictionary
281
     1
  0
XRECORD
  5
2B66
102
{ACAD_REACTORS
330
2B37
102
}
330
2B37
100
AcDbXrecord
280
     1
340
2B13
  0
XRECORD
  5
2B65
102
{ACAD_REACTORS
330
2B39
102
}
330
2B39
100
AcDbXrecord
280
     1
340
2B0F
  0
LAYOUT
  5
2B16
102
{ACAD_REACTORS
330
2B0E
102
}
330
2B0E
100
AcDbPlotSettings
  1

  2
SII LP-2150 (D-SCAN C2)
  4

  6

 40
0.0
 41
0.0
 42
0.0
 43
0.0
 44
0.0
 45
0.0
 46
0.0
 47
0.0
 48
0.0
 49
0.0
140
0.0
141
0.0
142
1.0
143
1.0
 70
  1712
 72
     0
 73
     0
 74
     0
  7

 75
     0
147
1.0
148
0.0
149
0.0
100
AcDbLayout
  1
Model
 70
     1
 71
     0
 10
0.0
 20
0.0
 11
12.0
 21
9.0
 12
0.0
 22
0.0
 32
0.0
 14
0.0
 24
0.0
 34
0.0
 15
0.0
 25
0.0
 35
0.0
146
0.0
 13
0.0
 23
0.0
 33
0.0
 16
1.0
 26
0.0
 36
0.0
 17
0.0
 27
1.0
 37
0.0
 76
     0
330
2B13
  0
LAYOUT
  5
2B12
102
{ACAD_REACTORS
330
2B0E
102
}
330
2B0E
100
AcDbPlotSettings
  1

  2
SII LP-2150 (D-SCAN C2)
  4

  6

 40
0.0
 41
0.0
 42
0.0
 43
0.0
 44
0.0
 45
0.0
 46
0.0
 47
0.0
 48
0.0
 49
0.0
140
0.0
141
0.0
142
1.0
143
1.0
 70
   688
 72
     0
 73
     0
 74
     5
  7

 75
    16
147
1.0
148
0.0
149
0.0
100
AcDbLayout
  1
ﾚｲｱｳﾄ1
 70
     1
 71
     1
 10
-44.912933
 20
-21.841471
 11
153.5627299999999
 21
105.04179
 12
0.0
 22
0.0
 32
0.0
 14
-44.912933
 24
-21.841471
 34
0.0
 15
153.5627299999999
 25
105.04179
 35
0.0
146
0.0
 13
0.0
 23
0.0
 33
0.0
 16
1.0
 26
0.0
 36
0.0
 17
0.0
 27
1.0
 37
0.0
 76
     0
330
2B0F
  0
MLINESTYLE
  5
2B0C
102
{ACAD_REACTORS
330
2B0B
102
}
330
2B0B
100
AcDbMlineStyle
  2
STANDARD
 70
     0
  3

 62
   256
 51
90.0
 52
90.0
 71
     2
 49
0.5
 62
   256
  6
BYLAYER
 49
-0.5
 62
   256
  6
BYLAYER
  0
ACDBPLACEHOLDER
  5
2B04
102
{ACAD_REACTORS
330
2B03
102
}
330
2B03
  0
DICTIONARYVAR
  5
2B76
102
{ACAD_REACTORS
330
2B75
102
}
330
2B75
100
DictionaryVariables
280
     0
  1
1
  0
ENDSEC
  0
EOF
