  0
SECTION
  2
HEADER
  9
$ACADVER
  1
AC1015
  9
$ACADMAINTVER
 70
    14
  9
$DWGCODEPAGE
  3
ANSI_932
  9
$INSBASE
 10
0.0
 20
0.0
 30
0.0
  9
$EXTMIN
 10
158.0071893794386
 20
86.06657228252357
 30
-0.0000000000000058
  9
$EXTMAX
 10
696.6795993608537
 20
587.13788454636
 30
0.0000000000000104
  9
$LIMMIN
 10
-44.912933
 20
-21.841471
  9
$LIMMAX
 10
153.5627299999999
 20
105.04179
  9
$ORTHOMODE
 70
     0
  9
$REGENMODE
 70
     1
  9
$FILLMODE
 70
     1
  9
$QTEXTMODE
 70
     0
  9
$MIRRTEXT
 70
     1
  9
$LTSCALE
 40
1.0
  9
$ATTMODE
 70
     1
  9
$TEXTSIZE
 40
0.2
  9
$TRACEWID
 40
0.05
  9
$TEXTSTYLE
  7
STANDARD
  9
$CLAYER
  8
0
  9
$CELTYPE
  6
CONTINUOUS
  9
$CECOLOR
 62
   256
  9
$CELTSCALE
 40
1.0
  9
$DISPSILH
 70
     0
  9
$DIMSCALE
 40
1.0
  9
$DIMASZ
 40
0.18
  9
$DIMEXO
 40
0.0625
  9
$DIMDLI
 40
0.38
  9
$DIMRND
 40
0.0
  9
$DIMDLE
 40
0.0
  9
$DIMEXE
 40
0.18
  9
$DIMTP
 40
0.0
  9
$DIMTM
 40
0.0
  9
$DIMTXT
 40
0.18
  9
$DIMCEN
 40
0.09
  9
$DIMTSZ
 40
0.0
  9
$DIMTOL
 70
     0
  9
$DIMLIM
 70
     0
  9
$DIMTIH
 70
     1
  9
$DIMTOH
 70
     1
  9
$DIMSE1
 70
     0
  9
$DIMSE2
 70
     0
  9
$DIMTAD
 70
     0
  9
$DIMZIN
 70
     0
  9
$DIMBLK
  1

  9
$DIMASO
 70
     1
  9
$DIMSHO
 70
     0
  9
$DIMPOST
  1

  9
$DIMAPOST
  1

  9
$DIMALT
 70
     0
  9
$DIMALTD
 70
     2
  9
$DIMALTF
 40
25.4
  9
$DIMLFAC
 40
1.0
  9
$DIMTOFL
 70
     0
  9
$DIMTVP
 40
0.0
  9
$DIMTIX
 70
     0
  9
$DIMSOXD
 70
     0
  9
$DIMSAH
 70
     0
  9
$DIMBLK1
  1

  9
$DIMBLK2
  1

  9
$DIMSTYLE
  2
STANDARD
  9
$DIMCLRD
 70
     0
  9
$DIMCLRE
 70
     0
  9
$DIMCLRT
 70
     0
  9
$DIMTFAC
 40
1.0
  9
$DIMGAP
 40
0.09
  9
$DIMJUST
 70
     0
  9
$DIMSD1
 70
     0
  9
$DIMSD2
 70
     0
  9
$DIMTOLJ
 70
     1
  9
$DIMTZIN
 70
     0
  9
$DIMALTZ
 70
     0
  9
$DIMALTTZ
 70
     0
  9
$DIMUPT
 70
     0
  9
$DIMDEC
 70
     4
  9
$DIMTDEC
 70
     4
  9
$DIMALTU
 70
     2
  9
$DIMALTTD
 70
     2
  9
$DIMTXSTY
  7
STANDARD
  9
$DIMAUNIT
 70
     0
  9
$DIMADEC
 70
     0
  9
$DIMALTRND
 40
0.0
  9
$DIMAZIN
 70
     0
  9
$DIMDSEP
 70
    46
  9
$DIMATFIT
 70
     3
  9
$DIMFRAC
 70
     0
  9
$DIMLDRBLK
  1

  9
$DIMLUNIT
 70
     2
  9
$DIMLWD
 70
    -2
  9
$DIMLWE
 70
    -2
  9
$DIMTMOVE
 70
     2
  9
$LUNITS
 70
     2
  9
$LUPREC
 70
     4
  9
$SKETCHINC
 40
0.1
  9
$FILLETRAD
 40
0.0
  9
$AUNITS
 70
     0
  9
$AUPREC
 70
     0
  9
$MENU
  1
.
  9
$ELEVATION
 40
0.0
  9
$PELEVATION
 40
0.0
  9
$THICKNESS
 40
0.0
  9
$LIMCHECK
 70
     0
  9
$CHAMFERA
 40
0.0
  9
$CHAMFERB
 40
0.0
  9
$CHAMFERC
 40
0.0
  9
$CHAMFERD
 40
0.0
  9
$SKPOLY
 70
     0
  9
$TDCREATE
 40
2452488.423151215
  9
$TDUCREATE
 40
2452488.048151215
  9
$TDUPDATE
 40
2456899.666877916
  9
$TDUUPDATE
 40
2456899.291877916
  9
$TDINDWG
 40
0.1016444329
  9
$TDUSRTIMER
 40
0.1016438889
  9
$USRTIMER
 70
     1
  9
$ANGBASE
 50
0.0
  9
$ANGDIR
 70
     0
  9
$PDMODE
 70
     0
  9
$PDSIZE
 40
0.0
  9
$PLINEWID
 40
0.0
  9
$SPLFRAME
 70
     0
  9
$SPLINETYPE
 70
     6
  9
$SPLINESEGS
 70
     8
  9
$HANDSEED
  5
2BB5
  9
$SURFTAB1
 70
     6
  9
$SURFTAB2
 70
     6
  9
$SURFTYPE
 70
     6
  9
$SURFU
 70
     6
  9
$SURFV
 70
     6
  9
$UCSBASE
  2

  9
$UCSNAME
  2

  9
$UCSORG
 10
0.0
 20
0.0
 30
0.0
  9
$UCSXDIR
 10
1.0
 20
0.0
 30
0.0
  9
$UCSYDIR
 10
0.0
 20
1.0
 30
0.0
  9
$UCSORTHOREF
  2

  9
$UCSORTHOVIEW
 70
     0
  9
$UCSORGTOP
 10
0.0
 20
0.0
 30
0.0
  9
$UCSORGBOTTOM
 10
0.0
 20
0.0
 30
0.0
  9
$UCSORGLEFT
 10
0.0
 20
0.0
 30
0.0
  9
$UCSORGRIGHT
 10
0.0
 20
0.0
 30
0.0
  9
$UCSORGFRONT
 10
0.0
 20
0.0
 30
0.0
  9
$UCSORGBACK
 10
0.0
 20
0.0
 30
0.0
  9
$PUCSBASE
  2

  9
$PUCSNAME
  2

  9
$PUCSORG
 10
0.0
 20
0.0
 30
0.0
  9
$PUCSXDIR
 10
1.0
 20
0.0
 30
0.0
  9
$PUCSYDIR
 10
0.0
 20
1.0
 30
0.0
  9
$PUCSORTHOREF
  2

  9
$PUCSORTHOVIEW
 70
     0
  9
$PUCSORGTOP
 10
0.0
 20
0.0
 30
0.0
  9
$PUCSORGBOTTOM
 10
0.0
 20
0.0
 30
0.0
  9
$PUCSORGLEFT
 10
0.0
 20
0.0
 30
0.0
  9
$PUCSORGRIGHT
 10
0.0
 20
0.0
 30
0.0
  9
$PUCSORGFRONT
 10
0.0
 20
0.0
 30
0.0
  9
$PUCSORGBACK
 10
0.0
 20
0.0
 30
0.0
  9
$USERI1
 70
     0
  9
$USERI2
 70
     0
  9
$USERI3
 70
     0
  9
$USERI4
 70
     0
  9
$USERI5
 70
     0
  9
$USERR1
 40
0.0
  9
$USERR2
 40
0.0
  9
$USERR3
 40
0.0
  9
$USERR4
 40
0.0
  9
$USERR5
 40
0.0
  9
$WORLDVIEW
 70
     1
  9
$SHADEDGE
 70
     3
  9
$SHADEDIF
 70
    70
  9
$TILEMODE
 70
     1
  9
$MAXACTVP
 70
    48
  9
$PINSBASE
 10
0.0
 20
0.0
 30
0.0
  9
$PLIMCHECK
 70
     0
  9
$PEXTMIN
 10
-44.912933
 20
-21.841471
 30
0.0
  9
$PEXTMAX
 10
153.5627299999999
 20
105.04179
 30
0.0
  9
$PLIMMIN
 10
-44.912933
 20
-21.841471
  9
$PLIMMAX
 10
153.5627299999999
 20
105.04179
  9
$UNITMODE
 70
     0
  9
$VISRETAIN
 70
     1
  9
$PLINEGEN
 70
     0
  9
$PSLTSCALE
 70
     1
  9
$TREEDEPTH
 70
  3020
  9
$CMLSTYLE
  2
Standard
  9
$CMLJUST
 70
     0
  9
$CMLSCALE
 40
1.0
  9
$PROXYGRAPHICS
 70
     1
  9
$MEASUREMENT
 70
     0
  9
$CELWEIGHT
370
    -1
  9
$ENDCAPS
280
     0
  9
$JOINSTYLE
280
     0
  9
$LWDISPLAY
290
     0
  9
$INSUNITS
 70
     0
  9
$HYPERLINKBASE
  1

  9
$STYLESHEET
  1

  9
$XEDIT
290
     1
  9
$CEPSNTYPE
380
     0
  9
$PSTYLEMODE
290
     1
  9
$FINGERPRINTGUID
  2
{9415FD72-92D1-44BD-9FE4-8AA5B30F9544}
  9
$VERSIONGUID
  2
{8462E132-1E8F-4EF0-AE27-C19731C0463B}
  9
$EXTNAMES
290
     1
  9
$PSVPSCALE
 40
0.0
  9
$OLESTARTUP
290
     0
  0
ENDSEC
  0
SECTION
  2
CLASSES
  0
CLASS
  1
ACDBDICTIONARYWDFLT
  2
AcDbDictionaryWithDefault
  3
AutoCAD 2000
 90
        0
280
     0
281
     0
  0
CLASS
  1
ACDBPLACEHOLDER
  2
AcDbPlaceHolder
  3
AutoCAD 2000
 90
        0
280
     0
281
     0
  0
CLASS
  1
LAYOUT
  2
AcDbLayout
  3
AutoCAD 2000
 90
        0
280
     0
281
     0
  0
CLASS
  1
DICTIONARYVAR
  2
AcDbDictionaryVar
  3
AutoCAD 2000
 90
        0
280
     0
281
     0
  0
CLASS
  1
LONG_TRANSACTION
  2
AcDbLongTransaction
  3
AutoCAD 2000
 90
    32768
280
     0
281
     0
  0
CLASS
  1
LWPOLYLINE
  2
AcDbPolyline
  3
AutoCAD 2000
 90
    32768
280
     0
281
     1
  0
CLASS
  1
HATCH
  2
AcDbHatch
  3
AutoCAD 2000
 90
    32768
280
     0
281
     1
  0
CLASS
  1
XRECORD
  2
AcDbXrecord
  3
AutoCAD 2000
 90
    32768
280
     0
281
     0
  0
ENDSEC
  0
SECTION
  2
TABLES
  0
TABLE
  2
VPORT
  5
2B0F
330
0
100
AcDbSymbolTable
 70
     2
  0
VPORT
  5
2BB4
330
2B0F
100
AcDbSymbolTableRecord
100
AcDbViewportTableRecord
  2
*Active
 70
     0
 10
0.0
 20
0.0
 11
1.0
 21
1.0
 12
427.3433943701461
 22
336.6022284144418
 13
0.0
 23
0.0
 14
1.0
 24
1.0
 15
0.0
 25
0.0
 16
0.0
 26
0.0
 36
1.0
 17
0.0
 27
0.0
 37
0.0
 40
504.2527174210672
 41
1.592161016949152
 42
50.0
 43
0.0
 44
0.0
 50
0.0
 51
0.0
 71
     0
 72
   100
 73
     1
 74
     3
 75
     0
 76
     0
 77
     0
 78
     0
281
     0
 65
     1
110
0.0
120
0.0
130
0.0
111
1.0
121
0.0
131
0.0
112
0.0
122
1.0
132
0.0
 79
     0
146
0.0
  0
ENDTAB
  0
TABLE
  2
LTYPE
  5
2B0C
330
0
100
AcDbSymbolTable
 70
     2
  0
LTYPE
  5
2B1A
330
2B0C
100
AcDbSymbolTableRecord
100
AcDbLinetypeTableRecord
  2
ByBlock
 70
     0
  3

 72
    65
 73
     0
 40
0.0
  0
LTYPE
  5
2B1B
330
2B0C
100
AcDbSymbolTableRecord
100
AcDbLinetypeTableRecord
  2
ByLayer
 70
     0
  3

 72
    65
 73
     0
 40
0.0
  0
LTYPE
  5
2B1C
330
2B0C
100
AcDbSymbolTableRecord
100
AcDbLinetypeTableRecord
  2
CONTINUOUS
 70
     0
  3
Solid line
 72
    65
 73
     0
 40
0.0
  0
LTYPE
  5
2B2C
330
2B0C
100
AcDbSymbolTableRecord
100
AcDbLinetypeTableRecord
  2
CENTER
 70
     0
  3
Center ____ _ ____ _ ____ _ ____ _ ____ _ ____
 72
    65
 73
     4
 40
2.0
 49
1.25
 74
     0
 49
-0.25
 74
     0
 49
0.25
 74
     0
 49
-0.25
 74
     0
  0
ENDTAB
  0
TABLE
  2
LAYER
  5
2B09
102
{ACAD_XDICTIONARY
360
2B8F
102
}
330
0
100
AcDbSymbolTable
 70
     2
  0
LAYER
  5
2B17
330
2B09
100
AcDbSymbolTableRecord
100
AcDbLayerTableRecord
  2
0
 70
     0
 62
     7
  6
CONTINUOUS
370
    -3
390
2B16
  0
LAYER
  5
2B33
330
2B09
100
AcDbSymbolTableRecord
100
AcDbLayerTableRecord
  2
AM_0N
 70
     0
 62
     7
  6
CONTINUOUS
370
    -3
390
2B16
  0
ENDTAB
  0
TABLE
  2
STYLE
  5
2B0A
330
0
100
AcDbSymbolTable
 70
     1
  0
STYLE
  5
2B18
330
2B0A
100
AcDbSymbolTableRecord
100
AcDbTextStyleTableRecord
  2
STANDARD
 70
     0
 40
0.0
 41
1.0
 50
0.0
 71
     0
 42
0.2
  3
txt
  4

  0
ENDTAB
  0
TABLE
  2
VIEW
  5
2B0D
330
0
100
AcDbSymbolTable
 70
     0
  0
ENDTAB
  0
TABLE
  2
UCS
  5
2B0E
330
0
100
AcDbSymbolTable
 70
     0
  0
ENDTAB
  0
TABLE
  2
APPID
  5
2B10
330
0
100
AcDbSymbolTable
 70
     4
  0
APPID
  5
2B19
330
2B10
100
AcDbSymbolTableRecord
100
AcDbRegAppTableRecord
  2
ACAD
 70
     0
  0
APPID
  5
2B36
330
2B10
100
AcDbSymbolTableRecord
100
AcDbRegAppTableRecord
  2
MCAD_NO_VIS
 70
     0
  0
APPID
  5
2B37
330
2B10
100
AcDbSymbolTableRecord
100
AcDbRegAppTableRecord
  2
ACAD_TEMP_GRAPHIC
 70
     0
  0
APPID
  5
2B38
330
2B10
100
AcDbSymbolTableRecord
100
AcDbRegAppTableRecord
  2
ACATTRIBSERVICES
 70
     0
  0
ENDTAB
  0
TABLE
  2
DIMSTYLE
  5
2B11
330
0
100
AcDbSymbolTable
 70
     1
100
AcDbDimStyleTable
 71
     1
340
2B39
  0
DIMSTYLE
105
2B39
330
2B11
100
AcDbSymbolTableRecord
100
AcDbDimStyleTableRecord
  2
STANDARD
 70
     0
279
     2
340
2B18
  0
ENDTAB
  0
TABLE
  2
BLOCK_RECORD
  5
2B08
330
0
100
AcDbSymbolTable
 70
     0
  0
BLOCK_RECORD
  5
2B25
102
{ACAD_XDICTIONARY
360
2B4A
102
}
330
2B08
100
AcDbSymbolTableRecord
100
AcDbBlockTableRecord
  2
*Model_Space
340
2B28
  0
BLOCK_RECORD
  5
2B21
102
{ACAD_XDICTIONARY
360
2B4C
102
}
330
2B08
100
AcDbSymbolTableRecord
100
AcDbBlockTableRecord
  2
*Paper_Space
340
2B24
  0
ENDTAB
  0
ENDSEC
  0
SECTION
  2
BLOCKS
  0
BLOCK
  5
2B26
330
2B25
100
AcDbEntity
  8
0
100
AcDbBlockBegin
  2
*Model_Space
 70
     0
 10
0.0
 20
0.0
 30
0.0
  3
*Model_Space
  1

  0
ENDBLK
  5
2B27
330
2B25
100
AcDbEntity
  8
0
100
AcDbBlockEnd
  0
BLOCK
  5
2B22
330
2B21
100
AcDbEntity
 67
     1
  8
0
100
AcDbBlockBegin
  2
*Paper_Space
 70
     0
 10
0.0
 20
0.0
 30
0.0
  3
*Paper_Space
  1

  0
ENDBLK
  5
2B23
330
2B21
100
AcDbEntity
 67
     1
  8
0
100
AcDbBlockEnd
  0
ENDSEC
  0
SECTION
  2
ENTITIES
  0
TEXT
  5
14F8
330
2B25
100
AcDbEntity
  8
0
100
AcDbText
 10
158.0203451896964
 20
539.1100021392609
 30
0.0
 40
48.000002
  1
BVH__ 8A
 41
1.40267
100
AcDbText
  0
POLYLINE
  5
252F
330
2B25
100
AcDbEntity
  8
0
100
AcDb3dPolyline
 66
     1
 10
0.0
 20
0.0
 30
0.0
 70
     8
  0
VERTEX
  5
2530
330
252F
100
AcDbEntity
  8
0
100
AcDbVertex
100
AcDb3dPolylineVertex
 10
247.691576805039
 20
199.9732315817027
 30
0.0
 70
    32
  0
VERTEX
  5
2531
330
252F
100
AcDbEntity
  8
0
100
AcDbVertex
100
AcDb3dPolylineVertex
 10
247.693576805039
 20
199.9032315817028
 30
0.0
 70
    32
  0
VERTEX
  5
2532
330
252F
100
AcDbEntity
  8
0
100
AcDbVertex
100
AcDb3dPolylineVertex
 10
247.6975768050393
 20
199.8332315817025
 30
0.0
 70
    32
  0
VERTEX
  5
2533
330
252F
100
AcDbEntity
  8
0
100
AcDbVertex
100
AcDb3dPolylineVertex
 10
247.7055768050389
 20
199.7632315817027
 30
0.0
 70
    32
  0
VERTEX
  5
2534
330
252F
100
AcDbEntity
  8
0
100
AcDbVertex
100
AcDb3dPolylineVertex
 10
247.7155768050389
 20
199.6932315817026
 30
0.0
 70
    32
  0
VERTEX
  5
2535
330
252F
100
AcDbEntity
  8
0
100
AcDbVertex
100
AcDb3dPolylineVertex
 10
247.7295768050391
 20
199.6232315817028
 30
0.0
 70
    32
  0
VERTEX
  5
2536
330
252F
100
AcDbEntity
  8
0
100
AcDbVertex
100
AcDb3dPolylineVertex
 10
247.7455768050393
 20
199.5532315817017
 30
0.0
 70
    32
  0
VERTEX
  5
2537
330
252F
100
AcDbEntity
  8
0
100
AcDbVertex
100
AcDb3dPolylineVertex
 10
247.7655768050393
 20
199.4832315817027
 30
0.0
 70
    32
  0
VERTEX
  5
2538
330
252F
100
AcDbEntity
  8
0
100
AcDbVertex
100
AcDb3dPolylineVertex
 10
247.787576805039
 20
199.4132315817028
 30
0.0
 70
    32
  0
VERTEX
  5
2539
330
252F
100
AcDbEntity
  8
0
100
AcDbVertex
100
AcDb3dPolylineVertex
 10
247.8125768050389
 20
199.3432315817028
 30
0.0
 70
    32
  0
VERTEX
  5
253A
330
252F
100
AcDbEntity
  8
0
100
AcDbVertex
100
AcDb3dPolylineVertex
 10
247.8415768050393
 20
199.2732315817027
 30
0.0
 70
    32
  0
VERTEX
  5
253B
330
252F
100
AcDbEntity
  8
0
100
AcDbVertex
100
AcDb3dPolylineVertex
 10
247.8725768050393
 20
199.2032315817027
 30
0.0
 70
    32
  0
VERTEX
  5
253C
330
252F
100
AcDbEntity
  8
0
100
AcDbVertex
100
AcDb3dPolylineVertex
 10
247.9065768050391
 20
199.1332315817027
 30
0.0
 70
    32
  0
VERTEX
  5
253D
330
252F
100
AcDbEntity
  8
0
100
AcDbVertex
100
AcDb3dPolylineVertex
 10
247.943576805039
 20
199.0732315817016
 30
0.0
 70
    32
  0
VERTEX
  5
253E
330
252F
100
AcDbEntity
  8
0
100
AcDbVertex
100
AcDb3dPolylineVertex
 10
247.9835768050389
 20
199.0032315817026
 30
0.0
 70
    32
  0
VERTEX
  5
253F
330
252F
100
AcDbEntity
  8
0
100
AcDbVertex
100
AcDb3dPolylineVertex
 10
248.0265768050394
 20
198.9332315817027
 30
0.0
 70
    32
  0
VERTEX
  5
2540
330
252F
100
AcDbEntity
  8
0
100
AcDbVertex
100
AcDb3dPolylineVertex
 10
248.0725768050394
 20
198.8732315817028
 30
0.0
 70
    32
  0
VERTEX
  5
2541
330
252F
100
AcDbEntity
  8
0
100
AcDbVertex
100
AcDb3dPolylineVertex
 10
248.1205768050394
 20
198.8032315817025
 30
0.0
 70
    32
  0
VERTEX
  5
2542
330
252F
100
AcDbEntity
  8
0
100
AcDbVertex
100
AcDb3dPolylineVertex
 10
248.1715768050391
 20
198.7432315817019
 30
0.0
 70
    32
  0
VERTEX
  5
2543
330
252F
100
AcDbEntity
  8
0
100
AcDbVertex
100
AcDb3dPolylineVertex
 10
248.2255768050389
 20
198.6732315817027
 30
0.0
 70
    32
  0
VERTEX
  5
2544
330
252F
100
AcDbEntity
  8
0
100
AcDbVertex
100
AcDb3dPolylineVertex
 10
248.2815768050389
 20
198.6132315817027
 30
0.0
 70
    32
  0
VERTEX
  5
2545
330
252F
100
AcDbEntity
  8
0
100
AcDbVertex
100
AcDb3dPolylineVertex
 10
248.3415768050395
 20
198.5532315817005
 30
0.0
 70
    32
  0
VERTEX
  5
2546
330
252F
100
AcDbEntity
  8
0
100
AcDbVertex
100
AcDb3dPolylineVertex
 10
248.4025768050381
 20
198.4932315817027
 30
0.0
 70
    32
  0
VERTEX
  5
2547
330
252F
100
AcDbEntity
  8
0
100
AcDbVertex
100
AcDb3dPolylineVertex
 10
248.4675768050394
 20
198.4332315817015
 30
0.0
 70
    32
  0
VERTEX
  5
2548
330
252F
100
AcDbEntity
  8
0
100
AcDbVertex
100
AcDb3dPolylineVertex
 10
248.5345768050393
 20
198.3732315817028
 30
0.0
 70
    32
  0
VERTEX
  5
2549
330
252F
100
AcDbEntity
  8
0
100
AcDbVertex
100
AcDb3dPolylineVertex
 10
248.6035768050394
 20
198.3132315817025
 30
0.0
 70
    32
  0
VERTEX
  5
254A
330
252F
100
AcDbEntity
  8
0
100
AcDbVertex
100
AcDb3dPolylineVertex
 10
248.6755768050387
 20
198.2532315817026
 30
0.0
 70
    32
  0
VERTEX
  5
254B
330
252F
100
AcDbEntity
  8
0
100
AcDbVertex
100
AcDb3dPolylineVertex
 10
248.7495768050391
 20
198.2032315817027
 30
0.0
 70
    32
  0
VERTEX
  5
254C
330
252F
100
AcDbEntity
  8
0
100
AcDbVertex
100
AcDb3dPolylineVertex
 10
248.8265768050391
 20
198.1432315817027
 30
0.0
 70
    32
  0
VERTEX
  5
254D
330
252F
100
AcDbEntity
  8
0
100
AcDbVertex
100
AcDb3dPolylineVertex
 10
248.905576805039
 20
198.0932315817028
 30
0.0
 70
    32
  0
VERTEX
  5
254E
330
252F
100
AcDbEntity
  8
0
100
AcDbVertex
100
AcDb3dPolylineVertex
 10
248.9865768050393
 20
198.0332315817025
 30
0.0
 70
    32
  0
VERTEX
  5
254F
330
252F
100
AcDbEntity
  8
0
100
AcDbVertex
100
AcDb3dPolylineVertex
 10
249.0705768050391
 20
197.9832315817027
 30
0.0
 70
    32
  0
VERTEX
  5
2550
330
252F
100
AcDbEntity
  8
0
100
AcDbVertex
100
AcDb3dPolylineVertex
 10
249.155576805039
 20
197.9332315817027
 30
0.0
 70
    32
  0
VERTEX
  5
2551
330
252F
100
AcDbEntity
  8
0
100
AcDbVertex
100
AcDb3dPolylineVertex
 10
249.2435768050389
 20
197.8832315817028
 30
0.0
 70
    32
  0
VERTEX
  5
2552
330
252F
100
AcDbEntity
  8
0
100
AcDbVertex
100
AcDb3dPolylineVertex
 10
249.3335768050394
 20
197.8332315817017
 30
0.0
 70
    32
  0
VERTEX
  5
2553
330
252F
100
AcDbEntity
  8
0
100
AcDbVertex
100
AcDb3dPolylineVertex
 10
249.4255768050388
 20
197.7932315817025
 30
0.0
 70
    32
  0
VERTEX
  5
2554
330
252F
100
AcDbEntity
  8
0
100
AcDbVertex
100
AcDb3dPolylineVertex
 10
249.5195768050391
 20
197.7432315817027
 30
0.0
 70
    32
  0
VERTEX
  5
2555
330
252F
100
AcDbEntity
  8
0
100
AcDbVertex
100
AcDb3dPolylineVertex
 10
249.6155768050391
 20
197.7032315817027
 30
0.0
 70
    32
  0
VERTEX
  5
2556
330
252F
100
AcDbEntity
  8
0
100
AcDbVertex
100
AcDb3dPolylineVertex
 10
249.713576805039
 20
197.6532315817028
 30
0.0
 70
    32
  0
VERTEX
  5
2557
330
252F
100
AcDbEntity
  8
0
100
AcDbVertex
100
AcDb3dPolylineVertex
 10
249.8125768050389
 20
197.6132315817027
 30
0.0
 70
    32
  0
VERTEX
  5
2558
330
252F
100
AcDbEntity
  8
0
100
AcDbVertex
100
AcDb3dPolylineVertex
 10
249.9135768050391
 20
197.5732315817016
 30
0.0
 70
    32
  0
VERTEX
  5
2559
330
252F
100
AcDbEntity
  8
0
100
AcDbVertex
100
AcDb3dPolylineVertex
 10
250.0165768050393
 20
197.5332315817027
 30
0.0
 70
    32
  0
VERTEX
  5
255A
330
252F
100
AcDbEntity
  8
0
100
AcDbVertex
100
AcDb3dPolylineVertex
 10
250.1205768050394
 20
197.5032315817026
 30
0.0
 70
    32
  0
VERTEX
  5
255B
330
252F
100
AcDbEntity
  8
0
100
AcDbVertex
100
AcDb3dPolylineVertex
 10
250.2275768050393
 20
197.4632315817027
 30
0.0
 70
    32
  0
VERTEX
  5
255C
330
252F
100
AcDbEntity
  8
0
100
AcDbVertex
100
AcDb3dPolylineVertex
 10
250.3345768050391
 20
197.4332315817026
 30
0.0
 70
    32
  0
VERTEX
  5
255D
330
252F
100
AcDbEntity
  8
0
100
AcDbVertex
100
AcDb3dPolylineVertex
 10
250.4435768050391
 20
197.3932315817027
 30
0.0
 70
    32
  0
VERTEX
  5
255E
330
252F
100
AcDbEntity
  8
0
100
AcDbVertex
100
AcDb3dPolylineVertex
 10
250.5535768050394
 20
197.3632315817027
 30
0.0
 70
    32
  0
VERTEX
  5
255F
330
252F
100
AcDbEntity
  8
0
100
AcDbVertex
100
AcDb3dPolylineVertex
 10
250.6655768050391
 20
197.3332315817004
 30
0.0
 70
    32
  0
VERTEX
  5
2560
330
252F
100
AcDbEntity
  8
0
100
AcDbVertex
100
AcDb3dPolylineVertex
 10
250.7785768050391
 20
197.3132315817025
 30
0.0
 70
    32
  0
VERTEX
  5
2561
330
252F
100
AcDbEntity
  8
0
100
AcDbVertex
100
AcDb3dPolylineVertex
 10
250.8925768050391
 20
197.2832315817025
 30
0.0
 70
    32
  0
VERTEX
  5
2562
330
252F
100
AcDbEntity
  8
0
100
AcDbVertex
100
AcDb3dPolylineVertex
 10
251.0075768050394
 20
197.2532315817026
 30
0.0
 70
    32
  0
VERTEX
  5
2563
330
252F
100
AcDbEntity
  8
0
100
AcDbVertex
100
AcDb3dPolylineVertex
 10
251.1235768050391
 20
197.2332315817027
 30
0.0
 70
    32
  0
VERTEX
  5
2564
330
252F
100
AcDbEntity
  8
0
100
AcDbVertex
100
AcDb3dPolylineVertex
 10
251.2405768050391
 20
197.2132315817019
 30
0.0
 70
    32
  0
VERTEX
  5
2565
330
252F
100
AcDbEntity
  8
0
100
AcDbVertex
100
AcDb3dPolylineVertex
 10
251.357576805039
 20
197.1932315817021
 30
0.0
 70
    32
  0
VERTEX
  5
2566
330
252F
100
AcDbEntity
  8
0
100
AcDbVertex
100
AcDb3dPolylineVertex
 10
251.4765768050394
 20
197.1732315817027
 30
0.0
 70
    32
  0
VERTEX
  5
2567
330
252F
100
AcDbEntity
  8
0
100
AcDbVertex
100
AcDb3dPolylineVertex
 10
251.595576805039
 20
197.1632315817028
 30
0.0
 70
    32
  0
VERTEX
  5
2568
330
252F
100
AcDbEntity
  8
0
100
AcDbVertex
100
AcDb3dPolylineVertex
 10
251.7165768050395
 20
197.1432315817027
 30
0.0
 70
    32
  0
VERTEX
  5
2569
330
252F
100
AcDbEntity
  8
0
100
AcDbVertex
100
AcDb3dPolylineVertex
 10
251.8365768050391
 20
197.1332315817028
 30
0.0
 70
    32
  0
VERTEX
  5
256A
330
252F
100
AcDbEntity
  8
0
100
AcDbVertex
100
AcDb3dPolylineVertex
 10
251.9575768050393
 20
197.1232315817028
 30
0.0
 70
    32
  0
VERTEX
  5
256B
330
252F
100
AcDbEntity
  8
0
100
AcDbVertex
100
AcDb3dPolylineVertex
 10
252.079576805039
 20
197.1132315817028
 30
0.0
 70
    32
  0
VERTEX
  5
256C
330
252F
100
AcDbEntity
  8
0
100
AcDbVertex
100
AcDb3dPolylineVertex
 10
252.2015768050391
 20
197.1032315817027
 30
0.0
 70
    32
  0
VERTEX
  5
256D
330
252F
100
AcDbEntity
  8
0
100
AcDbVertex
100
AcDb3dPolylineVertex
 10
252.3235768050394
 20
197.0932315817028
 30
0.0
 70
    32
  0
VERTEX
  5
256E
330
252F
100
AcDbEntity
  8
0
100
AcDbVertex
100
AcDb3dPolylineVertex
 10
252.4465768050389
 20
197.0932315817028
 30
0.0
 70
    32
  0
VERTEX
  5
256F
330
252F
100
AcDbEntity
  8
0
100
AcDbVertex
100
AcDb3dPolylineVertex
 10
252.5685768050391
 20
197.0932315817028
 30
0.0
 70
    32
  0
VERTEX
  5
2570
330
252F
100
AcDbEntity
  8
0
100
AcDbVertex
100
AcDb3dPolylineVertex
 10
252.6915768050391
 20
197.0932315817028
 30
0.0
 70
    32
  0
VERTEX
  5
2571
330
252F
100
AcDbEntity
  8
0
100
AcDbVertex
100
AcDb3dPolylineVertex
 10
252.8145768050393
 20
197.0932315817028
 30
0.0
 70
    32
  0
VERTEX
  5
2572
330
252F
100
AcDbEntity
  8
0
100
AcDbVertex
100
AcDb3dPolylineVertex
 10
252.9365768050389
 20
197.0932315817028
 30
0.0
 70
    32
  0
VERTEX
  5
2573
330
252F
100
AcDbEntity
  8
0
100
AcDbVertex
100
AcDb3dPolylineVertex
 10
253.0595768050391
 20
197.0932315817028
 30
0.0
 70
    32
  0
VERTEX
  5
2574
330
252F
100
AcDbEntity
  8
0
100
AcDbVertex
100
AcDb3dPolylineVertex
 10
253.1815768050392
 20
197.1032315817027
 30
0.0
 70
    32
  0
VERTEX
  5
2575
330
252F
100
AcDbEntity
  8
0
100
AcDbVertex
100
AcDb3dPolylineVertex
 10
253.3035768050393
 20
197.1132315817028
 30
0.0
 70
    32
  0
VERTEX
  5
2576
330
252F
100
AcDbEntity
  8
0
100
AcDbVertex
100
AcDb3dPolylineVertex
 10
253.4255768050388
 20
197.1232315817028
 30
0.0
 70
    32
  0
VERTEX
  5
2577
330
252F
100
AcDbEntity
  8
0
100
AcDbVertex
100
AcDb3dPolylineVertex
 10
253.5465768050391
 20
197.1332315817028
 30
0.0
 70
    32
  0
VERTEX
  5
2578
330
252F
100
AcDbEntity
  8
0
100
AcDbVertex
100
AcDb3dPolylineVertex
 10
253.6665768050391
 20
197.1432315817027
 30
0.0
 70
    32
  0
VERTEX
  5
2579
330
252F
100
AcDbEntity
  8
0
100
AcDbVertex
100
AcDb3dPolylineVertex
 10
253.787576805039
 20
197.1632315817028
 30
0.0
 70
    32
  0
VERTEX
  5
257A
330
252F
100
AcDbEntity
  8
0
100
AcDbVertex
100
AcDb3dPolylineVertex
 10
253.9065768050391
 20
197.1732315817027
 30
0.0
 70
    32
  0
VERTEX
  5
257B
330
252F
100
AcDbEntity
  8
0
100
AcDbVertex
100
AcDb3dPolylineVertex
 10
254.0255768050394
 20
197.1932315817021
 30
0.0
 70
    32
  0
VERTEX
  5
257C
330
252F
100
AcDbEntity
  8
0
100
AcDbVertex
100
AcDb3dPolylineVertex
 10
254.1425768050391
 20
197.2132315817019
 30
0.0
 70
    32
  0
VERTEX
  5
257D
330
252F
100
AcDbEntity
  8
0
100
AcDbVertex
100
AcDb3dPolylineVertex
 10
254.2595768050391
 20
197.2332315817027
 30
0.0
 70
    32
  0
VERTEX
  5
257E
330
252F
100
AcDbEntity
  8
0
100
AcDbVertex
100
AcDb3dPolylineVertex
 10
254.375576805039
 20
197.2532315817026
 30
0.0
 70
    32
  0
VERTEX
  5
257F
330
252F
100
AcDbEntity
  8
0
100
AcDbVertex
100
AcDb3dPolylineVertex
 10
254.490576805039
 20
197.2832315817025
 30
0.0
 70
    32
  0
VERTEX
  5
2580
330
252F
100
AcDbEntity
  8
0
100
AcDbVertex
100
AcDb3dPolylineVertex
 10
254.6045768050392
 20
197.3132315817025
 30
0.0
 70
    32
  0
VERTEX
  5
2581
330
252F
100
AcDbEntity
  8
0
100
AcDbVertex
100
AcDb3dPolylineVertex
 10
254.7175768050394
 20
197.3332315817004
 30
0.0
 70
    32
  0
VERTEX
  5
2582
330
252F
100
AcDbEntity
  8
0
100
AcDbVertex
100
AcDb3dPolylineVertex
 10
254.8295768050389
 20
197.3632315817027
 30
0.0
 70
    32
  0
VERTEX
  5
2583
330
252F
100
AcDbEntity
  8
0
100
AcDbVertex
100
AcDb3dPolylineVertex
 10
254.9395768050393
 20
197.3932315817027
 30
0.0
 70
    32
  0
VERTEX
  5
2584
330
252F
100
AcDbEntity
  8
0
100
AcDbVertex
100
AcDb3dPolylineVertex
 10
255.048576805039
 20
197.4332315817026
 30
0.0
 70
    32
  0
VERTEX
  5
2585
330
252F
100
AcDbEntity
  8
0
100
AcDbVertex
100
AcDb3dPolylineVertex
 10
255.155576805039
 20
197.4632315817027
 30
0.0
 70
    32
  0
VERTEX
  5
2586
330
252F
100
AcDbEntity
  8
0
100
AcDbVertex
100
AcDb3dPolylineVertex
 10
255.2625768050389
 20
197.5032315817026
 30
0.0
 70
    32
  0
VERTEX
  5
2587
330
252F
100
AcDbEntity
  8
0
100
AcDbVertex
100
AcDb3dPolylineVertex
 10
255.366576805039
 20
197.5332315817027
 30
0.0
 70
    32
  0
VERTEX
  5
2588
330
252F
100
AcDbEntity
  8
0
100
AcDbVertex
100
AcDb3dPolylineVertex
 10
255.4695768050391
 20
197.5732315817016
 30
0.0
 70
    32
  0
VERTEX
  5
2589
330
252F
100
AcDbEntity
  8
0
100
AcDbVertex
100
AcDb3dPolylineVertex
 10
255.570576805039
 20
197.6132315817027
 30
0.0
 70
    32
  0
VERTEX
  5
258A
330
252F
100
AcDbEntity
  8
0
100
AcDbVertex
100
AcDb3dPolylineVertex
 10
255.6695768050394
 20
197.6532315817028
 30
0.0
 70
    32
  0
VERTEX
  5
258B
330
252F
100
AcDbEntity
  8
0
100
AcDbVertex
100
AcDb3dPolylineVertex
 10
255.7675768050391
 20
197.7032315817027
 30
0.0
 70
    32
  0
VERTEX
  5
258C
330
252F
100
AcDbEntity
  8
0
100
AcDbVertex
100
AcDb3dPolylineVertex
 10
255.8635768050391
 20
197.7432315817027
 30
0.0
 70
    32
  0
VERTEX
  5
258D
330
252F
100
AcDbEntity
  8
0
100
AcDbVertex
100
AcDb3dPolylineVertex
 10
255.9575768050393
 20
197.7932315817025
 30
0.0
 70
    32
  0
VERTEX
  5
258E
330
252F
100
AcDbEntity
  8
0
100
AcDbVertex
100
AcDb3dPolylineVertex
 10
256.0495768050391
 20
197.8332315817017
 30
0.0
 70
    32
  0
VERTEX
  5
258F
330
252F
100
AcDbEntity
  8
0
100
AcDbVertex
100
AcDb3dPolylineVertex
 10
256.1395768050394
 20
197.8832315817028
 30
0.0
 70
    32
  0
VERTEX
  5
2590
330
252F
100
AcDbEntity
  8
0
100
AcDbVertex
100
AcDb3dPolylineVertex
 10
256.2275768050383
 20
197.9332315817027
 30
0.0
 70
    32
  0
VERTEX
  5
2591
330
252F
100
AcDbEntity
  8
0
100
AcDbVertex
100
AcDb3dPolylineVertex
 10
256.3125768050389
 20
197.9832315817027
 30
0.0
 70
    32
  0
VERTEX
  5
2592
330
252F
100
AcDbEntity
  8
0
100
AcDbVertex
100
AcDb3dPolylineVertex
 10
256.3965768050388
 20
198.0332315817025
 30
0.0
 70
    32
  0
VERTEX
  5
2593
330
252F
100
AcDbEntity
  8
0
100
AcDbVertex
100
AcDb3dPolylineVertex
 10
256.4775768050393
 20
198.0932315817028
 30
0.0
 70
    32
  0
VERTEX
  5
2594
330
252F
100
AcDbEntity
  8
0
100
AcDbVertex
100
AcDb3dPolylineVertex
 10
256.5565768050392
 20
198.1432315817027
 30
0.0
 70
    32
  0
VERTEX
  5
2595
330
252F
100
AcDbEntity
  8
0
100
AcDbVertex
100
AcDb3dPolylineVertex
 10
256.6335768050391
 20
198.2032315817027
 30
0.0
 70
    32
  0
VERTEX
  5
2596
330
252F
100
AcDbEntity
  8
0
100
AcDbVertex
100
AcDb3dPolylineVertex
 10
256.7075768050394
 20
198.2532315817026
 30
0.0
 70
    32
  0
VERTEX
  5
2597
330
252F
100
AcDbEntity
  8
0
100
AcDbVertex
100
AcDb3dPolylineVertex
 10
256.7795768050391
 20
198.3132315817025
 30
0.0
 70
    32
  0
VERTEX
  5
2598
330
252F
100
AcDbEntity
  8
0
100
AcDbVertex
100
AcDb3dPolylineVertex
 10
256.8485768050388
 20
198.3732315817028
 30
0.0
 70
    32
  0
VERTEX
  5
2599
330
252F
100
AcDbEntity
  8
0
100
AcDbVertex
100
AcDb3dPolylineVertex
 10
256.9155768050391
 20
198.4332315817015
 30
0.0
 70
    32
  0
VERTEX
  5
259A
330
252F
100
AcDbEntity
  8
0
100
AcDbVertex
100
AcDb3dPolylineVertex
 10
256.9805768050391
 20
198.4932315817027
 30
0.0
 70
    32
  0
VERTEX
  5
259B
330
252F
100
AcDbEntity
  8
0
100
AcDbVertex
100
AcDb3dPolylineVertex
 10
257.041576805039
 20
198.5532315817005
 30
0.0
 70
    32
  0
VERTEX
  5
259C
330
252F
100
AcDbEntity
  8
0
100
AcDbVertex
100
AcDb3dPolylineVertex
 10
257.1015768050393
 20
198.6132315817027
 30
0.0
 70
    32
  0
VERTEX
  5
259D
330
252F
100
AcDbEntity
  8
0
100
AcDbVertex
100
AcDb3dPolylineVertex
 10
257.157576805039
 20
198.6732315817027
 30
0.0
 70
    32
  0
VERTEX
  5
259E
330
252F
100
AcDbEntity
  8
0
100
AcDbVertex
100
AcDb3dPolylineVertex
 10
257.211576805039
 20
198.7432315817019
 30
0.0
 70
    32
  0
VERTEX
  5
259F
330
252F
100
AcDbEntity
  8
0
100
AcDbVertex
100
AcDb3dPolylineVertex
 10
257.2625768050389
 20
198.8032315817025
 30
0.0
 70
    32
  0
VERTEX
  5
25A0
330
252F
100
AcDbEntity
  8
0
100
AcDbVertex
100
AcDb3dPolylineVertex
 10
257.3105768050389
 20
198.8732315817028
 30
0.0
 70
    32
  0
VERTEX
  5
25A1
330
252F
100
AcDbEntity
  8
0
100
AcDbVertex
100
AcDb3dPolylineVertex
 10
257.356576805039
 20
198.9332315817027
 30
0.0
 70
    32
  0
VERTEX
  5
25A2
330
252F
100
AcDbEntity
  8
0
100
AcDbVertex
100
AcDb3dPolylineVertex
 10
257.3995768050393
 20
199.0032315817026
 30
0.0
 70
    32
  0
VERTEX
  5
25A3
330
252F
100
AcDbEntity
  8
0
100
AcDbVertex
100
AcDb3dPolylineVertex
 10
257.4395768050393
 20
199.0732315817016
 30
0.0
 70
    32
  0
VERTEX
  5
25A4
330
252F
100
AcDbEntity
  8
0
100
AcDbVertex
100
AcDb3dPolylineVertex
 10
257.4765768050395
 20
199.1332315817027
 30
0.0
 70
    32
  0
VERTEX
  5
25A5
330
252F
100
AcDbEntity
  8
0
100
AcDbVertex
100
AcDb3dPolylineVertex
 10
257.5105768050391
 20
199.2032315817027
 30
0.0
 70
    32
  0
VERTEX
  5
25A6
330
252F
100
AcDbEntity
  8
0
100
AcDbVertex
100
AcDb3dPolylineVertex
 10
257.541576805039
 20
199.2732315817027
 30
0.0
 70
    32
  0
VERTEX
  5
25A7
330
252F
100
AcDbEntity
  8
0
100
AcDbVertex
100
AcDb3dPolylineVertex
 10
257.570576805039
 20
199.3432315817028
 30
0.0
 70
    32
  0
VERTEX
  5
25A8
330
252F
100
AcDbEntity
  8
0
100
AcDbVertex
100
AcDb3dPolylineVertex
 10
257.5955768050391
 20
199.4132315817028
 30
0.0
 70
    32
  0
VERTEX
  5
25A9
330
252F
100
AcDbEntity
  8
0
100
AcDbVertex
100
AcDb3dPolylineVertex
 10
257.617576805039
 20
199.4832315817027
 30
0.0
 70
    32
  0
VERTEX
  5
25AA
330
252F
100
AcDbEntity
  8
0
100
AcDbVertex
100
AcDb3dPolylineVertex
 10
257.6375768050389
 20
199.5532315817017
 30
0.0
 70
    32
  0
VERTEX
  5
25AB
330
252F
100
AcDbEntity
  8
0
100
AcDbVertex
100
AcDb3dPolylineVertex
 10
257.6535768050391
 20
199.6232315817028
 30
0.0
 70
    32
  0
VERTEX
  5
25AC
330
252F
100
AcDbEntity
  8
0
100
AcDbVertex
100
AcDb3dPolylineVertex
 10
257.667576805039
 20
199.6932315817026
 30
0.0
 70
    32
  0
VERTEX
  5
25AD
330
252F
100
AcDbEntity
  8
0
100
AcDbVertex
100
AcDb3dPolylineVertex
 10
257.6775768050389
 20
199.7632315817027
 30
0.0
 70
    32
  0
VERTEX
  5
25AE
330
252F
100
AcDbEntity
  8
0
100
AcDbVertex
100
AcDb3dPolylineVertex
 10
257.6855768050389
 20
199.8332315817025
 30
0.0
 70
    32
  0
VERTEX
  5
25AF
330
252F
100
AcDbEntity
  8
0
100
AcDbVertex
100
AcDb3dPolylineVertex
 10
257.6895768050393
 20
199.9032315817028
 30
0.0
 70
    32
  0
VERTEX
  5
25B0
330
252F
100
AcDbEntity
  8
0
100
AcDbVertex
100
AcDb3dPolylineVertex
 10
257.6915768050391
 20
199.9732315817027
 30
0.0
 70
    32
  0
SEQEND
  5
25B1
330
252F
100
AcDbEntity
  8
0
  0
POLYLINE
  5
25B2
330
2B25
100
AcDbEntity
  8
0
100
AcDb3dPolyline
 66
     1
 10
0.0
 20
0.0
 30
0.0
 70
     8
  0
VERTEX
  5
25B3
330
25B2
100
AcDbEntity
  8
0
100
AcDbVertex
100
AcDb3dPolylineVertex
 10
257.6915768050391
 20
204.6132315817028
 30
0.0
 70
    32
  0
VERTEX
  5
25B4
330
25B2
100
AcDbEntity
  8
0
100
AcDbVertex
100
AcDb3dPolylineVertex
 10
257.6895768050393
 20
204.6832315817004
 30
0.0
 70
    32
  0
VERTEX
  5
25B5
330
25B2
100
AcDbEntity
  8
0
100
AcDbVertex
100
AcDb3dPolylineVertex
 10
257.6855768050389
 20
204.7532315817027
 30
0.0
 70
    32
  0
VERTEX
  5
25B6
330
25B2
100
AcDbEntity
  8
0
100
AcDbVertex
100
AcDb3dPolylineVertex
 10
257.6775768050389
 20
204.8232315817025
 30
0.0
 70
    32
  0
VERTEX
  5
25B7
330
25B2
100
AcDbEntity
  8
0
100
AcDbVertex
100
AcDb3dPolylineVertex
 10
257.667576805039
 20
204.8932315817027
 30
0.0
 70
    32
  0
VERTEX
  5
25B8
330
25B2
100
AcDbEntity
  8
0
100
AcDbVertex
100
AcDb3dPolylineVertex
 10
257.6535768050391
 20
204.9632315817027
 30
0.0
 70
    32
  0
VERTEX
  5
25B9
330
25B2
100
AcDbEntity
  8
0
100
AcDbVertex
100
AcDb3dPolylineVertex
 10
257.6375768050389
 20
205.0332315817017
 30
0.0
 70
    32
  0
VERTEX
  5
25BA
330
25B2
100
AcDbEntity
  8
0
100
AcDbVertex
100
AcDb3dPolylineVertex
 10
257.617576805039
 20
205.1032315817027
 30
0.0
 70
    32
  0
VERTEX
  5
25BB
330
25B2
100
AcDbEntity
  8
0
100
AcDbVertex
100
AcDb3dPolylineVertex
 10
257.5955768050391
 20
205.1732315817027
 30
0.0
 70
    32
  0
VERTEX
  5
25BC
330
25B2
100
AcDbEntity
  8
0
100
AcDbVertex
100
AcDb3dPolylineVertex
 10
257.570576805039
 20
205.2432315817027
 30
0.0
 70
    32
  0
VERTEX
  5
25BD
330
25B2
100
AcDbEntity
  8
0
100
AcDbVertex
100
AcDb3dPolylineVertex
 10
257.541576805039
 20
205.3132315817017
 30
0.0
 70
    32
  0
VERTEX
  5
25BE
330
25B2
100
AcDbEntity
  8
0
100
AcDbVertex
100
AcDb3dPolylineVertex
 10
257.5105768050391
 20
205.3832315817027
 30
0.0
 70
    32
  0
VERTEX
  5
25BF
330
25B2
100
AcDbEntity
  8
0
100
AcDbVertex
100
AcDb3dPolylineVertex
 10
257.4765768050395
 20
205.4532315817021
 30
0.0
 70
    32
  0
VERTEX
  5
25C0
330
25B2
100
AcDbEntity
  8
0
100
AcDbVertex
100
AcDb3dPolylineVertex
 10
257.4395768050393
 20
205.5132315817027
 30
0.0
 70
    32
  0
VERTEX
  5
25C1
330
25B2
100
AcDbEntity
  8
0
100
AcDbVertex
100
AcDb3dPolylineVertex
 10
257.3995768050393
 20
205.5832315817025
 30
0.0
 70
    32
  0
VERTEX
  5
25C2
330
25B2
100
AcDbEntity
  8
0
100
AcDbVertex
100
AcDb3dPolylineVertex
 10
257.356576805039
 20
205.6532315817028
 30
0.0
 70
    32
  0
VERTEX
  5
25C3
330
25B2
100
AcDbEntity
  8
0
100
AcDbVertex
100
AcDb3dPolylineVertex
 10
257.3105768050389
 20
205.7132315817026
 30
0.0
 70
    32
  0
VERTEX
  5
25C4
330
25B2
100
AcDbEntity
  8
0
100
AcDbVertex
100
AcDb3dPolylineVertex
 10
257.2625768050389
 20
205.7832315817016
 30
0.0
 70
    32
  0
VERTEX
  5
25C5
330
25B2
100
AcDbEntity
  8
0
100
AcDbVertex
100
AcDb3dPolylineVertex
 10
257.211576805039
 20
205.8432315817028
 30
0.0
 70
    32
  0
VERTEX
  5
25C6
330
25B2
100
AcDbEntity
  8
0
100
AcDbVertex
100
AcDb3dPolylineVertex
 10
257.157576805039
 20
205.9132315817028
 30
0.0
 70
    32
  0
VERTEX
  5
25C7
330
25B2
100
AcDbEntity
  8
0
100
AcDbVertex
100
AcDb3dPolylineVertex
 10
257.1015768050393
 20
205.9732315817027
 30
0.0
 70
    32
  0
VERTEX
  5
25C8
330
25B2
100
AcDbEntity
  8
0
100
AcDbVertex
100
AcDb3dPolylineVertex
 10
257.041576805039
 20
206.0332315817016
 30
0.0
 70
    32
  0
VERTEX
  5
25C9
330
25B2
100
AcDbEntity
  8
0
100
AcDbVertex
100
AcDb3dPolylineVertex
 10
256.9805768050391
 20
206.0932315817028
 30
0.0
 70
    32
  0
VERTEX
  5
25CA
330
25B2
100
AcDbEntity
  8
0
100
AcDbVertex
100
AcDb3dPolylineVertex
 10
256.9155768050391
 20
206.1532315817028
 30
0.0
 70
    32
  0
VERTEX
  5
25CB
330
25B2
100
AcDbEntity
  8
0
100
AcDbVertex
100
AcDb3dPolylineVertex
 10
256.8485768050388
 20
206.2132315817026
 30
0.0
 70
    32
  0
VERTEX
  5
25CC
330
25B2
100
AcDbEntity
  8
0
100
AcDbVertex
100
AcDb3dPolylineVertex
 10
256.7795768050391
 20
206.2732315817027
 30
0.0
 70
    32
  0
VERTEX
  5
25CD
330
25B2
100
AcDbEntity
  8
0
100
AcDbVertex
100
AcDb3dPolylineVertex
 10
256.7075768050394
 20
206.3332315817025
 30
0.0
 70
    32
  0
VERTEX
  5
25CE
330
25B2
100
AcDbEntity
  8
0
100
AcDbVertex
100
AcDb3dPolylineVertex
 10
256.6335768050391
 20
206.3932315817027
 30
0.0
 70
    32
  0
VERTEX
  5
25CF
330
25B2
100
AcDbEntity
  8
0
100
AcDbVertex
100
AcDb3dPolylineVertex
 10
256.5565768050392
 20
206.4432315817026
 30
0.0
 70
    32
  0
VERTEX
  5
25D0
330
25B2
100
AcDbEntity
  8
0
100
AcDbVertex
100
AcDb3dPolylineVertex
 10
256.4775768050393
 20
206.4932315817026
 30
0.0
 70
    32
  0
VERTEX
  5
25D1
330
25B2
100
AcDbEntity
  8
0
100
AcDbVertex
100
AcDb3dPolylineVertex
 10
256.3965768050388
 20
206.5532315817017
 30
0.0
 70
    32
  0
VERTEX
  5
25D2
330
25B2
100
AcDbEntity
  8
0
100
AcDbVertex
100
AcDb3dPolylineVertex
 10
256.3125768050389
 20
206.6032315817027
 30
0.0
 70
    32
  0
VERTEX
  5
25D3
330
25B2
100
AcDbEntity
  8
0
100
AcDbVertex
100
AcDb3dPolylineVertex
 10
256.2275768050383
 20
206.6532315817028
 30
0.0
 70
    32
  0
VERTEX
  5
25D4
330
25B2
100
AcDbEntity
  8
0
100
AcDbVertex
100
AcDb3dPolylineVertex
 10
256.1395768050394
 20
206.7032315817027
 30
0.0
 70
    32
  0
VERTEX
  5
25D5
330
25B2
100
AcDbEntity
  8
0
100
AcDbVertex
100
AcDb3dPolylineVertex
 10
256.0495768050391
 20
206.7532315817027
 30
0.0
 70
    32
  0
VERTEX
  5
25D6
330
25B2
100
AcDbEntity
  8
0
100
AcDbVertex
100
AcDb3dPolylineVertex
 10
255.9575768050393
 20
206.8032315817025
 30
0.0
 70
    32
  0
VERTEX
  5
25D7
330
25B2
100
AcDbEntity
  8
0
100
AcDbVertex
100
AcDb3dPolylineVertex
 10
255.8635768050391
 20
206.8432315817028
 30
0.0
 70
    32
  0
VERTEX
  5
25D8
330
25B2
100
AcDbEntity
  8
0
100
AcDbVertex
100
AcDb3dPolylineVertex
 10
255.7675768050391
 20
206.8832315817028
 30
0.0
 70
    32
  0
VERTEX
  5
25D9
330
25B2
100
AcDbEntity
  8
0
100
AcDbVertex
100
AcDb3dPolylineVertex
 10
255.6695768050394
 20
206.9332315817026
 30
0.0
 70
    32
  0
VERTEX
  5
25DA
330
25B2
100
AcDbEntity
  8
0
100
AcDbVertex
100
AcDb3dPolylineVertex
 10
255.570576805039
 20
206.973231581702
 30
0.0
 70
    32
  0
VERTEX
  5
25DB
330
25B2
100
AcDbEntity
  8
0
100
AcDbVertex
100
AcDb3dPolylineVertex
 10
255.4695768050391
 20
207.0132315817027
 30
0.0
 70
    32
  0
VERTEX
  5
25DC
330
25B2
100
AcDbEntity
  8
0
100
AcDbVertex
100
AcDb3dPolylineVertex
 10
255.366576805039
 20
207.0532315817025
 30
0.0
 70
    32
  0
VERTEX
  5
25DD
330
25B2
100
AcDbEntity
  8
0
100
AcDbVertex
100
AcDb3dPolylineVertex
 10
255.2625768050389
 20
207.0932315817004
 30
0.0
 70
    32
  0
VERTEX
  5
25DE
330
25B2
100
AcDbEntity
  8
0
100
AcDbVertex
100
AcDb3dPolylineVertex
 10
255.155576805039
 20
207.1232315817028
 30
0.0
 70
    32
  0
VERTEX
  5
25DF
330
25B2
100
AcDbEntity
  8
0
100
AcDbVertex
100
AcDb3dPolylineVertex
 10
255.048576805039
 20
207.1632315817028
 30
0.0
 70
    32
  0
VERTEX
  5
25E0
330
25B2
100
AcDbEntity
  8
0
100
AcDbVertex
100
AcDb3dPolylineVertex
 10
254.9395768050393
 20
207.1932315817027
 30
0.0
 70
    32
  0
VERTEX
  5
25E1
330
25B2
100
AcDbEntity
  8
0
100
AcDbVertex
100
AcDb3dPolylineVertex
 10
254.8295768050389
 20
207.2232315817026
 30
0.0
 70
    32
  0
VERTEX
  5
25E2
330
25B2
100
AcDbEntity
  8
0
100
AcDbVertex
100
AcDb3dPolylineVertex
 10
254.7175768050394
 20
207.253231581702
 30
0.0
 70
    32
  0
VERTEX
  5
25E3
330
25B2
100
AcDbEntity
  8
0
100
AcDbVertex
100
AcDb3dPolylineVertex
 10
254.6045768050392
 20
207.2832315817016
 30
0.0
 70
    32
  0
VERTEX
  5
25E4
330
25B2
100
AcDbEntity
  8
0
100
AcDbVertex
100
AcDb3dPolylineVertex
 10
254.490576805039
 20
207.3032315817016
 30
0.0
 70
    32
  0
VERTEX
  5
25E5
330
25B2
100
AcDbEntity
  8
0
100
AcDbVertex
100
AcDb3dPolylineVertex
 10
254.375576805039
 20
207.3332315817017
 30
0.0
 70
    32
  0
VERTEX
  5
25E6
330
25B2
100
AcDbEntity
  8
0
100
AcDbVertex
100
AcDb3dPolylineVertex
 10
254.2595768050391
 20
207.3532315817028
 30
0.0
 70
    32
  0
VERTEX
  5
25E7
330
25B2
100
AcDbEntity
  8
0
100
AcDbVertex
100
AcDb3dPolylineVertex
 10
254.1425768050391
 20
207.3732315817028
 30
0.0
 70
    32
  0
VERTEX
  5
25E8
330
25B2
100
AcDbEntity
  8
0
100
AcDbVertex
100
AcDb3dPolylineVertex
 10
254.0255768050394
 20
207.3932315817005
 30
0.0
 70
    32
  0
VERTEX
  5
25E9
330
25B2
100
AcDbEntity
  8
0
100
AcDbVertex
100
AcDb3dPolylineVertex
 10
253.9065768050391
 20
207.4132315817028
 30
0.0
 70
    32
  0
VERTEX
  5
25EA
330
25B2
100
AcDbEntity
  8
0
100
AcDbVertex
100
AcDb3dPolylineVertex
 10
253.787576805039
 20
207.4332315817026
 30
0.0
 70
    32
  0
VERTEX
  5
25EB
330
25B2
100
AcDbEntity
  8
0
100
AcDbVertex
100
AcDb3dPolylineVertex
 10
253.6665768050391
 20
207.4432315817027
 30
0.0
 70
    32
  0
VERTEX
  5
25EC
330
25B2
100
AcDbEntity
  8
0
100
AcDbVertex
100
AcDb3dPolylineVertex
 10
253.5465768050391
 20
207.4532315817027
 30
0.0
 70
    32
  0
VERTEX
  5
25ED
330
25B2
100
AcDbEntity
  8
0
100
AcDbVertex
100
AcDb3dPolylineVertex
 10
253.4255768050388
 20
207.4632315817027
 30
0.0
 70
    32
  0
VERTEX
  5
25EE
330
25B2
100
AcDbEntity
  8
0
100
AcDbVertex
100
AcDb3dPolylineVertex
 10
253.3035768050393
 20
207.4732315817026
 30
0.0
 70
    32
  0
VERTEX
  5
25EF
330
25B2
100
AcDbEntity
  8
0
100
AcDbVertex
100
AcDb3dPolylineVertex
 10
253.1815768050392
 20
207.4832315817027
 30
0.0
 70
    32
  0
VERTEX
  5
25F0
330
25B2
100
AcDbEntity
  8
0
100
AcDbVertex
100
AcDb3dPolylineVertex
 10
253.0595768050391
 20
207.4932315817027
 30
0.0
 70
    32
  0
VERTEX
  5
25F1
330
25B2
100
AcDbEntity
  8
0
100
AcDbVertex
100
AcDb3dPolylineVertex
 10
252.9365768050389
 20
207.4932315817027
 30
0.0
 70
    32
  0
VERTEX
  5
25F2
330
25B2
100
AcDbEntity
  8
0
100
AcDbVertex
100
AcDb3dPolylineVertex
 10
252.8145768050393
 20
207.5032315817026
 30
0.0
 70
    32
  0
VERTEX
  5
25F3
330
25B2
100
AcDbEntity
  8
0
100
AcDbVertex
100
AcDb3dPolylineVertex
 10
252.6915768050391
 20
207.5032315817026
 30
0.0
 70
    32
  0
VERTEX
  5
25F4
330
25B2
100
AcDbEntity
  8
0
100
AcDbVertex
100
AcDb3dPolylineVertex
 10
252.5685768050391
 20
207.5032315817026
 30
0.0
 70
    32
  0
VERTEX
  5
25F5
330
25B2
100
AcDbEntity
  8
0
100
AcDbVertex
100
AcDb3dPolylineVertex
 10
252.4465768050389
 20
207.4932315817027
 30
0.0
 70
    32
  0
VERTEX
  5
25F6
330
25B2
100
AcDbEntity
  8
0
100
AcDbVertex
100
AcDb3dPolylineVertex
 10
252.3235768050394
 20
207.4932315817027
 30
0.0
 70
    32
  0
VERTEX
  5
25F7
330
25B2
100
AcDbEntity
  8
0
100
AcDbVertex
100
AcDb3dPolylineVertex
 10
252.2015768050391
 20
207.4832315817027
 30
0.0
 70
    32
  0
VERTEX
  5
25F8
330
25B2
100
AcDbEntity
  8
0
100
AcDbVertex
100
AcDb3dPolylineVertex
 10
252.079576805039
 20
207.4732315817026
 30
0.0
 70
    32
  0
VERTEX
  5
25F9
330
25B2
100
AcDbEntity
  8
0
100
AcDbVertex
100
AcDb3dPolylineVertex
 10
251.9575768050393
 20
207.4632315817027
 30
0.0
 70
    32
  0
VERTEX
  5
25FA
330
25B2
100
AcDbEntity
  8
0
100
AcDbVertex
100
AcDb3dPolylineVertex
 10
251.8365768050391
 20
207.4532315817027
 30
0.0
 70
    32
  0
VERTEX
  5
25FB
330
25B2
100
AcDbEntity
  8
0
100
AcDbVertex
100
AcDb3dPolylineVertex
 10
251.7165768050395
 20
207.4432315817027
 30
0.0
 70
    32
  0
VERTEX
  5
25FC
330
25B2
100
AcDbEntity
  8
0
100
AcDbVertex
100
AcDb3dPolylineVertex
 10
251.595576805039
 20
207.4332315817026
 30
0.0
 70
    32
  0
VERTEX
  5
25FD
330
25B2
100
AcDbEntity
  8
0
100
AcDbVertex
100
AcDb3dPolylineVertex
 10
251.4765768050394
 20
207.4132315817028
 30
0.0
 70
    32
  0
VERTEX
  5
25FE
330
25B2
100
AcDbEntity
  8
0
100
AcDbVertex
100
AcDb3dPolylineVertex
 10
251.357576805039
 20
207.3932315817005
 30
0.0
 70
    32
  0
VERTEX
  5
25FF
330
25B2
100
AcDbEntity
  8
0
100
AcDbVertex
100
AcDb3dPolylineVertex
 10
251.2405768050391
 20
207.3732315817028
 30
0.0
 70
    32
  0
VERTEX
  5
2600
330
25B2
100
AcDbEntity
  8
0
100
AcDbVertex
100
AcDb3dPolylineVertex
 10
251.1235768050391
 20
207.3532315817028
 30
0.0
 70
    32
  0
VERTEX
  5
2601
330
25B2
100
AcDbEntity
  8
0
100
AcDbVertex
100
AcDb3dPolylineVertex
 10
251.0075768050394
 20
207.3332315817017
 30
0.0
 70
    32
  0
VERTEX
  5
2602
330
25B2
100
AcDbEntity
  8
0
100
AcDbVertex
100
AcDb3dPolylineVertex
 10
250.8925768050391
 20
207.3032315817016
 30
0.0
 70
    32
  0
VERTEX
  5
2603
330
25B2
100
AcDbEntity
  8
0
100
AcDbVertex
100
AcDb3dPolylineVertex
 10
250.7785768050391
 20
207.2832315817016
 30
0.0
 70
    32
  0
VERTEX
  5
2604
330
25B2
100
AcDbEntity
  8
0
100
AcDbVertex
100
AcDb3dPolylineVertex
 10
250.6655768050391
 20
207.253231581702
 30
0.0
 70
    32
  0
VERTEX
  5
2605
330
25B2
100
AcDbEntity
  8
0
100
AcDbVertex
100
AcDb3dPolylineVertex
 10
250.5535768050394
 20
207.2232315817026
 30
0.0
 70
    32
  0
VERTEX
  5
2606
330
25B2
100
AcDbEntity
  8
0
100
AcDbVertex
100
AcDb3dPolylineVertex
 10
250.4435768050391
 20
207.1932315817027
 30
0.0
 70
    32
  0
VERTEX
  5
2607
330
25B2
100
AcDbEntity
  8
0
100
AcDbVertex
100
AcDb3dPolylineVertex
 10
250.3345768050391
 20
207.1632315817028
 30
0.0
 70
    32
  0
VERTEX
  5
2608
330
25B2
100
AcDbEntity
  8
0
100
AcDbVertex
100
AcDb3dPolylineVertex
 10
250.2275768050393
 20
207.1232315817028
 30
0.0
 70
    32
  0
VERTEX
  5
2609
330
25B2
100
AcDbEntity
  8
0
100
AcDbVertex
100
AcDb3dPolylineVertex
 10
250.1205768050394
 20
207.0932315817004
 30
0.0
 70
    32
  0
VERTEX
  5
260A
330
25B2
100
AcDbEntity
  8
0
100
AcDbVertex
100
AcDb3dPolylineVertex
 10
250.0165768050393
 20
207.0532315817025
 30
0.0
 70
    32
  0
VERTEX
  5
260B
330
25B2
100
AcDbEntity
  8
0
100
AcDbVertex
100
AcDb3dPolylineVertex
 10
249.9135768050391
 20
207.0132315817027
 30
0.0
 70
    32
  0
VERTEX
  5
260C
330
25B2
100
AcDbEntity
  8
0
100
AcDbVertex
100
AcDb3dPolylineVertex
 10
249.8125768050389
 20
206.973231581702
 30
0.0
 70
    32
  0
VERTEX
  5
260D
330
25B2
100
AcDbEntity
  8
0
100
AcDbVertex
100
AcDb3dPolylineVertex
 10
249.713576805039
 20
206.9332315817026
 30
0.0
 70
    32
  0
VERTEX
  5
260E
330
25B2
100
AcDbEntity
  8
0
100
AcDbVertex
100
AcDb3dPolylineVertex
 10
249.6155768050391
 20
206.8832315817028
 30
0.0
 70
    32
  0
VERTEX
  5
260F
330
25B2
100
AcDbEntity
  8
0
100
AcDbVertex
100
AcDb3dPolylineVertex
 10
249.5195768050391
 20
206.8432315817028
 30
0.0
 70
    32
  0
VERTEX
  5
2610
330
25B2
100
AcDbEntity
  8
0
100
AcDbVertex
100
AcDb3dPolylineVertex
 10
249.4255768050388
 20
206.8032315817025
 30
0.0
 70
    32
  0
VERTEX
  5
2611
330
25B2
100
AcDbEntity
  8
0
100
AcDbVertex
100
AcDb3dPolylineVertex
 10
249.3335768050394
 20
206.7532315817027
 30
0.0
 70
    32
  0
VERTEX
  5
2612
330
25B2
100
AcDbEntity
  8
0
100
AcDbVertex
100
AcDb3dPolylineVertex
 10
249.2435768050389
 20
206.7032315817027
 30
0.0
 70
    32
  0
VERTEX
  5
2613
330
25B2
100
AcDbEntity
  8
0
100
AcDbVertex
100
AcDb3dPolylineVertex
 10
249.155576805039
 20
206.6532315817028
 30
0.0
 70
    32
  0
VERTEX
  5
2614
330
25B2
100
AcDbEntity
  8
0
100
AcDbVertex
100
AcDb3dPolylineVertex
 10
249.0705768050391
 20
206.6032315817027
 30
0.0
 70
    32
  0
VERTEX
  5
2615
330
25B2
100
AcDbEntity
  8
0
100
AcDbVertex
100
AcDb3dPolylineVertex
 10
248.9865768050393
 20
206.5532315817017
 30
0.0
 70
    32
  0
VERTEX
  5
2616
330
25B2
100
AcDbEntity
  8
0
100
AcDbVertex
100
AcDb3dPolylineVertex
 10
248.905576805039
 20
206.4932315817026
 30
0.0
 70
    32
  0
VERTEX
  5
2617
330
25B2
100
AcDbEntity
  8
0
100
AcDbVertex
100
AcDb3dPolylineVertex
 10
248.8265768050391
 20
206.4432315817026
 30
0.0
 70
    32
  0
VERTEX
  5
2618
330
25B2
100
AcDbEntity
  8
0
100
AcDbVertex
100
AcDb3dPolylineVertex
 10
248.7495768050391
 20
206.3932315817027
 30
0.0
 70
    32
  0
VERTEX
  5
2619
330
25B2
100
AcDbEntity
  8
0
100
AcDbVertex
100
AcDb3dPolylineVertex
 10
248.6755768050387
 20
206.3332315817025
 30
0.0
 70
    32
  0
VERTEX
  5
261A
330
25B2
100
AcDbEntity
  8
0
100
AcDbVertex
100
AcDb3dPolylineVertex
 10
248.6035768050394
 20
206.2732315817027
 30
0.0
 70
    32
  0
VERTEX
  5
261B
330
25B2
100
AcDbEntity
  8
0
100
AcDbVertex
100
AcDb3dPolylineVertex
 10
248.5345768050393
 20
206.2132315817026
 30
0.0
 70
    32
  0
VERTEX
  5
261C
330
25B2
100
AcDbEntity
  8
0
100
AcDbVertex
100
AcDb3dPolylineVertex
 10
248.4675768050394
 20
206.1532315817028
 30
0.0
 70
    32
  0
VERTEX
  5
261D
330
25B2
100
AcDbEntity
  8
0
100
AcDbVertex
100
AcDb3dPolylineVertex
 10
248.4025768050381
 20
206.0932315817028
 30
0.0
 70
    32
  0
VERTEX
  5
261E
330
25B2
100
AcDbEntity
  8
0
100
AcDbVertex
100
AcDb3dPolylineVertex
 10
248.3415768050395
 20
206.0332315817016
 30
0.0
 70
    32
  0
VERTEX
  5
261F
330
25B2
100
AcDbEntity
  8
0
100
AcDbVertex
100
AcDb3dPolylineVertex
 10
248.2815768050389
 20
205.9732315817027
 30
0.0
 70
    32
  0
VERTEX
  5
2620
330
25B2
100
AcDbEntity
  8
0
100
AcDbVertex
100
AcDb3dPolylineVertex
 10
248.2255768050389
 20
205.9132315817028
 30
0.0
 70
    32
  0
VERTEX
  5
2621
330
25B2
100
AcDbEntity
  8
0
100
AcDbVertex
100
AcDb3dPolylineVertex
 10
248.1715768050391
 20
205.8432315817028
 30
0.0
 70
    32
  0
VERTEX
  5
2622
330
25B2
100
AcDbEntity
  8
0
100
AcDbVertex
100
AcDb3dPolylineVertex
 10
248.1205768050394
 20
205.7832315817016
 30
0.0
 70
    32
  0
VERTEX
  5
2623
330
25B2
100
AcDbEntity
  8
0
100
AcDbVertex
100
AcDb3dPolylineVertex
 10
248.0725768050394
 20
205.7132315817026
 30
0.0
 70
    32
  0
VERTEX
  5
2624
330
25B2
100
AcDbEntity
  8
0
100
AcDbVertex
100
AcDb3dPolylineVertex
 10
248.0265768050394
 20
205.6532315817028
 30
0.0
 70
    32
  0
VERTEX
  5
2625
330
25B2
100
AcDbEntity
  8
0
100
AcDbVertex
100
AcDb3dPolylineVertex
 10
247.9835768050389
 20
205.5832315817025
 30
0.0
 70
    32
  0
VERTEX
  5
2626
330
25B2
100
AcDbEntity
  8
0
100
AcDbVertex
100
AcDb3dPolylineVertex
 10
247.943576805039
 20
205.5132315817027
 30
0.0
 70
    32
  0
VERTEX
  5
2627
330
25B2
100
AcDbEntity
  8
0
100
AcDbVertex
100
AcDb3dPolylineVertex
 10
247.9065768050391
 20
205.4532315817021
 30
0.0
 70
    32
  0
VERTEX
  5
2628
330
25B2
100
AcDbEntity
  8
0
100
AcDbVertex
100
AcDb3dPolylineVertex
 10
247.8725768050393
 20
205.3832315817027
 30
0.0
 70
    32
  0
VERTEX
  5
2629
330
25B2
100
AcDbEntity
  8
0
100
AcDbVertex
100
AcDb3dPolylineVertex
 10
247.8415768050393
 20
205.3132315817017
 30
0.0
 70
    32
  0
VERTEX
  5
262A
330
25B2
100
AcDbEntity
  8
0
100
AcDbVertex
100
AcDb3dPolylineVertex
 10
247.8125768050389
 20
205.2432315817027
 30
0.0
 70
    32
  0
VERTEX
  5
262B
330
25B2
100
AcDbEntity
  8
0
100
AcDbVertex
100
AcDb3dPolylineVertex
 10
247.787576805039
 20
205.1732315817027
 30
0.0
 70
    32
  0
VERTEX
  5
262C
330
25B2
100
AcDbEntity
  8
0
100
AcDbVertex
100
AcDb3dPolylineVertex
 10
247.7655768050393
 20
205.1032315817027
 30
0.0
 70
    32
  0
VERTEX
  5
262D
330
25B2
100
AcDbEntity
  8
0
100
AcDbVertex
100
AcDb3dPolylineVertex
 10
247.7455768050393
 20
205.0332315817017
 30
0.0
 70
    32
  0
VERTEX
  5
262E
330
25B2
100
AcDbEntity
  8
0
100
AcDbVertex
100
AcDb3dPolylineVertex
 10
247.7295768050391
 20
204.9632315817027
 30
0.0
 70
    32
  0
VERTEX
  5
262F
330
25B2
100
AcDbEntity
  8
0
100
AcDbVertex
100
AcDb3dPolylineVertex
 10
247.7155768050389
 20
204.8932315817027
 30
0.0
 70
    32
  0
VERTEX
  5
2630
330
25B2
100
AcDbEntity
  8
0
100
AcDbVertex
100
AcDb3dPolylineVertex
 10
247.7055768050389
 20
204.8232315817025
 30
0.0
 70
    32
  0
VERTEX
  5
2631
330
25B2
100
AcDbEntity
  8
0
100
AcDbVertex
100
AcDb3dPolylineVertex
 10
247.6975768050393
 20
204.7532315817027
 30
0.0
 70
    32
  0
VERTEX
  5
2632
330
25B2
100
AcDbEntity
  8
0
100
AcDbVertex
100
AcDb3dPolylineVertex
 10
247.693576805039
 20
204.6832315817004
 30
0.0
 70
    32
  0
VERTEX
  5
2633
330
25B2
100
AcDbEntity
  8
0
100
AcDbVertex
100
AcDb3dPolylineVertex
 10
247.691576805039
 20
204.6132315817028
 30
0.0
 70
    32
  0
SEQEND
  5
2634
330
25B2
100
AcDbEntity
  8
0
  0
POLYLINE
  5
2635
330
2B25
100
AcDbEntity
  8
0
100
AcDb3dPolyline
 66
     1
 10
0.0
 20
0.0
 30
0.0
 70
     8
  0
VERTEX
  5
2636
330
2635
100
AcDbEntity
  8
0
100
AcDbVertex
100
AcDb3dPolylineVertex
 10
262.6915768050391
 20
210.7632315817027
 30
0.0
 70
    32
  0
VERTEX
  5
2637
330
2635
100
AcDbEntity
  8
0
100
AcDbVertex
100
AcDb3dPolylineVertex
 10
262.6885768050394
 20
210.9332315817026
 30
0.0
 70
    32
  0
VERTEX
  5
2638
330
2635
100
AcDbEntity
  8
0
100
AcDbVertex
100
AcDb3dPolylineVertex
 10
262.6795768050393
 20
211.1132315817028
 30
0.0
 70
    32
  0
VERTEX
  5
2639
330
2635
100
AcDbEntity
  8
0
100
AcDbVertex
100
AcDb3dPolylineVertex
 10
262.664576805039
 20
211.2832315817017
 30
0.0
 70
    32
  0
VERTEX
  5
263A
330
2635
100
AcDbEntity
  8
0
100
AcDbVertex
100
AcDb3dPolylineVertex
 10
262.6435768050391
 20
211.4532315817027
 30
0.0
 70
    32
  0
VERTEX
  5
263B
330
2635
100
AcDbEntity
  8
0
100
AcDbVertex
100
AcDb3dPolylineVertex
 10
262.616576805039
 20
211.6232315817028
 30
0.0
 70
    32
  0
VERTEX
  5
263C
330
2635
100
AcDbEntity
  8
0
100
AcDbVertex
100
AcDb3dPolylineVertex
 10
262.5835768050393
 20
211.7932315817025
 30
0.0
 70
    32
  0
VERTEX
  5
263D
330
2635
100
AcDbEntity
  8
0
100
AcDbVertex
100
AcDb3dPolylineVertex
 10
262.5445768050393
 20
211.9632315817026
 30
0.0
 70
    32
  0
VERTEX
  5
263E
330
2635
100
AcDbEntity
  8
0
100
AcDbVertex
100
AcDb3dPolylineVertex
 10
262.4995768050391
 20
212.1332315817013
 30
0.0
 70
    32
  0
VERTEX
  5
263F
330
2635
100
AcDbEntity
  8
0
100
AcDbVertex
100
AcDb3dPolylineVertex
 10
262.4485768050394
 20
212.3032315817017
 30
0.0
 70
    32
  0
VERTEX
  5
2640
330
2635
100
AcDbEntity
  8
0
100
AcDbVertex
100
AcDb3dPolylineVertex
 10
262.3915768050383
 20
212.4732315817019
 30
0.0
 70
    32
  0
VERTEX
  5
2641
330
2635
100
AcDbEntity
  8
0
100
AcDbVertex
100
AcDb3dPolylineVertex
 10
262.3295768050389
 20
212.6432315817027
 30
0.0
 70
    32
  0
VERTEX
  5
2642
330
2635
100
AcDbEntity
  8
0
100
AcDbVertex
100
AcDb3dPolylineVertex
 10
262.260576805039
 20
212.8032315817017
 30
0.0
 70
    32
  0
VERTEX
  5
2643
330
2635
100
AcDbEntity
  8
0
100
AcDbVertex
100
AcDb3dPolylineVertex
 10
262.186576805039
 20
212.9632315817027
 30
0.0
 70
    32
  0
VERTEX
  5
2644
330
2635
100
AcDbEntity
  8
0
100
AcDbVertex
100
AcDb3dPolylineVertex
 10
262.1065768050391
 20
213.1332315817028
 30
0.0
 70
    32
  0
VERTEX
  5
2645
330
2635
100
AcDbEntity
  8
0
100
AcDbVertex
100
AcDb3dPolylineVertex
 10
262.0215768050389
 20
213.2932315817027
 30
0.0
 70
    32
  0
VERTEX
  5
2646
330
2635
100
AcDbEntity
  8
0
100
AcDbVertex
100
AcDb3dPolylineVertex
 10
261.9305768050393
 20
213.4532315817027
 30
0.0
 70
    32
  0
VERTEX
  5
2647
330
2635
100
AcDbEntity
  8
0
100
AcDbVertex
100
AcDb3dPolylineVertex
 10
261.8335768050394
 20
213.6132315817028
 30
0.0
 70
    32
  0
VERTEX
  5
2648
330
2635
100
AcDbEntity
  8
0
100
AcDbVertex
100
AcDb3dPolylineVertex
 10
261.731576805039
 20
213.7632315817027
 30
0.0
 70
    32
  0
VERTEX
  5
2649
330
2635
100
AcDbEntity
  8
0
100
AcDbVertex
100
AcDb3dPolylineVertex
 10
261.623576805039
 20
213.9232315817027
 30
0.0
 70
    32
  0
VERTEX
  5
264A
330
2635
100
AcDbEntity
  8
0
100
AcDbVertex
100
AcDb3dPolylineVertex
 10
261.510576805039
 20
214.0732315817025
 30
0.0
 70
    32
  0
VERTEX
  5
264B
330
2635
100
AcDbEntity
  8
0
100
AcDbVertex
100
AcDb3dPolylineVertex
 10
261.3925768050392
 20
214.2232315817027
 30
0.0
 70
    32
  0
VERTEX
  5
264C
330
2635
100
AcDbEntity
  8
0
100
AcDbVertex
100
AcDb3dPolylineVertex
 10
261.2685768050391
 20
214.3732315817028
 30
0.0
 70
    32
  0
VERTEX
  5
264D
330
2635
100
AcDbEntity
  8
0
100
AcDbVertex
100
AcDb3dPolylineVertex
 10
261.1405768050394
 20
214.5232315817027
 30
0.0
 70
    32
  0
VERTEX
  5
264E
330
2635
100
AcDbEntity
  8
0
100
AcDbVertex
100
AcDb3dPolylineVertex
 10
261.0065768050394
 20
214.6632315817027
 30
0.0
 70
    32
  0
VERTEX
  5
264F
330
2635
100
AcDbEntity
  8
0
100
AcDbVertex
100
AcDb3dPolylineVertex
 10
260.8675768050391
 20
214.8132315817025
 30
0.0
 70
    32
  0
VERTEX
  5
2650
330
2635
100
AcDbEntity
  8
0
100
AcDbVertex
100
AcDb3dPolylineVertex
 10
260.7235768050388
 20
214.9532315817027
 30
0.0
 70
    32
  0
VERTEX
  5
2651
330
2635
100
AcDbEntity
  8
0
100
AcDbVertex
100
AcDb3dPolylineVertex
 10
260.5745768050393
 20
215.0832315817017
 30
0.0
 70
    32
  0
VERTEX
  5
2652
330
2635
100
AcDbEntity
  8
0
100
AcDbVertex
100
AcDb3dPolylineVertex
 10
260.4215768050392
 20
215.2232315817026
 30
0.0
 70
    32
  0
VERTEX
  5
2653
330
2635
100
AcDbEntity
  8
0
100
AcDbVertex
100
AcDb3dPolylineVertex
 10
260.263576805039
 20
215.3532315817027
 30
0.0
 70
    32
  0
VERTEX
  5
2654
330
2635
100
AcDbEntity
  8
0
100
AcDbVertex
100
AcDb3dPolylineVertex
 10
260.1015768050393
 20
215.4832315817027
 30
0.0
 70
    32
  0
VERTEX
  5
2655
330
2635
100
AcDbEntity
  8
0
100
AcDbVertex
100
AcDb3dPolylineVertex
 10
259.933576805039
 20
215.6132315817028
 30
0.0
 70
    32
  0
VERTEX
  5
2656
330
2635
100
AcDbEntity
  8
0
100
AcDbVertex
100
AcDb3dPolylineVertex
 10
259.7625768050391
 20
215.7332315817027
 30
0.0
 70
    32
  0
VERTEX
  5
2657
330
2635
100
AcDbEntity
  8
0
100
AcDbVertex
100
AcDb3dPolylineVertex
 10
259.5865768050391
 20
215.8532315817028
 30
0.0
 70
    32
  0
VERTEX
  5
2658
330
2635
100
AcDbEntity
  8
0
100
AcDbVertex
100
AcDb3dPolylineVertex
 10
259.407576805039
 20
215.9732315817027
 30
0.0
 70
    32
  0
VERTEX
  5
2659
330
2635
100
AcDbEntity
  8
0
100
AcDbVertex
100
AcDb3dPolylineVertex
 10
259.2235768050388
 20
216.0832315817025
 30
0.0
 70
    32
  0
VERTEX
  5
265A
330
2635
100
AcDbEntity
  8
0
100
AcDbVertex
100
AcDb3dPolylineVertex
 10
259.0355768050394
 20
216.1932315817026
 30
0.0
 70
    32
  0
VERTEX
  5
265B
330
2635
100
AcDbEntity
  8
0
100
AcDbVertex
100
AcDb3dPolylineVertex
 10
258.8435768050393
 20
216.3032315817017
 30
0.0
 70
    32
  0
VERTEX
  5
265C
330
2635
100
AcDbEntity
  8
0
100
AcDbVertex
100
AcDb3dPolylineVertex
 10
258.648576805039
 20
216.4032315817014
 30
0.0
 70
    32
  0
VERTEX
  5
265D
330
2635
100
AcDbEntity
  8
0
100
AcDbVertex
100
AcDb3dPolylineVertex
 10
258.4495768050393
 20
216.5032315817026
 30
0.0
 70
    32
  0
VERTEX
  5
265E
330
2635
100
AcDbEntity
  8
0
100
AcDbVertex
100
AcDb3dPolylineVertex
 10
258.2475768050394
 20
216.6032315817028
 30
0.0
 70
    32
  0
VERTEX
  5
265F
330
2635
100
AcDbEntity
  8
0
100
AcDbVertex
100
AcDb3dPolylineVertex
 10
258.041576805039
 20
216.7032315817027
 30
0.0
 70
    32
  0
VERTEX
  5
2660
330
2635
100
AcDbEntity
  8
0
100
AcDbVertex
100
AcDb3dPolylineVertex
 10
257.8325768050394
 20
216.7932315817025
 30
0.0
 70
    32
  0
VERTEX
  5
2661
330
2635
100
AcDbEntity
  8
0
100
AcDbVertex
100
AcDb3dPolylineVertex
 10
257.6205768050395
 20
216.8732315817027
 30
0.0
 70
    32
  0
VERTEX
  5
2662
330
2635
100
AcDbEntity
  8
0
100
AcDbVertex
100
AcDb3dPolylineVertex
 10
257.4055768050391
 20
216.9632315817027
 30
0.0
 70
    32
  0
VERTEX
  5
2663
330
2635
100
AcDbEntity
  8
0
100
AcDbVertex
100
AcDb3dPolylineVertex
 10
257.1875768050389
 20
217.0432315817016
 30
0.0
 70
    32
  0
VERTEX
  5
2664
330
2635
100
AcDbEntity
  8
0
100
AcDbVertex
100
AcDb3dPolylineVertex
 10
256.9675768050394
 20
217.1132315817028
 30
0.0
 70
    32
  0
VERTEX
  5
2665
330
2635
100
AcDbEntity
  8
0
100
AcDbVertex
100
AcDb3dPolylineVertex
 10
256.743576805039
 20
217.1832315817004
 30
0.0
 70
    32
  0
VERTEX
  5
2666
330
2635
100
AcDbEntity
  8
0
100
AcDbVertex
100
AcDb3dPolylineVertex
 10
256.5185768050382
 20
217.2532315817027
 30
0.0
 70
    32
  0
VERTEX
  5
2667
330
2635
100
AcDbEntity
  8
0
100
AcDbVertex
100
AcDb3dPolylineVertex
 10
256.2905768050391
 20
217.3232315817005
 30
0.0
 70
    32
  0
VERTEX
  5
2668
330
2635
100
AcDbEntity
  8
0
100
AcDbVertex
100
AcDb3dPolylineVertex
 10
256.0605768050391
 20
217.3832315817028
 30
0.0
 70
    32
  0
VERTEX
  5
2669
330
2635
100
AcDbEntity
  8
0
100
AcDbVertex
100
AcDb3dPolylineVertex
 10
255.828576805039
 20
217.4332315817026
 30
0.0
 70
    32
  0
VERTEX
  5
266A
330
2635
100
AcDbEntity
  8
0
100
AcDbVertex
100
AcDb3dPolylineVertex
 10
255.5945768050391
 20
217.4832315817019
 30
0.0
 70
    32
  0
VERTEX
  5
266B
330
2635
100
AcDbEntity
  8
0
100
AcDbVertex
100
AcDb3dPolylineVertex
 10
255.3585768050389
 20
217.5332315817017
 30
0.0
 70
    32
  0
VERTEX
  5
266C
330
2635
100
AcDbEntity
  8
0
100
AcDbVertex
100
AcDb3dPolylineVertex
 10
255.1215768050393
 20
217.5832315817025
 30
0.0
 70
    32
  0
VERTEX
  5
266D
330
2635
100
AcDbEntity
  8
0
100
AcDbVertex
100
AcDb3dPolylineVertex
 10
254.8825768050394
 20
217.6232315817014
 30
0.0
 70
    32
  0
VERTEX
  5
266E
330
2635
100
AcDbEntity
  8
0
100
AcDbVertex
100
AcDb3dPolylineVertex
 10
254.6425768050391
 20
217.6532315817027
 30
0.0
 70
    32
  0
VERTEX
  5
266F
330
2635
100
AcDbEntity
  8
0
100
AcDbVertex
100
AcDb3dPolylineVertex
 10
254.4015768050394
 20
217.6832315817026
 30
0.0
 70
    32
  0
VERTEX
  5
2670
330
2635
100
AcDbEntity
  8
0
100
AcDbVertex
100
AcDb3dPolylineVertex
 10
254.1585768050389
 20
217.7132315817027
 30
0.0
 70
    32
  0
VERTEX
  5
2671
330
2635
100
AcDbEntity
  8
0
100
AcDbVertex
100
AcDb3dPolylineVertex
 10
253.9155768050391
 20
217.7332315817027
 30
0.0
 70
    32
  0
VERTEX
  5
2672
330
2635
100
AcDbEntity
  8
0
100
AcDbVertex
100
AcDb3dPolylineVertex
 10
253.6715768050391
 20
217.7532315817026
 30
0.0
 70
    32
  0
VERTEX
  5
2673
330
2635
100
AcDbEntity
  8
0
100
AcDbVertex
100
AcDb3dPolylineVertex
 10
253.427576805039
 20
217.7732315817026
 30
0.0
 70
    32
  0
VERTEX
  5
2674
330
2635
100
AcDbEntity
  8
0
100
AcDbVertex
100
AcDb3dPolylineVertex
 10
253.1825768050391
 20
217.7832315817027
 30
0.0
 70
    32
  0
VERTEX
  5
2675
330
2635
100
AcDbEntity
  8
0
100
AcDbVertex
100
AcDb3dPolylineVertex
 10
252.9365768050389
 20
217.7832315817027
 30
0.0
 70
    32
  0
VERTEX
  5
2676
330
2635
100
AcDbEntity
  8
0
100
AcDbVertex
100
AcDb3dPolylineVertex
 10
252.6915768050391
 20
217.7932315817016
 30
0.0
 70
    32
  0
VERTEX
  5
2677
330
2635
100
AcDbEntity
  8
0
100
AcDbVertex
100
AcDb3dPolylineVertex
 10
252.4465768050389
 20
217.7832315817027
 30
0.0
 70
    32
  0
VERTEX
  5
2678
330
2635
100
AcDbEntity
  8
0
100
AcDbVertex
100
AcDb3dPolylineVertex
 10
252.2005768050391
 20
217.7832315817027
 30
0.0
 70
    32
  0
VERTEX
  5
2679
330
2635
100
AcDbEntity
  8
0
100
AcDbVertex
100
AcDb3dPolylineVertex
 10
251.9555768050389
 20
217.7732315817026
 30
0.0
 70
    32
  0
VERTEX
  5
267A
330
2635
100
AcDbEntity
  8
0
100
AcDbVertex
100
AcDb3dPolylineVertex
 10
251.7115768050391
 20
217.7532315817026
 30
0.0
 70
    32
  0
VERTEX
  5
267B
330
2635
100
AcDbEntity
  8
0
100
AcDbVertex
100
AcDb3dPolylineVertex
 10
251.4675768050394
 20
217.7332315817027
 30
0.0
 70
    32
  0
VERTEX
  5
267C
330
2635
100
AcDbEntity
  8
0
100
AcDbVertex
100
AcDb3dPolylineVertex
 10
251.224576805039
 20
217.7132315817027
 30
0.0
 70
    32
  0
VERTEX
  5
267D
330
2635
100
AcDbEntity
  8
0
100
AcDbVertex
100
AcDb3dPolylineVertex
 10
250.9815768050391
 20
217.6832315817026
 30
0.0
 70
    32
  0
VERTEX
  5
267E
330
2635
100
AcDbEntity
  8
0
100
AcDbVertex
100
AcDb3dPolylineVertex
 10
250.7405768050391
 20
217.6532315817027
 30
0.0
 70
    32
  0
VERTEX
  5
267F
330
2635
100
AcDbEntity
  8
0
100
AcDbVertex
100
AcDb3dPolylineVertex
 10
250.500576805039
 20
217.6232315817014
 30
0.0
 70
    32
  0
VERTEX
  5
2680
330
2635
100
AcDbEntity
  8
0
100
AcDbVertex
100
AcDb3dPolylineVertex
 10
250.2615768050391
 20
217.5832315817025
 30
0.0
 70
    32
  0
VERTEX
  5
2681
330
2635
100
AcDbEntity
  8
0
100
AcDbVertex
100
AcDb3dPolylineVertex
 10
250.0245768050394
 20
217.5332315817017
 30
0.0
 70
    32
  0
VERTEX
  5
2682
330
2635
100
AcDbEntity
  8
0
100
AcDbVertex
100
AcDb3dPolylineVertex
 10
249.788576805039
 20
217.4832315817019
 30
0.0
 70
    32
  0
VERTEX
  5
2683
330
2635
100
AcDbEntity
  8
0
100
AcDbVertex
100
AcDb3dPolylineVertex
 10
249.5545768050394
 20
217.4332315817026
 30
0.0
 70
    32
  0
VERTEX
  5
2684
330
2635
100
AcDbEntity
  8
0
100
AcDbVertex
100
AcDb3dPolylineVertex
 10
249.3225768050395
 20
217.3832315817028
 30
0.0
 70
    32
  0
VERTEX
  5
2685
330
2635
100
AcDbEntity
  8
0
100
AcDbVertex
100
AcDb3dPolylineVertex
 10
249.0925768050394
 20
217.3232315817005
 30
0.0
 70
    32
  0
VERTEX
  5
2686
330
2635
100
AcDbEntity
  8
0
100
AcDbVertex
100
AcDb3dPolylineVertex
 10
248.864576805039
 20
217.2532315817027
 30
0.0
 70
    32
  0
VERTEX
  5
2687
330
2635
100
AcDbEntity
  8
0
100
AcDbVertex
100
AcDb3dPolylineVertex
 10
248.6395768050395
 20
217.1832315817004
 30
0.0
 70
    32
  0
VERTEX
  5
2688
330
2635
100
AcDbEntity
  8
0
100
AcDbVertex
100
AcDb3dPolylineVertex
 10
248.4155768050391
 20
217.1132315817028
 30
0.0
 70
    32
  0
VERTEX
  5
2689
330
2635
100
AcDbEntity
  8
0
100
AcDbVertex
100
AcDb3dPolylineVertex
 10
248.195576805039
 20
217.0432315817016
 30
0.0
 70
    32
  0
VERTEX
  5
268A
330
2635
100
AcDbEntity
  8
0
100
AcDbVertex
100
AcDb3dPolylineVertex
 10
247.9775768050394
 20
216.9632315817027
 30
0.0
 70
    32
  0
VERTEX
  5
268B
330
2635
100
AcDbEntity
  8
0
100
AcDbVertex
100
AcDb3dPolylineVertex
 10
247.7625768050391
 20
216.8732315817027
 30
0.0
 70
    32
  0
VERTEX
  5
268C
330
2635
100
AcDbEntity
  8
0
100
AcDbVertex
100
AcDb3dPolylineVertex
 10
247.5505768050387
 20
216.7932315817025
 30
0.0
 70
    32
  0
VERTEX
  5
268D
330
2635
100
AcDbEntity
  8
0
100
AcDbVertex
100
AcDb3dPolylineVertex
 10
247.3415768050394
 20
216.7032315817027
 30
0.0
 70
    32
  0
VERTEX
  5
268E
330
2635
100
AcDbEntity
  8
0
100
AcDbVertex
100
AcDb3dPolylineVertex
 10
247.1355768050391
 20
216.6032315817028
 30
0.0
 70
    32
  0
VERTEX
  5
268F
330
2635
100
AcDbEntity
  8
0
100
AcDbVertex
100
AcDb3dPolylineVertex
 10
246.9335768050391
 20
216.5032315817026
 30
0.0
 70
    32
  0
VERTEX
  5
2690
330
2635
100
AcDbEntity
  8
0
100
AcDbVertex
100
AcDb3dPolylineVertex
 10
246.7345768050389
 20
216.4032315817014
 30
0.0
 70
    32
  0
VERTEX
  5
2691
330
2635
100
AcDbEntity
  8
0
100
AcDbVertex
100
AcDb3dPolylineVertex
 10
246.5395768050391
 20
216.3032315817017
 30
0.0
 70
    32
  0
VERTEX
  5
2692
330
2635
100
AcDbEntity
  8
0
100
AcDbVertex
100
AcDb3dPolylineVertex
 10
246.3475768050391
 20
216.1932315817026
 30
0.0
 70
    32
  0
VERTEX
  5
2693
330
2635
100
AcDbEntity
  8
0
100
AcDbVertex
100
AcDb3dPolylineVertex
 10
246.1595768050393
 20
216.0832315817025
 30
0.0
 70
    32
  0
VERTEX
  5
2694
330
2635
100
AcDbEntity
  8
0
100
AcDbVertex
100
AcDb3dPolylineVertex
 10
245.9755768050389
 20
215.9732315817027
 30
0.0
 70
    32
  0
VERTEX
  5
2695
330
2635
100
AcDbEntity
  8
0
100
AcDbVertex
100
AcDb3dPolylineVertex
 10
245.7965768050391
 20
215.8532315817028
 30
0.0
 70
    32
  0
VERTEX
  5
2696
330
2635
100
AcDbEntity
  8
0
100
AcDbVertex
100
AcDb3dPolylineVertex
 10
245.6205768050395
 20
215.7332315817027
 30
0.0
 70
    32
  0
VERTEX
  5
2697
330
2635
100
AcDbEntity
  8
0
100
AcDbVertex
100
AcDb3dPolylineVertex
 10
245.4495768050381
 20
215.6132315817028
 30
0.0
 70
    32
  0
VERTEX
  5
2698
330
2635
100
AcDbEntity
  8
0
100
AcDbVertex
100
AcDb3dPolylineVertex
 10
245.2815768050391
 20
215.4832315817027
 30
0.0
 70
    32
  0
VERTEX
  5
2699
330
2635
100
AcDbEntity
  8
0
100
AcDbVertex
100
AcDb3dPolylineVertex
 10
245.1195768050389
 20
215.3532315817027
 30
0.0
 70
    32
  0
VERTEX
  5
269A
330
2635
100
AcDbEntity
  8
0
100
AcDbVertex
100
AcDb3dPolylineVertex
 10
244.961576805039
 20
215.2232315817026
 30
0.0
 70
    32
  0
VERTEX
  5
269B
330
2635
100
AcDbEntity
  8
0
100
AcDbVertex
100
AcDb3dPolylineVertex
 10
244.8085768050391
 20
215.0832315817017
 30
0.0
 70
    32
  0
VERTEX
  5
269C
330
2635
100
AcDbEntity
  8
0
100
AcDbVertex
100
AcDb3dPolylineVertex
 10
244.6595768050393
 20
214.9532315817027
 30
0.0
 70
    32
  0
VERTEX
  5
269D
330
2635
100
AcDbEntity
  8
0
100
AcDbVertex
100
AcDb3dPolylineVertex
 10
244.5155768050393
 20
214.8132315817025
 30
0.0
 70
    32
  0
VERTEX
  5
269E
330
2635
100
AcDbEntity
  8
0
100
AcDbVertex
100
AcDb3dPolylineVertex
 10
244.376576805039
 20
214.6632315817027
 30
0.0
 70
    32
  0
VERTEX
  5
269F
330
2635
100
AcDbEntity
  8
0
100
AcDbVertex
100
AcDb3dPolylineVertex
 10
244.242576805039
 20
214.5232315817027
 30
0.0
 70
    32
  0
VERTEX
  5
26A0
330
2635
100
AcDbEntity
  8
0
100
AcDbVertex
100
AcDb3dPolylineVertex
 10
244.114576805039
 20
214.3732315817028
 30
0.0
 70
    32
  0
VERTEX
  5
26A1
330
2635
100
AcDbEntity
  8
0
100
AcDbVertex
100
AcDb3dPolylineVertex
 10
243.990576805039
 20
214.2232315817027
 30
0.0
 70
    32
  0
VERTEX
  5
26A2
330
2635
100
AcDbEntity
  8
0
100
AcDbVertex
100
AcDb3dPolylineVertex
 10
243.8725768050393
 20
214.0732315817025
 30
0.0
 70
    32
  0
VERTEX
  5
26A3
330
2635
100
AcDbEntity
  8
0
100
AcDbVertex
100
AcDb3dPolylineVertex
 10
243.7595768050391
 20
213.9232315817027
 30
0.0
 70
    32
  0
VERTEX
  5
26A4
330
2635
100
AcDbEntity
  8
0
100
AcDbVertex
100
AcDb3dPolylineVertex
 10
243.6515768050394
 20
213.7632315817027
 30
0.0
 70
    32
  0
VERTEX
  5
26A5
330
2635
100
AcDbEntity
  8
0
100
AcDbVertex
100
AcDb3dPolylineVertex
 10
243.549576805039
 20
213.6132315817028
 30
0.0
 70
    32
  0
VERTEX
  5
26A6
330
2635
100
AcDbEntity
  8
0
100
AcDbVertex
100
AcDb3dPolylineVertex
 10
243.4525768050391
 20
213.4532315817027
 30
0.0
 70
    32
  0
VERTEX
  5
26A7
330
2635
100
AcDbEntity
  8
0
100
AcDbVertex
100
AcDb3dPolylineVertex
 10
243.3615768050393
 20
213.2932315817027
 30
0.0
 70
    32
  0
VERTEX
  5
26A8
330
2635
100
AcDbEntity
  8
0
100
AcDbVertex
100
AcDb3dPolylineVertex
 10
243.2765768050394
 20
213.1332315817028
 30
0.0
 70
    32
  0
VERTEX
  5
26A9
330
2635
100
AcDbEntity
  8
0
100
AcDbVertex
100
AcDb3dPolylineVertex
 10
243.1965768050389
 20
212.9632315817027
 30
0.0
 70
    32
  0
VERTEX
  5
26AA
330
2635
100
AcDbEntity
  8
0
100
AcDbVertex
100
AcDb3dPolylineVertex
 10
243.1225768050393
 20
212.8032315817017
 30
0.0
 70
    32
  0
VERTEX
  5
26AB
330
2635
100
AcDbEntity
  8
0
100
AcDbVertex
100
AcDb3dPolylineVertex
 10
243.0535768050393
 20
212.6432315817027
 30
0.0
 70
    32
  0
VERTEX
  5
26AC
330
2635
100
AcDbEntity
  8
0
100
AcDbVertex
100
AcDb3dPolylineVertex
 10
242.9915768050391
 20
212.4732315817019
 30
0.0
 70
    32
  0
VERTEX
  5
26AD
330
2635
100
AcDbEntity
  8
0
100
AcDbVertex
100
AcDb3dPolylineVertex
 10
242.9345768050391
 20
212.3032315817017
 30
0.0
 70
    32
  0
VERTEX
  5
26AE
330
2635
100
AcDbEntity
  8
0
100
AcDbVertex
100
AcDb3dPolylineVertex
 10
242.8835768050392
 20
212.1332315817013
 30
0.0
 70
    32
  0
VERTEX
  5
26AF
330
2635
100
AcDbEntity
  8
0
100
AcDbVertex
100
AcDb3dPolylineVertex
 10
242.8385768050391
 20
211.9632315817026
 30
0.0
 70
    32
  0
VERTEX
  5
26B0
330
2635
100
AcDbEntity
  8
0
100
AcDbVertex
100
AcDb3dPolylineVertex
 10
242.799576805039
 20
211.7932315817025
 30
0.0
 70
    32
  0
VERTEX
  5
26B1
330
2635
100
AcDbEntity
  8
0
100
AcDbVertex
100
AcDb3dPolylineVertex
 10
242.7665768050393
 20
211.6232315817028
 30
0.0
 70
    32
  0
VERTEX
  5
26B2
330
2635
100
AcDbEntity
  8
0
100
AcDbVertex
100
AcDb3dPolylineVertex
 10
242.7395768050391
 20
211.4532315817027
 30
0.0
 70
    32
  0
VERTEX
  5
26B3
330
2635
100
AcDbEntity
  8
0
100
AcDbVertex
100
AcDb3dPolylineVertex
 10
242.7185768050393
 20
211.2832315817017
 30
0.0
 70
    32
  0
VERTEX
  5
26B4
330
2635
100
AcDbEntity
  8
0
100
AcDbVertex
100
AcDb3dPolylineVertex
 10
242.703576805039
 20
211.1132315817028
 30
0.0
 70
    32
  0
VERTEX
  5
26B5
330
2635
100
AcDbEntity
  8
0
100
AcDbVertex
100
AcDb3dPolylineVertex
 10
242.6945768050388
 20
210.9332315817026
 30
0.0
 70
    32
  0
VERTEX
  5
26B6
330
2635
100
AcDbEntity
  8
0
100
AcDbVertex
100
AcDb3dPolylineVertex
 10
242.691576805039
 20
210.7632315817027
 30
0.0
 70
    32
  0
SEQEND
  5
26B7
330
2635
100
AcDbEntity
  8
0
  0
LINE
  5
26B8
330
2B25
100
AcDbEntity
  8
0
100
AcDbLine
 10
264.341112805039
 20
149.4632315817026
 30
0.0
 11
241.042040805039
 21
149.4632315817026
 31
0.0
  0
ARC
  5
26B9
330
2B25
100
AcDbEntity
  8
0
100
AcDbCircle
 10
252.6915768050391
 20
112.8024345817027
 30
0.0
 40
60.0
100
AcDbArc
 50
75.52248800000066
 51
104.4775099999998
  0
LINE
  5
26BB
330
2B25
100
AcDbEntity
  8
0
100
AcDbLine
 10
269.9415768050391
 20
154.9632315817027
 30
0.0
 11
235.441576805039
 21
154.9632315817027
 31
0.0
  0
LINE
  5
26BC
330
2B25
100
AcDbEntity
  8
0
100
AcDbLine
 10
269.9415768050391
 20
159.9632315817027
 30
0.0
 11
235.441576805039
 21
159.9632315817027
 31
0.0
  0
ARC
  5
26BD
330
2B25
100
AcDbEntity
  8
0
100
AcDbCircle
 10
252.6915768050391
 20
127.9632315817027
 30
0.0
 40
32.0
100
AcDbArc
 50
122.4617399999994
 51
57.53826100000032
  0
CIRCLE
  5
26BE
330
2B25
100
AcDbEntity
  8
0
100
AcDbCircle
 10
252.6915768050391
 20
127.9632315817027
 30
0.0
 40
17.0
  0
LINE
  5
26BF
330
2B25
100
AcDbEntity
  8
0
100
AcDbLine
 10
242.691576805039
 20
210.7647860557048
 30
0.0
 11
242.691576805039
 21
173.6300595817017
 31
0.0
  0
LINE
  5
26C0
330
2B25
100
AcDbEntity
  8
0
100
AcDbLine
 10
241.042040805039
 20
154.9632315817027
 30
0.0
 11
241.042040805039
 21
149.4632315817026
 31
0.0
  0
ARC
  5
26C1
330
2B25
100
AcDbEntity
  8
0
100
AcDbCircle
 10
240.691576805039
 20
173.6300595817017
 30
0.0
 40
2.0
100
AcDbArc
 50
281.1599400000019
 51
0.0
  0
LINE
  5
26C2
330
2B25
100
AcDbEntity
  8
0
100
AcDbLine
 10
235.441576805039
 20
159.9632315817027
 30
0.0
 11
235.441576805039
 21
154.9632315817027
 31
0.0
  0
LINE
  5
26C3
330
2B25
100
AcDbEntity
  8
0
100
AcDbLine
 10
235.441576805039
 20
167.9924485817027
 30
0.0
 11
235.441576805039
 21
159.9632315817027
 31
0.0
  0
ARC
  5
26C4
330
2B25
100
AcDbEntity
  8
0
100
AcDbCircle
 10
238.4415768050381
 20
167.9924485817027
 30
0.0
 40
3.0
100
AcDbArc
 50
104.4775099999998
 51
180.0000100000009
  0
LINE
  5
26C5
330
2B25
100
AcDbEntity
  8
0
100
AcDbLine
 10
247.691576805039
 20
204.6123555817028
 30
0.0
 11
247.691576805039
 21
199.9758205817016
 31
0.0
  0
LINE
  5
26C8
330
2B25
100
AcDbEntity
  8
0
100
AcDbLine
 10
370.1915768050385
 20
121.9632315817027
 30
0.0
 11
370.1915768050385
 21
133.9632315817027
 31
0.0
  0
LINE
  5
26CB
330
2B25
100
AcDbEntity
  8
0
100
AcDbLine
 10
370.1915768050385
 20
110.9632315817027
 30
0.0
 11
370.1915768050385
 21
144.9632315817027
 31
0.0
  0
LINE
  5
26CF
330
2B25
100
AcDbEntity
  8
0
100
AcDbLine
 10
262.6915768050391
 20
210.7647863817028
 30
0.0
 11
262.6915768050391
 21
173.6300595817017
 31
0.0
  0
LINE
  5
26D0
330
2B25
100
AcDbEntity
  8
0
100
AcDbLine
 10
269.9415768050391
 20
159.9632315817027
 30
0.0
 11
269.9415768050391
 21
154.9632315817027
 31
0.0
  0
LINE
  5
26D1
330
2B25
100
AcDbEntity
  8
0
100
AcDbLine
 10
269.9415768050391
 20
167.9924485817027
 30
0.0
 11
269.9415768050391
 21
159.9632315817027
 31
0.0
  0
ARC
  5
26D2
330
2B25
100
AcDbEntity
  8
0
100
AcDbCircle
 10
266.9415768050391
 20
167.9924485817027
 30
0.0
 40
3.0
100
AcDbArc
 50
0.0
 51
75.52248800000066
  0
LINE
  5
26D3
330
2B25
100
AcDbEntity
  8
0
100
AcDbLine
 10
264.341112805039
 20
154.9632315817027
 30
0.0
 11
264.341112805039
 21
149.4632315817026
 31
0.0
  0
ARC
  5
26D4
330
2B25
100
AcDbEntity
  8
0
100
AcDbCircle
 10
264.6915768050391
 20
173.6300595817017
 30
0.0
 40
2.0
100
AcDbArc
 50
179.9999899999988
 51
258.8400699999998
  0
LINE
  5
26D5
330
2B25
100
AcDbEntity
  8
0
100
AcDbLine
 10
257.6915768050391
 20
204.6123555817028
 30
0.0
 11
257.6915768050391
 21
199.9758205817016
 31
0.0
  0
LINE
  5
26D6
330
2B25
100
AcDbEntity
  8
0
100
AcDbLine
 10
390.6915768050385
 20
154.9632315817027
 30
0.0
 11
390.6915768050385
 21
98.29843858170285
 31
0.0
  0
LINE
  5
26D7
330
2B25
100
AcDbEntity
  8
0
100
AcDbLine
 10
414.6915768050384
 20
154.9632315817027
 30
0.0
 11
414.6915768050384
 21
98.29843858170285
 31
0.0
  0
ARC
  5
26D8
330
2B25
100
AcDbEntity
  8
0
100
AcDbCircle
 10
402.6915768050383
 20
127.9632315817027
 30
0.0
 40
32.0
100
AcDbArc
 50
247.9756900000006
 51
292.0243099999992
  0
LINE
  5
26E2
330
2B25
100
AcDbEntity
  8
0
100
AcDbLine
 10
427.4416028050385
 20
193.0540585817027
 30
0.0
 11
462.3338558050384
 21
213.1991105817028
 31
0.0
  0
LINE
  5
26E3
330
2B25
100
AcDbEntity
  8
0
100
AcDbLine
 10
382.3915968050385
 20
173.1643415817027
 30
0.0
 11
459.6838538050385
 21
217.7890475817028
 31
0.0
  0
ARC
  5
26E4
330
2B25
100
AcDbEntity
  8
0
100
AcDbCircle
 10
434.9416078050385
 20
180.0636725817005
 30
0.0
 40
15.0
100
AcDbArc
 50
119.9999999999973
 51
180.0000100000009
  0
LINE
  5
26E5
330
2B25
100
AcDbEntity
  8
0
100
AcDbLine
 10
400.7683422050384
 20
159.9632235817026
 30
0.0
 11
419.9415758050385
 21
166.9417105817028
 31
0.0
  0
LINE
  5
26E6
330
2B25
100
AcDbEntity
  8
0
100
AcDbLine
 10
390.6915768050385
 20
154.9632315817027
 30
0.0
 11
414.6915768050384
 21
154.9632315817027
 31
0.0
  0
LINE
  5
26E7
330
2B25
100
AcDbEntity
  8
0
100
AcDbLine
 10
385.4415768050385
 20
159.9632235817026
 30
0.0
 11
419.9415768050385
 21
159.9632235817026
 31
0.0
  0
ARC
  5
26E8
330
2B25
100
AcDbEntity
  8
0
100
AcDbCircle
 10
402.6915768050383
 20
119.9438471817019
 30
0.0
 40
52.019386
100
AcDbArc
 50
70.63364999999888
 51
112.9693500000004
  0
CIRCLE
  5
26E9
330
2B25
100
AcDbEntity
  8
0
100
AcDbCircle
 10
402.6915768050383
 20
164.6632365817017
 30
0.0
 40
2.2
  0
LINE
  5
26EA
330
2B25
100
AcDbEntity
  8
0
100
AcDbLine
 10
382.3915968050385
 20
173.1643425817028
 30
0.0
 11
382.3915968050385
 21
160.1632365817025
 31
0.0
  0
LINE
  5
26EB
330
2B25
100
AcDbEntity
  8
0
100
AcDbLine
 10
388.6170228050385
 20
149.4632315817026
 30
0.0
 11
390.6915768050385
 21
149.4632315817026
 31
0.0
  0
LINE
  5
26EC
330
2B25
100
AcDbEntity
  8
0
100
AcDbLine
 10
385.4415768050385
 20
159.9632235817026
 30
0.0
 11
385.4415768050385
 21
154.9632315817027
 31
0.0
  0
LINE
  5
26ED
330
2B25
100
AcDbEntity
  8
0
100
AcDbLine
 10
385.4415598050383
 20
154.9632045817027
 30
0.0
 11
388.6169818050385
 21
149.4632115817028
 31
0.0
  0
ARC
  5
26EE
330
2B25
100
AcDbEntity
  8
0
100
AcDbCircle
 10
385.3915888050384
 20
160.1632365817025
 30
0.0
 40
3.0
100
AcDbArc
 50
179.9999899999988
 51
270.0
  0
LINE
  5
26EF
330
2B25
100
AcDbEntity
  8
0
100
AcDbLine
 10
419.9415768050385
 20
180.0636725817005
 30
0.0
 11
419.9415768050385
 21
166.9417085817028
 31
0.0
  0
LINE
  5
26F0
330
2B25
100
AcDbEntity
  8
0
100
AcDbLine
 10
419.9415768050385
 20
159.9632235817026
 30
0.0
 11
419.9415768050385
 21
154.9632315817027
 31
0.0
  0
LINE
  5
26F1
330
2B25
100
AcDbEntity
  8
0
100
AcDbLine
 10
416.7661618050383
 20
149.4632315817026
 30
0.0
 11
414.6915768050384
 21
149.4632315817026
 31
0.0
  0
LINE
  5
26F2
330
2B25
100
AcDbEntity
  8
0
100
AcDbLine
 10
419.9415618050385
 20
154.9632455817026
 30
0.0
 11
416.7661308050385
 21
149.463239581702
 31
0.0
  0
LINE
  5
26F3
330
2B25
100
AcDbEntity
  8
0
100
AcDbLine
 10
459.6838538050385
 20
217.7890475817028
 30
0.0
 11
462.3338558050384
 21
213.1991105817028
 31
0.0
  0
ARC
  5
26F4
330
2B25
100
AcDbEntity
  8
0
100
AcDbCircle
 10
560.3173577578338
 20
127.9632315817027
 30
0.0
 40
32.0
100
AcDbArc
 50
122.4617399999994
 51
57.53826099999896
  0
CIRCLE
  5
26F6
330
2B25
100
AcDbEntity
  8
0
100
AcDbCircle
 10
560.3173577578338
 20
127.9632315817027
 30
0.0
 40
17.0
  0
POLYLINE
  5
26F7
330
2B25
100
AcDbEntity
  8
0
100
AcDb3dPolyline
 66
     1
 10
0.0
 20
0.0
 30
0.0
 70
     8
  0
VERTEX
  5
26F8
330
26F7
100
AcDbEntity
  8
0
100
AcDbVertex
100
AcDb3dPolylineVertex
 10
570.3170461547415
 20
206.1732315817005
 30
0.0
 70
    32
  0
VERTEX
  5
26F9
330
26F7
100
AcDbEntity
  8
0
100
AcDbVertex
100
AcDb3dPolylineVertex
 10
570.3140461547413
 20
206.3432315817028
 30
0.0
 70
    32
  0
VERTEX
  5
26FA
330
26F7
100
AcDbEntity
  8
0
100
AcDbVertex
100
AcDb3dPolylineVertex
 10
570.3050461547412
 20
206.5232315817027
 30
0.0
 70
    32
  0
VERTEX
  5
26FB
330
26F7
100
AcDbEntity
  8
0
100
AcDbVertex
100
AcDb3dPolylineVertex
 10
570.2900461547415
 20
206.6932315817026
 30
0.0
 70
    32
  0
VERTEX
  5
26FC
330
26F7
100
AcDbEntity
  8
0
100
AcDbVertex
100
AcDb3dPolylineVertex
 10
570.2690461547413
 20
206.8632315817028
 30
0.0
 70
    32
  0
VERTEX
  5
26FD
330
26F7
100
AcDbEntity
  8
0
100
AcDbVertex
100
AcDb3dPolylineVertex
 10
570.2420461547416
 20
207.0332315817025
 30
0.0
 70
    32
  0
VERTEX
  5
26FE
330
26F7
100
AcDbEntity
  8
0
100
AcDbVertex
100
AcDb3dPolylineVertex
 10
570.2090461547412
 20
207.2032315817027
 30
0.0
 70
    32
  0
VERTEX
  5
26FF
330
26F7
100
AcDbEntity
  8
0
100
AcDbVertex
100
AcDb3dPolylineVertex
 10
570.1700461547414
 20
207.3732315817028
 30
0.0
 70
    32
  0
VERTEX
  5
2700
330
26F7
100
AcDbEntity
  8
0
100
AcDbVertex
100
AcDb3dPolylineVertex
 10
570.1250461547413
 20
207.5432315817025
 30
0.0
 70
    32
  0
VERTEX
  5
2701
330
26F7
100
AcDbEntity
  8
0
100
AcDbVertex
100
AcDb3dPolylineVertex
 10
570.0740461547412
 20
207.7132315817026
 30
0.0
 70
    32
  0
VERTEX
  5
2702
330
26F7
100
AcDbEntity
  8
0
100
AcDbVertex
100
AcDb3dPolylineVertex
 10
570.0180461547413
 20
207.8832315817027
 30
0.0
 70
    32
  0
VERTEX
  5
2703
330
26F7
100
AcDbEntity
  8
0
100
AcDbVertex
100
AcDb3dPolylineVertex
 10
569.9550461547412
 20
208.0532315817017
 30
0.0
 70
    32
  0
VERTEX
  5
2704
330
26F7
100
AcDbEntity
  8
0
100
AcDbVertex
100
AcDb3dPolylineVertex
 10
569.8870461547413
 20
208.2132315817026
 30
0.0
 70
    32
  0
VERTEX
  5
2705
330
26F7
100
AcDbEntity
  8
0
100
AcDbVertex
100
AcDb3dPolylineVertex
 10
569.8130461547415
 20
208.3832315817028
 30
0.0
 70
    32
  0
VERTEX
  5
2706
330
26F7
100
AcDbEntity
  8
0
100
AcDbVertex
100
AcDb3dPolylineVertex
 10
569.7330461547412
 20
208.5432315817016
 30
0.0
 70
    32
  0
VERTEX
  5
2707
330
26F7
100
AcDbEntity
  8
0
100
AcDbVertex
100
AcDb3dPolylineVertex
 10
569.6470461547412
 20
208.7032315817027
 30
0.0
 70
    32
  0
VERTEX
  5
2708
330
26F7
100
AcDbEntity
  8
0
100
AcDbVertex
100
AcDb3dPolylineVertex
 10
569.5560461547414
 20
208.8632315817028
 30
0.0
 70
    32
  0
VERTEX
  5
2709
330
26F7
100
AcDbEntity
  8
0
100
AcDbVertex
100
AcDb3dPolylineVertex
 10
569.4590461547412
 20
209.0232315817027
 30
0.0
 70
    32
  0
VERTEX
  5
270A
330
26F7
100
AcDbEntity
  8
0
100
AcDbVertex
100
AcDb3dPolylineVertex
 10
569.3570461547416
 20
209.1732315817028
 30
0.0
 70
    32
  0
VERTEX
  5
270B
330
26F7
100
AcDbEntity
  8
0
100
AcDbVertex
100
AcDb3dPolylineVertex
 10
569.2500461547413
 20
209.3332315817025
 30
0.0
 70
    32
  0
VERTEX
  5
270C
330
26F7
100
AcDbEntity
  8
0
100
AcDbVertex
100
AcDb3dPolylineVertex
 10
569.1370461547412
 20
209.4832315817027
 30
0.0
 70
    32
  0
VERTEX
  5
270D
330
26F7
100
AcDbEntity
  8
0
100
AcDbVertex
100
AcDb3dPolylineVertex
 10
569.0180461547413
 20
209.6332315817027
 30
0.0
 70
    32
  0
VERTEX
  5
270E
330
26F7
100
AcDbEntity
  8
0
100
AcDbVertex
100
AcDb3dPolylineVertex
 10
568.8950461547412
 20
209.7832315817027
 30
0.0
 70
    32
  0
VERTEX
  5
270F
330
26F7
100
AcDbEntity
  8
0
100
AcDbVertex
100
AcDb3dPolylineVertex
 10
568.7660461547416
 20
209.9332315817028
 30
0.0
 70
    32
  0
VERTEX
  5
2710
330
26F7
100
AcDbEntity
  8
0
100
AcDbVertex
100
AcDb3dPolylineVertex
 10
568.6320461547412
 20
210.0732315817016
 30
0.0
 70
    32
  0
VERTEX
  5
2711
330
26F7
100
AcDbEntity
  8
0
100
AcDbVertex
100
AcDb3dPolylineVertex
 10
568.4930461547412
 20
210.2232315817027
 30
0.0
 70
    32
  0
VERTEX
  5
2712
330
26F7
100
AcDbEntity
  8
0
100
AcDbVertex
100
AcDb3dPolylineVertex
 10
568.3490461547412
 20
210.3632315817027
 30
0.0
 70
    32
  0
VERTEX
  5
2713
330
26F7
100
AcDbEntity
  8
0
100
AcDbVertex
100
AcDb3dPolylineVertex
 10
568.2010461547413
 20
210.4932315817019
 30
0.0
 70
    32
  0
VERTEX
  5
2714
330
26F7
100
AcDbEntity
  8
0
100
AcDbVertex
100
AcDb3dPolylineVertex
 10
568.0470461547413
 20
210.6332315817028
 30
0.0
 70
    32
  0
VERTEX
  5
2715
330
26F7
100
AcDbEntity
  8
0
100
AcDbVertex
100
AcDb3dPolylineVertex
 10
567.8890461547415
 20
210.7632315817027
 30
0.0
 70
    32
  0
VERTEX
  5
2716
330
26F7
100
AcDbEntity
  8
0
100
AcDbVertex
100
AcDb3dPolylineVertex
 10
567.7270461547414
 20
210.8932315817004
 30
0.0
 70
    32
  0
VERTEX
  5
2717
330
26F7
100
AcDbEntity
  8
0
100
AcDbVertex
100
AcDb3dPolylineVertex
 10
567.5600461547411
 20
211.0232315817027
 30
0.0
 70
    32
  0
VERTEX
  5
2718
330
26F7
100
AcDbEntity
  8
0
100
AcDbVertex
100
AcDb3dPolylineVertex
 10
567.3880461547412
 20
211.1432315817027
 30
0.0
 70
    32
  0
VERTEX
  5
2719
330
26F7
100
AcDbEntity
  8
0
100
AcDbVertex
100
AcDb3dPolylineVertex
 10
567.2130461547416
 20
211.2632315817027
 30
0.0
 70
    32
  0
VERTEX
  5
271A
330
26F7
100
AcDbEntity
  8
0
100
AcDbVertex
100
AcDb3dPolylineVertex
 10
567.0330461547415
 20
211.3832315817028
 30
0.0
 70
    32
  0
VERTEX
  5
271B
330
26F7
100
AcDbEntity
  8
0
100
AcDbVertex
100
AcDb3dPolylineVertex
 10
566.8490461547413
 20
211.4932315817027
 30
0.0
 70
    32
  0
VERTEX
  5
271C
330
26F7
100
AcDbEntity
  8
0
100
AcDbVertex
100
AcDb3dPolylineVertex
 10
566.6610461547413
 20
211.6032315817028
 30
0.0
 70
    32
  0
VERTEX
  5
271D
330
26F7
100
AcDbEntity
  8
0
100
AcDbVertex
100
AcDb3dPolylineVertex
 10
566.4700461547413
 20
211.7132315817019
 30
0.0
 70
    32
  0
VERTEX
  5
271E
330
26F7
100
AcDbEntity
  8
0
100
AcDbVertex
100
AcDb3dPolylineVertex
 10
566.2740461547413
 20
211.8132315817025
 30
0.0
 70
    32
  0
VERTEX
  5
271F
330
26F7
100
AcDbEntity
  8
0
100
AcDbVertex
100
AcDb3dPolylineVertex
 10
566.0750461547413
 20
211.9132315817028
 30
0.0
 70
    32
  0
VERTEX
  5
2720
330
26F7
100
AcDbEntity
  8
0
100
AcDbVertex
100
AcDb3dPolylineVertex
 10
565.8730461547413
 20
212.0132315817027
 30
0.0
 70
    32
  0
VERTEX
  5
2721
330
26F7
100
AcDbEntity
  8
0
100
AcDbVertex
100
AcDb3dPolylineVertex
 10
565.6670461547413
 20
212.1132315817018
 30
0.0
 70
    32
  0
VERTEX
  5
2722
330
26F7
100
AcDbEntity
  8
0
100
AcDbVertex
100
AcDb3dPolylineVertex
 10
565.4580461547416
 20
212.2032315817027
 30
0.0
 70
    32
  0
VERTEX
  5
2723
330
26F7
100
AcDbEntity
  8
0
100
AcDbVertex
100
AcDb3dPolylineVertex
 10
565.2460461547414
 20
212.2832315817027
 30
0.0
 70
    32
  0
VERTEX
  5
2724
330
26F7
100
AcDbEntity
  8
0
100
AcDbVertex
100
AcDb3dPolylineVertex
 10
565.0310461547412
 20
212.3732315817028
 30
0.0
 70
    32
  0
VERTEX
  5
2725
330
26F7
100
AcDbEntity
  8
0
100
AcDbVertex
100
AcDb3dPolylineVertex
 10
564.8130461547415
 20
212.4532315817027
 30
0.0
 70
    32
  0
VERTEX
  5
2726
330
26F7
100
AcDbEntity
  8
0
100
AcDbVertex
100
AcDb3dPolylineVertex
 10
564.5930461547414
 20
212.5232315817027
 30
0.0
 70
    32
  0
VERTEX
  5
2727
330
26F7
100
AcDbEntity
  8
0
100
AcDbVertex
100
AcDb3dPolylineVertex
 10
564.3700461547413
 20
212.5932315817028
 30
0.0
 70
    32
  0
VERTEX
  5
2728
330
26F7
100
AcDbEntity
  8
0
100
AcDbVertex
100
AcDb3dPolylineVertex
 10
564.1440461547412
 20
212.6632315817027
 30
0.0
 70
    32
  0
VERTEX
  5
2729
330
26F7
100
AcDbEntity
  8
0
100
AcDbVertex
100
AcDb3dPolylineVertex
 10
563.9160461547412
 20
212.7332315817027
 30
0.0
 70
    32
  0
VERTEX
  5
272A
330
26F7
100
AcDbEntity
  8
0
100
AcDbVertex
100
AcDb3dPolylineVertex
 10
563.6860461547413
 20
212.7932315817016
 30
0.0
 70
    32
  0
VERTEX
  5
272B
330
26F7
100
AcDbEntity
  8
0
100
AcDbVertex
100
AcDb3dPolylineVertex
 10
563.4540461547413
 20
212.8432315817028
 30
0.0
 70
    32
  0
VERTEX
  5
272C
330
26F7
100
AcDbEntity
  8
0
100
AcDbVertex
100
AcDb3dPolylineVertex
 10
563.2200461547413
 20
212.8932315817027
 30
0.0
 70
    32
  0
VERTEX
  5
272D
330
26F7
100
AcDbEntity
  8
0
100
AcDbVertex
100
AcDb3dPolylineVertex
 10
562.9840461547415
 20
212.9432315817026
 30
0.0
 70
    32
  0
VERTEX
  5
272E
330
26F7
100
AcDbEntity
  8
0
100
AcDbVertex
100
AcDb3dPolylineVertex
 10
562.7470461547414
 20
212.9932315817026
 30
0.0
 70
    32
  0
VERTEX
  5
272F
330
26F7
100
AcDbEntity
  8
0
100
AcDbVertex
100
AcDb3dPolylineVertex
 10
562.5080461547415
 20
213.0332315817025
 30
0.0
 70
    32
  0
VERTEX
  5
2730
330
26F7
100
AcDbEntity
  8
0
100
AcDbVertex
100
AcDb3dPolylineVertex
 10
562.2680461547412
 20
213.0632315817025
 30
0.0
 70
    32
  0
VERTEX
  5
2731
330
26F7
100
AcDbEntity
  8
0
100
AcDbVertex
100
AcDb3dPolylineVertex
 10
562.0270461547415
 20
213.0932315817028
 30
0.0
 70
    32
  0
VERTEX
  5
2732
330
26F7
100
AcDbEntity
  8
0
100
AcDbVertex
100
AcDb3dPolylineVertex
 10
561.7850461547414
 20
213.1232315817028
 30
0.0
 70
    32
  0
VERTEX
  5
2733
330
26F7
100
AcDbEntity
  8
0
100
AcDbVertex
100
AcDb3dPolylineVertex
 10
561.5410461547416
 20
213.1432315817027
 30
0.0
 70
    32
  0
VERTEX
  5
2734
330
26F7
100
AcDbEntity
  8
0
100
AcDbVertex
100
AcDb3dPolylineVertex
 10
561.2970461547413
 20
213.1632315817028
 30
0.0
 70
    32
  0
VERTEX
  5
2735
330
26F7
100
AcDbEntity
  8
0
100
AcDbVertex
100
AcDb3dPolylineVertex
 10
561.0530461547414
 20
213.1832315817026
 30
0.0
 70
    32
  0
VERTEX
  5
2736
330
26F7
100
AcDbEntity
  8
0
100
AcDbVertex
100
AcDb3dPolylineVertex
 10
560.8080461547414
 20
213.193231581702
 30
0.0
 70
    32
  0
VERTEX
  5
2737
330
26F7
100
AcDbEntity
  8
0
100
AcDbVertex
100
AcDb3dPolylineVertex
 10
560.5630461547414
 20
213.193231581702
 30
0.0
 70
    32
  0
VERTEX
  5
2738
330
26F7
100
AcDbEntity
  8
0
100
AcDbVertex
100
AcDb3dPolylineVertex
 10
560.3170461547414
 20
213.2032315817027
 30
0.0
 70
    32
  0
VERTEX
  5
2739
330
26F7
100
AcDbEntity
  8
0
100
AcDbVertex
100
AcDb3dPolylineVertex
 10
560.0720461547414
 20
213.193231581702
 30
0.0
 70
    32
  0
VERTEX
  5
273A
330
26F7
100
AcDbEntity
  8
0
100
AcDbVertex
100
AcDb3dPolylineVertex
 10
559.8270461547413
 20
213.193231581702
 30
0.0
 70
    32
  0
VERTEX
  5
273B
330
26F7
100
AcDbEntity
  8
0
100
AcDbVertex
100
AcDb3dPolylineVertex
 10
559.5820461547414
 20
213.1832315817026
 30
0.0
 70
    32
  0
VERTEX
  5
273C
330
26F7
100
AcDbEntity
  8
0
100
AcDbVertex
100
AcDb3dPolylineVertex
 10
559.3370461547414
 20
213.1632315817028
 30
0.0
 70
    32
  0
VERTEX
  5
273D
330
26F7
100
AcDbEntity
  8
0
100
AcDbVertex
100
AcDb3dPolylineVertex
 10
559.0930461547412
 20
213.1432315817027
 30
0.0
 70
    32
  0
VERTEX
  5
273E
330
26F7
100
AcDbEntity
  8
0
100
AcDbVertex
100
AcDb3dPolylineVertex
 10
558.8500461547413
 20
213.1232315817028
 30
0.0
 70
    32
  0
VERTEX
  5
273F
330
26F7
100
AcDbEntity
  8
0
100
AcDbVertex
100
AcDb3dPolylineVertex
 10
558.6080461547412
 20
213.0932315817028
 30
0.0
 70
    32
  0
VERTEX
  5
2740
330
26F7
100
AcDbEntity
  8
0
100
AcDbVertex
100
AcDb3dPolylineVertex
 10
558.3660461547414
 20
213.0632315817025
 30
0.0
 70
    32
  0
VERTEX
  5
2741
330
26F7
100
AcDbEntity
  8
0
100
AcDbVertex
100
AcDb3dPolylineVertex
 10
558.1260461547413
 20
213.0332315817025
 30
0.0
 70
    32
  0
VERTEX
  5
2742
330
26F7
100
AcDbEntity
  8
0
100
AcDbVertex
100
AcDb3dPolylineVertex
 10
557.8880461547412
 20
212.9932315817026
 30
0.0
 70
    32
  0
VERTEX
  5
2743
330
26F7
100
AcDbEntity
  8
0
100
AcDbVertex
100
AcDb3dPolylineVertex
 10
557.6500461547412
 20
212.9432315817026
 30
0.0
 70
    32
  0
VERTEX
  5
2744
330
26F7
100
AcDbEntity
  8
0
100
AcDbVertex
100
AcDb3dPolylineVertex
 10
557.4140461547414
 20
212.8932315817027
 30
0.0
 70
    32
  0
VERTEX
  5
2745
330
26F7
100
AcDbEntity
  8
0
100
AcDbVertex
100
AcDb3dPolylineVertex
 10
557.1800461547412
 20
212.8432315817028
 30
0.0
 70
    32
  0
VERTEX
  5
2746
330
26F7
100
AcDbEntity
  8
0
100
AcDbVertex
100
AcDb3dPolylineVertex
 10
556.9480461547414
 20
212.7932315817016
 30
0.0
 70
    32
  0
VERTEX
  5
2747
330
26F7
100
AcDbEntity
  8
0
100
AcDbVertex
100
AcDb3dPolylineVertex
 10
556.7180461547414
 20
212.7332315817027
 30
0.0
 70
    32
  0
VERTEX
  5
2748
330
26F7
100
AcDbEntity
  8
0
100
AcDbVertex
100
AcDb3dPolylineVertex
 10
556.4900461547413
 20
212.6632315817027
 30
0.0
 70
    32
  0
VERTEX
  5
2749
330
26F7
100
AcDbEntity
  8
0
100
AcDbVertex
100
AcDb3dPolylineVertex
 10
556.2650461547414
 20
212.5932315817028
 30
0.0
 70
    32
  0
VERTEX
  5
274A
330
26F7
100
AcDbEntity
  8
0
100
AcDbVertex
100
AcDb3dPolylineVertex
 10
556.0420461547415
 20
212.5232315817027
 30
0.0
 70
    32
  0
VERTEX
  5
274B
330
26F7
100
AcDbEntity
  8
0
100
AcDbVertex
100
AcDb3dPolylineVertex
 10
555.8210461547413
 20
212.4532315817027
 30
0.0
 70
    32
  0
VERTEX
  5
274C
330
26F7
100
AcDbEntity
  8
0
100
AcDbVertex
100
AcDb3dPolylineVertex
 10
555.6030461547412
 20
212.3732315817028
 30
0.0
 70
    32
  0
VERTEX
  5
274D
330
26F7
100
AcDbEntity
  8
0
100
AcDbVertex
100
AcDb3dPolylineVertex
 10
555.3880461547412
 20
212.2832315817027
 30
0.0
 70
    32
  0
VERTEX
  5
274E
330
26F7
100
AcDbEntity
  8
0
100
AcDbVertex
100
AcDb3dPolylineVertex
 10
555.1760461547415
 20
212.2032315817027
 30
0.0
 70
    32
  0
VERTEX
  5
274F
330
26F7
100
AcDbEntity
  8
0
100
AcDbVertex
100
AcDb3dPolylineVertex
 10
554.9670461547414
 20
212.1132315817018
 30
0.0
 70
    32
  0
VERTEX
  5
2750
330
26F7
100
AcDbEntity
  8
0
100
AcDbVertex
100
AcDb3dPolylineVertex
 10
554.7620461547412
 20
212.0132315817027
 30
0.0
 70
    32
  0
VERTEX
  5
2751
330
26F7
100
AcDbEntity
  8
0
100
AcDbVertex
100
AcDb3dPolylineVertex
 10
554.5590461547414
 20
211.9132315817028
 30
0.0
 70
    32
  0
VERTEX
  5
2752
330
26F7
100
AcDbEntity
  8
0
100
AcDbVertex
100
AcDb3dPolylineVertex
 10
554.3600461547414
 20
211.8132315817025
 30
0.0
 70
    32
  0
VERTEX
  5
2753
330
26F7
100
AcDbEntity
  8
0
100
AcDbVertex
100
AcDb3dPolylineVertex
 10
554.1650461547414
 20
211.7132315817019
 30
0.0
 70
    32
  0
VERTEX
  5
2754
330
26F7
100
AcDbEntity
  8
0
100
AcDbVertex
100
AcDb3dPolylineVertex
 10
553.9730461547414
 20
211.6032315817028
 30
0.0
 70
    32
  0
VERTEX
  5
2755
330
26F7
100
AcDbEntity
  8
0
100
AcDbVertex
100
AcDb3dPolylineVertex
 10
553.7860461547411
 20
211.4932315817027
 30
0.0
 70
    32
  0
VERTEX
  5
2756
330
26F7
100
AcDbEntity
  8
0
100
AcDbVertex
100
AcDb3dPolylineVertex
 10
553.6020461547414
 20
211.3832315817028
 30
0.0
 70
    32
  0
VERTEX
  5
2757
330
26F7
100
AcDbEntity
  8
0
100
AcDbVertex
100
AcDb3dPolylineVertex
 10
553.4220461547413
 20
211.2632315817027
 30
0.0
 70
    32
  0
VERTEX
  5
2758
330
26F7
100
AcDbEntity
  8
0
100
AcDbVertex
100
AcDb3dPolylineVertex
 10
553.2460461547413
 20
211.1432315817027
 30
0.0
 70
    32
  0
VERTEX
  5
2759
330
26F7
100
AcDbEntity
  8
0
100
AcDbVertex
100
AcDb3dPolylineVertex
 10
553.0750461547413
 20
211.0232315817027
 30
0.0
 70
    32
  0
VERTEX
  5
275A
330
26F7
100
AcDbEntity
  8
0
100
AcDbVertex
100
AcDb3dPolylineVertex
 10
552.9080461547414
 20
210.8932315817004
 30
0.0
 70
    32
  0
VERTEX
  5
275B
330
26F7
100
AcDbEntity
  8
0
100
AcDbVertex
100
AcDb3dPolylineVertex
 10
552.7450461547413
 20
210.7632315817027
 30
0.0
 70
    32
  0
VERTEX
  5
275C
330
26F7
100
AcDbEntity
  8
0
100
AcDbVertex
100
AcDb3dPolylineVertex
 10
552.5870461547413
 20
210.6332315817028
 30
0.0
 70
    32
  0
VERTEX
  5
275D
330
26F7
100
AcDbEntity
  8
0
100
AcDbVertex
100
AcDb3dPolylineVertex
 10
552.4340461547414
 20
210.4932315817019
 30
0.0
 70
    32
  0
VERTEX
  5
275E
330
26F7
100
AcDbEntity
  8
0
100
AcDbVertex
100
AcDb3dPolylineVertex
 10
552.2850461547416
 20
210.3632315817027
 30
0.0
 70
    32
  0
VERTEX
  5
275F
330
26F7
100
AcDbEntity
  8
0
100
AcDbVertex
100
AcDb3dPolylineVertex
 10
552.1410461547413
 20
210.2232315817027
 30
0.0
 70
    32
  0
VERTEX
  5
2760
330
26F7
100
AcDbEntity
  8
0
100
AcDbVertex
100
AcDb3dPolylineVertex
 10
552.0030461547413
 20
210.0732315817016
 30
0.0
 70
    32
  0
VERTEX
  5
2761
330
26F7
100
AcDbEntity
  8
0
100
AcDbVertex
100
AcDb3dPolylineVertex
 10
551.8690461547413
 20
209.9332315817028
 30
0.0
 70
    32
  0
VERTEX
  5
2762
330
26F7
100
AcDbEntity
  8
0
100
AcDbVertex
100
AcDb3dPolylineVertex
 10
551.7400461547413
 20
209.7832315817027
 30
0.0
 70
    32
  0
VERTEX
  5
2763
330
26F7
100
AcDbEntity
  8
0
100
AcDbVertex
100
AcDb3dPolylineVertex
 10
551.6160461547412
 20
209.6332315817027
 30
0.0
 70
    32
  0
VERTEX
  5
2764
330
26F7
100
AcDbEntity
  8
0
100
AcDbVertex
100
AcDb3dPolylineVertex
 10
551.4980461547414
 20
209.4832315817027
 30
0.0
 70
    32
  0
VERTEX
  5
2765
330
26F7
100
AcDbEntity
  8
0
100
AcDbVertex
100
AcDb3dPolylineVertex
 10
551.3850461547413
 20
209.3332315817025
 30
0.0
 70
    32
  0
VERTEX
  5
2766
330
26F7
100
AcDbEntity
  8
0
100
AcDbVertex
100
AcDb3dPolylineVertex
 10
551.2770461547415
 20
209.1732315817028
 30
0.0
 70
    32
  0
VERTEX
  5
2767
330
26F7
100
AcDbEntity
  8
0
100
AcDbVertex
100
AcDb3dPolylineVertex
 10
551.1750461547412
 20
209.0232315817027
 30
0.0
 70
    32
  0
VERTEX
  5
2768
330
26F7
100
AcDbEntity
  8
0
100
AcDbVertex
100
AcDb3dPolylineVertex
 10
551.0790461547412
 20
208.8632315817028
 30
0.0
 70
    32
  0
VERTEX
  5
2769
330
26F7
100
AcDbEntity
  8
0
100
AcDbVertex
100
AcDb3dPolylineVertex
 10
550.9870461547413
 20
208.7032315817027
 30
0.0
 70
    32
  0
VERTEX
  5
276A
330
26F7
100
AcDbEntity
  8
0
100
AcDbVertex
100
AcDb3dPolylineVertex
 10
550.9020461547414
 20
208.5432315817016
 30
0.0
 70
    32
  0
VERTEX
  5
276B
330
26F7
100
AcDbEntity
  8
0
100
AcDbVertex
100
AcDb3dPolylineVertex
 10
550.8220461547414
 20
208.3832315817028
 30
0.0
 70
    32
  0
VERTEX
  5
276C
330
26F7
100
AcDbEntity
  8
0
100
AcDbVertex
100
AcDb3dPolylineVertex
 10
550.7480461547413
 20
208.2132315817026
 30
0.0
 70
    32
  0
VERTEX
  5
276D
330
26F7
100
AcDbEntity
  8
0
100
AcDbVertex
100
AcDb3dPolylineVertex
 10
550.6800461547412
 20
208.0532315817017
 30
0.0
 70
    32
  0
VERTEX
  5
276E
330
26F7
100
AcDbEntity
  8
0
100
AcDbVertex
100
AcDb3dPolylineVertex
 10
550.6170461547411
 20
207.8832315817027
 30
0.0
 70
    32
  0
VERTEX
  5
276F
330
26F7
100
AcDbEntity
  8
0
100
AcDbVertex
100
AcDb3dPolylineVertex
 10
550.5600461547413
 20
207.7132315817026
 30
0.0
 70
    32
  0
VERTEX
  5
2770
330
26F7
100
AcDbEntity
  8
0
100
AcDbVertex
100
AcDb3dPolylineVertex
 10
550.5090461547414
 20
207.5432315817025
 30
0.0
 70
    32
  0
VERTEX
  5
2771
330
26F7
100
AcDbEntity
  8
0
100
AcDbVertex
100
AcDb3dPolylineVertex
 10
550.4650461547412
 20
207.3732315817028
 30
0.0
 70
    32
  0
VERTEX
  5
2772
330
26F7
100
AcDbEntity
  8
0
100
AcDbVertex
100
AcDb3dPolylineVertex
 10
550.4260461547413
 20
207.2032315817027
 30
0.0
 70
    32
  0
VERTEX
  5
2773
330
26F7
100
AcDbEntity
  8
0
100
AcDbVertex
100
AcDb3dPolylineVertex
 10
550.3930461547412
 20
207.0332315817025
 30
0.0
 70
    32
  0
VERTEX
  5
2774
330
26F7
100
AcDbEntity
  8
0
100
AcDbVertex
100
AcDb3dPolylineVertex
 10
550.3650461547413
 20
206.8632315817028
 30
0.0
 70
    32
  0
VERTEX
  5
2775
330
26F7
100
AcDbEntity
  8
0
100
AcDbVertex
100
AcDb3dPolylineVertex
 10
550.3440461547412
 20
206.6932315817026
 30
0.0
 70
    32
  0
VERTEX
  5
2776
330
26F7
100
AcDbEntity
  8
0
100
AcDbVertex
100
AcDb3dPolylineVertex
 10
550.3290461547412
 20
206.5232315817027
 30
0.0
 70
    32
  0
VERTEX
  5
2777
330
26F7
100
AcDbEntity
  8
0
100
AcDbVertex
100
AcDb3dPolylineVertex
 10
550.3200461547415
 20
206.3432315817028
 30
0.0
 70
    32
  0
VERTEX
  5
2778
330
26F7
100
AcDbEntity
  8
0
100
AcDbVertex
100
AcDb3dPolylineVertex
 10
550.3170461547414
 20
206.1732315817005
 30
0.0
 70
    32
  0
SEQEND
  5
2779
330
26F7
100
AcDbEntity
  8
0
  0
POLYLINE
  5
277A
330
2B25
100
AcDbEntity
  8
0
100
AcDb3dPolyline
 66
     1
 10
0.0
 20
0.0
 30
0.0
 70
     8
  0
VERTEX
  5
277B
330
277A
100
AcDbEntity
  8
0
100
AcDbVertex
100
AcDb3dPolylineVertex
 10
570.3170461547415
 20
210.7632315817027
 30
0.0
 70
    32
  0
VERTEX
  5
277C
330
277A
100
AcDbEntity
  8
0
100
AcDbVertex
100
AcDb3dPolylineVertex
 10
570.3140461547413
 20
210.9332315817026
 30
0.0
 70
    32
  0
VERTEX
  5
277D
330
277A
100
AcDbEntity
  8
0
100
AcDbVertex
100
AcDb3dPolylineVertex
 10
570.3050461547412
 20
211.1132315817028
 30
0.0
 70
    32
  0
VERTEX
  5
277E
330
277A
100
AcDbEntity
  8
0
100
AcDbVertex
100
AcDb3dPolylineVertex
 10
570.2900461547415
 20
211.2832315817017
 30
0.0
 70
    32
  0
VERTEX
  5
277F
330
277A
100
AcDbEntity
  8
0
100
AcDbVertex
100
AcDb3dPolylineVertex
 10
570.2690461547413
 20
211.4532315817027
 30
0.0
 70
    32
  0
VERTEX
  5
2780
330
277A
100
AcDbEntity
  8
0
100
AcDbVertex
100
AcDb3dPolylineVertex
 10
570.2420461547416
 20
211.6232315817028
 30
0.0
 70
    32
  0
VERTEX
  5
2781
330
277A
100
AcDbEntity
  8
0
100
AcDbVertex
100
AcDb3dPolylineVertex
 10
570.2090461547412
 20
211.7932315817025
 30
0.0
 70
    32
  0
VERTEX
  5
2782
330
277A
100
AcDbEntity
  8
0
100
AcDbVertex
100
AcDb3dPolylineVertex
 10
570.1700461547414
 20
211.9632315817026
 30
0.0
 70
    32
  0
VERTEX
  5
2783
330
277A
100
AcDbEntity
  8
0
100
AcDbVertex
100
AcDb3dPolylineVertex
 10
570.1250461547413
 20
212.1332315817013
 30
0.0
 70
    32
  0
VERTEX
  5
2784
330
277A
100
AcDbEntity
  8
0
100
AcDbVertex
100
AcDb3dPolylineVertex
 10
570.0740461547412
 20
212.3032315817017
 30
0.0
 70
    32
  0
VERTEX
  5
2785
330
277A
100
AcDbEntity
  8
0
100
AcDbVertex
100
AcDb3dPolylineVertex
 10
570.0180461547413
 20
212.4732315817019
 30
0.0
 70
    32
  0
VERTEX
  5
2786
330
277A
100
AcDbEntity
  8
0
100
AcDbVertex
100
AcDb3dPolylineVertex
 10
569.9550461547412
 20
212.6432315817027
 30
0.0
 70
    32
  0
VERTEX
  5
2787
330
277A
100
AcDbEntity
  8
0
100
AcDbVertex
100
AcDb3dPolylineVertex
 10
569.8870461547413
 20
212.8032315817017
 30
0.0
 70
    32
  0
VERTEX
  5
2788
330
277A
100
AcDbEntity
  8
0
100
AcDbVertex
100
AcDb3dPolylineVertex
 10
569.8130461547415
 20
212.9632315817027
 30
0.0
 70
    32
  0
VERTEX
  5
2789
330
277A
100
AcDbEntity
  8
0
100
AcDbVertex
100
AcDb3dPolylineVertex
 10
569.7330461547412
 20
213.1332315817028
 30
0.0
 70
    32
  0
VERTEX
  5
278A
330
277A
100
AcDbEntity
  8
0
100
AcDbVertex
100
AcDb3dPolylineVertex
 10
569.6470461547412
 20
213.2932315817027
 30
0.0
 70
    32
  0
VERTEX
  5
278B
330
277A
100
AcDbEntity
  8
0
100
AcDbVertex
100
AcDb3dPolylineVertex
 10
569.5560461547414
 20
213.4532315817027
 30
0.0
 70
    32
  0
VERTEX
  5
278C
330
277A
100
AcDbEntity
  8
0
100
AcDbVertex
100
AcDb3dPolylineVertex
 10
569.4590461547412
 20
213.6132315817028
 30
0.0
 70
    32
  0
VERTEX
  5
278D
330
277A
100
AcDbEntity
  8
0
100
AcDbVertex
100
AcDb3dPolylineVertex
 10
569.3570461547416
 20
213.7632315817027
 30
0.0
 70
    32
  0
VERTEX
  5
278E
330
277A
100
AcDbEntity
  8
0
100
AcDbVertex
100
AcDb3dPolylineVertex
 10
569.2500461547413
 20
213.9232315817027
 30
0.0
 70
    32
  0
VERTEX
  5
278F
330
277A
100
AcDbEntity
  8
0
100
AcDbVertex
100
AcDb3dPolylineVertex
 10
569.1370461547412
 20
214.0732315817025
 30
0.0
 70
    32
  0
VERTEX
  5
2790
330
277A
100
AcDbEntity
  8
0
100
AcDbVertex
100
AcDb3dPolylineVertex
 10
569.0180461547413
 20
214.2232315817027
 30
0.0
 70
    32
  0
VERTEX
  5
2791
330
277A
100
AcDbEntity
  8
0
100
AcDbVertex
100
AcDb3dPolylineVertex
 10
568.8950461547412
 20
214.3732315817028
 30
0.0
 70
    32
  0
VERTEX
  5
2792
330
277A
100
AcDbEntity
  8
0
100
AcDbVertex
100
AcDb3dPolylineVertex
 10
568.7660461547416
 20
214.5232315817027
 30
0.0
 70
    32
  0
VERTEX
  5
2793
330
277A
100
AcDbEntity
  8
0
100
AcDbVertex
100
AcDb3dPolylineVertex
 10
568.6320461547412
 20
214.6632315817027
 30
0.0
 70
    32
  0
VERTEX
  5
2794
330
277A
100
AcDbEntity
  8
0
100
AcDbVertex
100
AcDb3dPolylineVertex
 10
568.4930461547412
 20
214.8132315817025
 30
0.0
 70
    32
  0
VERTEX
  5
2795
330
277A
100
AcDbEntity
  8
0
100
AcDbVertex
100
AcDb3dPolylineVertex
 10
568.3490461547412
 20
214.9532315817027
 30
0.0
 70
    32
  0
VERTEX
  5
2796
330
277A
100
AcDbEntity
  8
0
100
AcDbVertex
100
AcDb3dPolylineVertex
 10
568.2010461547413
 20
215.0832315817017
 30
0.0
 70
    32
  0
VERTEX
  5
2797
330
277A
100
AcDbEntity
  8
0
100
AcDbVertex
100
AcDb3dPolylineVertex
 10
568.0470461547413
 20
215.2232315817026
 30
0.0
 70
    32
  0
VERTEX
  5
2798
330
277A
100
AcDbEntity
  8
0
100
AcDbVertex
100
AcDb3dPolylineVertex
 10
567.8890461547415
 20
215.3532315817027
 30
0.0
 70
    32
  0
VERTEX
  5
2799
330
277A
100
AcDbEntity
  8
0
100
AcDbVertex
100
AcDb3dPolylineVertex
 10
567.7270461547414
 20
215.4832315817027
 30
0.0
 70
    32
  0
VERTEX
  5
279A
330
277A
100
AcDbEntity
  8
0
100
AcDbVertex
100
AcDb3dPolylineVertex
 10
567.5600461547411
 20
215.6132315817028
 30
0.0
 70
    32
  0
VERTEX
  5
279B
330
277A
100
AcDbEntity
  8
0
100
AcDbVertex
100
AcDb3dPolylineVertex
 10
567.3880461547412
 20
215.7332315817027
 30
0.0
 70
    32
  0
VERTEX
  5
279C
330
277A
100
AcDbEntity
  8
0
100
AcDbVertex
100
AcDb3dPolylineVertex
 10
567.2130461547416
 20
215.8532315817028
 30
0.0
 70
    32
  0
VERTEX
  5
279D
330
277A
100
AcDbEntity
  8
0
100
AcDbVertex
100
AcDb3dPolylineVertex
 10
567.0330461547415
 20
215.9732315817027
 30
0.0
 70
    32
  0
VERTEX
  5
279E
330
277A
100
AcDbEntity
  8
0
100
AcDbVertex
100
AcDb3dPolylineVertex
 10
566.8490461547413
 20
216.0832315817025
 30
0.0
 70
    32
  0
VERTEX
  5
279F
330
277A
100
AcDbEntity
  8
0
100
AcDbVertex
100
AcDb3dPolylineVertex
 10
566.6610461547413
 20
216.1932315817026
 30
0.0
 70
    32
  0
VERTEX
  5
27A0
330
277A
100
AcDbEntity
  8
0
100
AcDbVertex
100
AcDb3dPolylineVertex
 10
566.4700461547413
 20
216.3032315817017
 30
0.0
 70
    32
  0
VERTEX
  5
27A1
330
277A
100
AcDbEntity
  8
0
100
AcDbVertex
100
AcDb3dPolylineVertex
 10
566.2740461547413
 20
216.4032315817014
 30
0.0
 70
    32
  0
VERTEX
  5
27A2
330
277A
100
AcDbEntity
  8
0
100
AcDbVertex
100
AcDb3dPolylineVertex
 10
566.0750461547413
 20
216.5032315817026
 30
0.0
 70
    32
  0
VERTEX
  5
27A3
330
277A
100
AcDbEntity
  8
0
100
AcDbVertex
100
AcDb3dPolylineVertex
 10
565.8730461547413
 20
216.6032315817028
 30
0.0
 70
    32
  0
VERTEX
  5
27A4
330
277A
100
AcDbEntity
  8
0
100
AcDbVertex
100
AcDb3dPolylineVertex
 10
565.6670461547413
 20
216.7032315817027
 30
0.0
 70
    32
  0
VERTEX
  5
27A5
330
277A
100
AcDbEntity
  8
0
100
AcDbVertex
100
AcDb3dPolylineVertex
 10
565.4580461547416
 20
216.7932315817025
 30
0.0
 70
    32
  0
VERTEX
  5
27A6
330
277A
100
AcDbEntity
  8
0
100
AcDbVertex
100
AcDb3dPolylineVertex
 10
565.2460461547414
 20
216.8732315817027
 30
0.0
 70
    32
  0
VERTEX
  5
27A7
330
277A
100
AcDbEntity
  8
0
100
AcDbVertex
100
AcDb3dPolylineVertex
 10
565.0310461547412
 20
216.9632315817027
 30
0.0
 70
    32
  0
VERTEX
  5
27A8
330
277A
100
AcDbEntity
  8
0
100
AcDbVertex
100
AcDb3dPolylineVertex
 10
564.8130461547415
 20
217.0432315817016
 30
0.0
 70
    32
  0
VERTEX
  5
27A9
330
277A
100
AcDbEntity
  8
0
100
AcDbVertex
100
AcDb3dPolylineVertex
 10
564.5930461547414
 20
217.1132315817028
 30
0.0
 70
    32
  0
VERTEX
  5
27AA
330
277A
100
AcDbEntity
  8
0
100
AcDbVertex
100
AcDb3dPolylineVertex
 10
564.3700461547413
 20
217.1832315817004
 30
0.0
 70
    32
  0
VERTEX
  5
27AB
330
277A
100
AcDbEntity
  8
0
100
AcDbVertex
100
AcDb3dPolylineVertex
 10
564.1440461547412
 20
217.2532315817027
 30
0.0
 70
    32
  0
VERTEX
  5
27AC
330
277A
100
AcDbEntity
  8
0
100
AcDbVertex
100
AcDb3dPolylineVertex
 10
563.9160461547412
 20
217.3232315817005
 30
0.0
 70
    32
  0
VERTEX
  5
27AD
330
277A
100
AcDbEntity
  8
0
100
AcDbVertex
100
AcDb3dPolylineVertex
 10
563.6860461547413
 20
217.3832315817028
 30
0.0
 70
    32
  0
VERTEX
  5
27AE
330
277A
100
AcDbEntity
  8
0
100
AcDbVertex
100
AcDb3dPolylineVertex
 10
563.4540461547413
 20
217.4332315817026
 30
0.0
 70
    32
  0
VERTEX
  5
27AF
330
277A
100
AcDbEntity
  8
0
100
AcDbVertex
100
AcDb3dPolylineVertex
 10
563.2200461547413
 20
217.4832315817019
 30
0.0
 70
    32
  0
VERTEX
  5
27B0
330
277A
100
AcDbEntity
  8
0
100
AcDbVertex
100
AcDb3dPolylineVertex
 10
562.9840461547415
 20
217.5332315817017
 30
0.0
 70
    32
  0
VERTEX
  5
27B1
330
277A
100
AcDbEntity
  8
0
100
AcDbVertex
100
AcDb3dPolylineVertex
 10
562.7470461547414
 20
217.5832315817025
 30
0.0
 70
    32
  0
VERTEX
  5
27B2
330
277A
100
AcDbEntity
  8
0
100
AcDbVertex
100
AcDb3dPolylineVertex
 10
562.5080461547415
 20
217.6232315817014
 30
0.0
 70
    32
  0
VERTEX
  5
27B3
330
277A
100
AcDbEntity
  8
0
100
AcDbVertex
100
AcDb3dPolylineVertex
 10
562.2680461547412
 20
217.6532315817027
 30
0.0
 70
    32
  0
VERTEX
  5
27B4
330
277A
100
AcDbEntity
  8
0
100
AcDbVertex
100
AcDb3dPolylineVertex
 10
562.0270461547415
 20
217.6832315817026
 30
0.0
 70
    32
  0
VERTEX
  5
27B5
330
277A
100
AcDbEntity
  8
0
100
AcDbVertex
100
AcDb3dPolylineVertex
 10
561.7850461547414
 20
217.7132315817027
 30
0.0
 70
    32
  0
VERTEX
  5
27B6
330
277A
100
AcDbEntity
  8
0
100
AcDbVertex
100
AcDb3dPolylineVertex
 10
561.5410461547416
 20
217.7332315817027
 30
0.0
 70
    32
  0
VERTEX
  5
27B7
330
277A
100
AcDbEntity
  8
0
100
AcDbVertex
100
AcDb3dPolylineVertex
 10
561.2970461547413
 20
217.7532315817026
 30
0.0
 70
    32
  0
VERTEX
  5
27B8
330
277A
100
AcDbEntity
  8
0
100
AcDbVertex
100
AcDb3dPolylineVertex
 10
561.0530461547414
 20
217.7732315817026
 30
0.0
 70
    32
  0
VERTEX
  5
27B9
330
277A
100
AcDbEntity
  8
0
100
AcDbVertex
100
AcDb3dPolylineVertex
 10
560.8080461547414
 20
217.7832315817027
 30
0.0
 70
    32
  0
VERTEX
  5
27BA
330
277A
100
AcDbEntity
  8
0
100
AcDbVertex
100
AcDb3dPolylineVertex
 10
560.5630461547414
 20
217.7832315817027
 30
0.0
 70
    32
  0
VERTEX
  5
27BB
330
277A
100
AcDbEntity
  8
0
100
AcDbVertex
100
AcDb3dPolylineVertex
 10
560.3170461547414
 20
217.7932315817016
 30
0.0
 70
    32
  0
VERTEX
  5
27BC
330
277A
100
AcDbEntity
  8
0
100
AcDbVertex
100
AcDb3dPolylineVertex
 10
560.0720461547414
 20
217.7832315817027
 30
0.0
 70
    32
  0
VERTEX
  5
27BD
330
277A
100
AcDbEntity
  8
0
100
AcDbVertex
100
AcDb3dPolylineVertex
 10
559.8270461547413
 20
217.7832315817027
 30
0.0
 70
    32
  0
VERTEX
  5
27BE
330
277A
100
AcDbEntity
  8
0
100
AcDbVertex
100
AcDb3dPolylineVertex
 10
559.5820461547414
 20
217.7732315817026
 30
0.0
 70
    32
  0
VERTEX
  5
27BF
330
277A
100
AcDbEntity
  8
0
100
AcDbVertex
100
AcDb3dPolylineVertex
 10
559.3370461547414
 20
217.7532315817026
 30
0.0
 70
    32
  0
VERTEX
  5
27C0
330
277A
100
AcDbEntity
  8
0
100
AcDbVertex
100
AcDb3dPolylineVertex
 10
559.0930461547412
 20
217.7332315817027
 30
0.0
 70
    32
  0
VERTEX
  5
27C1
330
277A
100
AcDbEntity
  8
0
100
AcDbVertex
100
AcDb3dPolylineVertex
 10
558.8500461547413
 20
217.7132315817027
 30
0.0
 70
    32
  0
VERTEX
  5
27C2
330
277A
100
AcDbEntity
  8
0
100
AcDbVertex
100
AcDb3dPolylineVertex
 10
558.6080461547412
 20
217.6832315817026
 30
0.0
 70
    32
  0
VERTEX
  5
27C3
330
277A
100
AcDbEntity
  8
0
100
AcDbVertex
100
AcDb3dPolylineVertex
 10
558.3660461547414
 20
217.6532315817027
 30
0.0
 70
    32
  0
VERTEX
  5
27C4
330
277A
100
AcDbEntity
  8
0
100
AcDbVertex
100
AcDb3dPolylineVertex
 10
558.1260461547413
 20
217.6232315817014
 30
0.0
 70
    32
  0
VERTEX
  5
27C5
330
277A
100
AcDbEntity
  8
0
100
AcDbVertex
100
AcDb3dPolylineVertex
 10
557.8880461547412
 20
217.5832315817025
 30
0.0
 70
    32
  0
VERTEX
  5
27C6
330
277A
100
AcDbEntity
  8
0
100
AcDbVertex
100
AcDb3dPolylineVertex
 10
557.6500461547412
 20
217.5332315817017
 30
0.0
 70
    32
  0
VERTEX
  5
27C7
330
277A
100
AcDbEntity
  8
0
100
AcDbVertex
100
AcDb3dPolylineVertex
 10
557.4140461547414
 20
217.4832315817019
 30
0.0
 70
    32
  0
VERTEX
  5
27C8
330
277A
100
AcDbEntity
  8
0
100
AcDbVertex
100
AcDb3dPolylineVertex
 10
557.1800461547412
 20
217.4332315817026
 30
0.0
 70
    32
  0
VERTEX
  5
27C9
330
277A
100
AcDbEntity
  8
0
100
AcDbVertex
100
AcDb3dPolylineVertex
 10
556.9480461547414
 20
217.3832315817028
 30
0.0
 70
    32
  0
VERTEX
  5
27CA
330
277A
100
AcDbEntity
  8
0
100
AcDbVertex
100
AcDb3dPolylineVertex
 10
556.7180461547414
 20
217.3232315817005
 30
0.0
 70
    32
  0
VERTEX
  5
27CB
330
277A
100
AcDbEntity
  8
0
100
AcDbVertex
100
AcDb3dPolylineVertex
 10
556.4900461547413
 20
217.2532315817027
 30
0.0
 70
    32
  0
VERTEX
  5
27CC
330
277A
100
AcDbEntity
  8
0
100
AcDbVertex
100
AcDb3dPolylineVertex
 10
556.2650461547414
 20
217.1832315817004
 30
0.0
 70
    32
  0
VERTEX
  5
27CD
330
277A
100
AcDbEntity
  8
0
100
AcDbVertex
100
AcDb3dPolylineVertex
 10
556.0420461547415
 20
217.1132315817028
 30
0.0
 70
    32
  0
VERTEX
  5
27CE
330
277A
100
AcDbEntity
  8
0
100
AcDbVertex
100
AcDb3dPolylineVertex
 10
555.8210461547413
 20
217.0432315817016
 30
0.0
 70
    32
  0
VERTEX
  5
27CF
330
277A
100
AcDbEntity
  8
0
100
AcDbVertex
100
AcDb3dPolylineVertex
 10
555.6030461547412
 20
216.9632315817027
 30
0.0
 70
    32
  0
VERTEX
  5
27D0
330
277A
100
AcDbEntity
  8
0
100
AcDbVertex
100
AcDb3dPolylineVertex
 10
555.3880461547412
 20
216.8732315817027
 30
0.0
 70
    32
  0
VERTEX
  5
27D1
330
277A
100
AcDbEntity
  8
0
100
AcDbVertex
100
AcDb3dPolylineVertex
 10
555.1760461547415
 20
216.7932315817025
 30
0.0
 70
    32
  0
VERTEX
  5
27D2
330
277A
100
AcDbEntity
  8
0
100
AcDbVertex
100
AcDb3dPolylineVertex
 10
554.9670461547414
 20
216.7032315817027
 30
0.0
 70
    32
  0
VERTEX
  5
27D3
330
277A
100
AcDbEntity
  8
0
100
AcDbVertex
100
AcDb3dPolylineVertex
 10
554.7620461547412
 20
216.6032315817028
 30
0.0
 70
    32
  0
VERTEX
  5
27D4
330
277A
100
AcDbEntity
  8
0
100
AcDbVertex
100
AcDb3dPolylineVertex
 10
554.5590461547414
 20
216.5032315817026
 30
0.0
 70
    32
  0
VERTEX
  5
27D5
330
277A
100
AcDbEntity
  8
0
100
AcDbVertex
100
AcDb3dPolylineVertex
 10
554.3600461547414
 20
216.4032315817014
 30
0.0
 70
    32
  0
VERTEX
  5
27D6
330
277A
100
AcDbEntity
  8
0
100
AcDbVertex
100
AcDb3dPolylineVertex
 10
554.1650461547414
 20
216.3032315817017
 30
0.0
 70
    32
  0
VERTEX
  5
27D7
330
277A
100
AcDbEntity
  8
0
100
AcDbVertex
100
AcDb3dPolylineVertex
 10
553.9730461547414
 20
216.1932315817026
 30
0.0
 70
    32
  0
VERTEX
  5
27D8
330
277A
100
AcDbEntity
  8
0
100
AcDbVertex
100
AcDb3dPolylineVertex
 10
553.7860461547411
 20
216.0832315817025
 30
0.0
 70
    32
  0
VERTEX
  5
27D9
330
277A
100
AcDbEntity
  8
0
100
AcDbVertex
100
AcDb3dPolylineVertex
 10
553.6020461547414
 20
215.9732315817027
 30
0.0
 70
    32
  0
VERTEX
  5
27DA
330
277A
100
AcDbEntity
  8
0
100
AcDbVertex
100
AcDb3dPolylineVertex
 10
553.4220461547413
 20
215.8532315817028
 30
0.0
 70
    32
  0
VERTEX
  5
27DB
330
277A
100
AcDbEntity
  8
0
100
AcDbVertex
100
AcDb3dPolylineVertex
 10
553.2460461547413
 20
215.7332315817027
 30
0.0
 70
    32
  0
VERTEX
  5
27DC
330
277A
100
AcDbEntity
  8
0
100
AcDbVertex
100
AcDb3dPolylineVertex
 10
553.0750461547413
 20
215.6132315817028
 30
0.0
 70
    32
  0
VERTEX
  5
27DD
330
277A
100
AcDbEntity
  8
0
100
AcDbVertex
100
AcDb3dPolylineVertex
 10
552.9080461547414
 20
215.4832315817027
 30
0.0
 70
    32
  0
VERTEX
  5
27DE
330
277A
100
AcDbEntity
  8
0
100
AcDbVertex
100
AcDb3dPolylineVertex
 10
552.7450461547413
 20
215.3532315817027
 30
0.0
 70
    32
  0
VERTEX
  5
27DF
330
277A
100
AcDbEntity
  8
0
100
AcDbVertex
100
AcDb3dPolylineVertex
 10
552.5870461547413
 20
215.2232315817026
 30
0.0
 70
    32
  0
VERTEX
  5
27E0
330
277A
100
AcDbEntity
  8
0
100
AcDbVertex
100
AcDb3dPolylineVertex
 10
552.4340461547414
 20
215.0832315817017
 30
0.0
 70
    32
  0
VERTEX
  5
27E1
330
277A
100
AcDbEntity
  8
0
100
AcDbVertex
100
AcDb3dPolylineVertex
 10
552.2850461547416
 20
214.9532315817027
 30
0.0
 70
    32
  0
VERTEX
  5
27E2
330
277A
100
AcDbEntity
  8
0
100
AcDbVertex
100
AcDb3dPolylineVertex
 10
552.1410461547413
 20
214.8132315817025
 30
0.0
 70
    32
  0
VERTEX
  5
27E3
330
277A
100
AcDbEntity
  8
0
100
AcDbVertex
100
AcDb3dPolylineVertex
 10
552.0030461547413
 20
214.6632315817027
 30
0.0
 70
    32
  0
VERTEX
  5
27E4
330
277A
100
AcDbEntity
  8
0
100
AcDbVertex
100
AcDb3dPolylineVertex
 10
551.8690461547413
 20
214.5232315817027
 30
0.0
 70
    32
  0
VERTEX
  5
27E5
330
277A
100
AcDbEntity
  8
0
100
AcDbVertex
100
AcDb3dPolylineVertex
 10
551.7400461547413
 20
214.3732315817028
 30
0.0
 70
    32
  0
VERTEX
  5
27E6
330
277A
100
AcDbEntity
  8
0
100
AcDbVertex
100
AcDb3dPolylineVertex
 10
551.6160461547412
 20
214.2232315817027
 30
0.0
 70
    32
  0
VERTEX
  5
27E7
330
277A
100
AcDbEntity
  8
0
100
AcDbVertex
100
AcDb3dPolylineVertex
 10
551.4980461547414
 20
214.0732315817025
 30
0.0
 70
    32
  0
VERTEX
  5
27E8
330
277A
100
AcDbEntity
  8
0
100
AcDbVertex
100
AcDb3dPolylineVertex
 10
551.3850461547413
 20
213.9232315817027
 30
0.0
 70
    32
  0
VERTEX
  5
27E9
330
277A
100
AcDbEntity
  8
0
100
AcDbVertex
100
AcDb3dPolylineVertex
 10
551.2770461547415
 20
213.7632315817027
 30
0.0
 70
    32
  0
VERTEX
  5
27EA
330
277A
100
AcDbEntity
  8
0
100
AcDbVertex
100
AcDb3dPolylineVertex
 10
551.1750461547412
 20
213.6132315817028
 30
0.0
 70
    32
  0
VERTEX
  5
27EB
330
277A
100
AcDbEntity
  8
0
100
AcDbVertex
100
AcDb3dPolylineVertex
 10
551.0790461547412
 20
213.4532315817027
 30
0.0
 70
    32
  0
VERTEX
  5
27EC
330
277A
100
AcDbEntity
  8
0
100
AcDbVertex
100
AcDb3dPolylineVertex
 10
550.9870461547413
 20
213.2932315817027
 30
0.0
 70
    32
  0
VERTEX
  5
27ED
330
277A
100
AcDbEntity
  8
0
100
AcDbVertex
100
AcDb3dPolylineVertex
 10
550.9020461547414
 20
213.1332315817028
 30
0.0
 70
    32
  0
VERTEX
  5
27EE
330
277A
100
AcDbEntity
  8
0
100
AcDbVertex
100
AcDb3dPolylineVertex
 10
550.8220461547414
 20
212.9632315817027
 30
0.0
 70
    32
  0
VERTEX
  5
27EF
330
277A
100
AcDbEntity
  8
0
100
AcDbVertex
100
AcDb3dPolylineVertex
 10
550.7480461547413
 20
212.8032315817017
 30
0.0
 70
    32
  0
VERTEX
  5
27F0
330
277A
100
AcDbEntity
  8
0
100
AcDbVertex
100
AcDb3dPolylineVertex
 10
550.6800461547412
 20
212.6432315817027
 30
0.0
 70
    32
  0
VERTEX
  5
27F1
330
277A
100
AcDbEntity
  8
0
100
AcDbVertex
100
AcDb3dPolylineVertex
 10
550.6170461547411
 20
212.4732315817019
 30
0.0
 70
    32
  0
VERTEX
  5
27F2
330
277A
100
AcDbEntity
  8
0
100
AcDbVertex
100
AcDb3dPolylineVertex
 10
550.5600461547413
 20
212.3032315817017
 30
0.0
 70
    32
  0
VERTEX
  5
27F3
330
277A
100
AcDbEntity
  8
0
100
AcDbVertex
100
AcDb3dPolylineVertex
 10
550.5090461547414
 20
212.1332315817013
 30
0.0
 70
    32
  0
VERTEX
  5
27F4
330
277A
100
AcDbEntity
  8
0
100
AcDbVertex
100
AcDb3dPolylineVertex
 10
550.4650461547412
 20
211.9632315817026
 30
0.0
 70
    32
  0
VERTEX
  5
27F5
330
277A
100
AcDbEntity
  8
0
100
AcDbVertex
100
AcDb3dPolylineVertex
 10
550.4260461547413
 20
211.7932315817025
 30
0.0
 70
    32
  0
VERTEX
  5
27F6
330
277A
100
AcDbEntity
  8
0
100
AcDbVertex
100
AcDb3dPolylineVertex
 10
550.3930461547412
 20
211.6232315817028
 30
0.0
 70
    32
  0
VERTEX
  5
27F7
330
277A
100
AcDbEntity
  8
0
100
AcDbVertex
100
AcDb3dPolylineVertex
 10
550.3650461547413
 20
211.4532315817027
 30
0.0
 70
    32
  0
VERTEX
  5
27F8
330
277A
100
AcDbEntity
  8
0
100
AcDbVertex
100
AcDb3dPolylineVertex
 10
550.3440461547412
 20
211.2832315817017
 30
0.0
 70
    32
  0
VERTEX
  5
27F9
330
277A
100
AcDbEntity
  8
0
100
AcDbVertex
100
AcDb3dPolylineVertex
 10
550.3290461547412
 20
211.1132315817028
 30
0.0
 70
    32
  0
VERTEX
  5
27FA
330
277A
100
AcDbEntity
  8
0
100
AcDbVertex
100
AcDb3dPolylineVertex
 10
550.3200461547415
 20
210.9332315817026
 30
0.0
 70
    32
  0
VERTEX
  5
27FB
330
277A
100
AcDbEntity
  8
0
100
AcDbVertex
100
AcDb3dPolylineVertex
 10
550.3170461547414
 20
210.7632315817027
 30
0.0
 70
    32
  0
SEQEND
  5
27FC
330
277A
100
AcDbEntity
  8
0
  0
ARC
  5
27FD
330
2B25
100
AcDbEntity
  8
0
100
AcDbCircle
 10
560.3173577578338
 20
112.8024345817027
 30
0.0
 40
60.0
100
AcDbArc
 50
75.52248800000223
 51
104.4775100000028
  0
LINE
  5
27FE
330
2B25
100
AcDbEntity
  8
0
100
AcDbLine
 10
577.5673577578336
 20
159.9632315817027
 30
0.0
 11
543.0673577578336
 21
159.9632315817027
 31
0.0
  0
LINE
  5
27FF
330
2B25
100
AcDbEntity
  8
0
100
AcDbLine
 10
577.5673577578336
 20
154.9632315817027
 30
0.0
 11
543.0673577578336
 21
154.9632315817027
 31
0.0
  0
LINE
  5
2800
330
2B25
100
AcDbEntity
  8
0
100
AcDbLine
 10
571.9668937578336
 20
149.4632315817026
 30
0.0
 11
548.6678217578336
 21
149.4632315817026
 31
0.0
  0
LINE
  5
2801
330
2B25
100
AcDbEntity
  8
0
100
AcDbLine
 10
550.3173577578336
 20
210.7647860557048
 30
0.0
 11
550.3173577578336
 21
159.9632315817027
 31
0.0
  0
ARC
  5
2802
330
2B25
100
AcDbEntity
  8
0
100
AcDbCircle
 10
548.3173577578336
 20
173.6300595817017
 30
0.0
 40
2.0
100
AcDbArc
 50
281.1599400000003
 51
0.0
  0
ARC
  5
2803
330
2B25
100
AcDbEntity
  8
0
100
AcDbCircle
 10
546.0673577578336
 20
167.9924485817027
 30
0.0
 40
3.0
100
AcDbArc
 50
104.4775100000028
 51
180.0000100000009
  0
LINE
  5
2804
330
2B25
100
AcDbEntity
  8
0
100
AcDbLine
 10
543.0673577578336
 20
167.9924485817027
 30
0.0
 11
543.0673577578336
 21
159.9632315817027
 31
0.0
  0
LINE
  5
2805
330
2B25
100
AcDbEntity
  8
0
100
AcDbLine
 10
548.6678217578336
 20
154.9632315817027
 30
0.0
 11
548.6678217578336
 21
149.4632315817026
 31
0.0
  0
LINE
  5
2806
330
2B25
100
AcDbEntity
  8
0
100
AcDbLine
 10
543.0673577578336
 20
159.9632315817027
 30
0.0
 11
543.0673577578336
 21
154.9632315817027
 31
0.0
  0
POLYLINE
  5
2807
330
2B25
100
AcDbEntity
  8
0
100
AcDb3dPolyline
 66
     1
 10
0.0
 20
0.0
 30
0.0
 70
     8
  0
VERTEX
  5
2808
330
2807
100
AcDbEntity
  8
0
100
AcDbVertex
100
AcDb3dPolylineVertex
 10
565.3170461547415
 20
203.6632315817028
 30
0.0
 70
    32
  0
VERTEX
  5
2809
330
2807
100
AcDbEntity
  8
0
100
AcDbVertex
100
AcDb3dPolylineVertex
 10
565.3160461547413
 20
203.733231581702
 30
0.0
 70
    32
  0
VERTEX
  5
280A
330
2807
100
AcDbEntity
  8
0
100
AcDbVertex
100
AcDb3dPolylineVertex
 10
565.3110461547412
 20
203.8032315817017
 30
0.0
 70
    32
  0
VERTEX
  5
280B
330
2807
100
AcDbEntity
  8
0
100
AcDbVertex
100
AcDb3dPolylineVertex
 10
565.3040461547414
 20
203.8732315817028
 30
0.0
 70
    32
  0
VERTEX
  5
280C
330
2807
100
AcDbEntity
  8
0
100
AcDbVertex
100
AcDb3dPolylineVertex
 10
565.2930461547415
 20
203.9432315817026
 30
0.0
 70
    32
  0
VERTEX
  5
280D
330
2807
100
AcDbEntity
  8
0
100
AcDbVertex
100
AcDb3dPolylineVertex
 10
565.2800461547416
 20
204.0132315817027
 30
0.0
 70
    32
  0
VERTEX
  5
280E
330
2807
100
AcDbEntity
  8
0
100
AcDbVertex
100
AcDb3dPolylineVertex
 10
565.2630461547412
 20
204.0832315817025
 30
0.0
 70
    32
  0
VERTEX
  5
280F
330
2807
100
AcDbEntity
  8
0
100
AcDbVertex
100
AcDb3dPolylineVertex
 10
565.2440461547413
 20
204.1532315817028
 30
0.0
 70
    32
  0
VERTEX
  5
2810
330
2807
100
AcDbEntity
  8
0
100
AcDbVertex
100
AcDb3dPolylineVertex
 10
565.2210461547415
 20
204.2232315817027
 30
0.0
 70
    32
  0
VERTEX
  5
2811
330
2807
100
AcDbEntity
  8
0
100
AcDbVertex
100
AcDb3dPolylineVertex
 10
565.1960461547413
 20
204.2932315817025
 30
0.0
 70
    32
  0
VERTEX
  5
2812
330
2807
100
AcDbEntity
  8
0
100
AcDbVertex
100
AcDb3dPolylineVertex
 10
565.1670461547415
 20
204.3632315817027
 30
0.0
 70
    32
  0
VERTEX
  5
2813
330
2807
100
AcDbEntity
  8
0
100
AcDbVertex
100
AcDb3dPolylineVertex
 10
565.1360461547414
 20
204.4332315817027
 30
0.0
 70
    32
  0
VERTEX
  5
2814
330
2807
100
AcDbEntity
  8
0
100
AcDbVertex
100
AcDb3dPolylineVertex
 10
565.1020461547414
 20
204.5032315817027
 30
0.0
 70
    32
  0
VERTEX
  5
2815
330
2807
100
AcDbEntity
  8
0
100
AcDbVertex
100
AcDb3dPolylineVertex
 10
565.0650461547416
 20
204.5632315817016
 30
0.0
 70
    32
  0
VERTEX
  5
2816
330
2807
100
AcDbEntity
  8
0
100
AcDbVertex
100
AcDb3dPolylineVertex
 10
565.0250461547414
 20
204.6332315817028
 30
0.0
 70
    32
  0
VERTEX
  5
2817
330
2807
100
AcDbEntity
  8
0
100
AcDbVertex
100
AcDb3dPolylineVertex
 10
564.9820461547416
 20
204.7032315817027
 30
0.0
 70
    32
  0
VERTEX
  5
2818
330
2807
100
AcDbEntity
  8
0
100
AcDbVertex
100
AcDb3dPolylineVertex
 10
564.9370461547415
 20
204.7632315817027
 30
0.0
 70
    32
  0
VERTEX
  5
2819
330
2807
100
AcDbEntity
  8
0
100
AcDbVertex
100
AcDb3dPolylineVertex
 10
564.8880461547412
 20
204.8332315817025
 30
0.0
 70
    32
  0
VERTEX
  5
281A
330
2807
100
AcDbEntity
  8
0
100
AcDbVertex
100
AcDb3dPolylineVertex
 10
564.8370461547415
 20
204.8932315817027
 30
0.0
 70
    32
  0
VERTEX
  5
281B
330
2807
100
AcDbEntity
  8
0
100
AcDbVertex
100
AcDb3dPolylineVertex
 10
564.7830461547415
 20
204.9632315817027
 30
0.0
 70
    32
  0
VERTEX
  5
281C
330
2807
100
AcDbEntity
  8
0
100
AcDbVertex
100
AcDb3dPolylineVertex
 10
564.7270461547414
 20
205.0232315817017
 30
0.0
 70
    32
  0
VERTEX
  5
281D
330
2807
100
AcDbEntity
  8
0
100
AcDbVertex
100
AcDb3dPolylineVertex
 10
564.6680461547415
 20
205.0832315817025
 30
0.0
 70
    32
  0
VERTEX
  5
281E
330
2807
100
AcDbEntity
  8
0
100
AcDbVertex
100
AcDb3dPolylineVertex
 10
564.6060461547413
 20
205.1432315817027
 30
0.0
 70
    32
  0
VERTEX
  5
281F
330
2807
100
AcDbEntity
  8
0
100
AcDbVertex
100
AcDb3dPolylineVertex
 10
564.5420461547415
 20
205.2032315817027
 30
0.0
 70
    32
  0
VERTEX
  5
2820
330
2807
100
AcDbEntity
  8
0
100
AcDbVertex
100
AcDb3dPolylineVertex
 10
564.4750461547413
 20
205.2632315817005
 30
0.0
 70
    32
  0
VERTEX
  5
2821
330
2807
100
AcDbEntity
  8
0
100
AcDbVertex
100
AcDb3dPolylineVertex
 10
564.4050461547414
 20
205.3232315817025
 30
0.0
 70
    32
  0
VERTEX
  5
2822
330
2807
100
AcDbEntity
  8
0
100
AcDbVertex
100
AcDb3dPolylineVertex
 10
564.3330461547416
 20
205.3832315817027
 30
0.0
 70
    32
  0
VERTEX
  5
2823
330
2807
100
AcDbEntity
  8
0
100
AcDbVertex
100
AcDb3dPolylineVertex
 10
564.2590461547415
 20
205.4332315817027
 30
0.0
 70
    32
  0
VERTEX
  5
2824
330
2807
100
AcDbEntity
  8
0
100
AcDbVertex
100
AcDb3dPolylineVertex
 10
564.1820461547415
 20
205.4932315817027
 30
0.0
 70
    32
  0
VERTEX
  5
2825
330
2807
100
AcDbEntity
  8
0
100
AcDbVertex
100
AcDb3dPolylineVertex
 10
564.1030461547412
 20
205.5432315817025
 30
0.0
 70
    32
  0
VERTEX
  5
2826
330
2807
100
AcDbEntity
  8
0
100
AcDbVertex
100
AcDb3dPolylineVertex
 10
564.0220461547413
 20
205.6032315817028
 30
0.0
 70
    32
  0
VERTEX
  5
2827
330
2807
100
AcDbEntity
  8
0
100
AcDbVertex
100
AcDb3dPolylineVertex
 10
563.9390461547415
 20
205.6532315817028
 30
0.0
 70
    32
  0
VERTEX
  5
2828
330
2807
100
AcDbEntity
  8
0
100
AcDbVertex
100
AcDb3dPolylineVertex
 10
563.8530461547412
 20
205.7032315817027
 30
0.0
 70
    32
  0
VERTEX
  5
2829
330
2807
100
AcDbEntity
  8
0
100
AcDbVertex
100
AcDb3dPolylineVertex
 10
563.7650461547415
 20
205.753231581702
 30
0.0
 70
    32
  0
VERTEX
  5
282A
330
2807
100
AcDbEntity
  8
0
100
AcDbVertex
100
AcDb3dPolylineVertex
 10
563.6750461547412
 20
205.8032315817017
 30
0.0
 70
    32
  0
VERTEX
  5
282B
330
2807
100
AcDbEntity
  8
0
100
AcDbVertex
100
AcDb3dPolylineVertex
 10
563.5830461547413
 20
205.8432315817028
 30
0.0
 70
    32
  0
VERTEX
  5
282C
330
2807
100
AcDbEntity
  8
0
100
AcDbVertex
100
AcDb3dPolylineVertex
 10
563.4890461547412
 20
205.8932315817013
 30
0.0
 70
    32
  0
VERTEX
  5
282D
330
2807
100
AcDbEntity
  8
0
100
AcDbVertex
100
AcDb3dPolylineVertex
 10
563.3930461547413
 20
205.9332315817028
 30
0.0
 70
    32
  0
VERTEX
  5
282E
330
2807
100
AcDbEntity
  8
0
100
AcDbVertex
100
AcDb3dPolylineVertex
 10
563.2960461547416
 20
205.9832315817027
 30
0.0
 70
    32
  0
VERTEX
  5
282F
330
2807
100
AcDbEntity
  8
0
100
AcDbVertex
100
AcDb3dPolylineVertex
 10
563.1960461547415
 20
206.0232315817027
 30
0.0
 70
    32
  0
VERTEX
  5
2830
330
2807
100
AcDbEntity
  8
0
100
AcDbVertex
100
AcDb3dPolylineVertex
 10
563.0950461547413
 20
206.0632315817017
 30
0.0
 70
    32
  0
VERTEX
  5
2831
330
2807
100
AcDbEntity
  8
0
100
AcDbVertex
100
AcDb3dPolylineVertex
 10
562.9920461547412
 20
206.1032315817028
 30
0.0
 70
    32
  0
VERTEX
  5
2832
330
2807
100
AcDbEntity
  8
0
100
AcDbVertex
100
AcDb3dPolylineVertex
 10
562.8880461547415
 20
206.1332315817028
 30
0.0
 70
    32
  0
VERTEX
  5
2833
330
2807
100
AcDbEntity
  8
0
100
AcDbVertex
100
AcDb3dPolylineVertex
 10
562.7820461547412
 20
206.1732315817005
 30
0.0
 70
    32
  0
VERTEX
  5
2834
330
2807
100
AcDbEntity
  8
0
100
AcDbVertex
100
AcDb3dPolylineVertex
 10
562.6740461547414
 20
206.2032315817019
 30
0.0
 70
    32
  0
VERTEX
  5
2835
330
2807
100
AcDbEntity
  8
0
100
AcDbVertex
100
AcDb3dPolylineVertex
 10
562.5650461547412
 20
206.2432315817027
 30
0.0
 70
    32
  0
VERTEX
  5
2836
330
2807
100
AcDbEntity
  8
0
100
AcDbVertex
100
AcDb3dPolylineVertex
 10
562.4550461547413
 20
206.2732315817027
 30
0.0
 70
    32
  0
VERTEX
  5
2837
330
2807
100
AcDbEntity
  8
0
100
AcDbVertex
100
AcDb3dPolylineVertex
 10
562.3440461547412
 20
206.3032315817025
 30
0.0
 70
    32
  0
VERTEX
  5
2838
330
2807
100
AcDbEntity
  8
0
100
AcDbVertex
100
AcDb3dPolylineVertex
 10
562.2310461547414
 20
206.3332315817025
 30
0.0
 70
    32
  0
VERTEX
  5
2839
330
2807
100
AcDbEntity
  8
0
100
AcDbVertex
100
AcDb3dPolylineVertex
 10
562.1170461547412
 20
206.3532315817028
 30
0.0
 70
    32
  0
VERTEX
  5
283A
330
2807
100
AcDbEntity
  8
0
100
AcDbVertex
100
AcDb3dPolylineVertex
 10
562.0020461547412
 20
206.3832315817028
 30
0.0
 70
    32
  0
VERTEX
  5
283B
330
2807
100
AcDbEntity
  8
0
100
AcDbVertex
100
AcDb3dPolylineVertex
 10
561.8860461547416
 20
206.4032315817028
 30
0.0
 70
    32
  0
VERTEX
  5
283C
330
2807
100
AcDbEntity
  8
0
100
AcDbVertex
100
AcDb3dPolylineVertex
 10
561.7690461547413
 20
206.4232315817028
 30
0.0
 70
    32
  0
VERTEX
  5
283D
330
2807
100
AcDbEntity
  8
0
100
AcDbVertex
100
AcDb3dPolylineVertex
 10
561.6510461547412
 20
206.4432315817026
 30
0.0
 70
    32
  0
VERTEX
  5
283E
330
2807
100
AcDbEntity
  8
0
100
AcDbVertex
100
AcDb3dPolylineVertex
 10
561.5320461547415
 20
206.4632315817027
 30
0.0
 70
    32
  0
VERTEX
  5
283F
330
2807
100
AcDbEntity
  8
0
100
AcDbVertex
100
AcDb3dPolylineVertex
 10
561.4130461547414
 20
206.483231581702
 30
0.0
 70
    32
  0
VERTEX
  5
2840
330
2807
100
AcDbEntity
  8
0
100
AcDbVertex
100
AcDb3dPolylineVertex
 10
561.2930461547414
 20
206.4932315817026
 30
0.0
 70
    32
  0
VERTEX
  5
2841
330
2807
100
AcDbEntity
  8
0
100
AcDbVertex
100
AcDb3dPolylineVertex
 10
561.1720461547413
 20
206.503231581702
 30
0.0
 70
    32
  0
VERTEX
  5
2842
330
2807
100
AcDbEntity
  8
0
100
AcDbVertex
100
AcDb3dPolylineVertex
 10
561.0510461547415
 20
206.5132315817018
 30
0.0
 70
    32
  0
VERTEX
  5
2843
330
2807
100
AcDbEntity
  8
0
100
AcDbVertex
100
AcDb3dPolylineVertex
 10
560.9290461547415
 20
206.5232315817027
 30
0.0
 70
    32
  0
VERTEX
  5
2844
330
2807
100
AcDbEntity
  8
0
100
AcDbVertex
100
AcDb3dPolylineVertex
 10
560.8070461547414
 20
206.5332315817018
 30
0.0
 70
    32
  0
VERTEX
  5
2845
330
2807
100
AcDbEntity
  8
0
100
AcDbVertex
100
AcDb3dPolylineVertex
 10
560.6850461547411
 20
206.5432315817025
 30
0.0
 70
    32
  0
VERTEX
  5
2846
330
2807
100
AcDbEntity
  8
0
100
AcDbVertex
100
AcDb3dPolylineVertex
 10
560.5630461547414
 20
206.5432315817025
 30
0.0
 70
    32
  0
VERTEX
  5
2847
330
2807
100
AcDbEntity
  8
0
100
AcDbVertex
100
AcDb3dPolylineVertex
 10
560.4400461547412
 20
206.5432315817025
 30
0.0
 70
    32
  0
VERTEX
  5
2848
330
2807
100
AcDbEntity
  8
0
100
AcDbVertex
100
AcDb3dPolylineVertex
 10
560.3170461547414
 20
206.5532315817017
 30
0.0
 70
    32
  0
VERTEX
  5
2849
330
2807
100
AcDbEntity
  8
0
100
AcDbVertex
100
AcDb3dPolylineVertex
 10
560.1950461547412
 20
206.5432315817025
 30
0.0
 70
    32
  0
VERTEX
  5
284A
330
2807
100
AcDbEntity
  8
0
100
AcDbVertex
100
AcDb3dPolylineVertex
 10
560.0720461547414
 20
206.5432315817025
 30
0.0
 70
    32
  0
VERTEX
  5
284B
330
2807
100
AcDbEntity
  8
0
100
AcDbVertex
100
AcDb3dPolylineVertex
 10
559.9490461547413
 20
206.5432315817025
 30
0.0
 70
    32
  0
VERTEX
  5
284C
330
2807
100
AcDbEntity
  8
0
100
AcDbVertex
100
AcDb3dPolylineVertex
 10
559.8270461547413
 20
206.5332315817018
 30
0.0
 70
    32
  0
VERTEX
  5
284D
330
2807
100
AcDbEntity
  8
0
100
AcDbVertex
100
AcDb3dPolylineVertex
 10
559.7050461547413
 20
206.5232315817027
 30
0.0
 70
    32
  0
VERTEX
  5
284E
330
2807
100
AcDbEntity
  8
0
100
AcDbVertex
100
AcDb3dPolylineVertex
 10
559.5840461547412
 20
206.5132315817018
 30
0.0
 70
    32
  0
VERTEX
  5
284F
330
2807
100
AcDbEntity
  8
0
100
AcDbVertex
100
AcDb3dPolylineVertex
 10
559.4630461547414
 20
206.503231581702
 30
0.0
 70
    32
  0
VERTEX
  5
2850
330
2807
100
AcDbEntity
  8
0
100
AcDbVertex
100
AcDb3dPolylineVertex
 10
559.3420461547414
 20
206.4932315817026
 30
0.0
 70
    32
  0
VERTEX
  5
2851
330
2807
100
AcDbEntity
  8
0
100
AcDbVertex
100
AcDb3dPolylineVertex
 10
559.2220461547412
 20
206.483231581702
 30
0.0
 70
    32
  0
VERTEX
  5
2852
330
2807
100
AcDbEntity
  8
0
100
AcDbVertex
100
AcDb3dPolylineVertex
 10
559.1020461547413
 20
206.4632315817027
 30
0.0
 70
    32
  0
VERTEX
  5
2853
330
2807
100
AcDbEntity
  8
0
100
AcDbVertex
100
AcDb3dPolylineVertex
 10
558.9840461547415
 20
206.4432315817026
 30
0.0
 70
    32
  0
VERTEX
  5
2854
330
2807
100
AcDbEntity
  8
0
100
AcDbVertex
100
AcDb3dPolylineVertex
 10
558.8660461547414
 20
206.4232315817028
 30
0.0
 70
    32
  0
VERTEX
  5
2855
330
2807
100
AcDbEntity
  8
0
100
AcDbVertex
100
AcDb3dPolylineVertex
 10
558.7490461547413
 20
206.4032315817028
 30
0.0
 70
    32
  0
VERTEX
  5
2856
330
2807
100
AcDbEntity
  8
0
100
AcDbVertex
100
AcDb3dPolylineVertex
 10
558.6330461547412
 20
206.3832315817028
 30
0.0
 70
    32
  0
VERTEX
  5
2857
330
2807
100
AcDbEntity
  8
0
100
AcDbVertex
100
AcDb3dPolylineVertex
 10
558.5180461547412
 20
206.3532315817028
 30
0.0
 70
    32
  0
VERTEX
  5
2858
330
2807
100
AcDbEntity
  8
0
100
AcDbVertex
100
AcDb3dPolylineVertex
 10
558.4040461547414
 20
206.3332315817025
 30
0.0
 70
    32
  0
VERTEX
  5
2859
330
2807
100
AcDbEntity
  8
0
100
AcDbVertex
100
AcDb3dPolylineVertex
 10
558.2910461547412
 20
206.3032315817025
 30
0.0
 70
    32
  0
VERTEX
  5
285A
330
2807
100
AcDbEntity
  8
0
100
AcDbVertex
100
AcDb3dPolylineVertex
 10
558.1800461547413
 20
206.2732315817027
 30
0.0
 70
    32
  0
VERTEX
  5
285B
330
2807
100
AcDbEntity
  8
0
100
AcDbVertex
100
AcDb3dPolylineVertex
 10
558.0690461547414
 20
206.2432315817027
 30
0.0
 70
    32
  0
VERTEX
  5
285C
330
2807
100
AcDbEntity
  8
0
100
AcDbVertex
100
AcDb3dPolylineVertex
 10
557.9600461547412
 20
206.2032315817019
 30
0.0
 70
    32
  0
VERTEX
  5
285D
330
2807
100
AcDbEntity
  8
0
100
AcDbVertex
100
AcDb3dPolylineVertex
 10
557.8530461547412
 20
206.1732315817005
 30
0.0
 70
    32
  0
VERTEX
  5
285E
330
2807
100
AcDbEntity
  8
0
100
AcDbVertex
100
AcDb3dPolylineVertex
 10
557.7470461547411
 20
206.1332315817028
 30
0.0
 70
    32
  0
VERTEX
  5
285F
330
2807
100
AcDbEntity
  8
0
100
AcDbVertex
100
AcDb3dPolylineVertex
 10
557.6420461547415
 20
206.1032315817028
 30
0.0
 70
    32
  0
VERTEX
  5
2860
330
2807
100
AcDbEntity
  8
0
100
AcDbVertex
100
AcDb3dPolylineVertex
 10
557.5390461547414
 20
206.0632315817017
 30
0.0
 70
    32
  0
VERTEX
  5
2861
330
2807
100
AcDbEntity
  8
0
100
AcDbVertex
100
AcDb3dPolylineVertex
 10
557.4380461547414
 20
206.0232315817027
 30
0.0
 70
    32
  0
VERTEX
  5
2862
330
2807
100
AcDbEntity
  8
0
100
AcDbVertex
100
AcDb3dPolylineVertex
 10
557.3390461547412
 20
205.9832315817027
 30
0.0
 70
    32
  0
VERTEX
  5
2863
330
2807
100
AcDbEntity
  8
0
100
AcDbVertex
100
AcDb3dPolylineVertex
 10
557.2410461547414
 20
205.9332315817028
 30
0.0
 70
    32
  0
VERTEX
  5
2864
330
2807
100
AcDbEntity
  8
0
100
AcDbVertex
100
AcDb3dPolylineVertex
 10
557.1450461547414
 20
205.8932315817013
 30
0.0
 70
    32
  0
VERTEX
  5
2865
330
2807
100
AcDbEntity
  8
0
100
AcDbVertex
100
AcDb3dPolylineVertex
 10
557.0510461547415
 20
205.8432315817028
 30
0.0
 70
    32
  0
VERTEX
  5
2866
330
2807
100
AcDbEntity
  8
0
100
AcDbVertex
100
AcDb3dPolylineVertex
 10
556.9600461547412
 20
205.8032315817017
 30
0.0
 70
    32
  0
VERTEX
  5
2867
330
2807
100
AcDbEntity
  8
0
100
AcDbVertex
100
AcDb3dPolylineVertex
 10
556.8700461547413
 20
205.753231581702
 30
0.0
 70
    32
  0
VERTEX
  5
2868
330
2807
100
AcDbEntity
  8
0
100
AcDbVertex
100
AcDb3dPolylineVertex
 10
556.7820461547412
 20
205.7032315817027
 30
0.0
 70
    32
  0
VERTEX
  5
2869
330
2807
100
AcDbEntity
  8
0
100
AcDbVertex
100
AcDb3dPolylineVertex
 10
556.6960461547413
 20
205.6532315817028
 30
0.0
 70
    32
  0
VERTEX
  5
286A
330
2807
100
AcDbEntity
  8
0
100
AcDbVertex
100
AcDb3dPolylineVertex
 10
556.6130461547412
 20
205.6032315817028
 30
0.0
 70
    32
  0
VERTEX
  5
286B
330
2807
100
AcDbEntity
  8
0
100
AcDbVertex
100
AcDb3dPolylineVertex
 10
556.5310461547412
 20
205.5432315817025
 30
0.0
 70
    32
  0
VERTEX
  5
286C
330
2807
100
AcDbEntity
  8
0
100
AcDbVertex
100
AcDb3dPolylineVertex
 10
556.4520461547414
 20
205.4932315817027
 30
0.0
 70
    32
  0
VERTEX
  5
286D
330
2807
100
AcDbEntity
  8
0
100
AcDbVertex
100
AcDb3dPolylineVertex
 10
556.3760461547412
 20
205.4332315817027
 30
0.0
 70
    32
  0
VERTEX
  5
286E
330
2807
100
AcDbEntity
  8
0
100
AcDbVertex
100
AcDb3dPolylineVertex
 10
556.3010461547413
 20
205.3832315817027
 30
0.0
 70
    32
  0
VERTEX
  5
286F
330
2807
100
AcDbEntity
  8
0
100
AcDbVertex
100
AcDb3dPolylineVertex
 10
556.2290461547413
 20
205.3232315817025
 30
0.0
 70
    32
  0
VERTEX
  5
2870
330
2807
100
AcDbEntity
  8
0
100
AcDbVertex
100
AcDb3dPolylineVertex
 10
556.1600461547413
 20
205.2632315817005
 30
0.0
 70
    32
  0
VERTEX
  5
2871
330
2807
100
AcDbEntity
  8
0
100
AcDbVertex
100
AcDb3dPolylineVertex
 10
556.0930461547411
 20
205.2032315817027
 30
0.0
 70
    32
  0
VERTEX
  5
2872
330
2807
100
AcDbEntity
  8
0
100
AcDbVertex
100
AcDb3dPolylineVertex
 10
556.0290461547414
 20
205.1432315817027
 30
0.0
 70
    32
  0
VERTEX
  5
2873
330
2807
100
AcDbEntity
  8
0
100
AcDbVertex
100
AcDb3dPolylineVertex
 10
555.9670461547414
 20
205.0832315817025
 30
0.0
 70
    32
  0
VERTEX
  5
2874
330
2807
100
AcDbEntity
  8
0
100
AcDbVertex
100
AcDb3dPolylineVertex
 10
555.9080461547416
 20
205.0232315817017
 30
0.0
 70
    32
  0
VERTEX
  5
2875
330
2807
100
AcDbEntity
  8
0
100
AcDbVertex
100
AcDb3dPolylineVertex
 10
555.8510461547414
 20
204.9632315817027
 30
0.0
 70
    32
  0
VERTEX
  5
2876
330
2807
100
AcDbEntity
  8
0
100
AcDbVertex
100
AcDb3dPolylineVertex
 10
555.7970461547413
 20
204.8932315817027
 30
0.0
 70
    32
  0
VERTEX
  5
2877
330
2807
100
AcDbEntity
  8
0
100
AcDbVertex
100
AcDb3dPolylineVertex
 10
555.7460461547414
 20
204.8332315817025
 30
0.0
 70
    32
  0
VERTEX
  5
2878
330
2807
100
AcDbEntity
  8
0
100
AcDbVertex
100
AcDb3dPolylineVertex
 10
555.6980461547412
 20
204.7632315817027
 30
0.0
 70
    32
  0
VERTEX
  5
2879
330
2807
100
AcDbEntity
  8
0
100
AcDbVertex
100
AcDb3dPolylineVertex
 10
555.6520461547413
 20
204.7032315817027
 30
0.0
 70
    32
  0
VERTEX
  5
287A
330
2807
100
AcDbEntity
  8
0
100
AcDbVertex
100
AcDb3dPolylineVertex
 10
555.6100461547414
 20
204.6332315817028
 30
0.0
 70
    32
  0
VERTEX
  5
287B
330
2807
100
AcDbEntity
  8
0
100
AcDbVertex
100
AcDb3dPolylineVertex
 10
555.5700461547416
 20
204.5632315817016
 30
0.0
 70
    32
  0
VERTEX
  5
287C
330
2807
100
AcDbEntity
  8
0
100
AcDbVertex
100
AcDb3dPolylineVertex
 10
555.5330461547414
 20
204.5032315817027
 30
0.0
 70
    32
  0
VERTEX
  5
287D
330
2807
100
AcDbEntity
  8
0
100
AcDbVertex
100
AcDb3dPolylineVertex
 10
555.4980461547414
 20
204.4332315817027
 30
0.0
 70
    32
  0
VERTEX
  5
287E
330
2807
100
AcDbEntity
  8
0
100
AcDbVertex
100
AcDb3dPolylineVertex
 10
555.4670461547414
 20
204.3632315817027
 30
0.0
 70
    32
  0
VERTEX
  5
287F
330
2807
100
AcDbEntity
  8
0
100
AcDbVertex
100
AcDb3dPolylineVertex
 10
555.4390461547416
 20
204.2932315817025
 30
0.0
 70
    32
  0
VERTEX
  5
2880
330
2807
100
AcDbEntity
  8
0
100
AcDbVertex
100
AcDb3dPolylineVertex
 10
555.4130461547414
 20
204.2232315817027
 30
0.0
 70
    32
  0
VERTEX
  5
2881
330
2807
100
AcDbEntity
  8
0
100
AcDbVertex
100
AcDb3dPolylineVertex
 10
555.3910461547416
 20
204.1532315817028
 30
0.0
 70
    32
  0
VERTEX
  5
2882
330
2807
100
AcDbEntity
  8
0
100
AcDbVertex
100
AcDb3dPolylineVertex
 10
555.3710461547414
 20
204.0832315817025
 30
0.0
 70
    32
  0
VERTEX
  5
2883
330
2807
100
AcDbEntity
  8
0
100
AcDbVertex
100
AcDb3dPolylineVertex
 10
555.3550461547413
 20
204.0132315817027
 30
0.0
 70
    32
  0
VERTEX
  5
2884
330
2807
100
AcDbEntity
  8
0
100
AcDbVertex
100
AcDb3dPolylineVertex
 10
555.3410461547414
 20
203.9432315817026
 30
0.0
 70
    32
  0
VERTEX
  5
2885
330
2807
100
AcDbEntity
  8
0
100
AcDbVertex
100
AcDb3dPolylineVertex
 10
555.3310461547416
 20
203.8732315817028
 30
0.0
 70
    32
  0
VERTEX
  5
2886
330
2807
100
AcDbEntity
  8
0
100
AcDbVertex
100
AcDb3dPolylineVertex
 10
555.3230461547412
 20
203.8032315817017
 30
0.0
 70
    32
  0
VERTEX
  5
2887
330
2807
100
AcDbEntity
  8
0
100
AcDbVertex
100
AcDb3dPolylineVertex
 10
555.3190461547414
 20
203.733231581702
 30
0.0
 70
    32
  0
VERTEX
  5
2888
330
2807
100
AcDbEntity
  8
0
100
AcDbVertex
100
AcDb3dPolylineVertex
 10
555.3170461547416
 20
203.6632315817028
 30
0.0
 70
    32
  0
SEQEND
  5
2889
330
2807
100
AcDbEntity
  8
0
  0
POLYLINE
  5
288A
330
2B25
100
AcDbEntity
  8
0
100
AcDb3dPolyline
 66
     1
 10
0.0
 20
0.0
 30
0.0
 70
     8
  0
VERTEX
  5
288B
330
288A
100
AcDbEntity
  8
0
100
AcDbVertex
100
AcDb3dPolylineVertex
 10
555.3170461547416
 20
199.0232315817017
 30
0.0
 70
    32
  0
VERTEX
  5
288C
330
288A
100
AcDbEntity
  8
0
100
AcDbVertex
100
AcDb3dPolylineVertex
 10
555.3190461547414
 20
198.9532315817027
 30
0.0
 70
    32
  0
VERTEX
  5
288D
330
288A
100
AcDbEntity
  8
0
100
AcDbVertex
100
AcDb3dPolylineVertex
 10
555.3230461547412
 20
198.8832315817028
 30
0.0
 70
    32
  0
VERTEX
  5
288E
330
288A
100
AcDbEntity
  8
0
100
AcDbVertex
100
AcDb3dPolylineVertex
 10
555.3310461547416
 20
198.8132315817025
 30
0.0
 70
    32
  0
VERTEX
  5
288F
330
288A
100
AcDbEntity
  8
0
100
AcDbVertex
100
AcDb3dPolylineVertex
 10
555.3410461547414
 20
198.7432315817019
 30
0.0
 70
    32
  0
VERTEX
  5
2890
330
288A
100
AcDbEntity
  8
0
100
AcDbVertex
100
AcDb3dPolylineVertex
 10
555.3550461547413
 20
198.6732315817027
 30
0.0
 70
    32
  0
VERTEX
  5
2891
330
288A
100
AcDbEntity
  8
0
100
AcDbVertex
100
AcDb3dPolylineVertex
 10
555.3710461547414
 20
198.6032315817028
 30
0.0
 70
    32
  0
VERTEX
  5
2892
330
288A
100
AcDbEntity
  8
0
100
AcDbVertex
100
AcDb3dPolylineVertex
 10
555.3910461547416
 20
198.5332315817027
 30
0.0
 70
    32
  0
VERTEX
  5
2893
330
288A
100
AcDbEntity
  8
0
100
AcDbVertex
100
AcDb3dPolylineVertex
 10
555.4130461547414
 20
198.4632315817027
 30
0.0
 70
    32
  0
VERTEX
  5
2894
330
288A
100
AcDbEntity
  8
0
100
AcDbVertex
100
AcDb3dPolylineVertex
 10
555.4390461547416
 20
198.3932315817027
 30
0.0
 70
    32
  0
VERTEX
  5
2895
330
288A
100
AcDbEntity
  8
0
100
AcDbVertex
100
AcDb3dPolylineVertex
 10
555.4670461547414
 20
198.3232315817016
 30
0.0
 70
    32
  0
VERTEX
  5
2896
330
288A
100
AcDbEntity
  8
0
100
AcDbVertex
100
AcDb3dPolylineVertex
 10
555.4980461547414
 20
198.2532315817026
 30
0.0
 70
    32
  0
VERTEX
  5
2897
330
288A
100
AcDbEntity
  8
0
100
AcDbVertex
100
AcDb3dPolylineVertex
 10
555.5330461547414
 20
198.1832315817026
 30
0.0
 70
    32
  0
VERTEX
  5
2898
330
288A
100
AcDbEntity
  8
0
100
AcDbVertex
100
AcDb3dPolylineVertex
 10
555.5700461547416
 20
198.1232315817028
 30
0.0
 70
    32
  0
VERTEX
  5
2899
330
288A
100
AcDbEntity
  8
0
100
AcDbVertex
100
AcDb3dPolylineVertex
 10
555.6100461547414
 20
198.0532315817025
 30
0.0
 70
    32
  0
VERTEX
  5
289A
330
288A
100
AcDbEntity
  8
0
100
AcDbVertex
100
AcDb3dPolylineVertex
 10
555.6520461547413
 20
197.9832315817027
 30
0.0
 70
    32
  0
VERTEX
  5
289B
330
288A
100
AcDbEntity
  8
0
100
AcDbVertex
100
AcDb3dPolylineVertex
 10
555.6980461547412
 20
197.9232315817028
 30
0.0
 70
    32
  0
VERTEX
  5
289C
330
288A
100
AcDbEntity
  8
0
100
AcDbVertex
100
AcDb3dPolylineVertex
 10
555.7460461547414
 20
197.8532315817028
 30
0.0
 70
    32
  0
VERTEX
  5
289D
330
288A
100
AcDbEntity
  8
0
100
AcDbVertex
100
AcDb3dPolylineVertex
 10
555.7970461547413
 20
197.7932315817025
 30
0.0
 70
    32
  0
VERTEX
  5
289E
330
288A
100
AcDbEntity
  8
0
100
AcDbVertex
100
AcDb3dPolylineVertex
 10
555.8510461547414
 20
197.7232315817026
 30
0.0
 70
    32
  0
VERTEX
  5
289F
330
288A
100
AcDbEntity
  8
0
100
AcDbVertex
100
AcDb3dPolylineVertex
 10
555.9080461547416
 20
197.6632315817005
 30
0.0
 70
    32
  0
VERTEX
  5
28A0
330
288A
100
AcDbEntity
  8
0
100
AcDbVertex
100
AcDb3dPolylineVertex
 10
555.9670461547414
 20
197.6032315817028
 30
0.0
 70
    32
  0
VERTEX
  5
28A1
330
288A
100
AcDbEntity
  8
0
100
AcDbVertex
100
AcDb3dPolylineVertex
 10
556.0290461547414
 20
197.5432315817016
 30
0.0
 70
    32
  0
VERTEX
  5
28A2
330
288A
100
AcDbEntity
  8
0
100
AcDbVertex
100
AcDb3dPolylineVertex
 10
556.0930461547411
 20
197.4832315817027
 30
0.0
 70
    32
  0
VERTEX
  5
28A3
330
288A
100
AcDbEntity
  8
0
100
AcDbVertex
100
AcDb3dPolylineVertex
 10
556.1600461547413
 20
197.4232315817028
 30
0.0
 70
    32
  0
VERTEX
  5
28A4
330
288A
100
AcDbEntity
  8
0
100
AcDbVertex
100
AcDb3dPolylineVertex
 10
556.2290461547413
 20
197.3632315817027
 30
0.0
 70
    32
  0
VERTEX
  5
28A5
330
288A
100
AcDbEntity
  8
0
100
AcDbVertex
100
AcDb3dPolylineVertex
 10
556.3010461547413
 20
197.3032315817025
 30
0.0
 70
    32
  0
VERTEX
  5
28A6
330
288A
100
AcDbEntity
  8
0
100
AcDbVertex
100
AcDb3dPolylineVertex
 10
556.3760461547412
 20
197.2532315817026
 30
0.0
 70
    32
  0
VERTEX
  5
28A7
330
288A
100
AcDbEntity
  8
0
100
AcDbVertex
100
AcDb3dPolylineVertex
 10
556.4520461547414
 20
197.1932315817021
 30
0.0
 70
    32
  0
VERTEX
  5
28A8
330
288A
100
AcDbEntity
  8
0
100
AcDbVertex
100
AcDb3dPolylineVertex
 10
556.5310461547412
 20
197.1432315817027
 30
0.0
 70
    32
  0
VERTEX
  5
28A9
330
288A
100
AcDbEntity
  8
0
100
AcDbVertex
100
AcDb3dPolylineVertex
 10
556.6130461547412
 20
197.0832315817017
 30
0.0
 70
    32
  0
VERTEX
  5
28AA
330
288A
100
AcDbEntity
  8
0
100
AcDbVertex
100
AcDb3dPolylineVertex
 10
556.6960461547413
 20
197.0332315817025
 30
0.0
 70
    32
  0
VERTEX
  5
28AB
330
288A
100
AcDbEntity
  8
0
100
AcDbVertex
100
AcDb3dPolylineVertex
 10
556.7820461547412
 20
196.9832315817027
 30
0.0
 70
    32
  0
VERTEX
  5
28AC
330
288A
100
AcDbEntity
  8
0
100
AcDbVertex
100
AcDb3dPolylineVertex
 10
556.8700461547413
 20
196.9332315817027
 30
0.0
 70
    32
  0
VERTEX
  5
28AD
330
288A
100
AcDbEntity
  8
0
100
AcDbVertex
100
AcDb3dPolylineVertex
 10
556.9600461547412
 20
196.8832315817013
 30
0.0
 70
    32
  0
VERTEX
  5
28AE
330
288A
100
AcDbEntity
  8
0
100
AcDbVertex
100
AcDb3dPolylineVertex
 10
557.0510461547415
 20
196.8432315817027
 30
0.0
 70
    32
  0
VERTEX
  5
28AF
330
288A
100
AcDbEntity
  8
0
100
AcDbVertex
100
AcDb3dPolylineVertex
 10
557.1450461547414
 20
196.7932315817017
 30
0.0
 70
    32
  0
VERTEX
  5
28B0
330
288A
100
AcDbEntity
  8
0
100
AcDbVertex
100
AcDb3dPolylineVertex
 10
557.2410461547414
 20
196.753231581702
 30
0.0
 70
    32
  0
VERTEX
  5
28B1
330
288A
100
AcDbEntity
  8
0
100
AcDbVertex
100
AcDb3dPolylineVertex
 10
557.3390461547412
 20
196.7032315817027
 30
0.0
 70
    32
  0
VERTEX
  5
28B2
330
288A
100
AcDbEntity
  8
0
100
AcDbVertex
100
AcDb3dPolylineVertex
 10
557.4380461547414
 20
196.6632315817028
 30
0.0
 70
    32
  0
VERTEX
  5
28B3
330
288A
100
AcDbEntity
  8
0
100
AcDbVertex
100
AcDb3dPolylineVertex
 10
557.5390461547414
 20
196.6232315817028
 30
0.0
 70
    32
  0
VERTEX
  5
28B4
330
288A
100
AcDbEntity
  8
0
100
AcDbVertex
100
AcDb3dPolylineVertex
 10
557.6420461547415
 20
196.5832315817006
 30
0.0
 70
    32
  0
VERTEX
  5
28B5
330
288A
100
AcDbEntity
  8
0
100
AcDbVertex
100
AcDb3dPolylineVertex
 10
557.7470461547411
 20
196.5532315817025
 30
0.0
 70
    32
  0
VERTEX
  5
28B6
330
288A
100
AcDbEntity
  8
0
100
AcDbVertex
100
AcDb3dPolylineVertex
 10
557.8530461547412
 20
196.5132315817027
 30
0.0
 70
    32
  0
VERTEX
  5
28B7
330
288A
100
AcDbEntity
  8
0
100
AcDbVertex
100
AcDb3dPolylineVertex
 10
557.9600461547412
 20
196.4832315817027
 30
0.0
 70
    32
  0
VERTEX
  5
28B8
330
288A
100
AcDbEntity
  8
0
100
AcDbVertex
100
AcDb3dPolylineVertex
 10
558.0690461547414
 20
196.443231581702
 30
0.0
 70
    32
  0
VERTEX
  5
28B9
330
288A
100
AcDbEntity
  8
0
100
AcDbVertex
100
AcDb3dPolylineVertex
 10
558.1800461547413
 20
196.4132315817005
 30
0.0
 70
    32
  0
VERTEX
  5
28BA
330
288A
100
AcDbEntity
  8
0
100
AcDbVertex
100
AcDb3dPolylineVertex
 10
558.2910461547412
 20
196.3832315817028
 30
0.0
 70
    32
  0
VERTEX
  5
28BB
330
288A
100
AcDbEntity
  8
0
100
AcDbVertex
100
AcDb3dPolylineVertex
 10
558.4040461547414
 20
196.3632315817027
 30
0.0
 70
    32
  0
VERTEX
  5
28BC
330
288A
100
AcDbEntity
  8
0
100
AcDbVertex
100
AcDb3dPolylineVertex
 10
558.5180461547412
 20
196.3332315817017
 30
0.0
 70
    32
  0
VERTEX
  5
28BD
330
288A
100
AcDbEntity
  8
0
100
AcDbVertex
100
AcDb3dPolylineVertex
 10
558.6330461547412
 20
196.3032315817017
 30
0.0
 70
    32
  0
VERTEX
  5
28BE
330
288A
100
AcDbEntity
  8
0
100
AcDbVertex
100
AcDb3dPolylineVertex
 10
558.7490461547413
 20
196.2832315817025
 30
0.0
 70
    32
  0
VERTEX
  5
28BF
330
288A
100
AcDbEntity
  8
0
100
AcDbVertex
100
AcDb3dPolylineVertex
 10
558.8660461547414
 20
196.2632315817027
 30
0.0
 70
    32
  0
VERTEX
  5
28C0
330
288A
100
AcDbEntity
  8
0
100
AcDbVertex
100
AcDb3dPolylineVertex
 10
558.9840461547415
 20
196.2432315817027
 30
0.0
 70
    32
  0
VERTEX
  5
28C1
330
288A
100
AcDbEntity
  8
0
100
AcDbVertex
100
AcDb3dPolylineVertex
 10
559.1020461547413
 20
196.2232315817026
 30
0.0
 70
    32
  0
VERTEX
  5
28C2
330
288A
100
AcDbEntity
  8
0
100
AcDbVertex
100
AcDb3dPolylineVertex
 10
559.2220461547412
 20
196.2132315817027
 30
0.0
 70
    32
  0
VERTEX
  5
28C3
330
288A
100
AcDbEntity
  8
0
100
AcDbVertex
100
AcDb3dPolylineVertex
 10
559.3420461547414
 20
196.1932315817026
 30
0.0
 70
    32
  0
VERTEX
  5
28C4
330
288A
100
AcDbEntity
  8
0
100
AcDbVertex
100
AcDb3dPolylineVertex
 10
559.4630461547414
 20
196.1832315817026
 30
0.0
 70
    32
  0
VERTEX
  5
28C5
330
288A
100
AcDbEntity
  8
0
100
AcDbVertex
100
AcDb3dPolylineVertex
 10
559.5840461547412
 20
196.1732315817027
 30
0.0
 70
    32
  0
VERTEX
  5
28C6
330
288A
100
AcDbEntity
  8
0
100
AcDbVertex
100
AcDb3dPolylineVertex
 10
559.7050461547413
 20
196.1632315817028
 30
0.0
 70
    32
  0
VERTEX
  5
28C7
330
288A
100
AcDbEntity
  8
0
100
AcDbVertex
100
AcDb3dPolylineVertex
 10
559.8270461547413
 20
196.1532315817028
 30
0.0
 70
    32
  0
VERTEX
  5
28C8
330
288A
100
AcDbEntity
  8
0
100
AcDbVertex
100
AcDb3dPolylineVertex
 10
559.9490461547413
 20
196.1432315817027
 30
0.0
 70
    32
  0
VERTEX
  5
28C9
330
288A
100
AcDbEntity
  8
0
100
AcDbVertex
100
AcDb3dPolylineVertex
 10
560.0720461547414
 20
196.1432315817027
 30
0.0
 70
    32
  0
VERTEX
  5
28CA
330
288A
100
AcDbEntity
  8
0
100
AcDbVertex
100
AcDb3dPolylineVertex
 10
560.1950461547412
 20
196.1432315817027
 30
0.0
 70
    32
  0
VERTEX
  5
28CB
330
288A
100
AcDbEntity
  8
0
100
AcDbVertex
100
AcDb3dPolylineVertex
 10
560.3170461547414
 20
196.1432315817027
 30
0.0
 70
    32
  0
VERTEX
  5
28CC
330
288A
100
AcDbEntity
  8
0
100
AcDbVertex
100
AcDb3dPolylineVertex
 10
560.4400461547412
 20
196.1432315817027
 30
0.0
 70
    32
  0
VERTEX
  5
28CD
330
288A
100
AcDbEntity
  8
0
100
AcDbVertex
100
AcDb3dPolylineVertex
 10
560.5630461547414
 20
196.1432315817027
 30
0.0
 70
    32
  0
VERTEX
  5
28CE
330
288A
100
AcDbEntity
  8
0
100
AcDbVertex
100
AcDb3dPolylineVertex
 10
560.6850461547411
 20
196.1432315817027
 30
0.0
 70
    32
  0
VERTEX
  5
28CF
330
288A
100
AcDbEntity
  8
0
100
AcDbVertex
100
AcDb3dPolylineVertex
 10
560.8070461547414
 20
196.1532315817028
 30
0.0
 70
    32
  0
VERTEX
  5
28D0
330
288A
100
AcDbEntity
  8
0
100
AcDbVertex
100
AcDb3dPolylineVertex
 10
560.9290461547415
 20
196.1632315817028
 30
0.0
 70
    32
  0
VERTEX
  5
28D1
330
288A
100
AcDbEntity
  8
0
100
AcDbVertex
100
AcDb3dPolylineVertex
 10
561.0510461547415
 20
196.1732315817027
 30
0.0
 70
    32
  0
VERTEX
  5
28D2
330
288A
100
AcDbEntity
  8
0
100
AcDbVertex
100
AcDb3dPolylineVertex
 10
561.1720461547413
 20
196.1832315817026
 30
0.0
 70
    32
  0
VERTEX
  5
28D3
330
288A
100
AcDbEntity
  8
0
100
AcDbVertex
100
AcDb3dPolylineVertex
 10
561.2930461547414
 20
196.1932315817026
 30
0.0
 70
    32
  0
VERTEX
  5
28D4
330
288A
100
AcDbEntity
  8
0
100
AcDbVertex
100
AcDb3dPolylineVertex
 10
561.4130461547414
 20
196.2132315817027
 30
0.0
 70
    32
  0
VERTEX
  5
28D5
330
288A
100
AcDbEntity
  8
0
100
AcDbVertex
100
AcDb3dPolylineVertex
 10
561.5320461547415
 20
196.2232315817026
 30
0.0
 70
    32
  0
VERTEX
  5
28D6
330
288A
100
AcDbEntity
  8
0
100
AcDbVertex
100
AcDb3dPolylineVertex
 10
561.6510461547412
 20
196.2432315817027
 30
0.0
 70
    32
  0
VERTEX
  5
28D7
330
288A
100
AcDbEntity
  8
0
100
AcDbVertex
100
AcDb3dPolylineVertex
 10
561.7690461547413
 20
196.2632315817027
 30
0.0
 70
    32
  0
VERTEX
  5
28D8
330
288A
100
AcDbEntity
  8
0
100
AcDbVertex
100
AcDb3dPolylineVertex
 10
561.8860461547416
 20
196.2832315817025
 30
0.0
 70
    32
  0
VERTEX
  5
28D9
330
288A
100
AcDbEntity
  8
0
100
AcDbVertex
100
AcDb3dPolylineVertex
 10
562.0020461547412
 20
196.3032315817017
 30
0.0
 70
    32
  0
VERTEX
  5
28DA
330
288A
100
AcDbEntity
  8
0
100
AcDbVertex
100
AcDb3dPolylineVertex
 10
562.1170461547412
 20
196.3332315817017
 30
0.0
 70
    32
  0
VERTEX
  5
28DB
330
288A
100
AcDbEntity
  8
0
100
AcDbVertex
100
AcDb3dPolylineVertex
 10
562.2310461547414
 20
196.3632315817027
 30
0.0
 70
    32
  0
VERTEX
  5
28DC
330
288A
100
AcDbEntity
  8
0
100
AcDbVertex
100
AcDb3dPolylineVertex
 10
562.3440461547412
 20
196.3832315817028
 30
0.0
 70
    32
  0
VERTEX
  5
28DD
330
288A
100
AcDbEntity
  8
0
100
AcDbVertex
100
AcDb3dPolylineVertex
 10
562.4550461547413
 20
196.4132315817005
 30
0.0
 70
    32
  0
VERTEX
  5
28DE
330
288A
100
AcDbEntity
  8
0
100
AcDbVertex
100
AcDb3dPolylineVertex
 10
562.5650461547412
 20
196.443231581702
 30
0.0
 70
    32
  0
VERTEX
  5
28DF
330
288A
100
AcDbEntity
  8
0
100
AcDbVertex
100
AcDb3dPolylineVertex
 10
562.6740461547414
 20
196.4832315817027
 30
0.0
 70
    32
  0
VERTEX
  5
28E0
330
288A
100
AcDbEntity
  8
0
100
AcDbVertex
100
AcDb3dPolylineVertex
 10
562.7820461547412
 20
196.5132315817027
 30
0.0
 70
    32
  0
VERTEX
  5
28E1
330
288A
100
AcDbEntity
  8
0
100
AcDbVertex
100
AcDb3dPolylineVertex
 10
562.8880461547415
 20
196.5532315817025
 30
0.0
 70
    32
  0
VERTEX
  5
28E2
330
288A
100
AcDbEntity
  8
0
100
AcDbVertex
100
AcDb3dPolylineVertex
 10
562.9920461547412
 20
196.5832315817006
 30
0.0
 70
    32
  0
VERTEX
  5
28E3
330
288A
100
AcDbEntity
  8
0
100
AcDbVertex
100
AcDb3dPolylineVertex
 10
563.0950461547413
 20
196.6232315817028
 30
0.0
 70
    32
  0
VERTEX
  5
28E4
330
288A
100
AcDbEntity
  8
0
100
AcDbVertex
100
AcDb3dPolylineVertex
 10
563.1960461547415
 20
196.6632315817028
 30
0.0
 70
    32
  0
VERTEX
  5
28E5
330
288A
100
AcDbEntity
  8
0
100
AcDbVertex
100
AcDb3dPolylineVertex
 10
563.2960461547416
 20
196.7032315817027
 30
0.0
 70
    32
  0
VERTEX
  5
28E6
330
288A
100
AcDbEntity
  8
0
100
AcDbVertex
100
AcDb3dPolylineVertex
 10
563.3930461547413
 20
196.753231581702
 30
0.0
 70
    32
  0
VERTEX
  5
28E7
330
288A
100
AcDbEntity
  8
0
100
AcDbVertex
100
AcDb3dPolylineVertex
 10
563.4890461547412
 20
196.7932315817017
 30
0.0
 70
    32
  0
VERTEX
  5
28E8
330
288A
100
AcDbEntity
  8
0
100
AcDbVertex
100
AcDb3dPolylineVertex
 10
563.5830461547413
 20
196.8432315817027
 30
0.0
 70
    32
  0
VERTEX
  5
28E9
330
288A
100
AcDbEntity
  8
0
100
AcDbVertex
100
AcDb3dPolylineVertex
 10
563.6750461547412
 20
196.8832315817013
 30
0.0
 70
    32
  0
VERTEX
  5
28EA
330
288A
100
AcDbEntity
  8
0
100
AcDbVertex
100
AcDb3dPolylineVertex
 10
563.7650461547415
 20
196.9332315817027
 30
0.0
 70
    32
  0
VERTEX
  5
28EB
330
288A
100
AcDbEntity
  8
0
100
AcDbVertex
100
AcDb3dPolylineVertex
 10
563.8530461547412
 20
196.9832315817027
 30
0.0
 70
    32
  0
VERTEX
  5
28EC
330
288A
100
AcDbEntity
  8
0
100
AcDbVertex
100
AcDb3dPolylineVertex
 10
563.9390461547415
 20
197.0332315817025
 30
0.0
 70
    32
  0
VERTEX
  5
28ED
330
288A
100
AcDbEntity
  8
0
100
AcDbVertex
100
AcDb3dPolylineVertex
 10
564.0220461547413
 20
197.0832315817017
 30
0.0
 70
    32
  0
VERTEX
  5
28EE
330
288A
100
AcDbEntity
  8
0
100
AcDbVertex
100
AcDb3dPolylineVertex
 10
564.1030461547412
 20
197.1432315817027
 30
0.0
 70
    32
  0
VERTEX
  5
28EF
330
288A
100
AcDbEntity
  8
0
100
AcDbVertex
100
AcDb3dPolylineVertex
 10
564.1820461547415
 20
197.1932315817021
 30
0.0
 70
    32
  0
VERTEX
  5
28F0
330
288A
100
AcDbEntity
  8
0
100
AcDbVertex
100
AcDb3dPolylineVertex
 10
564.2590461547415
 20
197.2532315817026
 30
0.0
 70
    32
  0
VERTEX
  5
28F1
330
288A
100
AcDbEntity
  8
0
100
AcDbVertex
100
AcDb3dPolylineVertex
 10
564.3330461547416
 20
197.3032315817025
 30
0.0
 70
    32
  0
VERTEX
  5
28F2
330
288A
100
AcDbEntity
  8
0
100
AcDbVertex
100
AcDb3dPolylineVertex
 10
564.4050461547414
 20
197.3632315817027
 30
0.0
 70
    32
  0
VERTEX
  5
28F3
330
288A
100
AcDbEntity
  8
0
100
AcDbVertex
100
AcDb3dPolylineVertex
 10
564.4750461547413
 20
197.4232315817028
 30
0.0
 70
    32
  0
VERTEX
  5
28F4
330
288A
100
AcDbEntity
  8
0
100
AcDbVertex
100
AcDb3dPolylineVertex
 10
564.5420461547415
 20
197.4832315817027
 30
0.0
 70
    32
  0
VERTEX
  5
28F5
330
288A
100
AcDbEntity
  8
0
100
AcDbVertex
100
AcDb3dPolylineVertex
 10
564.6060461547413
 20
197.5432315817016
 30
0.0
 70
    32
  0
VERTEX
  5
28F6
330
288A
100
AcDbEntity
  8
0
100
AcDbVertex
100
AcDb3dPolylineVertex
 10
564.6680461547415
 20
197.6032315817028
 30
0.0
 70
    32
  0
VERTEX
  5
28F7
330
288A
100
AcDbEntity
  8
0
100
AcDbVertex
100
AcDb3dPolylineVertex
 10
564.7270461547414
 20
197.6632315817005
 30
0.0
 70
    32
  0
VERTEX
  5
28F8
330
288A
100
AcDbEntity
  8
0
100
AcDbVertex
100
AcDb3dPolylineVertex
 10
564.7830461547415
 20
197.7232315817026
 30
0.0
 70
    32
  0
VERTEX
  5
28F9
330
288A
100
AcDbEntity
  8
0
100
AcDbVertex
100
AcDb3dPolylineVertex
 10
564.8370461547415
 20
197.7932315817025
 30
0.0
 70
    32
  0
VERTEX
  5
28FA
330
288A
100
AcDbEntity
  8
0
100
AcDbVertex
100
AcDb3dPolylineVertex
 10
564.8880461547412
 20
197.8532315817028
 30
0.0
 70
    32
  0
VERTEX
  5
28FB
330
288A
100
AcDbEntity
  8
0
100
AcDbVertex
100
AcDb3dPolylineVertex
 10
564.9370461547415
 20
197.9232315817028
 30
0.0
 70
    32
  0
VERTEX
  5
28FC
330
288A
100
AcDbEntity
  8
0
100
AcDbVertex
100
AcDb3dPolylineVertex
 10
564.9820461547416
 20
197.9832315817027
 30
0.0
 70
    32
  0
VERTEX
  5
28FD
330
288A
100
AcDbEntity
  8
0
100
AcDbVertex
100
AcDb3dPolylineVertex
 10
565.0250461547414
 20
198.0532315817025
 30
0.0
 70
    32
  0
VERTEX
  5
28FE
330
288A
100
AcDbEntity
  8
0
100
AcDbVertex
100
AcDb3dPolylineVertex
 10
565.0650461547416
 20
198.1232315817028
 30
0.0
 70
    32
  0
VERTEX
  5
28FF
330
288A
100
AcDbEntity
  8
0
100
AcDbVertex
100
AcDb3dPolylineVertex
 10
565.1020461547414
 20
198.1832315817026
 30
0.0
 70
    32
  0
VERTEX
  5
2900
330
288A
100
AcDbEntity
  8
0
100
AcDbVertex
100
AcDb3dPolylineVertex
 10
565.1360461547414
 20
198.2532315817026
 30
0.0
 70
    32
  0
VERTEX
  5
2901
330
288A
100
AcDbEntity
  8
0
100
AcDbVertex
100
AcDb3dPolylineVertex
 10
565.1670461547415
 20
198.3232315817016
 30
0.0
 70
    32
  0
VERTEX
  5
2902
330
288A
100
AcDbEntity
  8
0
100
AcDbVertex
100
AcDb3dPolylineVertex
 10
565.1960461547413
 20
198.3932315817027
 30
0.0
 70
    32
  0
VERTEX
  5
2903
330
288A
100
AcDbEntity
  8
0
100
AcDbVertex
100
AcDb3dPolylineVertex
 10
565.2210461547415
 20
198.4632315817027
 30
0.0
 70
    32
  0
VERTEX
  5
2904
330
288A
100
AcDbEntity
  8
0
100
AcDbVertex
100
AcDb3dPolylineVertex
 10
565.2440461547413
 20
198.5332315817027
 30
0.0
 70
    32
  0
VERTEX
  5
2905
330
288A
100
AcDbEntity
  8
0
100
AcDbVertex
100
AcDb3dPolylineVertex
 10
565.2630461547412
 20
198.6032315817028
 30
0.0
 70
    32
  0
VERTEX
  5
2906
330
288A
100
AcDbEntity
  8
0
100
AcDbVertex
100
AcDb3dPolylineVertex
 10
565.2800461547416
 20
198.6732315817027
 30
0.0
 70
    32
  0
VERTEX
  5
2907
330
288A
100
AcDbEntity
  8
0
100
AcDbVertex
100
AcDb3dPolylineVertex
 10
565.2930461547415
 20
198.7432315817019
 30
0.0
 70
    32
  0
VERTEX
  5
2908
330
288A
100
AcDbEntity
  8
0
100
AcDbVertex
100
AcDb3dPolylineVertex
 10
565.3040461547414
 20
198.8132315817025
 30
0.0
 70
    32
  0
VERTEX
  5
2909
330
288A
100
AcDbEntity
  8
0
100
AcDbVertex
100
AcDb3dPolylineVertex
 10
565.3110461547412
 20
198.8832315817028
 30
0.0
 70
    32
  0
VERTEX
  5
290A
330
288A
100
AcDbEntity
  8
0
100
AcDbVertex
100
AcDb3dPolylineVertex
 10
565.3160461547413
 20
198.9532315817027
 30
0.0
 70
    32
  0
VERTEX
  5
290B
330
288A
100
AcDbEntity
  8
0
100
AcDbVertex
100
AcDb3dPolylineVertex
 10
565.3170461547415
 20
199.0232315817017
 30
0.0
 70
    32
  0
SEQEND
  5
290C
330
288A
100
AcDbEntity
  8
0
  0
LINE
  5
290D
330
2B25
100
AcDbEntity
  8
0
100
AcDbLine
 10
565.3173579771769
 20
203.6620649317028
 30
0.0
 11
565.3173579771769
 21
199.025529931702
 31
0.0
  0
LINE
  5
290E
330
2B25
100
AcDbEntity
  8
0
100
AcDbLine
 10
555.3173579771769
 20
203.6620649317028
 30
0.0
 11
555.3173579771769
 21
199.025529931702
 31
0.0
  0
LINE
  5
290F
330
2B25
100
AcDbEntity
  8
0
100
AcDbLine
 10
570.3173577578336
 20
210.7647863817028
 30
0.0
 11
570.3173577578336
 21
159.9632315817027
 31
0.0
  0
ARC
  5
2910
330
2B25
100
AcDbEntity
  8
0
100
AcDbCircle
 10
572.3173577578336
 20
173.6300595817017
 30
0.0
 40
2.0
100
AcDbArc
 50
179.9999899999988
 51
258.8400699999998
  0
ARC
  5
2911
330
2B25
100
AcDbEntity
  8
0
100
AcDbCircle
 10
574.5673577578336
 20
167.9924485817027
 30
0.0
 40
3.0
100
AcDbArc
 50
0.0
 51
75.52248800000223
  0
LINE
  5
2912
330
2B25
100
AcDbEntity
  8
0
100
AcDbLine
 10
577.5673577578336
 20
167.9924485817027
 30
0.0
 11
577.5673577578336
 21
159.9632315817027
 31
0.0
  0
LINE
  5
2913
330
2B25
100
AcDbEntity
  8
0
100
AcDbLine
 10
571.9668937578336
 20
154.9632315817027
 30
0.0
 11
571.9668937578336
 21
149.4632315817026
 31
0.0
  0
LINE
  5
2914
330
2B25
100
AcDbEntity
  8
0
100
AcDbLine
 10
577.5673577578336
 20
159.9632315817027
 30
0.0
 11
577.5673577578336
 21
154.9632315817027
 31
0.0
  0
LINE
  5
2917
330
2B25
100
AcDbEntity
  8
0
100
AcDbLine
 10
370.1915768050385
 20
318.9215644409807
 30
0.0
 11
370.1915768050385
 21
352.9215644409807
 31
0.0
  0
LINE
  5
291D
330
2B25
100
AcDbEntity
  8
0
100
AcDbLine
 10
390.6915768050385
 20
306.2567714409805
 30
0.0
 11
390.6915768050385
 21
323.5295304409808
 31
0.0
  0
LINE
  5
291E
330
2B25
100
AcDbEntity
  8
0
100
AcDbLine
 10
414.6915768050384
 20
306.2567714409805
 30
0.0
 11
414.6915768050384
 21
323.5295304409808
 31
0.0
  0
ARC
  5
291F
330
2B25
100
AcDbEntity
  8
0
100
AcDbCircle
 10
402.6915768050383
 20
335.9215644409808
 30
0.0
 40
32.0
100
AcDbArc
 50
247.9756900000006
 51
292.0243099999992
  0
ARC
  5
2920
330
2B25
100
AcDbEntity
  8
0
100
AcDbCircle
 10
446.0236078050384
 20
335.9215644409808
 30
0.0
 40
5.0
100
AcDbArc
 50
270.0
 51
90.00000300000094
  0
LINE
  5
2921
330
2B25
100
AcDbEntity
  8
0
100
AcDbLine
 10
432.6928588050385
 20
330.9215644409807
 30
0.0
 11
446.0236078050384
 21
330.9215644409807
 31
0.0
  0
LINE
  5
2922
330
2B25
100
AcDbEntity
  8
0
100
AcDbLine
 10
432.6928588050385
 20
340.9215644409794
 30
0.0
 11
446.0236078050384
 21
340.9215644409794
 31
0.0
  0
LINE
  5
2923
330
2B25
100
AcDbEntity
  8
0
100
AcDbLine
 10
392.3915888050385
 20
345.9215644409807
 30
0.0
 11
453.6736328050385
 21
345.9215644409807
 31
0.0
  0
LINE
  5
2924
330
2B25
100
AcDbEntity
  8
0
100
AcDbLine
 10
392.3915888050385
 20
325.9215644409807
 30
0.0
 11
453.6736328050385
 21
325.9215644409807
 31
0.0
  0
LINE
  5
2925
330
2B25
100
AcDbEntity
  8
0
100
AcDbLine
 10
390.6915768050385
 20
365.5863574409798
 30
0.0
 11
390.6915768050385
 21
348.3135984409806
 31
0.0
  0
LINE
  5
2926
330
2B25
100
AcDbEntity
  8
0
100
AcDbLine
 10
414.6915768050384
 20
365.5863574409798
 30
0.0
 11
414.6915768050384
 21
348.3135984409806
 31
0.0
  0
ARC
  5
2927
330
2B25
100
AcDbEntity
  8
0
100
AcDbCircle
 10
402.6915768050383
 20
335.9215644409808
 30
0.0
 40
17.25
100
AcDbArc
 50
35.43015800000246
 51
148.7063700000043
  0
ARC
  5
2928
330
2B25
100
AcDbEntity
  8
0
100
AcDbCircle
 10
402.6915768050383
 20
335.9215644409808
 30
0.0
 40
17.25
100
AcDbArc
 50
211.2936299999954
 51
324.5698400000004
  0
ARC
  5
2929
330
2B25
100
AcDbEntity
  8
0
100
AcDbCircle
 10
392.3915888050385
 20
335.9215644409808
 30
0.0
 40
10.0
100
AcDbArc
 50
90.00000300000094
 51
270.0
  0
ARC
  5
292A
330
2B25
100
AcDbEntity
  8
0
100
AcDbCircle
 10
432.6928588050385
 20
335.9215644409808
 30
0.0
 40
5.0
100
AcDbArc
 50
90.00000300000094
 51
270.0
  0
LINE
  5
292B
330
2B25
100
AcDbEntity
  8
0
100
AcDbLine
 10
435.1915768050385
 20
318.9215644409807
 30
0.0
 11
432.3415788050382
 21
318.9215644409807
 31
0.0
  0
LINE
  5
292C
330
2B25
100
AcDbEntity
  8
0
100
AcDbLine
 10
432.3415778050383
 20
318.9215634409805
 30
0.0
 11
429.7937858050385
 21
325.9215648409806
 31
0.0
  0
LINE
  5
292D
330
2B25
100
AcDbEntity
  8
0
100
AcDbLine
 10
435.1915768050385
 20
318.9215644409807
 30
0.0
 11
435.1915768050385
 21
325.9215644409807
 31
0.0
  0
LINE
  5
292E
330
2B25
100
AcDbEntity
  8
0
100
AcDbLine
 10
435.1915768050385
 20
327.2715648409807
 30
0.0
 11
435.1915768050385
 21
344.5715640409807
 31
0.0
  0
LINE
  5
292F
330
2B25
100
AcDbEntity
  8
0
100
AcDbLine
 10
435.1915768050385
 20
345.9215644409807
 30
0.0
 11
435.1915768050385
 21
352.9215644409807
 31
0.0
  0
LINE
  5
2930
330
2B25
100
AcDbEntity
  8
0
100
AcDbLine
 10
432.3415778050383
 20
352.9215654409803
 30
0.0
 11
429.7937858050385
 21
345.9215640409804
 31
0.0
  0
LINE
  5
2931
330
2B25
100
AcDbEntity
  8
0
100
AcDbLine
 10
435.1915768050385
 20
352.9215644409807
 30
0.0
 11
432.3415788050382
 21
352.9215644409807
 31
0.0
  0
ARC
  5
2932
330
2B25
100
AcDbEntity
  8
0
100
AcDbCircle
 10
402.6915768050383
 20
335.9215644409808
 30
0.0
 40
32.0
100
AcDbArc
 50
67.97568900000185
 51
112.0243099999992
  0
POLYLINE
  5
2933
330
2B25
100
AcDbEntity
  8
0
100
AcDb3dPolyline
 66
     1
 10
0.0
 20
0.0
 30
0.0
 70
     8
  0
VERTEX
  5
2934
330
2933
100
AcDbEntity
  8
0
100
AcDbVertex
100
AcDb3dPolylineVertex
 10
453.6735768050385
 20
325.9215644409807
 30
0.0
 70
    32
  0
VERTEX
  5
2935
330
2933
100
AcDbEntity
  8
0
100
AcDbVertex
100
AcDb3dPolylineVertex
 10
453.8725768050383
 20
325.9215644409807
 30
0.0
 70
    32
  0
VERTEX
  5
2936
330
2933
100
AcDbEntity
  8
0
100
AcDbVertex
100
AcDb3dPolylineVertex
 10
454.0715768050382
 20
325.9315644409807
 30
0.0
 70
    32
  0
VERTEX
  5
2937
330
2933
100
AcDbEntity
  8
0
100
AcDbVertex
100
AcDb3dPolylineVertex
 10
454.2705768050383
 20
325.9515644409806
 30
0.0
 70
    32
  0
VERTEX
  5
2938
330
2933
100
AcDbEntity
  8
0
100
AcDbVertex
100
AcDb3dPolylineVertex
 10
454.4685768050383
 20
325.9715644409808
 30
0.0
 70
    32
  0
VERTEX
  5
2939
330
2933
100
AcDbEntity
  8
0
100
AcDbVertex
100
AcDb3dPolylineVertex
 10
454.6665768050385
 20
326.0015644409798
 30
0.0
 70
    32
  0
VERTEX
  5
293A
330
2933
100
AcDbEntity
  8
0
100
AcDbVertex
100
AcDb3dPolylineVertex
 10
454.8635768050385
 20
326.0315644409796
 30
0.0
 70
    32
  0
VERTEX
  5
293B
330
2933
100
AcDbEntity
  8
0
100
AcDbVertex
100
AcDb3dPolylineVertex
 10
455.0605768050385
 20
326.0715644409805
 30
0.0
 70
    32
  0
VERTEX
  5
293C
330
2933
100
AcDbEntity
  8
0
100
AcDbVertex
100
AcDb3dPolylineVertex
 10
455.2555768050384
 20
326.1115644409806
 30
0.0
 70
    32
  0
VERTEX
  5
293D
330
2933
100
AcDbEntity
  8
0
100
AcDbVertex
100
AcDb3dPolylineVertex
 10
455.4505768050383
 20
326.1615644409808
 30
0.0
 70
    32
  0
VERTEX
  5
293E
330
2933
100
AcDbEntity
  8
0
100
AcDbVertex
100
AcDb3dPolylineVertex
 10
455.6445768050385
 20
326.22156444098
 30
0.0
 70
    32
  0
VERTEX
  5
293F
330
2933
100
AcDbEntity
  8
0
100
AcDbVertex
100
AcDb3dPolylineVertex
 10
455.8365768050387
 20
326.2815644409806
 30
0.0
 70
    32
  0
VERTEX
  5
2940
330
2933
100
AcDbEntity
  8
0
100
AcDbVertex
100
AcDb3dPolylineVertex
 10
456.0285768050388
 20
326.3515644409806
 30
0.0
 70
    32
  0
VERTEX
  5
2941
330
2933
100
AcDbEntity
  8
0
100
AcDbVertex
100
AcDb3dPolylineVertex
 10
456.2175768050384
 20
326.4215644409807
 30
0.0
 70
    32
  0
VERTEX
  5
2942
330
2933
100
AcDbEntity
  8
0
100
AcDbVertex
100
AcDb3dPolylineVertex
 10
456.4065768050383
 20
326.5015644409796
 30
0.0
 70
    32
  0
VERTEX
  5
2943
330
2933
100
AcDbEntity
  8
0
100
AcDbVertex
100
AcDb3dPolylineVertex
 10
456.5925768050383
 20
326.5915644409797
 30
0.0
 70
    32
  0
VERTEX
  5
2944
330
2933
100
AcDbEntity
  8
0
100
AcDbVertex
100
AcDb3dPolylineVertex
 10
456.7775768050385
 20
326.6815644409807
 30
0.0
 70
    32
  0
VERTEX
  5
2945
330
2933
100
AcDbEntity
  8
0
100
AcDbVertex
100
AcDb3dPolylineVertex
 10
456.9605768050386
 20
326.7815644409797
 30
0.0
 70
    32
  0
VERTEX
  5
2946
330
2933
100
AcDbEntity
  8
0
100
AcDbVertex
100
AcDb3dPolylineVertex
 10
457.1415768050384
 20
326.8815644409808
 30
0.0
 70
    32
  0
VERTEX
  5
2947
330
2933
100
AcDbEntity
  8
0
100
AcDbVertex
100
AcDb3dPolylineVertex
 10
457.3205768050383
 20
326.9915644409806
 30
0.0
 70
    32
  0
VERTEX
  5
2948
330
2933
100
AcDbEntity
  8
0
100
AcDbVertex
100
AcDb3dPolylineVertex
 10
457.4975768050385
 20
327.1015644409806
 30
0.0
 70
    32
  0
VERTEX
  5
2949
330
2933
100
AcDbEntity
  8
0
100
AcDbVertex
100
AcDb3dPolylineVertex
 10
457.6715768050385
 20
327.2215644409799
 30
0.0
 70
    32
  0
VERTEX
  5
294A
330
2933
100
AcDbEntity
  8
0
100
AcDbVertex
100
AcDb3dPolylineVertex
 10
457.8435768050385
 20
327.3415644409806
 30
0.0
 70
    32
  0
VERTEX
  5
294B
330
2933
100
AcDbEntity
  8
0
100
AcDbVertex
100
AcDb3dPolylineVertex
 10
458.0135768050383
 20
327.4715644409807
 30
0.0
 70
    32
  0
VERTEX
  5
294C
330
2933
100
AcDbEntity
  8
0
100
AcDbVertex
100
AcDb3dPolylineVertex
 10
458.1795768050385
 20
327.6115644409806
 30
0.0
 70
    32
  0
VERTEX
  5
294D
330
2933
100
AcDbEntity
  8
0
100
AcDbVertex
100
AcDb3dPolylineVertex
 10
458.3445768050385
 20
327.7415644409807
 30
0.0
 70
    32
  0
VERTEX
  5
294E
330
2933
100
AcDbEntity
  8
0
100
AcDbVertex
100
AcDb3dPolylineVertex
 10
458.5055768050382
 20
327.8915644409808
 30
0.0
 70
    32
  0
VERTEX
  5
294F
330
2933
100
AcDbEntity
  8
0
100
AcDbVertex
100
AcDb3dPolylineVertex
 10
458.6635768050383
 20
328.0415644409797
 30
0.0
 70
    32
  0
VERTEX
  5
2950
330
2933
100
AcDbEntity
  8
0
100
AcDbVertex
100
AcDb3dPolylineVertex
 10
458.8195768050383
 20
328.19156444098
 30
0.0
 70
    32
  0
VERTEX
  5
2951
330
2933
100
AcDbEntity
  8
0
100
AcDbVertex
100
AcDb3dPolylineVertex
 10
458.9715768050383
 20
328.3515644409806
 30
0.0
 70
    32
  0
VERTEX
  5
2952
330
2933
100
AcDbEntity
  8
0
100
AcDbVertex
100
AcDb3dPolylineVertex
 10
459.1205768050385
 20
328.5115644409807
 30
0.0
 70
    32
  0
VERTEX
  5
2953
330
2933
100
AcDbEntity
  8
0
100
AcDbVertex
100
AcDb3dPolylineVertex
 10
459.2665768050385
 20
328.6815644409807
 30
0.0
 70
    32
  0
VERTEX
  5
2954
330
2933
100
AcDbEntity
  8
0
100
AcDbVertex
100
AcDb3dPolylineVertex
 10
459.4095768050386
 20
328.8515644409806
 30
0.0
 70
    32
  0
VERTEX
  5
2955
330
2933
100
AcDbEntity
  8
0
100
AcDbVertex
100
AcDb3dPolylineVertex
 10
459.5485768050385
 20
329.0215644409806
 30
0.0
 70
    32
  0
VERTEX
  5
2956
330
2933
100
AcDbEntity
  8
0
100
AcDbVertex
100
AcDb3dPolylineVertex
 10
459.6835768050382
 20
329.20156444098
 30
0.0
 70
    32
  0
VERTEX
  5
2957
330
2933
100
AcDbEntity
  8
0
100
AcDbVertex
100
AcDb3dPolylineVertex
 10
459.8155768050385
 20
329.3915644409789
 30
0.0
 70
    32
  0
VERTEX
  5
2958
330
2933
100
AcDbEntity
  8
0
100
AcDbVertex
100
AcDb3dPolylineVertex
 10
459.9435768050382
 20
329.5815644409806
 30
0.0
 70
    32
  0
VERTEX
  5
2959
330
2933
100
AcDbEntity
  8
0
100
AcDbVertex
100
AcDb3dPolylineVertex
 10
460.0685768050382
 20
329.7715644409803
 30
0.0
 70
    32
  0
VERTEX
  5
295A
330
2933
100
AcDbEntity
  8
0
100
AcDbVertex
100
AcDb3dPolylineVertex
 10
460.1885768050382
 20
329.9615644409807
 30
0.0
 70
    32
  0
VERTEX
  5
295B
330
2933
100
AcDbEntity
  8
0
100
AcDbVertex
100
AcDb3dPolylineVertex
 10
460.3055768050385
 20
330.1615644409794
 30
0.0
 70
    32
  0
VERTEX
  5
295C
330
2933
100
AcDbEntity
  8
0
100
AcDbVertex
100
AcDb3dPolylineVertex
 10
460.4175768050383
 20
330.3615644409806
 30
0.0
 70
    32
  0
VERTEX
  5
295D
330
2933
100
AcDbEntity
  8
0
100
AcDbVertex
100
AcDb3dPolylineVertex
 10
460.5265768050383
 20
330.5715644409805
 30
0.0
 70
    32
  0
VERTEX
  5
295E
330
2933
100
AcDbEntity
  8
0
100
AcDbVertex
100
AcDb3dPolylineVertex
 10
460.6305768050384
 20
330.7815644409797
 30
0.0
 70
    32
  0
VERTEX
  5
295F
330
2933
100
AcDbEntity
  8
0
100
AcDbVertex
100
AcDb3dPolylineVertex
 10
460.7315768050383
 20
330.9915644409807
 30
0.0
 70
    32
  0
VERTEX
  5
2960
330
2933
100
AcDbEntity
  8
0
100
AcDbVertex
100
AcDb3dPolylineVertex
 10
460.8275768050383
 20
331.2115644409796
 30
0.0
 70
    32
  0
VERTEX
  5
2961
330
2933
100
AcDbEntity
  8
0
100
AcDbVertex
100
AcDb3dPolylineVertex
 10
460.9185768050383
 20
331.4215644409807
 30
0.0
 70
    32
  0
VERTEX
  5
2962
330
2933
100
AcDbEntity
  8
0
100
AcDbVertex
100
AcDb3dPolylineVertex
 10
461.0065768050382
 20
331.6415644409794
 30
0.0
 70
    32
  0
VERTEX
  5
2963
330
2933
100
AcDbEntity
  8
0
100
AcDbVertex
100
AcDb3dPolylineVertex
 10
461.0885768050383
 20
331.8715644409808
 30
0.0
 70
    32
  0
VERTEX
  5
2964
330
2933
100
AcDbEntity
  8
0
100
AcDbVertex
100
AcDb3dPolylineVertex
 10
461.1675768050385
 20
332.0915644409806
 30
0.0
 70
    32
  0
VERTEX
  5
2965
330
2933
100
AcDbEntity
  8
0
100
AcDbVertex
100
AcDb3dPolylineVertex
 10
461.2415768050385
 20
332.3215644409805
 30
0.0
 70
    32
  0
VERTEX
  5
2966
330
2933
100
AcDbEntity
  8
0
100
AcDbVertex
100
AcDb3dPolylineVertex
 10
461.3105768050385
 20
332.5515644409804
 30
0.0
 70
    32
  0
VERTEX
  5
2967
330
2933
100
AcDbEntity
  8
0
100
AcDbVertex
100
AcDb3dPolylineVertex
 10
461.3755768050382
 20
332.7815644409803
 30
0.0
 70
    32
  0
VERTEX
  5
2968
330
2933
100
AcDbEntity
  8
0
100
AcDbVertex
100
AcDb3dPolylineVertex
 10
461.4355768050383
 20
333.0215644409797
 30
0.0
 70
    32
  0
VERTEX
  5
2969
330
2933
100
AcDbEntity
  8
0
100
AcDbVertex
100
AcDb3dPolylineVertex
 10
461.4905768050387
 20
333.2515644409803
 30
0.0
 70
    32
  0
VERTEX
  5
296A
330
2933
100
AcDbEntity
  8
0
100
AcDbVertex
100
AcDb3dPolylineVertex
 10
461.5415768050385
 20
333.4915644409798
 30
0.0
 70
    32
  0
VERTEX
  5
296B
330
2933
100
AcDbEntity
  8
0
100
AcDbVertex
100
AcDb3dPolylineVertex
 10
461.5875768050383
 20
333.7315644409807
 30
0.0
 70
    32
  0
VERTEX
  5
296C
330
2933
100
AcDbEntity
  8
0
100
AcDbVertex
100
AcDb3dPolylineVertex
 10
461.6285768050385
 20
333.9715644409796
 30
0.0
 70
    32
  0
VERTEX
  5
296D
330
2933
100
AcDbEntity
  8
0
100
AcDbVertex
100
AcDb3dPolylineVertex
 10
461.6655768050383
 20
334.2115644409795
 30
0.0
 70
    32
  0
VERTEX
  5
296E
330
2933
100
AcDbEntity
  8
0
100
AcDbVertex
100
AcDb3dPolylineVertex
 10
461.6965768050381
 20
334.4515644409806
 30
0.0
 70
    32
  0
VERTEX
  5
296F
330
2933
100
AcDbEntity
  8
0
100
AcDbVertex
100
AcDb3dPolylineVertex
 10
461.7235768050384
 20
334.7015644409807
 30
0.0
 70
    32
  0
VERTEX
  5
2970
330
2933
100
AcDbEntity
  8
0
100
AcDbVertex
100
AcDb3dPolylineVertex
 10
461.7455768050382
 20
334.9415644409806
 30
0.0
 70
    32
  0
VERTEX
  5
2971
330
2933
100
AcDbEntity
  8
0
100
AcDbVertex
100
AcDb3dPolylineVertex
 10
461.7625768050383
 20
335.1815644409794
 30
0.0
 70
    32
  0
VERTEX
  5
2972
330
2933
100
AcDbEntity
  8
0
100
AcDbVertex
100
AcDb3dPolylineVertex
 10
461.7755768050385
 20
335.4315644409794
 30
0.0
 70
    32
  0
VERTEX
  5
2973
330
2933
100
AcDbEntity
  8
0
100
AcDbVertex
100
AcDb3dPolylineVertex
 10
461.7825768050384
 20
335.6715644409807
 30
0.0
 70
    32
  0
VERTEX
  5
2974
330
2933
100
AcDbEntity
  8
0
100
AcDbVertex
100
AcDb3dPolylineVertex
 10
461.7845768050385
 20
335.9215644409808
 30
0.0
 70
    32
  0
VERTEX
  5
2975
330
2933
100
AcDbEntity
  8
0
100
AcDbVertex
100
AcDb3dPolylineVertex
 10
461.7825768050384
 20
336.1715644409807
 30
0.0
 70
    32
  0
VERTEX
  5
2976
330
2933
100
AcDbEntity
  8
0
100
AcDbVertex
100
AcDb3dPolylineVertex
 10
461.7755768050385
 20
336.4115644409794
 30
0.0
 70
    32
  0
VERTEX
  5
2977
330
2933
100
AcDbEntity
  8
0
100
AcDbVertex
100
AcDb3dPolylineVertex
 10
461.7625768050383
 20
336.6615644409794
 30
0.0
 70
    32
  0
VERTEX
  5
2978
330
2933
100
AcDbEntity
  8
0
100
AcDbVertex
100
AcDb3dPolylineVertex
 10
461.7455768050382
 20
336.9015644409806
 30
0.0
 70
    32
  0
VERTEX
  5
2979
330
2933
100
AcDbEntity
  8
0
100
AcDbVertex
100
AcDb3dPolylineVertex
 10
461.7235768050384
 20
337.1415644409808
 30
0.0
 70
    32
  0
VERTEX
  5
297A
330
2933
100
AcDbEntity
  8
0
100
AcDbVertex
100
AcDb3dPolylineVertex
 10
461.6965768050381
 20
337.3915644409807
 30
0.0
 70
    32
  0
VERTEX
  5
297B
330
2933
100
AcDbEntity
  8
0
100
AcDbVertex
100
AcDb3dPolylineVertex
 10
461.6655768050383
 20
337.6315644409789
 30
0.0
 70
    32
  0
VERTEX
  5
297C
330
2933
100
AcDbEntity
  8
0
100
AcDbVertex
100
AcDb3dPolylineVertex
 10
461.6285768050385
 20
337.8715644409794
 30
0.0
 70
    32
  0
VERTEX
  5
297D
330
2933
100
AcDbEntity
  8
0
100
AcDbVertex
100
AcDb3dPolylineVertex
 10
461.5875768050383
 20
338.1115644409806
 30
0.0
 70
    32
  0
VERTEX
  5
297E
330
2933
100
AcDbEntity
  8
0
100
AcDbVertex
100
AcDb3dPolylineVertex
 10
461.5415768050385
 20
338.3515644409806
 30
0.0
 70
    32
  0
VERTEX
  5
297F
330
2933
100
AcDbEntity
  8
0
100
AcDbVertex
100
AcDb3dPolylineVertex
 10
461.4905768050387
 20
338.5915644409806
 30
0.0
 70
    32
  0
VERTEX
  5
2980
330
2933
100
AcDbEntity
  8
0
100
AcDbVertex
100
AcDb3dPolylineVertex
 10
461.4355768050383
 20
338.8215644409797
 30
0.0
 70
    32
  0
VERTEX
  5
2981
330
2933
100
AcDbEntity
  8
0
100
AcDbVertex
100
AcDb3dPolylineVertex
 10
461.3755768050382
 20
339.0615644409803
 30
0.0
 70
    32
  0
VERTEX
  5
2982
330
2933
100
AcDbEntity
  8
0
100
AcDbVertex
100
AcDb3dPolylineVertex
 10
461.3105768050385
 20
339.2915644409796
 30
0.0
 70
    32
  0
VERTEX
  5
2983
330
2933
100
AcDbEntity
  8
0
100
AcDbVertex
100
AcDb3dPolylineVertex
 10
461.2415768050385
 20
339.5215644409788
 30
0.0
 70
    32
  0
VERTEX
  5
2984
330
2933
100
AcDbEntity
  8
0
100
AcDbVertex
100
AcDb3dPolylineVertex
 10
461.1675768050385
 20
339.7515644409796
 30
0.0
 70
    32
  0
VERTEX
  5
2985
330
2933
100
AcDbEntity
  8
0
100
AcDbVertex
100
AcDb3dPolylineVertex
 10
461.0885768050383
 20
339.9715644409807
 30
0.0
 70
    32
  0
VERTEX
  5
2986
330
2933
100
AcDbEntity
  8
0
100
AcDbVertex
100
AcDb3dPolylineVertex
 10
461.0065768050382
 20
340.2015644409793
 30
0.0
 70
    32
  0
VERTEX
  5
2987
330
2933
100
AcDbEntity
  8
0
100
AcDbVertex
100
AcDb3dPolylineVertex
 10
460.9185768050383
 20
340.4215644409807
 30
0.0
 70
    32
  0
VERTEX
  5
2988
330
2933
100
AcDbEntity
  8
0
100
AcDbVertex
100
AcDb3dPolylineVertex
 10
460.8275768050383
 20
340.6315644409808
 30
0.0
 70
    32
  0
VERTEX
  5
2989
330
2933
100
AcDbEntity
  8
0
100
AcDbVertex
100
AcDb3dPolylineVertex
 10
460.7315768050383
 20
340.8515644409806
 30
0.0
 70
    32
  0
VERTEX
  5
298A
330
2933
100
AcDbEntity
  8
0
100
AcDbVertex
100
AcDb3dPolylineVertex
 10
460.6305768050384
 20
341.0615644409803
 30
0.0
 70
    32
  0
VERTEX
  5
298B
330
2933
100
AcDbEntity
  8
0
100
AcDbVertex
100
AcDb3dPolylineVertex
 10
460.5265768050383
 20
341.2715644409804
 30
0.0
 70
    32
  0
VERTEX
  5
298C
330
2933
100
AcDbEntity
  8
0
100
AcDbVertex
100
AcDb3dPolylineVertex
 10
460.4175768050383
 20
341.4815644409795
 30
0.0
 70
    32
  0
VERTEX
  5
298D
330
2933
100
AcDbEntity
  8
0
100
AcDbVertex
100
AcDb3dPolylineVertex
 10
460.3055768050385
 20
341.6815644409794
 30
0.0
 70
    32
  0
VERTEX
  5
298E
330
2933
100
AcDbEntity
  8
0
100
AcDbVertex
100
AcDb3dPolylineVertex
 10
460.1885768050382
 20
341.8815644409808
 30
0.0
 70
    32
  0
VERTEX
  5
298F
330
2933
100
AcDbEntity
  8
0
100
AcDbVertex
100
AcDb3dPolylineVertex
 10
460.0685768050382
 20
342.0715644409805
 30
0.0
 70
    32
  0
VERTEX
  5
2990
330
2933
100
AcDbEntity
  8
0
100
AcDbVertex
100
AcDb3dPolylineVertex
 10
459.9435768050382
 20
342.2615644409788
 30
0.0
 70
    32
  0
VERTEX
  5
2991
330
2933
100
AcDbEntity
  8
0
100
AcDbVertex
100
AcDb3dPolylineVertex
 10
459.8155768050385
 20
342.4515644409793
 30
0.0
 70
    32
  0
VERTEX
  5
2992
330
2933
100
AcDbEntity
  8
0
100
AcDbVertex
100
AcDb3dPolylineVertex
 10
459.6835768050382
 20
342.6415644409789
 30
0.0
 70
    32
  0
VERTEX
  5
2993
330
2933
100
AcDbEntity
  8
0
100
AcDbVertex
100
AcDb3dPolylineVertex
 10
459.5485768050385
 20
342.8215644409805
 30
0.0
 70
    32
  0
VERTEX
  5
2994
330
2933
100
AcDbEntity
  8
0
100
AcDbVertex
100
AcDb3dPolylineVertex
 10
459.4095768050386
 20
342.9915644409807
 30
0.0
 70
    32
  0
VERTEX
  5
2995
330
2933
100
AcDbEntity
  8
0
100
AcDbVertex
100
AcDb3dPolylineVertex
 10
459.2665768050385
 20
343.1615644409808
 30
0.0
 70
    32
  0
VERTEX
  5
2996
330
2933
100
AcDbEntity
  8
0
100
AcDbVertex
100
AcDb3dPolylineVertex
 10
459.1205768050385
 20
343.3315644409806
 30
0.0
 70
    32
  0
VERTEX
  5
2997
330
2933
100
AcDbEntity
  8
0
100
AcDbVertex
100
AcDb3dPolylineVertex
 10
458.9715768050383
 20
343.4915644409807
 30
0.0
 70
    32
  0
VERTEX
  5
2998
330
2933
100
AcDbEntity
  8
0
100
AcDbVertex
100
AcDb3dPolylineVertex
 10
458.8195768050383
 20
343.6515644409808
 30
0.0
 70
    32
  0
VERTEX
  5
2999
330
2933
100
AcDbEntity
  8
0
100
AcDbVertex
100
AcDb3dPolylineVertex
 10
458.6635768050383
 20
343.8015644409804
 30
0.0
 70
    32
  0
VERTEX
  5
299A
330
2933
100
AcDbEntity
  8
0
100
AcDbVertex
100
AcDb3dPolylineVertex
 10
458.5055768050382
 20
343.9515644409806
 30
0.0
 70
    32
  0
VERTEX
  5
299B
330
2933
100
AcDbEntity
  8
0
100
AcDbVertex
100
AcDb3dPolylineVertex
 10
458.3445768050385
 20
344.1015644409806
 30
0.0
 70
    32
  0
VERTEX
  5
299C
330
2933
100
AcDbEntity
  8
0
100
AcDbVertex
100
AcDb3dPolylineVertex
 10
458.1795768050385
 20
344.2315644409795
 30
0.0
 70
    32
  0
VERTEX
  5
299D
330
2933
100
AcDbEntity
  8
0
100
AcDbVertex
100
AcDb3dPolylineVertex
 10
458.0135768050383
 20
344.3715644409808
 30
0.0
 70
    32
  0
VERTEX
  5
299E
330
2933
100
AcDbEntity
  8
0
100
AcDbVertex
100
AcDb3dPolylineVertex
 10
457.8435768050385
 20
344.5015644409798
 30
0.0
 70
    32
  0
VERTEX
  5
299F
330
2933
100
AcDbEntity
  8
0
100
AcDbVertex
100
AcDb3dPolylineVertex
 10
457.6715768050385
 20
344.6215644409787
 30
0.0
 70
    32
  0
VERTEX
  5
29A0
330
2933
100
AcDbEntity
  8
0
100
AcDbVertex
100
AcDb3dPolylineVertex
 10
457.4975768050385
 20
344.7415644409807
 30
0.0
 70
    32
  0
VERTEX
  5
29A1
330
2933
100
AcDbEntity
  8
0
100
AcDbVertex
100
AcDb3dPolylineVertex
 10
457.3205768050383
 20
344.8515644409805
 30
0.0
 70
    32
  0
VERTEX
  5
29A2
330
2933
100
AcDbEntity
  8
0
100
AcDbVertex
100
AcDb3dPolylineVertex
 10
457.1415768050384
 20
344.9615644409806
 30
0.0
 70
    32
  0
VERTEX
  5
29A3
330
2933
100
AcDbEntity
  8
0
100
AcDbVertex
100
AcDb3dPolylineVertex
 10
456.9605768050386
 20
345.0615644409803
 30
0.0
 70
    32
  0
VERTEX
  5
29A4
330
2933
100
AcDbEntity
  8
0
100
AcDbVertex
100
AcDb3dPolylineVertex
 10
456.7775768050385
 20
345.1615644409808
 30
0.0
 70
    32
  0
VERTEX
  5
29A5
330
2933
100
AcDbEntity
  8
0
100
AcDbVertex
100
AcDb3dPolylineVertex
 10
456.5925768050383
 20
345.2515644409796
 30
0.0
 70
    32
  0
VERTEX
  5
29A6
330
2933
100
AcDbEntity
  8
0
100
AcDbVertex
100
AcDb3dPolylineVertex
 10
456.4065768050383
 20
345.3415644409797
 30
0.0
 70
    32
  0
VERTEX
  5
29A7
330
2933
100
AcDbEntity
  8
0
100
AcDbVertex
100
AcDb3dPolylineVertex
 10
456.2175768050384
 20
345.4215644409794
 30
0.0
 70
    32
  0
VERTEX
  5
29A8
330
2933
100
AcDbEntity
  8
0
100
AcDbVertex
100
AcDb3dPolylineVertex
 10
456.0285768050388
 20
345.4915644409807
 30
0.0
 70
    32
  0
VERTEX
  5
29A9
330
2933
100
AcDbEntity
  8
0
100
AcDbVertex
100
AcDb3dPolylineVertex
 10
455.8365768050387
 20
345.5615644409803
 30
0.0
 70
    32
  0
VERTEX
  5
29AA
330
2933
100
AcDbEntity
  8
0
100
AcDbVertex
100
AcDb3dPolylineVertex
 10
455.6445768050385
 20
345.6215644409808
 30
0.0
 70
    32
  0
VERTEX
  5
29AB
330
2933
100
AcDbEntity
  8
0
100
AcDbVertex
100
AcDb3dPolylineVertex
 10
455.4505768050383
 20
345.6815644409807
 30
0.0
 70
    32
  0
VERTEX
  5
29AC
330
2933
100
AcDbEntity
  8
0
100
AcDbVertex
100
AcDb3dPolylineVertex
 10
455.2555768050384
 20
345.7315644409807
 30
0.0
 70
    32
  0
VERTEX
  5
29AD
330
2933
100
AcDbEntity
  8
0
100
AcDbVertex
100
AcDb3dPolylineVertex
 10
455.0605768050385
 20
345.7715644409797
 30
0.0
 70
    32
  0
VERTEX
  5
29AE
330
2933
100
AcDbEntity
  8
0
100
AcDbVertex
100
AcDb3dPolylineVertex
 10
454.8635768050385
 20
345.8115644409803
 30
0.0
 70
    32
  0
VERTEX
  5
29AF
330
2933
100
AcDbEntity
  8
0
100
AcDbVertex
100
AcDb3dPolylineVertex
 10
454.6665768050385
 20
345.8415644409788
 30
0.0
 70
    32
  0
VERTEX
  5
29B0
330
2933
100
AcDbEntity
  8
0
100
AcDbVertex
100
AcDb3dPolylineVertex
 10
454.4685768050383
 20
345.8715644409808
 30
0.0
 70
    32
  0
VERTEX
  5
29B1
330
2933
100
AcDbEntity
  8
0
100
AcDbVertex
100
AcDb3dPolylineVertex
 10
454.2705768050383
 20
345.8915644409807
 30
0.0
 70
    32
  0
VERTEX
  5
29B2
330
2933
100
AcDbEntity
  8
0
100
AcDbVertex
100
AcDb3dPolylineVertex
 10
454.0715768050382
 20
345.9115644409807
 30
0.0
 70
    32
  0
VERTEX
  5
29B3
330
2933
100
AcDbEntity
  8
0
100
AcDbVertex
100
AcDb3dPolylineVertex
 10
453.8725768050383
 20
345.9215644409807
 30
0.0
 70
    32
  0
VERTEX
  5
29B4
330
2933
100
AcDbEntity
  8
0
100
AcDbVertex
100
AcDb3dPolylineVertex
 10
453.6735768050385
 20
345.9215644409807
 30
0.0
 70
    32
  0
SEQEND
  5
29B5
330
2933
100
AcDbEntity
  8
0
  0
LINE
  5
29DC
330
2B25
100
AcDbEntity
  8
AM_0N
100
AcDbLine
 10
376.7176755050385
 20
121.0632314817027
 30
0.0
 11
376.7176756778325
 21
134.8632316817027
 31
0.0
  0
POINT
  5
29DF
330
2B25
100
AcDbEntity
  8
AM_0N
100
AcDbPoint
 10
370.1915768050385
 20
127.9632315817027
 30
0.0
  0
LINE
  5
29E0
330
2B25
100
AcDbEntity
  8
AM_0N
100
AcDbLine
 10
370.1915768050385
 20
110.9632315817027
 30
0.0
 11
373.0415762050383
 21
110.9632315817027
 31
0.0
  0
LINE
  5
29E1
330
2B25
100
AcDbEntity
  8
AM_0N
100
AcDbLine
 10
373.0415762050383
 20
110.9632315817027
 30
0.0
 11
376.7176756050385
 21
121.0632312817017
 31
0.0
  0
LINE
  5
29E2
330
2B25
100
AcDbEntity
  8
AM_0N
100
AcDbLine
 10
376.7176755050385
 20
121.0632314817027
 30
0.0
 11
390.6915768050385
 21
121.0632314817027
 31
0.0
  0
LINE
  5
29E3
330
2B25
100
AcDbEntity
  8
AM_0N
100
AcDbLine
 10
370.1915768050385
 20
144.9632315817027
 30
0.0
 11
373.0415762050383
 21
144.9632315817027
 31
0.0
  0
LINE
  5
29E4
330
2B25
100
AcDbEntity
  8
AM_0N
100
AcDbLine
 10
373.0415762050383
 20
144.9632315817027
 30
0.0
 11
376.7176756050385
 21
134.8632318817027
 31
0.0
  0
LINE
  5
29E5
330
2B25
100
AcDbEntity
  8
AM_0N
100
AcDbLine
 10
376.7176755050385
 20
134.8632316817027
 30
0.0
 11
390.6915768050385
 21
134.8632316817027
 31
0.0
  0
LINE
  5
29F0
330
2B25
100
AcDbEntity
  8
AM_0N
100
AcDbLine
 10
432.3415774050381
 20
110.9632315817027
 30
0.0
 11
428.6654780050382
 21
121.0632312817017
 31
0.0
  0
LINE
  5
29F1
330
2B25
100
AcDbEntity
  8
0
100
AcDbLine
 10
435.1915768050385
 20
110.9632315817027
 30
0.0
 11
435.1915768050385
 21
144.9632315817019
 31
0.0
  0
LINE
  5
29F2
330
2B25
100
AcDbEntity
  8
AM_0N
100
AcDbLine
 10
435.1915768050385
 20
110.9632315817027
 30
0.0
 11
432.3415774050381
 21
110.9632315817027
 31
0.0
  0
LINE
  5
29F3
330
2B25
100
AcDbEntity
  8
AM_0N
100
AcDbLine
 10
428.6654781050382
 20
121.0632314817027
 30
0.0
 11
414.6915768050384
 21
121.0632314817027
 31
0.0
  0
LINE
  5
29F4
330
2B25
100
AcDbEntity
  8
AM_0N
100
AcDbLine
 10
428.6654781050382
 20
134.8632316817027
 30
0.0
 11
414.6915768050384
 21
134.8632316817027
 31
0.0
  0
LINE
  5
29F5
330
2B25
100
AcDbEntity
  8
AM_0N
100
AcDbLine
 10
432.3415774050385
 20
144.9632315817019
 30
0.0
 11
428.6654780050382
 21
134.8632318817027
 31
0.0
  0
LINE
  5
29F6
330
2B25
100
AcDbEntity
  8
AM_0N
100
AcDbLine
 10
435.1915768050385
 20
144.9632315817019
 30
0.0
 11
432.3415774050385
 21
144.9632315817019
 31
0.0
  0
POINT
  5
29F7
330
2B25
100
AcDbEntity
  8
AM_0N
100
AcDbPoint
 10
435.1915768050385
 20
127.9632315817019
 30
0.0
  0
LINE
  5
29F8
330
2B25
100
AcDbEntity
  8
AM_0N
100
AcDbLine
 10
428.6654781050382
 20
121.0632314817027
 30
0.0
 11
428.6654779322439
 21
134.8632316817027
 31
0.0
  0
LINE
  5
29F9
330
2B25
100
AcDbEntity
  8
0
100
AcDbLine
 10
435.1915768050385
 20
121.963231581702
 30
0.0
 11
435.1915768050385
 21
133.963231581702
 31
0.0
  0
LINE
  5
29FA
330
2B25
100
AcDbEntity
  8
AM_0N
100
AcDbLine
 10
373.0415762050383
 20
318.9215644409807
 30
0.0
 11
376.7176756050385
 21
329.0215641409806
 31
0.0
  0
LINE
  5
29FB
330
2B25
100
AcDbEntity
  8
0
100
AcDbLine
 10
370.1915768050385
 20
318.9215644409807
 30
0.0
 11
370.1915768050385
 21
352.9215644409807
 31
0.0
  0
LINE
  5
29FC
330
2B25
100
AcDbEntity
  8
AM_0N
100
AcDbLine
 10
370.1915768050385
 20
318.9215644409807
 30
0.0
 11
373.0415762050383
 21
318.9215644409807
 31
0.0
  0
LINE
  5
29FD
330
2B25
100
AcDbEntity
  8
AM_0N
100
AcDbLine
 10
376.7176755050385
 20
329.0215643409806
 30
0.0
 11
385.1534952286882
 21
329.0215643409806
 31
0.0
  0
LINE
  5
29FE
330
2B25
100
AcDbEntity
  8
AM_0N
100
AcDbLine
 10
376.7176755050385
 20
342.8215645409807
 30
0.0
 11
385.1534952286882
 21
342.8215645409807
 31
0.0
  0
LINE
  5
29FF
330
2B25
100
AcDbEntity
  8
AM_0N
100
AcDbLine
 10
373.0415762050383
 20
352.9215644409807
 30
0.0
 11
376.7176756050385
 21
342.8215647409803
 31
0.0
  0
LINE
  5
2A00
330
2B25
100
AcDbEntity
  8
AM_0N
100
AcDbLine
 10
370.1915768050385
 20
352.9215644409807
 30
0.0
 11
373.0415762050383
 21
352.9215644409807
 31
0.0
  0
POINT
  5
2A01
330
2B25
100
AcDbEntity
  8
AM_0N
100
AcDbPoint
 10
370.1915768050385
 20
335.9215644409808
 30
0.0
  0
LINE
  5
2A02
330
2B25
100
AcDbEntity
  8
AM_0N
100
AcDbLine
 10
376.7176755050385
 20
329.0215643409806
 30
0.0
 11
376.7176756778325
 21
342.8215645409807
 31
0.0
  0
CIRCLE
  5
2A0F
330
2B25
100
AcDbEntity
  8
0
  6
Continuous
100
AcDbCircle
 10
560.3173577578338
 20
127.9632315817027
 30
0.0
 40
6.900000099999942
  0
CIRCLE
  5
2A12
330
2B25
100
AcDbEntity
  8
0
  6
Continuous
100
AcDbCircle
 10
252.6915768050391
 20
127.9632315817027
 30
0.0
 40
6.900000099999942
  0
LINE
  5
2B9B
330
2B25
100
AcDbEntity
  8
0
  6
CENTER
100
AcDbLine
 10
402.6915768050384
 20
86.080445996401
 30
0.0
 11
402.6915768050384
 21
203.981942847588
 31
0.0
  0
LINE
  5
2B9C
330
2B25
100
AcDbEntity
  8
0
  6
CENTER
100
AcDbLine
 10
471.9424860042425
 20
335.9215644409808
 30
0.0
 11
359.3614227201515
 21
335.9215644409806
 31
0.0
  0
LINE
  5
2B9D
330
2B25
100
AcDbEntity
  8
0
  6
CENTER
100
AcDbLine
 10
402.6915768050383
 20
294.5090587035733
 30
0.0
 11
402.6915768050383
 21
377.3340701783882
 31
0.0
  0
LINE
  5
2B9E
330
2B25
100
AcDbEntity
  8
0
  6
CENTER
100
AcDbLine
 10
560.3173577578338
 20
86.08044599640102
 30
0.0
 11
560.3173577578338
 21
226.6453813322018
 31
0.0
  0
LINE
  5
2B9F
330
2B25
100
AcDbEntity
  8
0
  6
CENTER
100
AcDbLine
 10
519.5449115124066
 20
127.9632315817027
 30
0.0
 11
601.0898040032608
 21
127.9632315817027
 31
0.0
  0
LINE
  5
2BA0
330
2B25
100
AcDbEntity
  8
0
  6
CENTER
100
AcDbLine
 10
361.9191305596114
 20
127.9632315817027
 30
0.0
 11
443.4640230504656
 21
127.9632315817027
 31
0.0
  0
LINE
  5
2BA3
330
2B25
100
AcDbEntity
  8
0
  6
CENTER
100
AcDbLine
 10
211.9191305596119
 20
127.9632315817027
 30
0.0
 11
293.4640230504661
 21
127.9632315817027
 31
0.0
  0
LINE
  5
2BA4
330
2B25
100
AcDbEntity
  8
0
  6
CENTER
100
AcDbLine
 10
252.691576805039
 20
86.08044599640102
 30
0.0
 11
252.691576805039
 21
226.6453813322018
 31
0.0
  0
ENDSEC
  0
SECTION
  2
OBJECTS
  0
DICTIONARY
  5
2B13
330
0
100
AcDbDictionary
281
     1
  3
ACAD_GROUP
350
2B14
  3
ACAD_LAYOUT
350
2B20
  3
ACAD_MLINESTYLE
350
2B1D
  3
ACAD_PLOTSETTINGS
350
2B1F
  3
ACAD_PLOTSTYLENAME
350
2B15
  3
AcDbVariableDictionary
350
2B88
  0
DICTIONARY
  5
2B8F
330
2B09
100
AcDbDictionary
280
     1
281
     1
  3
ACAD_LAYERSTATES
360
2B90
  0
DICTIONARY
  5
2B4A
330
2B25
100
AcDbDictionary
280
     1
281
     1
  3
ACAD_LAYOUTSELFREF
360
2B79
  0
DICTIONARY
  5
2B4C
330
2B21
100
AcDbDictionary
280
     1
281
     1
  3
ACAD_LAYOUTSELFREF
360
2B78
  0
DICTIONARY
  5
2B14
102
{ACAD_REACTORS
330
2B13
102
}
330
2B13
100
AcDbDictionary
281
     1
  0
DICTIONARY
  5
2B20
102
{ACAD_REACTORS
330
2B13
102
}
330
2B13
100
AcDbDictionary
281
     1
  3
Model
350
2B28
  3
ﾚｲｱｳﾄ1
350
2B24
  0
DICTIONARY
  5
2B1D
102
{ACAD_REACTORS
330
2B13
102
}
330
2B13
100
AcDbDictionary
281
     1
  3
Standard
350
2B1E
  0
DICTIONARY
  5
2B1F
102
{ACAD_REACTORS
330
2B13
102
}
330
2B13
100
AcDbDictionary
281
     1
  0
ACDBDICTIONARYWDFLT
  5
2B15
102
{ACAD_REACTORS
330
2B13
102
}
330
2B13
100
AcDbDictionary
281
     1
  3
Normal
350
2B16
100
AcDbDictionaryWithDefault
340
2B16
  0
DICTIONARY
  5
2B88
102
{ACAD_REACTORS
330
2B13
102
}
330
2B13
100
AcDbDictionary
281
     1
  3
DIMASSOC
350
2B89
  0
DICTIONARY
  5
2B90
102
{ACAD_REACTORS
330
2B8F
102
}
330
2B8F
100
AcDbDictionary
281
     1
  0
XRECORD
  5
2B79
102
{ACAD_REACTORS
330
2B4A
102
}
330
2B4A
100
AcDbXrecord
280
     1
340
2B25
  0
XRECORD
  5
2B78
102
{ACAD_REACTORS
330
2B4C
102
}
330
2B4C
100
AcDbXrecord
280
     1
340
2B21
  0
LAYOUT
  5
2B28
102
{ACAD_REACTORS
330
2B20
102
}
330
2B20
100
AcDbPlotSettings
  1

  2
SII LP-2150 (D-SCAN C2)
  4

  6

 40
0.0
 41
0.0
 42
0.0
 43
0.0
 44
0.0
 45
0.0
 46
0.0
 47
0.0
 48
0.0
 49
0.0
140
0.0
141
0.0
142
1.0
143
1.0
 70
  1712
 72
     0
 73
     0
 74
     0
  7

 75
     0
147
1.0
148
0.0
149
0.0
100
AcDbLayout
  1
Model
 70
     1
 71
     0
 10
0.0
 20
0.0
 11
12.0
 21
9.0
 12
0.0
 22
0.0
 32
0.0
 14
0.0
 24
0.0
 34
0.0
 15
0.0
 25
0.0
 35
0.0
146
0.0
 13
0.0
 23
0.0
 33
0.0
 16
1.0
 26
0.0
 36
0.0
 17
0.0
 27
1.0
 37
0.0
 76
     0
330
2B25
  0
LAYOUT
  5
2B24
102
{ACAD_REACTORS
330
2B20
102
}
330
2B20
100
AcDbPlotSettings
  1

  2
SII LP-2150 (D-SCAN C2)
  4

  6

 40
0.0
 41
0.0
 42
0.0
 43
0.0
 44
0.0
 45
0.0
 46
0.0
 47
0.0
 48
0.0
 49
0.0
140
0.0
141
0.0
142
1.0
143
1.0
 70
   688
 72
     0
 73
     0
 74
     5
  7

 75
    16
147
1.0
148
0.0
149
0.0
100
AcDbLayout
  1
ﾚｲｱｳﾄ1
 70
     1
 71
     1
 10
-44.912933
 20
-21.841471
 11
153.5627299999999
 21
105.04179
 12
0.0
 22
0.0
 32
0.0
 14
-44.912933
 24
-21.841471
 34
0.0
 15
153.5627299999999
 25
105.04179
 35
0.0
146
0.0
 13
0.0
 23
0.0
 33
0.0
 16
1.0
 26
0.0
 36
0.0
 17
0.0
 27
1.0
 37
0.0
 76
     0
330
2B21
  0
MLINESTYLE
  5
2B1E
102
{ACAD_REACTORS
330
2B1D
102
}
330
2B1D
100
AcDbMlineStyle
  2
STANDARD
 70
     0
  3

 62
   256
 51
90.0
 52
90.0
 71
     2
 49
0.5
 62
   256
  6
BYLAYER
 49
-0.5
 62
   256
  6
BYLAYER
  0
ACDBPLACEHOLDER
  5
2B16
102
{ACAD_REACTORS
330
2B15
102
}
330
2B15
  0
DICTIONARYVAR
  5
2B89
102
{ACAD_REACTORS
330
2B88
102
}
330
2B88
100
DictionaryVariables
280
     0
  1
1
  0
ENDSEC
  0
EOF
