  0
SECTION
  2
HEADER
  9
$ACADVER
  1
AC1015
  9
$ACADMAINTVER
 70
    14
  9
$DWGCODEPAGE
  3
ANSI_932
  9
$INSBASE
 10
0.0
 20
0.0
 30
0.0
  9
$EXTMIN
 10
-108.464105538605
 20
119.8792981568749
 30
-0.0000000000000058
  9
$EXTMAX
 10
732.7938972297574
 20
600.9828929892628
 30
0.0000000000000104
  9
$LIMMIN
 10
0.0
 20
0.0
  9
$LIMMAX
 10
12.0
 20
9.0
  9
$ORTHOMODE
 70
     0
  9
$REGENMODE
 70
     1
  9
$FILLMODE
 70
     1
  9
$QTEXTMODE
 70
     0
  9
$MIRRTEXT
 70
     1
  9
$LTSCALE
 40
1.0
  9
$ATTMODE
 70
     1
  9
$TEXTSIZE
 40
0.2
  9
$TRACEWID
 40
0.05
  9
$TEXTSTYLE
  7
STANDARD
  9
$CLAYER
  8
0
  9
$CELTYPE
  6
CONTINUOUS
  9
$CECOLOR
 62
   256
  9
$CELTSCALE
 40
1.0
  9
$DISPSILH
 70
     0
  9
$DIMSCALE
 40
1.0
  9
$DIMASZ
 40
1.0
  9
$DIMEXO
 40
2.54
  9
$DIMDLI
 40
0.38
  9
$DIMRND
 40
0.0
  9
$DIMDLE
 40
0.0
  9
$DIMEXE
 40
2.54
  9
$DIMTP
 40
0.0
  9
$DIMTM
 40
0.0
  9
$DIMTXT
 40
3.2
  9
$DIMCEN
 40
0.09
  9
$DIMTSZ
 40
0.0
  9
$DIMTOL
 70
     0
  9
$DIMLIM
 70
     0
  9
$DIMTIH
 70
     0
  9
$DIMTOH
 70
     0
  9
$DIMSE1
 70
     0
  9
$DIMSE2
 70
     0
  9
$DIMTAD
 70
     1
  9
$DIMZIN
 70
     0
  9
$DIMBLK
  1

  9
$DIMASO
 70
     1
  9
$DIMSHO
 70
     0
  9
$DIMPOST
  1

  9
$DIMAPOST
  1

  9
$DIMALT
 70
     0
  9
$DIMALTD
 70
     2
  9
$DIMALTF
 40
25.4
  9
$DIMLFAC
 40
1.0
  9
$DIMTOFL
 70
     0
  9
$DIMTVP
 40
1.0
  9
$DIMTIX
 70
     0
  9
$DIMSOXD
 70
     0
  9
$DIMSAH
 70
     1
  9
$DIMBLK1
  1

  9
$DIMBLK2
  1

  9
$DIMSTYLE
  2
STANDARD
  9
$DIMCLRD
 70
     0
  9
$DIMCLRE
 70
     0
  9
$DIMCLRT
 70
     0
  9
$DIMTFAC
 40
1.0
  9
$DIMGAP
 40
1.6
  9
$DIMJUST
 70
     0
  9
$DIMSD1
 70
     0
  9
$DIMSD2
 70
     0
  9
$DIMTOLJ
 70
     1
  9
$DIMTZIN
 70
     0
  9
$DIMALTZ
 70
     0
  9
$DIMALTTZ
 70
     0
  9
$DIMUPT
 70
     0
  9
$DIMDEC
 70
     4
  9
$DIMTDEC
 70
     4
  9
$DIMALTU
 70
     2
  9
$DIMALTTD
 70
     2
  9
$DIMTXSTY
  7
STANDARD
  9
$DIMAUNIT
 70
     0
  9
$DIMADEC
 70
     0
  9
$DIMALTRND
 40
0.0
  9
$DIMAZIN
 70
     0
  9
$DIMDSEP
 70
    46
  9
$DIMATFIT
 70
     3
  9
$DIMFRAC
 70
     0
  9
$DIMLDRBLK
  1

  9
$DIMLUNIT
 70
     2
  9
$DIMLWD
 70
    -2
  9
$DIMLWE
 70
    -2
  9
$DIMTMOVE
 70
     0
  9
$LUNITS
 70
     2
  9
$LUPREC
 70
     4
  9
$SKETCHINC
 40
0.1
  9
$FILLETRAD
 40
0.0
  9
$AUNITS
 70
     0
  9
$AUPREC
 70
     0
  9
$MENU
  1
.
  9
$ELEVATION
 40
0.0
  9
$PELEVATION
 40
0.0
  9
$THICKNESS
 40
0.0
  9
$LIMCHECK
 70
     0
  9
$CHAMFERA
 40
0.0
  9
$CHAMFERB
 40
0.0
  9
$CHAMFERC
 40
0.0
  9
$CHAMFERD
 40
0.0
  9
$SKPOLY
 70
     0
  9
$TDCREATE
 40
2452488.423138738
  9
$TDUCREATE
 40
2452488.048138738
  9
$TDUPDATE
 40
2456899.666689467
  9
$TDUUPDATE
 40
2456899.291689467
  9
$TDINDWG
 40
0.2465699074
  9
$TDUSRTIMER
 40
0.2465697222
  9
$USRTIMER
 70
     1
  9
$ANGBASE
 50
0.0
  9
$ANGDIR
 70
     0
  9
$PDMODE
 70
     3
  9
$PDSIZE
 40
0.0
  9
$PLINEWID
 40
0.0
  9
$SPLFRAME
 70
     0
  9
$SPLINETYPE
 70
     6
  9
$SPLINESEGS
 70
     8
  9
$HANDSEED
  5
226D
  9
$SURFTAB1
 70
     6
  9
$SURFTAB2
 70
     6
  9
$SURFTYPE
 70
     6
  9
$SURFU
 70
     6
  9
$SURFV
 70
     6
  9
$UCSBASE
  2

  9
$UCSNAME
  2

  9
$UCSORG
 10
0.0
 20
0.0
 30
0.0
  9
$UCSXDIR
 10
1.0
 20
0.0
 30
0.0
  9
$UCSYDIR
 10
0.0
 20
1.0
 30
0.0
  9
$UCSORTHOREF
  2

  9
$UCSORTHOVIEW
 70
     0
  9
$UCSORGTOP
 10
0.0
 20
0.0
 30
0.0
  9
$UCSORGBOTTOM
 10
0.0
 20
0.0
 30
0.0
  9
$UCSORGLEFT
 10
0.0
 20
0.0
 30
0.0
  9
$UCSORGRIGHT
 10
0.0
 20
0.0
 30
0.0
  9
$UCSORGFRONT
 10
0.0
 20
0.0
 30
0.0
  9
$UCSORGBACK
 10
0.0
 20
0.0
 30
0.0
  9
$PUCSBASE
  2

  9
$PUCSNAME
  2

  9
$PUCSORG
 10
0.0
 20
0.0
 30
0.0
  9
$PUCSXDIR
 10
1.0
 20
0.0
 30
0.0
  9
$PUCSYDIR
 10
0.0
 20
1.0
 30
0.0
  9
$PUCSORTHOREF
  2

  9
$PUCSORTHOVIEW
 70
     0
  9
$PUCSORGTOP
 10
0.0
 20
0.0
 30
0.0
  9
$PUCSORGBOTTOM
 10
0.0
 20
0.0
 30
0.0
  9
$PUCSORGLEFT
 10
0.0
 20
0.0
 30
0.0
  9
$PUCSORGRIGHT
 10
0.0
 20
0.0
 30
0.0
  9
$PUCSORGFRONT
 10
0.0
 20
0.0
 30
0.0
  9
$PUCSORGBACK
 10
0.0
 20
0.0
 30
0.0
  9
$USERI1
 70
     0
  9
$USERI2
 70
     0
  9
$USERI3
 70
     0
  9
$USERI4
 70
     0
  9
$USERI5
 70
     0
  9
$USERR1
 40
0.0
  9
$USERR2
 40
0.0
  9
$USERR3
 40
0.0
  9
$USERR4
 40
0.0
  9
$USERR5
 40
0.0
  9
$WORLDVIEW
 70
     1
  9
$SHADEDGE
 70
     3
  9
$SHADEDIF
 70
    70
  9
$TILEMODE
 70
     1
  9
$MAXACTVP
 70
    48
  9
$PINSBASE
 10
0.0
 20
0.0
 30
0.0
  9
$PLIMCHECK
 70
     0
  9
$PEXTMIN
 10
1.000000000000000E+20
 20
1.000000000000000E+20
 30
1.000000000000000E+20
  9
$PEXTMAX
 10
-1.000000000000000E+20
 20
-1.000000000000000E+20
 30
-1.000000000000000E+20
  9
$PLIMMIN
 10
0.0
 20
0.0
  9
$PLIMMAX
 10
12.0
 20
9.0
  9
$UNITMODE
 70
     0
  9
$VISRETAIN
 70
     1
  9
$PLINEGEN
 70
     0
  9
$PSLTSCALE
 70
     1
  9
$TREEDEPTH
 70
  3020
  9
$CMLSTYLE
  2
Standard
  9
$CMLJUST
 70
     0
  9
$CMLSCALE
 40
1.0
  9
$PROXYGRAPHICS
 70
     1
  9
$MEASUREMENT
 70
     0
  9
$CELWEIGHT
370
    -1
  9
$ENDCAPS
280
     0
  9
$JOINSTYLE
280
     0
  9
$LWDISPLAY
290
     0
  9
$INSUNITS
 70
     0
  9
$HYPERLINKBASE
  1

  9
$STYLESHEET
  1

  9
$XEDIT
290
     1
  9
$CEPSNTYPE
380
     0
  9
$PSTYLEMODE
290
     1
  9
$FINGERPRINTGUID
  2
{4B6F5492-D63C-41A3-89C9-EE5A89497D4D}
  9
$VERSIONGUID
  2
{592E8055-56D8-47EF-9782-E44BDBD5C675}
  9
$EXTNAMES
290
     1
  9
$PSVPSCALE
 40
0.0
  9
$OLESTARTUP
290
     0
  0
ENDSEC
  0
SECTION
  2
CLASSES
  0
CLASS
  1
ACDBDICTIONARYWDFLT
  2
AcDbDictionaryWithDefault
  3
AutoCAD 2000
 90
        0
280
     0
281
     0
  0
CLASS
  1
ACDBPLACEHOLDER
  2
AcDbPlaceHolder
  3
AutoCAD 2000
 90
        0
280
     0
281
     0
  0
CLASS
  1
LAYOUT
  2
AcDbLayout
  3
AutoCAD 2000
 90
        0
280
     0
281
     0
  0
CLASS
  1
DICTIONARYVAR
  2
AcDbDictionaryVar
  3
AutoCAD 2000
 90
        0
280
     0
281
     0
  0
CLASS
  1
LONG_TRANSACTION
  2
AcDbLongTransaction
  3
AutoCAD 2000
 90
    32768
280
     0
281
     0
  0
CLASS
  1
LWPOLYLINE
  2
AcDbPolyline
  3
AutoCAD 2000
 90
    32768
280
     0
281
     1
  0
CLASS
  1
HATCH
  2
AcDbHatch
  3
AutoCAD 2000
 90
    32768
280
     0
281
     1
  0
CLASS
  1
XRECORD
  2
AcDbXrecord
  3
AutoCAD 2000
 90
    32768
280
     0
281
     0
  0
ENDSEC
  0
SECTION
  2
TABLES
  0
TABLE
  2
VPORT
  5
21B9
330
0
100
AcDbSymbolTable
 70
     2
  0
VPORT
  5
226C
330
21B9
100
AcDbSymbolTableRecord
100
AcDbViewportTableRecord
  2
*Active
 70
     0
 10
0.0
 20
0.0
 11
1.0
 21
1.0
 12
312.1648958455762
 22
360.4310955730689
 13
0.0
 23
0.0
 14
1.0
 24
1.0
 15
0.0
 25
0.0
 16
0.0
 26
0.0
 36
1.0
 17
0.0
 27
0.0
 37
0.0
 40
530.4820023757432
 41
1.592161016949152
 42
50.0
 43
0.0
 44
0.0
 50
0.0
 51
0.0
 71
     0
 72
   100
 73
     1
 74
     3
 75
     0
 76
     0
 77
     0
 78
     0
281
     0
 65
     1
110
0.0
120
0.0
130
0.0
111
1.0
121
0.0
131
0.0
112
0.0
122
1.0
132
0.0
 79
     0
146
0.0
  0
ENDTAB
  0
TABLE
  2
LTYPE
  5
21B6
330
0
100
AcDbSymbolTable
 70
     2
  0
LTYPE
  5
21C4
330
21B6
100
AcDbSymbolTableRecord
100
AcDbLinetypeTableRecord
  2
ByBlock
 70
     0
  3

 72
    65
 73
     0
 40
0.0
  0
LTYPE
  5
21C5
330
21B6
100
AcDbSymbolTableRecord
100
AcDbLinetypeTableRecord
  2
ByLayer
 70
     0
  3

 72
    65
 73
     0
 40
0.0
  0
LTYPE
  5
21C6
330
21B6
100
AcDbSymbolTableRecord
100
AcDbLinetypeTableRecord
  2
CONTINUOUS
 70
     0
  3
Solid line
 72
    65
 73
     0
 40
0.0
  0
LTYPE
  5
21D4
330
21B6
100
AcDbSymbolTableRecord
100
AcDbLinetypeTableRecord
  2
CENTER
 70
     0
  3
__ . __
 72
    65
 73
     4
 40
7.0
 49
4.0
 74
     0
 49
-1.0
 74
     0
 49
1.0
 74
     0
 49
-1.0
 74
     0
  0
ENDTAB
  0
TABLE
  2
LAYER
  5
21B3
102
{ACAD_XDICTIONARY
360
2243
102
}
330
0
100
AcDbSymbolTable
 70
     1
  0
LAYER
  5
21C1
330
21B3
100
AcDbSymbolTableRecord
100
AcDbLayerTableRecord
  2
0
 70
     0
 62
     7
  6
CONTINUOUS
370
    -3
390
21C0
  0
ENDTAB
  0
TABLE
  2
STYLE
  5
21B4
330
0
100
AcDbSymbolTable
 70
     1
  0
STYLE
  5
21C2
330
21B4
100
AcDbSymbolTableRecord
100
AcDbTextStyleTableRecord
  2
STANDARD
 70
     0
 40
0.0
 41
1.0
 50
0.0
 71
     0
 42
0.2
  3
txt
  4
BIGFONT
  0
ENDTAB
  0
TABLE
  2
VIEW
  5
21B7
330
0
100
AcDbSymbolTable
 70
     1
  0
VIEW
  5
21E0
330
21B7
100
AcDbSymbolTableRecord
100
AcDbViewTableRecord
  2
OLE1
 70
     0
 40
3692.141019219747
 10
1914.591370701856
 20
1272.206200738182
 41
4595.022665841169
 11
0.0
 21
0.0
 31
1.0
 12
0.0
 22
0.0
 32
0.0
 42
50.0
 43
0.0
 44
0.0
 50
0.0
 71
     0
281
     0
 72
     1
110
0.0
120
0.0
130
0.0
111
1.0
121
0.0
131
0.0
112
0.0
122
1.0
132
0.0
 79
     0
146
0.0
  0
ENDTAB
  0
TABLE
  2
UCS
  5
21B8
330
0
100
AcDbSymbolTable
 70
     0
  0
ENDTAB
  0
TABLE
  2
APPID
  5
21BA
330
0
100
AcDbSymbolTable
 70
     5
  0
APPID
  5
21C3
330
21BA
100
AcDbSymbolTableRecord
100
AcDbRegAppTableRecord
  2
ACAD
 70
     0
  0
APPID
  5
21E1
330
21BA
100
AcDbSymbolTableRecord
100
AcDbRegAppTableRecord
  2
MCAD_NO_VIS
 70
     0
  0
APPID
  5
21E2
330
21BA
100
AcDbSymbolTableRecord
100
AcDbRegAppTableRecord
  2
ACAD_TEMP_GRAPHIC
 70
     0
  0
APPID
  5
21E3
330
21BA
100
AcDbSymbolTableRecord
100
AcDbRegAppTableRecord
  2
ACATTRIBSERVICES
 70
     0
  0
APPID
  5
21E4
330
21BA
100
AcDbSymbolTableRecord
100
AcDbRegAppTableRecord
  2
CONTENTBLOCKICON
 70
     0
  0
ENDTAB
  0
TABLE
  2
DIMSTYLE
  5
21BB
330
0
100
AcDbSymbolTable
 70
     1
100
AcDbDimStyleTable
 71
     0
  0
DIMSTYLE
105
21E5
330
21BB
100
AcDbSymbolTableRecord
100
AcDbDimStyleTableRecord
  2
STANDARD
 70
     0
279
     2
340
21C2
  0
ENDTAB
  0
TABLE
  2
BLOCK_RECORD
  5
21B2
330
0
100
AcDbSymbolTable
 70
     0
  0
BLOCK_RECORD
  5
21CF
102
{ACAD_XDICTIONARY
360
21FA
102
}
330
21B2
100
AcDbSymbolTableRecord
100
AcDbBlockTableRecord
  2
*Model_Space
340
21D2
  0
BLOCK_RECORD
  5
21CB
102
{ACAD_XDICTIONARY
360
21FC
102
}
330
21B2
100
AcDbSymbolTableRecord
100
AcDbBlockTableRecord
  2
*Paper_Space
340
21CE
  0
ENDTAB
  0
ENDSEC
  0
SECTION
  2
BLOCKS
  0
BLOCK
  5
21D0
330
21CF
100
AcDbEntity
  8
0
100
AcDbBlockBegin
  2
*Model_Space
 70
     0
 10
0.0
 20
0.0
 30
0.0
  3
*Model_Space
  1

  0
ENDBLK
  5
21D1
330
21CF
100
AcDbEntity
  8
0
100
AcDbBlockEnd
  0
BLOCK
  5
21CC
330
21CB
100
AcDbEntity
 67
     1
  8
0
100
AcDbBlockBegin
  2
*Paper_Space
 70
     0
 10
0.0
 20
0.0
 30
0.0
  3
*Paper_Space
  1

  0
ENDBLK
  5
21CD
330
21CB
100
AcDbEntity
 67
     1
  8
0
100
AcDbBlockEnd
  0
ENDSEC
  0
SECTION
  2
ENTITIES
  0
TEXT
  5
F6E
330
21CF
100
AcDbEntity
  8
0
  6
Continuous
100
AcDbText
 10
-108.4256095135538
 20
552.9553766777135
 30
0.0
 40
48.000002
  1
BVA__T01000 15A
 41
1.32095
100
AcDbText
  0
LINE
  5
1003
330
21CF
100
AcDbEntity
  8
0
  6
Continuous
100
AcDbLine
 10
167.9083
 20
427.9807186777125
 30
0.0
 11
172.9082999999999
 21
427.9807186777125
 31
0.0
  0
LINE
  5
1004
330
21CF
100
AcDbEntity
  8
0
  6
Continuous
100
AcDbLine
 10
167.9083
 20
422.2071896777134
 30
0.0
 11
172.9082999999999
 21
422.2071896777134
 31
0.0
  0
LINE
  5
1005
330
21CF
100
AcDbEntity
  8
0
  6
Continuous
100
AcDbLine
 10
205.9083
 20
382.3738936777136
 30
0.0
 11
205.9083
 21
385.0386866777128
 31
0.0
  0
LINE
  5
1006
330
21CF
100
AcDbEntity
  8
0
  6
Continuous
100
AcDbLine
 10
229.9082999999999
 20
382.3738936777136
 30
0.0
 11
229.9082999999999
 21
385.0386866777128
 31
0.0
  0
LINE
  5
1007
330
21CF
100
AcDbEntity
  8
0
  6
Continuous
100
AcDbLine
 10
250.4083
 20
403.3886870777128
 30
0.0
 11
250.4083
 21
420.6886862777127
 31
0.0
  0
LINE
  5
1008
330
21CF
100
AcDbEntity
  8
0
  6
Continuous
100
AcDbLine
 10
185.4082999999999
 20
403.3886870777128
 30
0.0
 11
185.4082999999999
 21
420.6886862777127
 31
0.0
  0
LINE
  5
1009
330
21CF
100
AcDbEntity
  8
0
  6
Continuous
100
AcDbLine
 10
205.9083
 20
441.7034796777125
 30
0.0
 11
205.9083
 21
439.0386866777127
 31
0.0
  0
LINE
  5
100A
330
21CF
100
AcDbEntity
  8
0
  6
Continuous
100
AcDbLine
 10
229.9082999999999
 20
441.7034796777125
 30
0.0
 11
229.9082999999999
 21
439.0386866777127
 31
0.0
  0
LINE
  5
100B
330
21CF
100
AcDbEntity
  8
0
  6
Continuous
100
AcDbLine
 10
179.9082999999999
 20
439.0386866777127
 30
0.0
 11
179.9082999999999
 21
385.0386866777128
 31
0.0
  0
LINE
  5
100C
330
21CF
100
AcDbEntity
  8
0
  6
Continuous
100
AcDbLine
 10
271.9082999999999
 20
439.0386866777127
 30
0.0
 11
271.9082999999999
 21
385.0386866777128
 31
0.0
  0
LINE
  5
100D
330
21CF
100
AcDbEntity
  8
0
  6
Continuous
100
AcDbLine
 10
179.9082999999999
 20
385.0386866777128
 30
0.0
 11
271.9082999999999
 21
385.0386866777128
 31
0.0
  0
LINE
  5
100E
330
21CF
100
AcDbEntity
  8
0
  6
Continuous
100
AcDbLine
 10
179.9082999999999
 20
439.0386866777127
 30
0.0
 11
271.9082999999999
 21
439.0386866777127
 31
0.0
  0
LINE
  5
100F
330
21CF
100
AcDbEntity
  8
0
  6
Continuous
100
AcDbLine
 10
175.9082999999999
 20
426.0386866777127
 30
0.0
 11
175.9082999999999
 21
436.0386866777137
 31
0.0
  0
LINE
  5
1010
330
21CF
100
AcDbEntity
  8
0
  6
Continuous
100
AcDbLine
 10
175.9082999999999
 20
426.0386866777127
 30
0.0
 11
179.9082999999999
 21
426.0386866777127
 31
0.0
  0
LINE
  5
1011
330
21CF
100
AcDbEntity
  8
0
  6
Continuous
100
AcDbLine
 10
175.9082999999999
 20
431.0386866777137
 30
0.0
 11
179.9082999999999
 21
431.0386866777137
 31
0.0
  0
LINE
  5
1012
330
21CF
100
AcDbEntity
  8
0
  6
Continuous
100
AcDbLine
 10
175.9082999999999
 20
436.0386866777137
 30
0.0
 11
179.9082999999999
 21
436.0386866777137
 31
0.0
  0
LINE
  5
1013
330
21CF
100
AcDbEntity
  8
0
  6
Continuous
100
AcDbLine
 10
172.9082999999999
 20
430.0386866777127
 30
0.0
 11
175.9082999999999
 21
430.0386866777127
 31
0.0
  0
LINE
  5
1014
330
21CF
100
AcDbEntity
  8
0
  6
Continuous
100
AcDbLine
 10
172.9082999999999
 20
420.0386866777137
 30
0.0
 11
172.9082999999999
 21
430.0386866777127
 31
0.0
  0
LINE
  5
1015
330
21CF
100
AcDbEntity
  8
0
  6
Continuous
100
AcDbLine
 10
172.9082999999999
 20
420.0386866777137
 30
0.0
 11
176.9083
 21
420.0386866777137
 31
0.0
  0
LINE
  5
1016
330
21CF
100
AcDbEntity
  8
0
  6
Continuous
100
AcDbLine
 10
172.9082999999999
 20
425.0386866777136
 30
0.0
 11
176.9083
 21
425.0386866777136
 31
0.0
  0
LINE
  5
1017
330
21CF
100
AcDbEntity
  8
0
  6
Continuous
100
AcDbLine
 10
167.9083
 20
427.9807186777125
 30
0.0
 11
167.9083
 21
422.2071896777134
 31
0.0
  0
LINE
  5
1018
330
21CF
100
AcDbEntity
  8
0
  6
Continuous
100
AcDbLine
 10
176.9083
 20
426.0386866777127
 30
0.0
 11
176.9083
 21
418.7834366777122
 31
0.0
  0
LINE
  5
1019
330
21CF
100
AcDbEntity
  8
0
  6
Continuous
100
AcDbLine
 10
176.9083
 20
418.7834366777122
 30
0.0
 11
179.9082999999999
 21
418.7834366777122
 31
0.0
  0
LINE
  5
101A
330
21CF
100
AcDbEntity
  8
0
  6
Continuous
100
AcDbLine
 10
175.9082999999999
 20
388.0386866777137
 30
0.0
 11
175.9082999999999
 21
398.0386866777127
 31
0.0
  0
LINE
  5
101B
330
21CF
100
AcDbEntity
  8
0
  6
Continuous
100
AcDbLine
 10
175.9082999999999
 20
393.0386866777137
 30
0.0
 11
179.9082999999999
 21
393.0386866777137
 31
0.0
  0
LINE
  5
101C
330
21CF
100
AcDbEntity
  8
0
  6
Continuous
100
AcDbLine
 10
175.9082999999999
 20
388.0386866777137
 30
0.0
 11
179.9082999999999
 21
388.0386866777137
 31
0.0
  0
LINE
  5
101D
330
21CF
100
AcDbEntity
  8
0
  6
Continuous
100
AcDbLine
 10
175.9082999999999
 20
398.0386866777127
 30
0.0
 11
179.9082999999999
 21
398.0386866777127
 31
0.0
  0
LINE
  5
101E
330
21CF
100
AcDbEntity
  8
0
  6
Continuous
100
AcDbLine
 10
283.9083
 20
427.9807186777125
 30
0.0
 11
278.9083
 21
427.9807186777125
 31
0.0
  0
LINE
  5
101F
330
21CF
100
AcDbEntity
  8
0
  6
Continuous
100
AcDbLine
 10
283.9083
 20
422.2071896777134
 30
0.0
 11
278.9083
 21
422.2071896777134
 31
0.0
  0
LINE
  5
1020
330
21CF
100
AcDbEntity
  8
0
  6
Continuous
100
AcDbLine
 10
275.9082999999999
 20
426.0386866777127
 30
0.0
 11
275.9082999999999
 21
436.0386866777137
 31
0.0
  0
LINE
  5
1021
330
21CF
100
AcDbEntity
  8
0
  6
Continuous
100
AcDbLine
 10
275.9082999999999
 20
426.0386866777127
 30
0.0
 11
271.9082999999999
 21
426.0386866777127
 31
0.0
  0
LINE
  5
1022
330
21CF
100
AcDbEntity
  8
0
  6
Continuous
100
AcDbLine
 10
275.9082999999999
 20
431.0386866777137
 30
0.0
 11
271.9082999999999
 21
431.0386866777137
 31
0.0
  0
LINE
  5
1023
330
21CF
100
AcDbEntity
  8
0
  6
Continuous
100
AcDbLine
 10
275.9082999999999
 20
436.0386866777137
 30
0.0
 11
271.9082999999999
 21
436.0386866777137
 31
0.0
  0
LINE
  5
1024
330
21CF
100
AcDbEntity
  8
0
  6
Continuous
100
AcDbLine
 10
278.9083
 20
430.0386866777127
 30
0.0
 11
275.9082999999999
 21
430.0386866777127
 31
0.0
  0
LINE
  5
1025
330
21CF
100
AcDbEntity
  8
0
  6
Continuous
100
AcDbLine
 10
278.9083
 20
420.0386866777137
 30
0.0
 11
278.9083
 21
430.0386866777127
 31
0.0
  0
LINE
  5
1026
330
21CF
100
AcDbEntity
  8
0
  6
Continuous
100
AcDbLine
 10
278.9083
 20
420.0386866777137
 30
0.0
 11
274.9083
 21
420.0386866777137
 31
0.0
  0
LINE
  5
1027
330
21CF
100
AcDbEntity
  8
0
  6
Continuous
100
AcDbLine
 10
278.9083
 20
425.0386866777136
 30
0.0
 11
274.9083
 21
425.0386866777136
 31
0.0
  0
LINE
  5
1028
330
21CF
100
AcDbEntity
  8
0
  6
Continuous
100
AcDbLine
 10
283.9083
 20
427.9807186777125
 30
0.0
 11
283.9083
 21
422.2071896777134
 31
0.0
  0
LINE
  5
1029
330
21CF
100
AcDbEntity
  8
0
  6
Continuous
100
AcDbLine
 10
274.9083
 20
426.0386866777127
 30
0.0
 11
274.9083
 21
418.7834366777122
 31
0.0
  0
LINE
  5
102A
330
21CF
100
AcDbEntity
  8
0
  6
Continuous
100
AcDbLine
 10
274.9083
 20
418.7834366777122
 30
0.0
 11
271.9082999999999
 21
418.7834366777122
 31
0.0
  0
LINE
  5
102B
330
21CF
100
AcDbEntity
  8
0
  6
Continuous
100
AcDbLine
 10
275.9082999999999
 20
388.0386866777137
 30
0.0
 11
275.9082999999999
 21
398.0386866777127
 31
0.0
  0
LINE
  5
102C
330
21CF
100
AcDbEntity
  8
0
  6
Continuous
100
AcDbLine
 10
275.9082999999999
 20
393.0386866777137
 30
0.0
 11
271.9082999999999
 21
393.0386866777137
 31
0.0
  0
LINE
  5
102D
330
21CF
100
AcDbEntity
  8
0
  6
Continuous
100
AcDbLine
 10
275.9082999999999
 20
388.0386866777137
 30
0.0
 11
271.9082999999999
 21
388.0386866777137
 31
0.0
  0
LINE
  5
102E
330
21CF
100
AcDbEntity
  8
0
  6
Continuous
100
AcDbLine
 10
275.9082999999999
 20
398.0386866777127
 30
0.0
 11
271.9082999999999
 21
398.0386866777127
 31
0.0
  0
ARC
  5
102F
330
21CF
100
AcDbEntity
  8
0
  6
Continuous
100
AcDbCircle
 10
217.9082999999998
 20
412.0386866777128
 30
0.0
 40
32.0
100
AcDbArc
 50
247.9756900000003
 51
292.0243099999992
  0
ARC
  5
1030
330
21CF
100
AcDbEntity
  8
0
  6
Continuous
100
AcDbCircle
 10
217.9082999999998
 20
412.0386866777128
 30
0.0
 40
32.0
100
AcDbArc
 50
67.97568900000111
 51
112.0243099999997
  0
LINE
  5
1036
330
21CF
100
AcDbEntity
  8
0
  6
Continuous
100
AcDbLine
 10
271.9082999999999
 20
218.7933986777125
 30
0.0
 11
179.9082999999999
 21
218.7933986777125
 31
0.0
  0
LINE
  5
1037
330
21CF
100
AcDbEntity
  8
0
  6
Continuous
100
AcDbLine
 10
179.9082999999999
 20
278.0668966777133
 30
0.0
 11
179.9082999999999
 21
218.5199006777132
 31
0.0
  0
LINE
  5
1038
330
21CF
100
AcDbEntity
  8
0
  6
Continuous
100
AcDbLine
 10
271.9082999999999
 20
278.0668966777133
 30
0.0
 11
271.9082999999999
 21
218.5199006777132
 31
0.0
  0
LINE
  5
1039
330
21CF
100
AcDbEntity
  8
0
  6
Continuous
100
AcDbLine
 10
271.9082999999999
 20
277.7933966777134
 30
0.0
 11
179.9082999999999
 21
277.7933966777134
 31
0.0
  0
LINE
  5
103B
330
21CF
100
AcDbEntity
  8
0
  6
Continuous
100
AcDbLine
 10
274.9083
 20
263.0486666777124
 30
0.0
 11
274.9083
 21
254.5381346777133
 31
0.0
  0
LINE
  5
103C
330
21CF
100
AcDbEntity
  8
0
  6
Continuous
100
AcDbLine
 10
278.9083
 20
264.6221766777126
 30
0.0
 11
271.9082999999999
 21
264.6221766777126
 31
0.0
  0
LINE
  5
103D
330
21CF
100
AcDbEntity
  8
0
  6
Continuous
100
AcDbLine
 10
276.4082999999998
 20
227.2354306777135
 30
0.0
 11
271.9082999999999
 21
227.2354306777135
 31
0.0
  0
LINE
  5
103E
330
21CF
100
AcDbEntity
  8
0
  6
Continuous
100
AcDbLine
 10
278.9083
 20
253.0751526777136
 30
0.0
 11
278.9083
 21
264.6221766777126
 31
0.0
  0
LINE
  5
103F
330
21CF
100
AcDbEntity
  8
0
  6
Continuous
100
AcDbLine
 10
276.4082999999998
 20
221.4619016777128
 30
0.0
 11
271.9082999999999
 21
221.4619016777128
 31
0.0
  0
LINE
  5
1040
330
21CF
100
AcDbEntity
  8
0
  6
Continuous
100
AcDbLine
 10
278.9083
 20
253.0751526777136
 30
0.0
 11
271.9082999999999
 21
253.0751526777136
 31
0.0
  0
LINE
  5
1041
330
21CF
100
AcDbEntity
  8
0
  6
Continuous
100
AcDbLine
 10
274.9083
 20
253.0751526777136
 30
0.0
 11
274.9083
 21
264.6221766777126
 31
0.0
  0
LINE
  5
1042
330
21CF
100
AcDbEntity
  8
0
  6
Continuous
100
AcDbLine
 10
283.9083
 20
255.9619016777128
 30
0.0
 11
283.9083
 21
261.7354306777121
 31
0.0
  0
LINE
  5
1043
330
21CF
100
AcDbEntity
  8
0
  6
Continuous
100
AcDbLine
 10
271.9082999999999
 20
257.7933986777134
 30
0.0
 11
179.9082999999999
 21
257.7933986777134
 31
0.0
  0
LINE
  5
1044
330
21CF
100
AcDbEntity
  8
0
  6
Continuous
100
AcDbLine
 10
271.9082999999999
 20
238.7933986777134
 30
0.0
 11
179.9082999999999
 21
238.7933986777134
 31
0.0
  0
LINE
  5
1045
330
21CF
100
AcDbEntity
  8
0
  6
Continuous
100
AcDbLine
 10
276.4082999999998
 20
218.5199006777132
 30
0.0
 11
276.4082999999998
 21
230.0668976777135
 31
0.0
  0
LINE
  5
1046
330
21CF
100
AcDbEntity
  8
0
  6
Continuous
100
AcDbLine
 10
276.4082999999998
 20
218.5199006777132
 30
0.0
 11
271.9082999999999
 21
218.5199006777132
 31
0.0
  0
LINE
  5
1047
330
21CF
100
AcDbEntity
  8
0
  6
Continuous
100
AcDbLine
 10
276.4082999999998
 20
230.0668976777135
 30
0.0
 11
271.9082999999999
 21
230.0668976777135
 31
0.0
  0
LINE
  5
1048
330
21CF
100
AcDbEntity
  8
0
  6
Continuous
100
AcDbLine
 10
205.9086719999998
 20
188.7934446777128
 30
0.0
 11
202.6943909999999
 21
218.7933976777123
 31
0.0
  0
LINE
  5
1049
330
21CF
100
AcDbEntity
  8
0
  6
Continuous
100
AcDbLine
 10
229.908677
 20
188.7933566777134
 30
0.0
 11
233.1229679999999
 21
218.7934006777124
 31
0.0
  0
LINE
  5
104A
330
21CF
100
AcDbEntity
  8
0
  6
Continuous
100
AcDbLine
 10
205.9083
 20
188.7933986777125
 30
0.0
 11
205.9083
 21
132.1286116777134
 31
0.0
  0
LINE
  5
104B
330
21CF
100
AcDbEntity
  8
0
  6
Continuous
100
AcDbLine
 10
229.9082999999999
 20
188.7933986777125
 30
0.0
 11
229.9082999999999
 21
132.1286116777134
 31
0.0
  0
LINE
  5
104C
330
21CF
100
AcDbEntity
  8
0
  6
Continuous
100
AcDbLine
 10
205.9083
 20
188.7933986777125
 30
0.0
 11
229.9082999999999
 21
188.7933986777125
 31
0.0
  0
LINE
  5
104F
330
21CF
100
AcDbEntity
  8
0
  6
Continuous
100
AcDbLine
 10
283.9083
 20
261.7354306777121
 30
0.0
 11
274.9083
 21
261.7354306777121
 31
0.0
  0
LINE
  5
1050
330
21CF
100
AcDbEntity
  8
0
  6
Continuous
100
AcDbLine
 10
283.9083
 20
255.9619016777128
 30
0.0
 11
274.9083
 21
255.9619016777128
 31
0.0
  0
LINE
  5
1051
330
21CF
100
AcDbEntity
  8
0
  6
Continuous
100
AcDbLine
 10
276.4082999999998
 20
275.2354266777121
 30
0.0
 11
271.9082999999999
 21
275.2354266777121
 31
0.0
  0
LINE
  5
1052
330
21CF
100
AcDbEntity
  8
0
  6
Continuous
100
AcDbLine
 10
276.4082999999998
 20
269.4619066777125
 30
0.0
 11
271.9082999999999
 21
269.4619066777125
 31
0.0
  0
LINE
  5
1053
330
21CF
100
AcDbEntity
  8
0
  6
Continuous
100
AcDbLine
 10
276.4082999999998
 20
278.0668966777133
 30
0.0
 11
271.9082999999999
 21
278.0668966777133
 31
0.0
  0
LINE
  5
1054
330
21CF
100
AcDbEntity
  8
0
  6
Continuous
100
AcDbLine
 10
276.4082999999998
 20
266.5198966777134
 30
0.0
 11
276.4082999999998
 21
278.0668966777133
 31
0.0
  0
LINE
  5
1055
330
21CF
100
AcDbEntity
  8
0
  6
Continuous
100
AcDbLine
 10
276.4082999999998
 20
266.5198966777134
 30
0.0
 11
271.9082999999999
 21
266.5198966777134
 31
0.0
  0
LINE
  5
1056
330
21CF
100
AcDbEntity
  8
0
  6
Continuous
100
AcDbLine
 10
175.4083
 20
266.5198966777134
 30
0.0
 11
179.9082999999999
 21
266.5198966777134
 31
0.0
  0
LINE
  5
1057
330
21CF
100
AcDbEntity
  8
0
  6
Continuous
100
AcDbLine
 10
176.9083
 20
263.0486666777124
 30
0.0
 11
176.9083
 21
254.5381346777133
 31
0.0
  0
LINE
  5
1058
330
21CF
100
AcDbEntity
  8
0
  6
Continuous
100
AcDbLine
 10
172.9082999999999
 20
264.6221766777126
 30
0.0
 11
179.9082999999999
 21
264.6221766777126
 31
0.0
  0
LINE
  5
1059
330
21CF
100
AcDbEntity
  8
0
  6
Continuous
100
AcDbLine
 10
175.4083
 20
227.2354306777135
 30
0.0
 11
179.9082999999999
 21
227.2354306777135
 31
0.0
  0
LINE
  5
105A
330
21CF
100
AcDbEntity
  8
0
  6
Continuous
100
AcDbLine
 10
172.9082999999999
 20
253.0751526777136
 30
0.0
 11
172.9082999999999
 21
264.6221766777126
 31
0.0
  0
LINE
  5
105B
330
21CF
100
AcDbEntity
  8
0
  6
Continuous
100
AcDbLine
 10
175.4083
 20
221.4619016777128
 30
0.0
 11
179.9082999999999
 21
221.4619016777128
 31
0.0
  0
LINE
  5
105C
330
21CF
100
AcDbEntity
  8
0
  6
Continuous
100
AcDbLine
 10
172.9082999999999
 20
253.0751526777136
 30
0.0
 11
179.9082999999999
 21
253.0751526777136
 31
0.0
  0
LINE
  5
105D
330
21CF
100
AcDbEntity
  8
0
  6
Continuous
100
AcDbLine
 10
176.9083
 20
253.0751526777136
 30
0.0
 11
176.9083
 21
264.6221766777126
 31
0.0
  0
LINE
  5
105E
330
21CF
100
AcDbEntity
  8
0
  6
Continuous
100
AcDbLine
 10
167.9083
 20
255.9619016777128
 30
0.0
 11
167.9083
 21
261.7354306777121
 31
0.0
  0
LINE
  5
105F
330
21CF
100
AcDbEntity
  8
0
  6
Continuous
100
AcDbLine
 10
175.4083
 20
218.5199006777132
 30
0.0
 11
175.4083
 21
230.0668976777135
 31
0.0
  0
LINE
  5
1060
330
21CF
100
AcDbEntity
  8
0
  6
Continuous
100
AcDbLine
 10
175.4083
 20
218.5199006777132
 30
0.0
 11
179.9082999999999
 21
218.5199006777132
 31
0.0
  0
LINE
  5
1061
330
21CF
100
AcDbEntity
  8
0
  6
Continuous
100
AcDbLine
 10
175.4083
 20
230.0668976777135
 30
0.0
 11
179.9082999999999
 21
230.0668976777135
 31
0.0
  0
LINE
  5
1062
330
21CF
100
AcDbEntity
  8
0
  6
Continuous
100
AcDbLine
 10
175.4083
 20
275.2354266777121
 30
0.0
 11
179.9082999999999
 21
275.2354266777121
 31
0.0
  0
LINE
  5
1063
330
21CF
100
AcDbEntity
  8
0
  6
Continuous
100
AcDbLine
 10
175.4083
 20
269.4619066777125
 30
0.0
 11
179.9082999999999
 21
269.4619066777125
 31
0.0
  0
LINE
  5
1064
330
21CF
100
AcDbEntity
  8
0
  6
Continuous
100
AcDbLine
 10
175.4083
 20
278.0668966777133
 30
0.0
 11
179.9082999999999
 21
278.0668966777133
 31
0.0
  0
LINE
  5
1065
330
21CF
100
AcDbEntity
  8
0
  6
Continuous
100
AcDbLine
 10
175.4083
 20
266.5198966777134
 30
0.0
 11
175.4083
 21
278.0668966777133
 31
0.0
  0
LINE
  5
1066
330
21CF
100
AcDbEntity
  8
0
  6
Continuous
100
AcDbLine
 10
167.9083
 20
261.7354306777121
 30
0.0
 11
176.9083
 21
261.7354306777121
 31
0.0
  0
LINE
  5
1067
330
21CF
100
AcDbEntity
  8
0
  6
Continuous
100
AcDbLine
 10
167.9083
 20
255.9619016777128
 30
0.0
 11
176.9083
 21
255.9619016777128
 31
0.0
  0
ARC
  5
1068
330
21CF
100
AcDbEntity
  8
0
  6
Continuous
100
AcDbCircle
 10
217.9082999999998
 20
161.7934066777134
 30
0.0
 40
32.0
100
AcDbArc
 50
247.9756900000003
 51
292.0243099999992
  0
LINE
  5
106B
330
21CF
100
AcDbEntity
  8
0
  6
Continuous
100
AcDbLine
 10
378.7488746699628
 20
216.7933986777125
 30
0.0
 11
378.7488746699628
 21
190.7933986777133
 31
0.0
  0
LINE
  5
106C
330
21CF
100
AcDbEntity
  8
0
  6
Continuous
100
AcDbLine
 10
358.7488746699627
 20
216.7933986777125
 30
0.0
 11
358.7488746699627
 21
190.7933986777133
 31
0.0
  0
LINE
  5
106D
330
21CF
100
AcDbEntity
  8
0
  6
Continuous
100
AcDbLine
 10
339.7488746699626
 20
218.7933986777125
 30
0.0
 11
397.7488746699625
 21
218.7933986777125
 31
0.0
  0
LINE
  5
106E
330
21CF
100
AcDbEntity
  8
0
  6
Continuous
100
AcDbLine
 10
343.2489056699628
 20
277.7933966777134
 30
0.0
 11
394.2488876699628
 21
277.7933966777134
 31
0.0
  0
LINE
  5
106F
330
21CF
100
AcDbEntity
  8
0
  6
Continuous
100
AcDbLine
 10
395.7488746699628
 20
238.8682896777133
 30
0.0
 11
395.7488746699628
 21
257.7185086777121
 31
0.0
  0
LINE
  5
1070
330
21CF
100
AcDbEntity
  8
0
  6
Continuous
100
AcDbLine
 10
341.7488746699626
 20
238.8682896777133
 30
0.0
 11
341.7488746699626
 21
257.7185086777121
 31
0.0
  0
LINE
  5
1071
330
21CF
100
AcDbEntity
  8
0
  6
Continuous
100
AcDbLine
 10
341.7544856699628
 20
238.718731677712
 30
0.0
 11
343.2488856699628
 21
218.7934006777124
 31
0.0
  0
LINE
  5
1072
330
21CF
100
AcDbEntity
  8
0
  6
Continuous
100
AcDbLine
 10
341.7545056699627
 20
257.8680866777121
 30
0.0
 11
343.2489036699628
 21
277.7933966777134
 31
0.0
  0
LINE
  5
1073
330
21CF
100
AcDbEntity
  8
0
  6
Continuous
100
AcDbLine
 10
394.2488876699628
 20
277.7933966777134
 30
0.0
 11
395.7432846699628
 21
257.8681056777123
 31
0.0
  0
LINE
  5
1074
330
21CF
100
AcDbEntity
  8
0
  6
Continuous
100
AcDbLine
 10
395.7432776699627
 20
238.7187156777125
 30
0.0
 11
394.2488786699627
 21
218.7933996777128
 31
0.0
  0
LINE
  5
1075
330
21CF
100
AcDbEntity
  8
0
  6
Continuous
100
AcDbLine
 10
339.7488746699626
 20
188.7933986777125
 30
0.0
 11
397.7488746699625
 21
188.7933986777125
 31
0.0
  0
LINE
  5
1076
330
21CF
100
AcDbEntity
  8
0
  6
Continuous
100
AcDbLine
 10
341.7488746699626
 20
216.7933986777125
 30
0.0
 11
341.7488746699626
 21
190.7933986777133
 31
0.0
  0
LINE
  5
1077
330
21CF
100
AcDbEntity
  8
0
  6
Continuous
100
AcDbLine
 10
395.7488746699628
 20
216.7933986777125
 30
0.0
 11
395.7488746699628
 21
190.7933986777133
 31
0.0
  0
LINE
  5
1078
330
21CF
100
AcDbEntity
  8
0
  6
Continuous
100
AcDbLine
 10
397.7488746699625
 20
218.7933986777125
 30
0.0
 11
397.7488746699625
 21
188.7933986777125
 31
0.0
  0
LINE
  5
1079
330
21CF
100
AcDbEntity
  8
0
  6
Continuous
100
AcDbLine
 10
339.7488746699626
 20
218.7933986777125
 30
0.0
 11
339.7488746699626
 21
188.7933986777125
 31
0.0
  0
LINE
  5
107A
330
21CF
100
AcDbEntity
  8
0
  6
Continuous
100
AcDbLine
 10
341.7488746699626
 20
190.7933986777133
 30
0.0
 11
395.7488746699628
 21
190.7933986777133
 31
0.0
  0
LINE
  5
107B
330
21CF
100
AcDbEntity
  8
0
  6
Continuous
100
AcDbLine
 10
387.7488766699627
 20
230.0669016777124
 30
0.0
 11
382.7488736699628
 21
227.1801486777132
 31
0.0
  0
LINE
  5
107C
330
21CF
100
AcDbEntity
  8
0
  6
Continuous
100
AcDbLine
 10
382.7488746699628
 20
227.1801486777132
 30
0.0
 11
382.7488746699628
 21
221.4066456777123
 31
0.0
  0
LINE
  5
107D
330
21CF
100
AcDbEntity
  8
0
  6
Continuous
100
AcDbLine
 10
387.7488736699628
 20
218.5198946777124
 30
0.0
 11
382.7488726699625
 21
221.4066466777128
 31
0.0
  0
LINE
  5
107E
330
21CF
100
AcDbEntity
  8
0
  6
Continuous
100
AcDbLine
 10
392.7488766699628
 20
221.4066476777125
 30
0.0
 11
387.7488736699628
 21
218.5198946777124
 31
0.0
  0
LINE
  5
107F
330
21CF
100
AcDbEntity
  8
0
  6
Continuous
100
AcDbLine
 10
392.7488746699625
 20
227.1801486777132
 30
0.0
 11
392.7488746699625
 21
221.4066456777123
 31
0.0
  0
LINE
  5
1080
330
21CF
100
AcDbEntity
  8
0
  6
Continuous
100
AcDbLine
 10
387.7488726699628
 20
230.0669006777124
 30
0.0
 11
392.7488736699628
 21
227.1801486777132
 31
0.0
  0
LINE
  5
1081
330
21CF
100
AcDbEntity
  8
0
  6
Continuous
100
AcDbLine
 10
349.7488766699627
 20
230.0669006777124
 30
0.0
 11
344.7488756699626
 21
227.1801486777132
 31
0.0
  0
LINE
  5
1082
330
21CF
100
AcDbEntity
  8
0
  6
Continuous
100
AcDbLine
 10
344.7488746699626
 20
227.1801486777132
 30
0.0
 11
344.7488746699626
 21
221.4066456777123
 31
0.0
  0
LINE
  5
1083
330
21CF
100
AcDbEntity
  8
0
  6
Continuous
100
AcDbLine
 10
349.7488756699626
 20
218.5198946777124
 30
0.0
 11
344.7488726699627
 21
221.4066476777125
 31
0.0
  0
LINE
  5
1084
330
21CF
100
AcDbEntity
  8
0
  6
Continuous
100
AcDbLine
 10
354.7488766699627
 20
221.4066466777128
 30
0.0
 11
349.7488756699626
 21
218.5198946777124
 31
0.0
  0
LINE
  5
1085
330
21CF
100
AcDbEntity
  8
0
  6
Continuous
100
AcDbLine
 10
354.7488746699626
 20
227.1801486777132
 30
0.0
 11
354.7488746699626
 21
221.4066456777123
 31
0.0
  0
LINE
  5
1086
330
21CF
100
AcDbEntity
  8
0
  6
Continuous
100
AcDbLine
 10
349.7488726699628
 20
230.0669016777124
 30
0.0
 11
354.7488756699626
 21
227.1801486777132
 31
0.0
  0
LINE
  5
1087
330
21CF
100
AcDbEntity
  8
0
  6
Continuous
100
AcDbLine
 10
387.7488756699625
 20
278.0669066777134
 30
0.0
 11
382.7488726699625
 21
275.1801466777134
 31
0.0
  0
LINE
  5
1088
330
21CF
100
AcDbEntity
  8
0
  6
Continuous
100
AcDbLine
 10
382.7488746699628
 20
275.1801466777134
 30
0.0
 11
382.7488746699628
 21
269.4066466777128
 31
0.0
  0
LINE
  5
1089
330
21CF
100
AcDbEntity
  8
0
  6
Continuous
100
AcDbLine
 10
387.7488736699628
 20
266.5198966777134
 30
0.0
 11
382.7488746699628
 21
269.4066466777128
 31
0.0
  0
LINE
  5
108A
330
21CF
100
AcDbEntity
  8
0
  6
Continuous
100
AcDbLine
 10
392.7488756699624
 20
269.4066466777128
 30
0.0
 11
387.7488726699628
 21
266.5198966777134
 31
0.0
  0
LINE
  5
108B
330
21CF
100
AcDbEntity
  8
0
  6
Continuous
100
AcDbLine
 10
392.7488746699625
 20
275.1801466777134
 30
0.0
 11
392.7488746699625
 21
269.4066466777128
 31
0.0
  0
LINE
  5
108C
330
21CF
100
AcDbEntity
  8
0
  6
Continuous
100
AcDbLine
 10
387.7488746699625
 20
278.0669066777134
 30
0.0
 11
392.7488746699625
 21
275.1801466777134
 31
0.0
  0
LINE
  5
108D
330
21CF
100
AcDbEntity
  8
0
  6
Continuous
100
AcDbLine
 10
349.7488746699628
 20
278.0669066777134
 30
0.0
 11
344.7488746699626
 21
275.1801466777134
 31
0.0
  0
LINE
  5
108E
330
21CF
100
AcDbEntity
  8
0
  6
Continuous
100
AcDbLine
 10
344.7488746699626
 20
275.1801466777134
 30
0.0
 11
344.7488746699626
 21
269.4066466777128
 31
0.0
  0
LINE
  5
108F
330
21CF
100
AcDbEntity
  8
0
  6
Continuous
100
AcDbLine
 10
349.7488766699627
 20
266.5198966777134
 30
0.0
 11
344.7488736699628
 21
269.4066466777128
 31
0.0
  0
LINE
  5
1090
330
21CF
100
AcDbEntity
  8
0
  6
Continuous
100
AcDbLine
 10
354.7488746699626
 20
269.4066466777128
 30
0.0
 11
349.7488756699626
 21
266.5198966777134
 31
0.0
  0
LINE
  5
1091
330
21CF
100
AcDbEntity
  8
0
  6
Continuous
100
AcDbLine
 10
354.7488746699626
 20
275.1801466777134
 30
0.0
 11
354.7488746699626
 21
269.4066466777128
 31
0.0
  0
LINE
  5
1092
330
21CF
100
AcDbEntity
  8
0
  6
Continuous
100
AcDbLine
 10
349.7488736699628
 20
278.0669066777134
 30
0.0
 11
354.7488766699627
 21
275.1801466777134
 31
0.0
  0
LINE
  5
1093
330
21CF
100
AcDbEntity
  8
0
  6
Continuous
100
AcDbLine
 10
355.7488736699628
 20
264.6221766777126
 30
0.0
 11
360.7806869699625
 21
261.7354306777121
 31
0.0
  0
LINE
  5
1094
330
21CF
100
AcDbEntity
  8
0
  6
Continuous
100
AcDbLine
 10
355.7488756699626
 20
264.6221766777126
 30
0.0
 11
350.7170616699626
 21
261.7354276777124
 31
0.0
  0
LINE
  5
1095
330
21CF
100
AcDbEntity
  8
0
  6
Continuous
100
AcDbLine
 10
355.7488726699626
 20
252.9646146777135
 30
0.0
 11
350.7170596699626
 21
255.8513646777134
 31
0.0
  0
LINE
  5
1096
330
21CF
100
AcDbEntity
  8
0
  6
Continuous
100
AcDbLine
 10
355.7488726699626
 20
252.9646186777121
 30
0.0
 11
360.7806859699628
 21
255.8513686777128
 31
0.0
  0
LINE
  5
1097
330
21CF
100
AcDbEntity
  8
0
  6
Continuous
100
AcDbLine
 10
360.7806873699628
 20
261.7354306777121
 30
0.0
 11
360.7806873699628
 21
255.8513676777125
 31
0.0
  0
LINE
  5
1098
330
21CF
100
AcDbEntity
  8
0
  6
Continuous
100
AcDbLine
 10
350.7170616699626
 20
261.7354306777121
 30
0.0
 11
350.7170616699626
 21
255.8513676777125
 31
0.0
  0
LINE
  5
1099
330
21CF
100
AcDbEntity
  8
0
  6
Continuous
100
AcDbLine
 10
341.7488746699626
 20
216.7933986777125
 30
0.0
 11
395.7488746699628
 21
216.7933986777125
 31
0.0
  0
ARC
  5
109A
330
21CF
100
AcDbEntity
  8
0
  6
Continuous
100
AcDbCircle
 10
368.7488746699628
 20
161.7934066777134
 30
0.0
 40
32.0
100
AcDbArc
 50
122.4617699999986
 51
57.53823399999792
  0
ARC
  5
109B
330
21CF
100
AcDbEntity
  8
0
  6
Continuous
100
AcDbCircle
 10
343.7488746699628
 20
257.7185086777121
 30
0.0
 40
2.0
100
AcDbArc
 50
175.7108499999993
 51
180.0000100000009
  0
ARC
  5
109C
330
21CF
100
AcDbEntity
  8
0
  6
Continuous
100
AcDbCircle
 10
343.7488746699628
 20
238.8682896777133
 30
0.0
 40
2.0
100
AcDbArc
 50
179.9999899999988
 51
184.2891500000004
  0
ARC
  5
109D
330
21CF
100
AcDbEntity
  8
0
  6
Continuous
100
AcDbCircle
 10
393.7488746699628
 20
257.7185086777121
 30
0.0
 40
2.0
100
AcDbArc
 50
0.0
 51
4.289153500001481
  0
ARC
  5
109E
330
21CF
100
AcDbEntity
  8
0
  6
Continuous
100
AcDbCircle
 10
393.7488746699628
 20
238.8682896777133
 30
0.0
 40
2.0
100
AcDbArc
 50
355.7108499999994
 51
0.0
  0
CIRCLE
  5
109F
330
21CF
100
AcDbEntity
  8
0
  6
Continuous
100
AcDbCircle
 10
368.7488746699628
 20
248.7933986777133
 30
0.0
 40
4.5
  0
CIRCLE
  5
10A0
330
21CF
100
AcDbEntity
  8
0
  6
Continuous
100
AcDbCircle
 10
355.7488746699628
 20
258.7933986777124
 30
0.0
 40
2.9447174
  0
LINE
  5
1785
330
21CF
100
AcDbEntity
  8
0
  6
Continuous
100
AcDbLine
 10
250.4083
 20
144.7934066777133
 30
0.0
 11
247.5583005999999
 21
144.7934066777133
 31
0.0
  0
LINE
  5
1786
330
21CF
100
AcDbEntity
  8
0
  6
Continuous
100
AcDbLine
 10
247.5583005999999
 20
144.7934066777133
 30
0.0
 11
245.3198835721261
 21
150.9434066777134
 31
0.0
  0
LINE
  5
1788
330
21CF
100
AcDbEntity
  8
0
  6
Continuous
100
AcDbLine
 10
250.4083
 20
178.7934066777133
 30
0.0
 11
250.4083
 21
144.7934066777133
 31
0.0
  0
LINE
  5
178A
330
21CF
100
AcDbEntity
  8
0
  6
Continuous
100
AcDbLine
 10
247.5583005999999
 20
178.7934066777133
 30
0.0
 11
245.3198835721261
 21
172.6434066777123
 31
0.0
  0
LINE
  5
178B
330
21CF
100
AcDbEntity
  8
0
  6
Continuous
100
AcDbLine
 10
250.4083
 20
178.7934066777133
 30
0.0
 11
247.5583005999999
 21
178.7934066777133
 31
0.0
  0
LINE
  5
1790
330
21CF
100
AcDbEntity
  8
0
  6
Continuous
100
AcDbLine
 10
185.4082999999999
 20
178.7934066777133
 30
0.0
 11
188.2582994
 21
178.7934066777133
 31
0.0
  0
LINE
  5
1791
330
21CF
100
AcDbEntity
  8
0
  6
Continuous
100
AcDbLine
 10
188.2582994
 20
178.7934066777133
 30
0.0
 11
190.4967163895198
 21
172.6434067830894
 31
0.0
  0
LINE
  5
1793
330
21CF
100
AcDbEntity
  8
0
  6
Continuous
100
AcDbLine
 10
185.4082999999999
 20
144.7934066777133
 30
0.0
 11
185.4082999999999
 21
178.7934066777133
 31
0.0
  0
LINE
  5
1795
330
21CF
100
AcDbEntity
  8
0
  6
Continuous
100
AcDbLine
 10
188.2582994
 20
144.7934066777133
 30
0.0
 11
190.4967163895198
 21
150.9434065723365
 31
0.0
  0
LINE
  5
1796
330
21CF
100
AcDbEntity
  8
0
  6
Continuous
100
AcDbLine
 10
185.4082999999999
 20
144.7934066777133
 30
0.0
 11
188.2582994
 21
144.7934066777133
 31
0.0
  0
CIRCLE
  5
179A
330
21CF
100
AcDbEntity
  8
0
  6
Continuous
100
AcDbCircle
 10
368.7488746699628
 20
161.7934066777134
 30
0.0
 40
17.05961969520423
  0
LINE
  5
1860
330
21CF
100
AcDbEntity
  8
0
  6
Continuous
100
AcDbLine
 10
190.4967160999999
 20
172.6434066777123
 30
0.0
 11
205.9083
 21
172.6434066777123
 31
0.0
  0
LINE
  5
1861
330
21CF
100
AcDbEntity
  8
0
  6
Continuous
100
AcDbLine
 10
190.4967160999999
 20
150.9434066777134
 30
0.0
 11
205.9083
 21
150.9434066777134
 31
0.0
  0
LINE
  5
1862
330
21CF
100
AcDbEntity
  8
0
  6
Continuous
100
AcDbLine
 10
229.9082999999999
 20
172.6434066777123
 30
0.0
 11
245.3198835721261
 21
172.6434066777123
 31
0.0
  0
LINE
  5
1863
330
21CF
100
AcDbEntity
  8
0
  6
Continuous
100
AcDbLine
 10
229.908677
 20
150.9434066777134
 30
0.0
 11
245.3198835721261
 21
150.9434066777134
 31
0.0
  0
LINE
  5
1864
330
21CF
100
AcDbEntity
  8
0
  6
Continuous
100
AcDbLine
 10
190.4967164278737
 20
172.6434066777123
 30
0.0
 11
190.4967164278737
 21
150.9434066777134
 31
0.0
  0
LINE
  5
1865
330
21CF
100
AcDbEntity
  8
0
  6
Continuous
100
AcDbLine
 10
245.3198835721261
 20
172.6434066777123
 30
0.0
 11
245.3198835721261
 21
150.9434066777134
 31
0.0
  0
CIRCLE
  5
1867
330
21CF
100
AcDbEntity
  8
0
  6
Continuous
100
AcDbCircle
 10
368.7488746699628
 20
161.7934066777134
 30
0.0
 40
10.84999999999989
  0
LINE
  5
1F2D
330
21CF
100
AcDbEntity
  8
0
  6
Continuous
100
AcDbLine
 10
211.9082999999998
 20
292.7934066777132
 30
0.0
 11
223.9082999999999
 21
292.7934066777132
 31
0.0
  0
LINE
  5
1F31
330
21CF
100
AcDbEntity
  8
0
  6
Continuous
100
AcDbLine
 10
211.9082999999998
 20
277.7933966777134
 30
0.0
 11
211.9082999999998
 21
292.7934066777132
 31
0.0
  0
LINE
  5
1F32
330
21CF
100
AcDbEntity
  8
0
  6
Continuous
100
AcDbLine
 10
223.9082999999999
 20
277.7933966777134
 30
0.0
 11
223.9082999999999
 21
292.7934066777132
 31
0.0
  0
LINE
  5
1F33
330
21CF
100
AcDbEntity
  8
0
  6
Continuous
100
AcDbLine
 10
362.7488966699628
 20
277.7933966777134
 30
0.0
 11
362.7488966699628
 21
292.7934066777132
 31
0.0
  0
LINE
  5
1F34
330
21CF
100
AcDbEntity
  8
0
  6
Continuous
100
AcDbLine
 10
374.7488966699628
 20
277.7933966777134
 30
0.0
 11
374.7488966699628
 21
292.7934066777132
 31
0.0
  0
LINE
  5
1F35
330
21CF
100
AcDbEntity
  8
0
  6
Continuous
100
AcDbLine
 10
362.7488966699628
 20
292.7934066777132
 30
0.0
 11
374.7488966699628
 21
292.7934066777132
 31
0.0
  0
CIRCLE
  5
1F3A
330
21CF
100
AcDbEntity
  8
0
  6
Continuous
100
AcDbCircle
 10
217.9082999999998
 20
412.0386866777128
 30
0.0
 40
6.0
  0
LINE
  5
224F
330
21CF
100
AcDbEntity
  8
0
  6
CENTER
100
AcDbLine
 10
217.9082999999999
 20
119.9106210924116
 30
0.0
 11
217.9082999999999
 21
303.528273859598
 31
0.0
  0
LINE
  5
2250
330
21CF
100
AcDbEntity
  8
0
  6
CENTER
100
AcDbLine
 10
287.159209199204
 20
412.0386866777129
 30
0.0
 11
162.4381728387031
 21
412.0386866777127
 31
0.0
  0
LINE
  5
2251
330
21CF
100
AcDbEntity
  8
0
  6
CENTER
100
AcDbLine
 10
217.9082999999998
 20
370.6261809403053
 30
0.0
 11
217.9082999999998
 21
453.4511924151202
 31
0.0
  0
LINE
  5
2252
330
21CF
100
AcDbEntity
  8
0
  6
CENTER
100
AcDbLine
 10
368.7488746699628
 20
119.9106210924117
 30
0.0
 11
368.7488746699628
 21
303.5282738595981
 31
0.0
  0
LINE
  5
2253
330
21CF
100
AcDbEntity
  8
0
  6
CENTER
100
AcDbLine
 10
327.9764284245357
 20
161.7934066777134
 30
0.0
 11
409.5213209153899
 21
161.7934066777134
 31
0.0
  0
LINE
  5
2254
330
21CF
100
AcDbEntity
  8
0
  6
CENTER
100
AcDbLine
 10
177.1358537545728
 20
161.7934066777133
 30
0.0
 11
258.680746245427
 21
161.7934066777133
 31
0.0
  0
ENDSEC
  0
SECTION
  2
OBJECTS
  0
DICTIONARY
  5
21BD
330
0
100
AcDbDictionary
281
     1
  3
ACAD_GROUP
350
21BE
  3
ACAD_LAYOUT
350
21CA
  3
ACAD_MLINESTYLE
350
21C7
  3
ACAD_PLOTSETTINGS
350
21C9
  3
ACAD_PLOTSTYLENAME
350
21BF
  3
AcDbVariableDictionary
350
223A
  0
DICTIONARY
  5
2243
330
21B3
100
AcDbDictionary
280
     1
281
     1
  3
ACAD_LAYERSTATES
360
2244
  0
DICTIONARY
  5
21FA
330
21CF
100
AcDbDictionary
280
     1
281
     1
  3
ACAD_LAYOUTSELFREF
360
2229
  0
DICTIONARY
  5
21FC
330
21CB
100
AcDbDictionary
280
     1
281
     1
  3
ACAD_LAYOUTSELFREF
360
2228
  0
DICTIONARY
  5
21BE
102
{ACAD_REACTORS
330
21BD
102
}
330
21BD
100
AcDbDictionary
281
     1
  0
DICTIONARY
  5
21CA
102
{ACAD_REACTORS
330
21BD
102
}
330
21BD
100
AcDbDictionary
281
     1
  3
Model
350
21D2
  3
ﾚｲｱｳﾄ1
350
21CE
  0
DICTIONARY
  5
21C7
102
{ACAD_REACTORS
330
21BD
102
}
330
21BD
100
AcDbDictionary
281
     1
  3
Standard
350
21C8
  0
DICTIONARY
  5
21C9
102
{ACAD_REACTORS
330
21BD
102
}
330
21BD
100
AcDbDictionary
281
     1
  0
ACDBDICTIONARYWDFLT
  5
21BF
102
{ACAD_REACTORS
330
21BD
102
}
330
21BD
100
AcDbDictionary
281
     1
  3
Normal
350
21C0
100
AcDbDictionaryWithDefault
340
21C0
  0
DICTIONARY
  5
223A
102
{ACAD_REACTORS
330
21BD
102
}
330
21BD
100
AcDbDictionary
281
     1
  3
DIMASSOC
350
223B
  0
DICTIONARY
  5
2244
102
{ACAD_REACTORS
330
2243
102
}
330
2243
100
AcDbDictionary
281
     1
  0
XRECORD
  5
2229
102
{ACAD_REACTORS
330
21FA
102
}
330
21FA
100
AcDbXrecord
280
     1
340
21CF
  0
XRECORD
  5
2228
102
{ACAD_REACTORS
330
21FC
102
}
330
21FC
100
AcDbXrecord
280
     1
340
21CB
  0
LAYOUT
  5
21D2
102
{ACAD_REACTORS
330
21CA
102
}
330
21CA
100
AcDbPlotSettings
  1

  2
SII LP-2150 (D-SCAN C2)
  4

  6

 40
0.0
 41
0.0
 42
0.0
 43
0.0
 44
0.0
 45
0.0
 46
0.0
 47
0.0
 48
0.0
 49
0.0
140
0.0
141
0.0
142
1.0
143
1.0
 70
  1712
 72
     0
 73
     0
 74
     0
  7

 75
     0
147
1.0
148
0.0
149
0.0
100
AcDbLayout
  1
Model
 70
     1
 71
     0
 10
0.0
 20
0.0
 11
12.0
 21
9.0
 12
0.0
 22
0.0
 32
0.0
 14
0.0
 24
0.0
 34
0.0
 15
0.0
 25
0.0
 35
0.0
146
0.0
 13
0.0
 23
0.0
 33
0.0
 16
1.0
 26
0.0
 36
0.0
 17
0.0
 27
1.0
 37
0.0
 76
     0
330
21CF
  0
LAYOUT
  5
21CE
102
{ACAD_REACTORS
330
21CA
102
}
330
21CA
100
AcDbPlotSettings
  1

  2
SII LP-2150 (D-SCAN C2)
  4

  6

 40
0.0
 41
0.0
 42
0.0
 43
0.0
 44
0.0
 45
0.0
 46
0.0
 47
0.0
 48
0.0
 49
0.0
140
0.0
141
0.0
142
1.0
143
1.0
 70
   688
 72
     0
 73
     0
 74
     5
  7

 75
    16
147
1.0
148
0.0
149
0.0
100
AcDbLayout
  1
ﾚｲｱｳﾄ1
 70
     1
 71
     1
 10
0.0
 20
0.0
 11
12.0
 21
9.0
 12
0.0
 22
0.0
 32
0.0
 14
1.000000000000000E+20
 24
1.000000000000000E+20
 34
1.000000000000000E+20
 15
-1.000000000000000E+20
 25
-1.000000000000000E+20
 35
-1.000000000000000E+20
146
0.0
 13
0.0
 23
0.0
 33
0.0
 16
1.0
 26
0.0
 36
0.0
 17
0.0
 27
1.0
 37
0.0
 76
     0
330
21CB
  0
MLINESTYLE
  5
21C8
102
{ACAD_REACTORS
330
21C7
102
}
330
21C7
100
AcDbMlineStyle
  2
STANDARD
 70
     0
  3

 62
   256
 51
90.0
 52
90.0
 71
     2
 49
0.5
 62
   256
  6
BYLAYER
 49
-0.5
 62
   256
  6
BYLAYER
  0
ACDBPLACEHOLDER
  5
21C0
102
{ACAD_REACTORS
330
21BF
102
}
330
21BF
  0
DICTIONARYVAR
  5
223B
102
{ACAD_REACTORS
330
223A
102
}
330
223A
100
DictionaryVariables
280
     0
  1
1
  0
ENDSEC
  0
EOF
