  0
SECTION
  2
HEADER
  9
$ACADVER
  1
AC1015
  9
$ACADMAINTVER
 70
    14
  9
$DWGCODEPAGE
  3
ANSI_932
  9
$INSBASE
 10
0.0
 20
0.0
 30
0.0
  9
$EXTMIN
 10
2.708492464283381
 20
96.6856495686502
 30
-0.0000000000000058
  9
$EXTMAX
 10
833.3758317736442
 20
591.4854866566981
 30
0.0000000000000104
  9
$LIMMIN
 10
0.0
 20
0.0
  9
$LIMMAX
 10
12.0
 20
9.0
  9
$ORTHOMODE
 70
     0
  9
$REGENMODE
 70
     1
  9
$FILLMODE
 70
     1
  9
$QTEXTMODE
 70
     0
  9
$MIRRTEXT
 70
     1
  9
$LTSCALE
 40
1.0
  9
$ATTMODE
 70
     1
  9
$TEXTSIZE
 40
0.2
  9
$TRACEWID
 40
0.05
  9
$TEXTSTYLE
  7
STANDARD
  9
$CLAYER
  8
0
  9
$CELTYPE
  6
CONTINUOUS
  9
$CECOLOR
 62
   256
  9
$CELTSCALE
 40
1.0
  9
$DISPSILH
 70
     0
  9
$DIMSCALE
 40
1.0
  9
$DIMASZ
 40
1.0
  9
$DIMEXO
 40
2.54
  9
$DIMDLI
 40
0.38
  9
$DIMRND
 40
0.0
  9
$DIMDLE
 40
0.0
  9
$DIMEXE
 40
2.54
  9
$DIMTP
 40
0.0
  9
$DIMTM
 40
0.0
  9
$DIMTXT
 40
3.2
  9
$DIMCEN
 40
0.09
  9
$DIMTSZ
 40
0.0
  9
$DIMTOL
 70
     0
  9
$DIMLIM
 70
     0
  9
$DIMTIH
 70
     0
  9
$DIMTOH
 70
     0
  9
$DIMSE1
 70
     0
  9
$DIMSE2
 70
     0
  9
$DIMTAD
 70
     1
  9
$DIMZIN
 70
     0
  9
$DIMBLK
  1

  9
$DIMASO
 70
     1
  9
$DIMSHO
 70
     0
  9
$DIMPOST
  1

  9
$DIMAPOST
  1

  9
$DIMALT
 70
     0
  9
$DIMALTD
 70
     2
  9
$DIMALTF
 40
25.4
  9
$DIMLFAC
 40
1.0
  9
$DIMTOFL
 70
     0
  9
$DIMTVP
 40
1.0
  9
$DIMTIX
 70
     0
  9
$DIMSOXD
 70
     0
  9
$DIMSAH
 70
     1
  9
$DIMBLK1
  1

  9
$DIMBLK2
  1

  9
$DIMSTYLE
  2
STANDARD
  9
$DIMCLRD
 70
     0
  9
$DIMCLRE
 70
     0
  9
$DIMCLRT
 70
     0
  9
$DIMTFAC
 40
1.0
  9
$DIMGAP
 40
1.6
  9
$DIMJUST
 70
     0
  9
$DIMSD1
 70
     0
  9
$DIMSD2
 70
     0
  9
$DIMTOLJ
 70
     1
  9
$DIMTZIN
 70
     0
  9
$DIMALTZ
 70
     0
  9
$DIMALTTZ
 70
     0
  9
$DIMUPT
 70
     0
  9
$DIMDEC
 70
     4
  9
$DIMTDEC
 70
     4
  9
$DIMALTU
 70
     2
  9
$DIMALTTD
 70
     2
  9
$DIMTXSTY
  7
STANDARD
  9
$DIMAUNIT
 70
     0
  9
$DIMADEC
 70
     0
  9
$DIMALTRND
 40
0.0
  9
$DIMAZIN
 70
     0
  9
$DIMDSEP
 70
    46
  9
$DIMATFIT
 70
     3
  9
$DIMFRAC
 70
     0
  9
$DIMLDRBLK
  1

  9
$DIMLUNIT
 70
     2
  9
$DIMLWD
 70
    -2
  9
$DIMLWE
 70
    -2
  9
$DIMTMOVE
 70
     0
  9
$LUNITS
 70
     2
  9
$LUPREC
 70
     4
  9
$SKETCHINC
 40
0.1
  9
$FILLETRAD
 40
0.0
  9
$AUNITS
 70
     0
  9
$AUPREC
 70
     0
  9
$MENU
  1
.
  9
$ELEVATION
 40
0.0
  9
$PELEVATION
 40
0.0
  9
$THICKNESS
 40
0.0
  9
$LIMCHECK
 70
     0
  9
$CHAMFERA
 40
0.0
  9
$CHAMFERB
 40
0.0
  9
$CHAMFERC
 40
0.0
  9
$CHAMFERD
 40
0.0
  9
$SKPOLY
 70
     0
  9
$TDCREATE
 40
2452488.423138738
  9
$TDUCREATE
 40
2452488.048138738
  9
$TDUPDATE
 40
2456899.666712257
  9
$TDUUPDATE
 40
2456899.291712257
  9
$TDINDWG
 40
0.2471548032
  9
$TDUSRTIMER
 40
0.2471544329
  9
$USRTIMER
 70
     1
  9
$ANGBASE
 50
0.0
  9
$ANGDIR
 70
     0
  9
$PDMODE
 70
     3
  9
$PDSIZE
 40
0.0
  9
$PLINEWID
 40
0.0
  9
$SPLFRAME
 70
     0
  9
$SPLINETYPE
 70
     6
  9
$SPLINESEGS
 70
     8
  9
$HANDSEED
  5
226D
  9
$SURFTAB1
 70
     6
  9
$SURFTAB2
 70
     6
  9
$SURFTYPE
 70
     6
  9
$SURFU
 70
     6
  9
$SURFV
 70
     6
  9
$UCSBASE
  2

  9
$UCSNAME
  2

  9
$UCSORG
 10
0.0
 20
0.0
 30
0.0
  9
$UCSXDIR
 10
1.0
 20
0.0
 30
0.0
  9
$UCSYDIR
 10
0.0
 20
1.0
 30
0.0
  9
$UCSORTHOREF
  2

  9
$UCSORTHOVIEW
 70
     0
  9
$UCSORGTOP
 10
0.0
 20
0.0
 30
0.0
  9
$UCSORGBOTTOM
 10
0.0
 20
0.0
 30
0.0
  9
$UCSORGLEFT
 10
0.0
 20
0.0
 30
0.0
  9
$UCSORGRIGHT
 10
0.0
 20
0.0
 30
0.0
  9
$UCSORGFRONT
 10
0.0
 20
0.0
 30
0.0
  9
$UCSORGBACK
 10
0.0
 20
0.0
 30
0.0
  9
$PUCSBASE
  2

  9
$PUCSNAME
  2

  9
$PUCSORG
 10
0.0
 20
0.0
 30
0.0
  9
$PUCSXDIR
 10
1.0
 20
0.0
 30
0.0
  9
$PUCSYDIR
 10
0.0
 20
1.0
 30
0.0
  9
$PUCSORTHOREF
  2

  9
$PUCSORTHOVIEW
 70
     0
  9
$PUCSORGTOP
 10
0.0
 20
0.0
 30
0.0
  9
$PUCSORGBOTTOM
 10
0.0
 20
0.0
 30
0.0
  9
$PUCSORGLEFT
 10
0.0
 20
0.0
 30
0.0
  9
$PUCSORGRIGHT
 10
0.0
 20
0.0
 30
0.0
  9
$PUCSORGFRONT
 10
0.0
 20
0.0
 30
0.0
  9
$PUCSORGBACK
 10
0.0
 20
0.0
 30
0.0
  9
$USERI1
 70
     0
  9
$USERI2
 70
     0
  9
$USERI3
 70
     0
  9
$USERI4
 70
     0
  9
$USERI5
 70
     0
  9
$USERR1
 40
0.0
  9
$USERR2
 40
0.0
  9
$USERR3
 40
0.0
  9
$USERR4
 40
0.0
  9
$USERR5
 40
0.0
  9
$WORLDVIEW
 70
     1
  9
$SHADEDGE
 70
     3
  9
$SHADEDIF
 70
    70
  9
$TILEMODE
 70
     1
  9
$MAXACTVP
 70
    48
  9
$PINSBASE
 10
0.0
 20
0.0
 30
0.0
  9
$PLIMCHECK
 70
     0
  9
$PEXTMIN
 10
1.000000000000000E+20
 20
1.000000000000000E+20
 30
1.000000000000000E+20
  9
$PEXTMAX
 10
-1.000000000000000E+20
 20
-1.000000000000000E+20
 30
-1.000000000000000E+20
  9
$PLIMMIN
 10
0.0
 20
0.0
  9
$PLIMMAX
 10
12.0
 20
9.0
  9
$UNITMODE
 70
     0
  9
$VISRETAIN
 70
     1
  9
$PLINEGEN
 70
     0
  9
$PSLTSCALE
 70
     1
  9
$TREEDEPTH
 70
  3020
  9
$CMLSTYLE
  2
Standard
  9
$CMLJUST
 70
     0
  9
$CMLSCALE
 40
1.0
  9
$PROXYGRAPHICS
 70
     1
  9
$MEASUREMENT
 70
     0
  9
$CELWEIGHT
370
    -1
  9
$ENDCAPS
280
     0
  9
$JOINSTYLE
280
     0
  9
$LWDISPLAY
290
     0
  9
$INSUNITS
 70
     0
  9
$HYPERLINKBASE
  1

  9
$STYLESHEET
  1

  9
$XEDIT
290
     1
  9
$CEPSNTYPE
380
     0
  9
$PSTYLEMODE
290
     1
  9
$FINGERPRINTGUID
  2
{31E72ACD-6BB5-4DA6-95B2-6675B8B7C3C0}
  9
$VERSIONGUID
  2
{7096F008-A5FB-4ED1-B5EB-8186551FB745}
  9
$EXTNAMES
290
     1
  9
$PSVPSCALE
 40
0.0
  9
$OLESTARTUP
290
     0
  0
ENDSEC
  0
SECTION
  2
CLASSES
  0
CLASS
  1
ACDBDICTIONARYWDFLT
  2
AcDbDictionaryWithDefault
  3
AutoCAD 2000
 90
        0
280
     0
281
     0
  0
CLASS
  1
ACDBPLACEHOLDER
  2
AcDbPlaceHolder
  3
AutoCAD 2000
 90
        0
280
     0
281
     0
  0
CLASS
  1
LAYOUT
  2
AcDbLayout
  3
AutoCAD 2000
 90
        0
280
     0
281
     0
  0
CLASS
  1
DICTIONARYVAR
  2
AcDbDictionaryVar
  3
AutoCAD 2000
 90
        0
280
     0
281
     0
  0
CLASS
  1
LONG_TRANSACTION
  2
AcDbLongTransaction
  3
AutoCAD 2000
 90
    32768
280
     0
281
     0
  0
CLASS
  1
LWPOLYLINE
  2
AcDbPolyline
  3
AutoCAD 2000
 90
    32768
280
     0
281
     1
  0
CLASS
  1
HATCH
  2
AcDbHatch
  3
AutoCAD 2000
 90
    32768
280
     0
281
     1
  0
CLASS
  1
XRECORD
  2
AcDbXrecord
  3
AutoCAD 2000
 90
    32768
280
     0
281
     0
  0
ENDSEC
  0
SECTION
  2
TABLES
  0
TABLE
  2
VPORT
  5
21B8
330
0
100
AcDbSymbolTable
 70
     2
  0
VPORT
  5
226C
330
21B8
100
AcDbSymbolTableRecord
100
AcDbViewportTableRecord
  2
*Active
 70
     0
 10
0.0
 20
0.0
 11
1.0
 21
1.0
 12
418.0421621189638
 22
344.0855681126742
 13
0.0
 23
0.0
 14
1.0
 24
1.0
 15
0.0
 25
0.0
 16
0.0
 26
0.0
 36
1.0
 17
0.0
 27
0.0
 37
0.0
 40
523.803722538011
 41
1.592161016949152
 42
50.0
 43
0.0
 44
0.0
 50
0.0
 51
0.0
 71
     0
 72
   100
 73
     1
 74
     3
 75
     0
 76
     0
 77
     0
 78
     0
281
     0
 65
     1
110
0.0
120
0.0
130
0.0
111
1.0
121
0.0
131
0.0
112
0.0
122
1.0
132
0.0
 79
     0
146
0.0
  0
ENDTAB
  0
TABLE
  2
LTYPE
  5
21B5
330
0
100
AcDbSymbolTable
 70
     2
  0
LTYPE
  5
21C3
330
21B5
100
AcDbSymbolTableRecord
100
AcDbLinetypeTableRecord
  2
ByBlock
 70
     0
  3

 72
    65
 73
     0
 40
0.0
  0
LTYPE
  5
21C4
330
21B5
100
AcDbSymbolTableRecord
100
AcDbLinetypeTableRecord
  2
ByLayer
 70
     0
  3

 72
    65
 73
     0
 40
0.0
  0
LTYPE
  5
21C5
330
21B5
100
AcDbSymbolTableRecord
100
AcDbLinetypeTableRecord
  2
CONTINUOUS
 70
     0
  3
Solid line
 72
    65
 73
     0
 40
0.0
  0
LTYPE
  5
21D3
330
21B5
100
AcDbSymbolTableRecord
100
AcDbLinetypeTableRecord
  2
CENTER
 70
     0
  3
__ . __
 72
    65
 73
     4
 40
7.0
 49
4.0
 74
     0
 49
-1.0
 74
     0
 49
1.0
 74
     0
 49
-1.0
 74
     0
  0
ENDTAB
  0
TABLE
  2
LAYER
  5
21B2
102
{ACAD_XDICTIONARY
360
2243
102
}
330
0
100
AcDbSymbolTable
 70
     2
  0
LAYER
  5
21C0
330
21B2
100
AcDbSymbolTableRecord
100
AcDbLayerTableRecord
  2
0
 70
     0
 62
     7
  6
CONTINUOUS
370
    -3
390
21BF
  0
LAYER
  5
21DC
330
21B2
100
AcDbSymbolTableRecord
100
AcDbLayerTableRecord
  2
AM_0N
 70
     0
 62
     7
  6
CONTINUOUS
370
    -3
390
21BF
  0
ENDTAB
  0
TABLE
  2
STYLE
  5
21B3
330
0
100
AcDbSymbolTable
 70
     1
  0
STYLE
  5
21C1
330
21B3
100
AcDbSymbolTableRecord
100
AcDbTextStyleTableRecord
  2
STANDARD
 70
     0
 40
0.0
 41
1.0
 50
0.0
 71
     0
 42
0.2
  3
txt
  4
BIGFONT
  0
ENDTAB
  0
TABLE
  2
VIEW
  5
21B6
330
0
100
AcDbSymbolTable
 70
     1
  0
VIEW
  5
21E0
330
21B6
100
AcDbSymbolTableRecord
100
AcDbViewTableRecord
  2
OLE1
 70
     0
 40
3692.141019219747
 10
1914.591370701856
 20
1272.206200738182
 41
4595.022665841169
 11
0.0
 21
0.0
 31
1.0
 12
0.0
 22
0.0
 32
0.0
 42
50.0
 43
0.0
 44
0.0
 50
0.0
 71
     0
281
     0
 72
     1
110
0.0
120
0.0
130
0.0
111
1.0
121
0.0
131
0.0
112
0.0
122
1.0
132
0.0
 79
     0
146
0.0
  0
ENDTAB
  0
TABLE
  2
UCS
  5
21B7
330
0
100
AcDbSymbolTable
 70
     0
  0
ENDTAB
  0
TABLE
  2
APPID
  5
21B9
330
0
100
AcDbSymbolTable
 70
     5
  0
APPID
  5
21C2
330
21B9
100
AcDbSymbolTableRecord
100
AcDbRegAppTableRecord
  2
ACAD
 70
     0
  0
APPID
  5
21E1
330
21B9
100
AcDbSymbolTableRecord
100
AcDbRegAppTableRecord
  2
MCAD_NO_VIS
 70
     0
  0
APPID
  5
21E2
330
21B9
100
AcDbSymbolTableRecord
100
AcDbRegAppTableRecord
  2
ACAD_TEMP_GRAPHIC
 70
     0
  0
APPID
  5
21E3
330
21B9
100
AcDbSymbolTableRecord
100
AcDbRegAppTableRecord
  2
ACATTRIBSERVICES
 70
     0
  0
APPID
  5
21E4
330
21B9
100
AcDbSymbolTableRecord
100
AcDbRegAppTableRecord
  2
CONTENTBLOCKICON
 70
     0
  0
ENDTAB
  0
TABLE
  2
DIMSTYLE
  5
21BA
330
0
100
AcDbSymbolTable
 70
     1
100
AcDbDimStyleTable
 71
     0
  0
DIMSTYLE
105
21E5
330
21BA
100
AcDbSymbolTableRecord
100
AcDbDimStyleTableRecord
  2
STANDARD
 70
     0
279
     2
340
21C1
  0
ENDTAB
  0
TABLE
  2
BLOCK_RECORD
  5
21B1
330
0
100
AcDbSymbolTable
 70
     0
  0
BLOCK_RECORD
  5
21CE
102
{ACAD_XDICTIONARY
360
21FA
102
}
330
21B1
100
AcDbSymbolTableRecord
100
AcDbBlockTableRecord
  2
*Model_Space
340
21D1
  0
BLOCK_RECORD
  5
21CA
102
{ACAD_XDICTIONARY
360
21FC
102
}
330
21B1
100
AcDbSymbolTableRecord
100
AcDbBlockTableRecord
  2
*Paper_Space
340
21CD
  0
ENDTAB
  0
ENDSEC
  0
SECTION
  2
BLOCKS
  0
BLOCK
  5
21CF
330
21CE
100
AcDbEntity
  8
0
100
AcDbBlockBegin
  2
*Model_Space
 70
     0
 10
0.0
 20
0.0
 30
0.0
  3
*Model_Space
  1

  0
ENDBLK
  5
21D0
330
21CE
100
AcDbEntity
  8
0
100
AcDbBlockEnd
  0
BLOCK
  5
21CB
330
21CA
100
AcDbEntity
 67
     1
  8
0
100
AcDbBlockBegin
  2
*Paper_Space
 70
     0
 10
0.0
 20
0.0
 30
0.0
  3
*Paper_Space
  1

  0
ENDBLK
  5
21CC
330
21CA
100
AcDbEntity
 67
     1
  8
0
100
AcDbBlockEnd
  0
ENDSEC
  0
SECTION
  2
ENTITIES
  0
TEXT
  5
F6E
330
21CE
100
AcDbEntity
  8
0
  6
Continuous
100
AcDbText
 10
2.724283396084274
 20
543.4584051571865
 30
0.0
 40
48.000002
  1
BVA__T01000 10A
 41
1.32095
100
AcDbText
  0
LINE
  5
1F10
330
21CE
100
AcDbEntity
  8
AM_0N
100
AcDbLine
 10
275.5347107288898
 20
121.6094531375582
 30
0.0
 11
278.5738624288898
 21
129.9594535375574
 31
0.0
  0
LINE
  5
1F12
330
21CE
100
AcDbEntity
  8
AM_0N
100
AcDbLine
 10
272.6847113288895
 20
121.6094531375582
 30
0.0
 11
275.5347107288898
 21
121.6094531375582
 31
0.0
  0
LINE
  5
1F13
330
21CE
100
AcDbEntity
  8
AM_0N
100
AcDbLine
 10
275.5347107288898
 20
155.6094531375582
 30
0.0
 11
278.5738624288898
 21
147.2594527375582
 31
0.0
  0
LINE
  5
1F17
330
21CE
100
AcDbEntity
  8
AM_0N
100
AcDbLine
 10
272.6847113288895
 20
155.6094531375582
 30
0.0
 11
275.5347107288898
 21
155.6094531375582
 31
0.0
  0
LINE
  5
1F19
330
21CE
100
AcDbEntity
  8
AM_0N
100
AcDbLine
 10
278.5738624288898
 20
129.9594535375574
 30
0.0
 11
293.1850833288896
 21
129.9594535375574
 31
0.0
  0
LINE
  5
1F1A
330
21CE
100
AcDbEntity
  8
AM_0N
100
AcDbLine
 10
278.5738624288898
 20
147.2594527375582
 30
0.0
 11
293.1850833288896
 21
147.2594527375582
 31
0.0
  0
LINE
  5
1F1B
330
21CE
100
AcDbEntity
  8
0
100
AcDbLine
 10
278.5738624288898
 20
147.2594527375582
 30
0.0
 11
278.5738624288898
 21
129.9594535375574
 31
0.0
  0
LINE
  5
1F1C
330
21CE
100
AcDbEntity
  8
0
100
AcDbLine
 10
275.5347107288898
 20
121.6094531375582
 30
0.0
 11
275.5347107288898
 21
155.6094531375582
 31
0.0
  0
LINE
  5
1F40
330
21CE
100
AcDbEntity
  8
0
  6
Continuous
100
AcDbLine
 10
483.0196889988523
 20
215.5347621375576
 30
0.0
 11
481.5252899988524
 21
195.6094461375578
 31
0.0
  0
LINE
  5
1F41
330
21CE
100
AcDbEntity
  8
0
  6
Continuous
100
AcDbLine
 10
429.0308969988524
 20
215.5347781375571
 30
0.0
 11
430.5252969988524
 21
195.6094471375574
 31
0.0
  0
LINE
  5
1F42
330
21CE
100
AcDbEntity
  8
0
  6
Continuous
100
AcDbLine
 10
359.1847113288898
 20
254.8829431375584
 30
0.0
 11
359.1847113288898
 21
195.3359471375583
 31
0.0
  0
LINE
  5
1F43
330
21CE
100
AcDbEntity
  8
0
  6
Continuous
100
AcDbLine
 10
267.1847113288898
 20
254.8829431375584
 30
0.0
 11
267.1847113288898
 21
195.3359471375583
 31
0.0
  0
ARC
  5
1F44
330
21CE
100
AcDbEntity
  8
0
  6
Continuous
100
AcDbCircle
 10
305.1847113288898
 20
138.6094531375583
 30
0.0
 40
32.0
100
AcDbArc
 50
247.9756900000003
 51
292.0243099999992
  0
LINE
  5
1F45
330
21CE
100
AcDbEntity
  8
0
  6
Continuous
100
AcDbLine
 10
293.1847113288898
 20
165.6094451375573
 30
0.0
 11
317.1847113288898
 21
165.6094451375573
 31
0.0
  0
LINE
  5
1F46
330
21CE
100
AcDbEntity
  8
0
  6
Continuous
100
AcDbLine
 10
359.1847113288898
 20
195.6094451375575
 30
0.0
 11
267.1847113288898
 21
195.6094451375575
 31
0.0
  0
LINE
  5
1F48
330
21CE
100
AcDbEntity
  8
0
  6
Continuous
100
AcDbLine
 10
272.6847113288898
 20
121.6094531375582
 30
0.0
 11
272.6847113288898
 21
155.6094531375582
 31
0.0
  0
LINE
  5
1F49
330
21CE
100
AcDbEntity
  8
0
  6
Continuous
100
AcDbLine
 10
293.1847113288898
 20
165.6094451375573
 30
0.0
 11
293.1847113288898
 21
108.9446581375584
 31
0.0
  0
LINE
  5
1F4D
330
21CE
100
AcDbEntity
  8
0
  6
Continuous
100
AcDbLine
 10
293.1850833288896
 20
165.6094911375578
 30
0.0
 11
289.9708023288898
 21
195.6094441375572
 31
0.0
  0
LINE
  5
1F51
330
21CE
100
AcDbEntity
  8
0
  6
Continuous
100
AcDbLine
 10
262.6847113288898
 20
206.8829441375585
 30
0.0
 11
267.1847113288898
 21
206.8829441375585
 31
0.0
  0
LINE
  5
1F52
330
21CE
100
AcDbEntity
  8
0
  6
Continuous
100
AcDbLine
 10
262.6847113288898
 20
195.3359471375583
 30
0.0
 11
267.1847113288898
 21
195.3359471375583
 31
0.0
  0
LINE
  5
1F53
330
21CE
100
AcDbEntity
  8
0
  6
Continuous
100
AcDbLine
 10
262.6847113288898
 20
195.3359471375583
 30
0.0
 11
262.6847113288898
 21
206.8829441375585
 31
0.0
  0
LINE
  5
1F54
330
21CE
100
AcDbEntity
  8
0
  6
Continuous
100
AcDbLine
 10
262.6847113288898
 20
198.2779481375577
 30
0.0
 11
267.1847113288898
 21
198.2779481375577
 31
0.0
  0
LINE
  5
1F55
330
21CE
100
AcDbEntity
  8
0
  6
Continuous
100
AcDbLine
 10
262.6847113288898
 20
204.0514771375585
 30
0.0
 11
267.1847113288898
 21
204.0514771375585
 31
0.0
  0
LINE
  5
1F58
330
21CE
100
AcDbEntity
  8
0
  6
Continuous
100
AcDbLine
 10
317.1847113288898
 20
165.6094451375573
 30
0.0
 11
317.1847113288898
 21
108.9446581375584
 31
0.0
  0
LINE
  5
1F5C
330
21CE
100
AcDbEntity
  8
0
  6
Continuous
100
AcDbLine
 10
317.1850883288897
 20
165.6094031375585
 30
0.0
 11
320.3993793288897
 21
195.6094471375574
 31
0.0
  0
LINE
  5
1F60
330
21CE
100
AcDbEntity
  8
0
  6
Continuous
100
AcDbLine
 10
363.6847113288897
 20
206.8829441375585
 30
0.0
 11
359.1847113288898
 21
206.8829441375585
 31
0.0
  0
LINE
  5
1F61
330
21CE
100
AcDbEntity
  8
0
  6
Continuous
100
AcDbLine
 10
363.6847113288897
 20
195.3359471375583
 30
0.0
 11
359.1847113288898
 21
195.3359471375583
 31
0.0
  0
LINE
  5
1F62
330
21CE
100
AcDbEntity
  8
0
  6
Continuous
100
AcDbLine
 10
363.6847113288897
 20
195.3359471375583
 30
0.0
 11
363.6847113288897
 21
206.8829441375585
 31
0.0
  0
LINE
  5
1F63
330
21CE
100
AcDbEntity
  8
0
  6
Continuous
100
AcDbLine
 10
363.6847113288897
 20
198.2779481375577
 30
0.0
 11
359.1847113288898
 21
198.2779481375577
 31
0.0
  0
LINE
  5
1F64
330
21CE
100
AcDbEntity
  8
0
  6
Continuous
100
AcDbLine
 10
363.6847113288897
 20
204.0514771375585
 30
0.0
 11
359.1847113288898
 21
204.0514771375585
 31
0.0
  0
ARC
  5
1F67
330
21CE
100
AcDbEntity
  8
0
  6
Continuous
100
AcDbCircle
 10
456.0252859988524
 20
138.6094531375583
 30
0.0
 40
32.0
100
AcDbArc
 50
122.4617699999986
 51
57.53823399999792
  0
LINE
  5
1F68
330
21CE
100
AcDbEntity
  8
0
  6
Continuous
100
AcDbLine
 10
429.0252859988524
 20
193.6094451375574
 30
0.0
 11
483.0252859988524
 21
193.6094451375574
 31
0.0
  0
LINE
  5
1F69
330
21CE
100
AcDbEntity
  8
0
  6
Continuous
100
AcDbLine
 10
475.0252839988526
 20
206.8829471375575
 30
0.0
 11
480.0252849988526
 21
203.9961951375583
 31
0.0
  0
LINE
  5
1F6A
330
21CE
100
AcDbEntity
  8
0
  6
Continuous
100
AcDbLine
 10
480.0252879988526
 20
198.2226941375573
 30
0.0
 11
475.0252849988526
 21
195.3359411375574
 31
0.0
  0
LINE
  5
1F6B
330
21CE
100
AcDbEntity
  8
0
  6
Continuous
100
AcDbLine
 10
429.0252859988524
 20
167.6094451375583
 30
0.0
 11
483.0252859988524
 21
167.6094451375583
 31
0.0
  0
LINE
  5
1F6C
330
21CE
100
AcDbEntity
  8
0
  6
Continuous
100
AcDbLine
 10
427.0252859988524
 20
165.6094451375573
 30
0.0
 11
485.0252859988524
 21
165.6094451375573
 31
0.0
  0
LINE
  5
1F6D
330
21CE
100
AcDbEntity
  8
0
  6
Continuous
100
AcDbLine
 10
427.0252859988524
 20
195.6094451375575
 30
0.0
 11
485.0252859988524
 21
195.6094451375575
 31
0.0
  0
LINE
  5
1F6E
330
21CE
100
AcDbEntity
  8
0
  6
Continuous
100
AcDbLine
 10
427.0252859988524
 20
195.6094451375575
 30
0.0
 11
427.0252859988524
 21
165.6094451375573
 31
0.0
  0
LINE
  5
1F6F
330
21CE
100
AcDbEntity
  8
0
  6
Continuous
100
AcDbLine
 10
429.0252859988524
 20
193.6094451375574
 30
0.0
 11
429.0252859988524
 21
167.6094451375583
 31
0.0
  0
LINE
  5
1F70
330
21CE
100
AcDbEntity
  8
0
  6
Continuous
100
AcDbLine
 10
446.0252859988524
 20
193.6094451375574
 30
0.0
 11
446.0252859988524
 21
167.6094451375583
 31
0.0
  0
LINE
  5
1F71
330
21CE
100
AcDbEntity
  8
0
  6
Continuous
100
AcDbLine
 10
466.0252859988524
 20
193.6094451375574
 30
0.0
 11
466.0252859988524
 21
167.6094451375583
 31
0.0
  0
LINE
  5
1F72
330
21CE
100
AcDbEntity
  8
0
  6
Continuous
100
AcDbLine
 10
437.0252839988526
 20
206.8829481375572
 30
0.0
 11
442.0252869988524
 21
203.9961951375583
 31
0.0
  0
LINE
  5
1F73
330
21CE
100
AcDbEntity
  8
0
  6
Continuous
100
AcDbLine
 10
442.0252859988524
 20
203.9961951375583
 30
0.0
 11
442.0252859988524
 21
198.2226921375574
 31
0.0
  0
LINE
  5
1F74
330
21CE
100
AcDbEntity
  8
0
  6
Continuous
100
AcDbLine
 10
442.0252879988525
 20
198.2226931375578
 30
0.0
 11
437.0252869988524
 21
195.3359411375574
 31
0.0
  0
LINE
  5
1F75
330
21CE
100
AcDbEntity
  8
0
  6
Continuous
100
AcDbLine
 10
437.0252869988524
 20
195.3359411375574
 30
0.0
 11
432.0252839988524
 21
198.2226941375573
 31
0.0
  0
LINE
  5
1F76
330
21CE
100
AcDbEntity
  8
0
  6
Continuous
100
AcDbLine
 10
432.0252859988524
 20
203.9961951375583
 30
0.0
 11
432.0252859988524
 21
198.2226921375574
 31
0.0
  0
LINE
  5
1F77
330
21CE
100
AcDbEntity
  8
0
  6
Continuous
100
AcDbLine
 10
437.0252879988525
 20
206.8829471375575
 30
0.0
 11
432.0252869988524
 21
203.9961951375583
 31
0.0
  0
LINE
  5
1F78
330
21CE
100
AcDbEntity
  8
0
  6
Continuous
100
AcDbLine
 10
475.0252849988526
 20
195.3359411375574
 30
0.0
 11
470.0252839988526
 21
198.2226931375578
 31
0.0
  0
LINE
  5
1F79
330
21CE
100
AcDbEntity
  8
0
  6
Continuous
100
AcDbLine
 10
470.0252859988524
 20
203.9961951375583
 30
0.0
 11
470.0252859988524
 21
198.2226921375574
 31
0.0
  0
LINE
  5
1F7A
330
21CE
100
AcDbEntity
  8
0
  6
Continuous
100
AcDbLine
 10
475.0252879988525
 20
206.8829481375572
 30
0.0
 11
470.0252849988526
 21
203.9961951375583
 31
0.0
  0
LINE
  5
1F7B
330
21CE
100
AcDbEntity
  8
0
  6
Continuous
100
AcDbLine
 10
485.0252859988524
 20
195.6094451375575
 30
0.0
 11
485.0252859988524
 21
165.6094451375573
 31
0.0
  0
LINE
  5
1F7C
330
21CE
100
AcDbEntity
  8
0
  6
Continuous
100
AcDbLine
 10
483.0252859988524
 20
193.6094451375574
 30
0.0
 11
483.0252859988524
 21
167.6094451375583
 31
0.0
  0
LINE
  5
1F7D
330
21CE
100
AcDbEntity
  8
0
  6
Continuous
100
AcDbLine
 10
480.0252859988524
 20
203.9961951375583
 30
0.0
 11
480.0252859988524
 21
198.2226921375574
 31
0.0
  0
LINE
  5
1F7E
330
21CE
100
AcDbEntity
  8
0
  6
Continuous
100
AcDbLine
 10
363.1847113288897
 20
364.8547331375587
 30
0.0
 11
363.1847113288897
 21
374.8547331375576
 31
0.0
  0
LINE
  5
1F7F
330
21CE
100
AcDbEntity
  8
0
  6
Continuous
100
AcDbLine
 10
263.1847113288898
 20
364.8547331375587
 30
0.0
 11
263.1847113288898
 21
374.8547331375576
 31
0.0
  0
LINE
  5
1F80
330
21CE
100
AcDbEntity
  8
0
  6
Continuous
100
AcDbLine
 10
359.1847113288898
 20
415.8547331375577
 30
0.0
 11
359.1847113288898
 21
361.8547331375577
 31
0.0
  0
LINE
  5
1F81
330
21CE
100
AcDbEntity
  8
0
  6
Continuous
100
AcDbLine
 10
267.1847113288898
 20
415.8547331375577
 30
0.0
 11
267.1847113288898
 21
361.8547331375577
 31
0.0
  0
LINE
  5
1F82
330
21CE
100
AcDbEntity
  8
0
  6
Continuous
100
AcDbLine
 10
359.1847113288898
 20
215.6094451375583
 30
0.0
 11
267.1847113288898
 21
215.6094451375583
 31
0.0
  0
LINE
  5
1F83
330
21CE
100
AcDbEntity
  8
0
  6
Continuous
100
AcDbLine
 10
359.1847113288898
 20
234.6094451375583
 30
0.0
 11
267.1847113288898
 21
234.6094451375583
 31
0.0
  0
LINE
  5
1F84
330
21CE
100
AcDbEntity
  8
0
  6
Continuous
100
AcDbLine
 10
359.1847113288898
 20
254.6094431375584
 30
0.0
 11
267.1847113288898
 21
254.6094431375584
 31
0.0
  0
ARC
  5
1F85
330
21CE
100
AcDbEntity
  8
0
  6
Continuous
100
AcDbCircle
 10
305.1847113288898
 20
388.8547331375577
 30
0.0
 40
32.0
100
AcDbArc
 50
247.9756900000003
 51
292.0243099999992
  0
LINE
  5
1F86
330
21CE
100
AcDbEntity
  8
0
  6
Continuous
100
AcDbLine
 10
267.1847113288898
 20
361.8547331375577
 30
0.0
 11
359.1847113288898
 21
361.8547331375577
 31
0.0
  0
LINE
  5
1F87
330
21CE
100
AcDbEntity
  8
0
  6
Continuous
100
AcDbLine
 10
262.6847113288898
 20
243.3359431375583
 30
0.0
 11
262.6847113288898
 21
254.8829431375584
 31
0.0
  0
LINE
  5
1F88
330
21CE
100
AcDbEntity
  8
0
  6
Continuous
100
AcDbLine
 10
255.1847113288897
 20
232.7779481375577
 30
0.0
 11
264.1847113288898
 21
232.7779481375577
 31
0.0
  0
LINE
  5
1F89
330
21CE
100
AcDbEntity
  8
0
  6
Continuous
100
AcDbLine
 10
255.1847113288897
 20
238.5514771375571
 30
0.0
 11
264.1847113288898
 21
238.5514771375571
 31
0.0
  0
LINE
  5
1F8A
330
21CE
100
AcDbEntity
  8
0
  6
Continuous
100
AcDbLine
 10
262.6847113288898
 20
246.2779531375574
 30
0.0
 11
267.1847113288898
 21
246.2779531375574
 31
0.0
  0
LINE
  5
1F8B
330
21CE
100
AcDbEntity
  8
0
  6
Continuous
100
AcDbLine
 10
255.1847113288897
 20
232.7779481375577
 30
0.0
 11
255.1847113288897
 21
238.5514771375571
 31
0.0
  0
LINE
  5
1F8C
330
21CE
100
AcDbEntity
  8
0
  6
Continuous
100
AcDbLine
 10
264.1847113288898
 20
229.8911991375586
 30
0.0
 11
264.1847113288898
 21
241.4382231375576
 31
0.0
  0
LINE
  5
1F8D
330
21CE
100
AcDbEntity
  8
0
  6
Continuous
100
AcDbLine
 10
260.1847113288898
 20
229.8911991375586
 30
0.0
 11
267.1847113288898
 21
229.8911991375586
 31
0.0
  0
LINE
  5
1F8E
330
21CE
100
AcDbEntity
  8
0
  6
Continuous
100
AcDbLine
 10
260.1847113288898
 20
229.8911991375586
 30
0.0
 11
260.1847113288898
 21
241.4382231375576
 31
0.0
  0
LINE
  5
1F8F
330
21CE
100
AcDbEntity
  8
0
  6
Continuous
100
AcDbLine
 10
260.1847113288898
 20
241.4382231375576
 30
0.0
 11
267.1847113288898
 21
241.4382231375576
 31
0.0
  0
LINE
  5
1F90
330
21CE
100
AcDbEntity
  8
0
  6
Continuous
100
AcDbLine
 10
264.1847113288898
 20
239.8647131375573
 30
0.0
 11
264.1847113288898
 21
231.3541811375582
 31
0.0
  0
LINE
  5
1F91
330
21CE
100
AcDbEntity
  8
0
  6
Continuous
100
AcDbLine
 10
262.6847113288898
 20
243.3359431375583
 30
0.0
 11
267.1847113288898
 21
243.3359431375583
 31
0.0
  0
LINE
  5
1F92
330
21CE
100
AcDbEntity
  8
0
  6
Continuous
100
AcDbLine
 10
262.6847113288898
 20
254.8829431375584
 30
0.0
 11
267.1847113288898
 21
254.8829431375584
 31
0.0
  0
LINE
  5
1F93
330
21CE
100
AcDbEntity
  8
0
  6
Continuous
100
AcDbLine
 10
262.6847113288898
 20
252.0514731375572
 30
0.0
 11
267.1847113288898
 21
252.0514731375572
 31
0.0
  0
LINE
  5
1F94
330
21CE
100
AcDbEntity
  8
0
  6
Continuous
100
AcDbLine
 10
299.1847113288898
 20
254.6094431375584
 30
0.0
 11
299.1847113288898
 21
269.6094531375583
 31
0.0
  0
LINE
  5
1F95
330
21CE
100
AcDbEntity
  8
0
  6
Continuous
100
AcDbLine
 10
311.1847113288898
 20
254.6094431375584
 30
0.0
 11
311.1847113288898
 21
269.6094531375583
 31
0.0
  0
LINE
  5
1F96
330
21CE
100
AcDbEntity
  8
0
  6
Continuous
100
AcDbLine
 10
299.1847113288898
 20
269.6094531375583
 30
0.0
 11
311.1847113288898
 21
269.6094531375583
 31
0.0
  0
LINE
  5
1F97
330
21CE
100
AcDbEntity
  8
0
  6
Continuous
100
AcDbLine
 10
263.1847113288898
 20
364.8547331375587
 30
0.0
 11
267.1847113288898
 21
364.8547331375587
 31
0.0
  0
LINE
  5
1F98
330
21CE
100
AcDbEntity
  8
0
  6
Continuous
100
AcDbLine
 10
263.1847113288898
 20
369.8547331375586
 30
0.0
 11
267.1847113288898
 21
369.8547331375586
 31
0.0
  0
LINE
  5
1F99
330
21CE
100
AcDbEntity
  8
0
  6
Continuous
100
AcDbLine
 10
293.1847113288898
 20
359.1899401375584
 30
0.0
 11
293.1847113288898
 21
361.8547331375577
 31
0.0
  0
LINE
  5
1F9A
330
21CE
100
AcDbEntity
  8
0
  6
Continuous
100
AcDbLine
 10
363.6847113288897
 20
243.3359431375583
 30
0.0
 11
363.6847113288897
 21
254.8829431375584
 31
0.0
  0
LINE
  5
1F9B
330
21CE
100
AcDbEntity
  8
0
  6
Continuous
100
AcDbLine
 10
363.6847113288897
 20
243.3359431375583
 30
0.0
 11
359.1847113288898
 21
243.3359431375583
 31
0.0
  0
LINE
  5
1F9C
330
21CE
100
AcDbEntity
  8
0
  6
Continuous
100
AcDbLine
 10
363.6847113288897
 20
246.2779531375574
 30
0.0
 11
359.1847113288898
 21
246.2779531375574
 31
0.0
  0
LINE
  5
1F9D
330
21CE
100
AcDbEntity
  8
0
  6
Continuous
100
AcDbLine
 10
371.1847113288897
 20
232.7779481375577
 30
0.0
 11
362.1847113288897
 21
232.7779481375577
 31
0.0
  0
LINE
  5
1F9E
330
21CE
100
AcDbEntity
  8
0
  6
Continuous
100
AcDbLine
 10
371.1847113288897
 20
238.5514771375571
 30
0.0
 11
362.1847113288897
 21
238.5514771375571
 31
0.0
  0
LINE
  5
1F9F
330
21CE
100
AcDbEntity
  8
0
  6
Continuous
100
AcDbLine
 10
371.1847113288897
 20
232.7779481375577
 30
0.0
 11
371.1847113288897
 21
238.5514771375571
 31
0.0
  0
LINE
  5
1FA0
330
21CE
100
AcDbEntity
  8
0
  6
Continuous
100
AcDbLine
 10
362.1847113288897
 20
229.8911991375586
 30
0.0
 11
362.1847113288897
 21
241.4382231375576
 31
0.0
  0
LINE
  5
1FA1
330
21CE
100
AcDbEntity
  8
0
  6
Continuous
100
AcDbLine
 10
366.1847113288897
 20
229.8911991375586
 30
0.0
 11
359.1847113288898
 21
229.8911991375586
 31
0.0
  0
LINE
  5
1FA2
330
21CE
100
AcDbEntity
  8
0
  6
Continuous
100
AcDbLine
 10
366.1847113288897
 20
229.8911991375586
 30
0.0
 11
366.1847113288897
 21
241.4382231375576
 31
0.0
  0
LINE
  5
1FA3
330
21CE
100
AcDbEntity
  8
0
  6
Continuous
100
AcDbLine
 10
366.1847113288897
 20
241.4382231375576
 30
0.0
 11
359.1847113288898
 21
241.4382231375576
 31
0.0
  0
LINE
  5
1FA4
330
21CE
100
AcDbEntity
  8
0
  6
Continuous
100
AcDbLine
 10
362.1847113288897
 20
239.8647131375573
 30
0.0
 11
362.1847113288897
 21
231.3541811375582
 31
0.0
  0
LINE
  5
1FA5
330
21CE
100
AcDbEntity
  8
0
  6
Continuous
100
AcDbLine
 10
363.6847113288897
 20
254.8829431375584
 30
0.0
 11
359.1847113288898
 21
254.8829431375584
 31
0.0
  0
LINE
  5
1FA6
330
21CE
100
AcDbEntity
  8
0
  6
Continuous
100
AcDbLine
 10
363.6847113288897
 20
252.0514731375572
 30
0.0
 11
359.1847113288898
 21
252.0514731375572
 31
0.0
  0
LINE
  5
1FA7
330
21CE
100
AcDbEntity
  8
0
  6
Continuous
100
AcDbLine
 10
317.1847113288898
 20
359.1899401375584
 30
0.0
 11
317.1847113288898
 21
361.8547331375577
 31
0.0
  0
LINE
  5
1FA8
330
21CE
100
AcDbEntity
  8
0
  6
Continuous
100
AcDbLine
 10
363.1847113288897
 20
364.8547331375587
 30
0.0
 11
359.1847113288898
 21
364.8547331375587
 31
0.0
  0
LINE
  5
1FA9
330
21CE
100
AcDbEntity
  8
0
  6
Continuous
100
AcDbLine
 10
363.1847113288897
 20
369.8547331375586
 30
0.0
 11
359.1847113288898
 21
369.8547331375586
 31
0.0
  0
ARC
  5
1FAA
330
21CE
100
AcDbEntity
  8
0
  6
Continuous
100
AcDbCircle
 10
305.1847113288898
 20
388.8547331375577
 30
0.0
 40
32.0
100
AcDbArc
 50
67.97568900000111
 51
112.0243099999997
  0
LINE
  5
1FAB
330
21CE
100
AcDbEntity
  8
0
  6
Continuous
100
AcDbLine
 10
267.1847113288898
 20
415.8547331375577
 30
0.0
 11
359.1847113288898
 21
415.8547331375577
 31
0.0
  0
LINE
  5
1FAC
330
21CE
100
AcDbEntity
  8
0
  6
Continuous
100
AcDbLine
 10
263.1847113288898
 20
374.8547331375576
 30
0.0
 11
267.1847113288898
 21
374.8547331375576
 31
0.0
  0
LINE
  5
1FAD
330
21CE
100
AcDbEntity
  8
0
  6
Continuous
100
AcDbLine
 10
264.1847113288898
 20
395.5994831375571
 30
0.0
 11
267.1847113288898
 21
395.5994831375571
 31
0.0
  0
LINE
  5
1FAE
330
21CE
100
AcDbEntity
  8
0
  6
Continuous
100
AcDbLine
 10
264.1847113288898
 20
402.8547331375577
 30
0.0
 11
264.1847113288898
 21
395.5994831375571
 31
0.0
  0
LINE
  5
1FAF
330
21CE
100
AcDbEntity
  8
0
  6
Continuous
100
AcDbLine
 10
255.1847113288897
 20
404.7967651375573
 30
0.0
 11
255.1847113288897
 21
399.0232361375585
 31
0.0
  0
LINE
  5
1FB0
330
21CE
100
AcDbEntity
  8
0
  6
Continuous
100
AcDbLine
 10
260.1847113288898
 20
401.8547331375587
 30
0.0
 11
264.1847113288898
 21
401.8547331375587
 31
0.0
  0
LINE
  5
1FB1
330
21CE
100
AcDbEntity
  8
0
  6
Continuous
100
AcDbLine
 10
260.1847113288898
 20
396.8547331375587
 30
0.0
 11
264.1847113288898
 21
396.8547331375587
 31
0.0
  0
LINE
  5
1FB2
330
21CE
100
AcDbEntity
  8
0
  6
Continuous
100
AcDbLine
 10
260.1847113288898
 20
396.8547331375587
 30
0.0
 11
260.1847113288898
 21
406.8547331375577
 31
0.0
  0
LINE
  5
1FB3
330
21CE
100
AcDbEntity
  8
0
  6
Continuous
100
AcDbLine
 10
260.1847113288898
 20
406.8547331375577
 30
0.0
 11
263.1847113288898
 21
406.8547331375577
 31
0.0
  0
LINE
  5
1FB4
330
21CE
100
AcDbEntity
  8
0
  6
Continuous
100
AcDbLine
 10
263.1847113288898
 20
412.8547331375585
 30
0.0
 11
267.1847113288898
 21
412.8547331375585
 31
0.0
  0
LINE
  5
1FB5
330
21CE
100
AcDbEntity
  8
0
  6
Continuous
100
AcDbLine
 10
263.1847113288898
 20
407.8547331375586
 30
0.0
 11
267.1847113288898
 21
407.8547331375586
 31
0.0
  0
LINE
  5
1FB6
330
21CE
100
AcDbEntity
  8
0
  6
Continuous
100
AcDbLine
 10
263.1847113288898
 20
402.8547331375577
 30
0.0
 11
267.1847113288898
 21
402.8547331375577
 31
0.0
  0
LINE
  5
1FB7
330
21CE
100
AcDbEntity
  8
0
  6
Continuous
100
AcDbLine
 10
263.1847113288898
 20
402.8547331375577
 30
0.0
 11
263.1847113288898
 21
412.8547331375585
 31
0.0
  0
LINE
  5
1FB8
330
21CE
100
AcDbEntity
  8
0
  6
Continuous
100
AcDbLine
 10
272.6847113288898
 20
380.2047335375576
 30
0.0
 11
272.6847113288898
 21
397.5047327375576
 31
0.0
  0
LINE
  5
1FB9
330
21CE
100
AcDbEntity
  8
0
  6
Continuous
100
AcDbLine
 10
255.1847113288897
 20
399.0232361375585
 30
0.0
 11
260.1847113288898
 21
399.0232361375585
 31
0.0
  0
LINE
  5
1FBA
330
21CE
100
AcDbEntity
  8
0
  6
Continuous
100
AcDbLine
 10
255.1847113288897
 20
404.7967651375573
 30
0.0
 11
260.1847113288898
 21
404.7967651375573
 31
0.0
  0
CIRCLE
  5
1FBB
330
21CE
100
AcDbEntity
  8
0
  6
Continuous
100
AcDbCircle
 10
305.1847113288898
 20
388.8547331375577
 30
0.0
 40
6.0
  0
LINE
  5
1FBC
330
21CE
100
AcDbEntity
  8
0
  6
Continuous
100
AcDbLine
 10
293.1847113288898
 20
418.5195261375574
 30
0.0
 11
293.1847113288898
 21
415.8547331375577
 31
0.0
  0
LINE
  5
1FBD
330
21CE
100
AcDbEntity
  8
0
  6
Continuous
100
AcDbLine
 10
337.6847113288898
 20
380.2047335375576
 30
0.0
 11
337.6847113288898
 21
397.5047327375576
 31
0.0
  0
LINE
  5
1FBE
330
21CE
100
AcDbEntity
  8
0
  6
Continuous
100
AcDbLine
 10
363.1847113288897
 20
374.8547331375576
 30
0.0
 11
359.1847113288898
 21
374.8547331375576
 31
0.0
  0
LINE
  5
1FBF
330
21CE
100
AcDbEntity
  8
0
  6
Continuous
100
AcDbLine
 10
362.1847113288897
 20
395.5994831375571
 30
0.0
 11
359.1847113288898
 21
395.5994831375571
 31
0.0
  0
LINE
  5
1FC0
330
21CE
100
AcDbEntity
  8
0
  6
Continuous
100
AcDbLine
 10
362.1847113288897
 20
402.8547331375577
 30
0.0
 11
362.1847113288897
 21
395.5994831375571
 31
0.0
  0
LINE
  5
1FC1
330
21CE
100
AcDbEntity
  8
0
  6
Continuous
100
AcDbLine
 10
371.1847113288897
 20
404.7967651375573
 30
0.0
 11
371.1847113288897
 21
399.0232361375585
 31
0.0
  0
LINE
  5
1FC2
330
21CE
100
AcDbEntity
  8
0
  6
Continuous
100
AcDbLine
 10
366.1847113288897
 20
401.8547331375587
 30
0.0
 11
362.1847113288897
 21
401.8547331375587
 31
0.0
  0
LINE
  5
1FC3
330
21CE
100
AcDbEntity
  8
0
  6
Continuous
100
AcDbLine
 10
366.1847113288897
 20
396.8547331375587
 30
0.0
 11
362.1847113288897
 21
396.8547331375587
 31
0.0
  0
LINE
  5
1FC4
330
21CE
100
AcDbEntity
  8
0
  6
Continuous
100
AcDbLine
 10
366.1847113288897
 20
396.8547331375587
 30
0.0
 11
366.1847113288897
 21
406.8547331375577
 31
0.0
  0
LINE
  5
1FC5
330
21CE
100
AcDbEntity
  8
0
  6
Continuous
100
AcDbLine
 10
366.1847113288897
 20
406.8547331375577
 30
0.0
 11
363.1847113288897
 21
406.8547331375577
 31
0.0
  0
LINE
  5
1FC6
330
21CE
100
AcDbEntity
  8
0
  6
Continuous
100
AcDbLine
 10
363.1847113288897
 20
412.8547331375585
 30
0.0
 11
359.1847113288898
 21
412.8547331375585
 31
0.0
  0
LINE
  5
1FC7
330
21CE
100
AcDbEntity
  8
0
  6
Continuous
100
AcDbLine
 10
363.1847113288897
 20
407.8547331375586
 30
0.0
 11
359.1847113288898
 21
407.8547331375586
 31
0.0
  0
LINE
  5
1FC8
330
21CE
100
AcDbEntity
  8
0
  6
Continuous
100
AcDbLine
 10
363.1847113288897
 20
402.8547331375577
 30
0.0
 11
359.1847113288898
 21
402.8547331375577
 31
0.0
  0
LINE
  5
1FC9
330
21CE
100
AcDbEntity
  8
0
  6
Continuous
100
AcDbLine
 10
363.1847113288897
 20
402.8547331375577
 30
0.0
 11
363.1847113288897
 21
412.8547331375585
 31
0.0
  0
LINE
  5
1FCA
330
21CE
100
AcDbEntity
  8
0
  6
Continuous
100
AcDbLine
 10
371.1847113288897
 20
399.0232361375585
 30
0.0
 11
366.1847113288897
 21
399.0232361375585
 31
0.0
  0
LINE
  5
1FCB
330
21CE
100
AcDbEntity
  8
0
  6
Continuous
100
AcDbLine
 10
371.1847113288897
 20
404.7967651375573
 30
0.0
 11
366.1847113288897
 21
404.7967651375573
 31
0.0
  0
LINE
  5
1FCC
330
21CE
100
AcDbEntity
  8
0
  6
Continuous
100
AcDbLine
 10
317.1847113288898
 20
418.5195261375574
 30
0.0
 11
317.1847113288898
 21
415.8547331375577
 31
0.0
  0
LINE
  5
1FCD
330
21CE
100
AcDbEntity
  8
0
  6
Continuous
100
AcDbLine
 10
475.0252859988524
 20
254.8829531375583
 30
0.0
 11
480.0252859988524
 21
251.9961931375584
 31
0.0
  0
LINE
  5
1FCE
330
21CE
100
AcDbEntity
  8
0
  6
Continuous
100
AcDbLine
 10
480.0252869988524
 20
246.2226931375578
 30
0.0
 11
475.0252839988526
 21
243.3359431375583
 31
0.0
  0
LINE
  5
1FCF
330
21CE
100
AcDbEntity
  8
0
  6
Continuous
100
AcDbLine
 10
430.5253169988525
 20
254.6094431375584
 30
0.0
 11
481.5252989988525
 21
254.6094431375584
 31
0.0
  0
LINE
  5
1FD0
330
21CE
100
AcDbEntity
  8
0
  6
Continuous
100
AcDbLine
 10
442.0252859988524
 20
251.9961931375584
 30
0.0
 11
442.0252859988524
 21
246.2226931375578
 31
0.0
  0
LINE
  5
1FD1
330
21CE
100
AcDbEntity
  8
0
  6
Continuous
100
AcDbLine
 10
432.0252859988524
 20
251.9961931375584
 30
0.0
 11
432.0252859988524
 21
246.2226931375578
 31
0.0
  0
LINE
  5
1FD2
330
21CE
100
AcDbEntity
  8
0
  6
Continuous
100
AcDbLine
 10
470.0252859988524
 20
251.9961931375584
 30
0.0
 11
470.0252859988524
 21
246.2226931375578
 31
0.0
  0
LINE
  5
1FD3
330
21CE
100
AcDbEntity
  8
0
  6
Continuous
100
AcDbLine
 10
429.0309169988525
 20
234.684133137557
 30
0.0
 11
430.5253149988525
 21
254.6094431375584
 31
0.0
  0
CIRCLE
  5
1FD4
330
21CE
100
AcDbEntity
  8
0
  6
Continuous
100
AcDbCircle
 10
443.0252859988526
 20
235.6094451375573
 30
0.0
 40
2.9447174
  0
LINE
  5
1FD5
330
21CE
100
AcDbEntity
  8
0
  6
Continuous
100
AcDbLine
 10
443.0252839988526
 20
229.7806651375571
 30
0.0
 11
448.0570972988526
 21
232.6674151375576
 31
0.0
  0
LINE
  5
1FD6
330
21CE
100
AcDbEntity
  8
0
  6
Continuous
100
AcDbLine
 10
443.0252849988526
 20
241.4382231375576
 30
0.0
 11
448.0570982988526
 21
238.5514771375571
 31
0.0
  0
ARC
  5
1FD7
330
21CE
100
AcDbEntity
  8
0
  6
Continuous
100
AcDbCircle
 10
431.0252859988524
 20
215.6843361375583
 30
0.0
 40
2.0
100
AcDbArc
 50
179.9999899999988
 51
184.2891500000004
  0
ARC
  5
1FD8
330
21CE
100
AcDbEntity
  8
0
  6
Continuous
100
AcDbCircle
 10
431.0252859988524
 20
234.534555137557
 30
0.0
 40
2.0
100
AcDbArc
 50
175.7108499999993
 51
180.0000100000009
  0
LINE
  5
1FD9
330
21CE
100
AcDbEntity
  8
0
  6
Continuous
100
AcDbLine
 10
437.9934729988526
 20
238.5514771375571
 30
0.0
 11
437.9934729988526
 21
232.6674141375576
 31
0.0
  0
LINE
  5
1FDA
330
21CE
100
AcDbEntity
  8
0
  6
Continuous
100
AcDbLine
 10
443.0252839988526
 20
229.7806611375585
 30
0.0
 11
437.9934709988526
 21
232.6674111375583
 31
0.0
  0
LINE
  5
1FDB
330
21CE
100
AcDbEntity
  8
0
  6
Continuous
100
AcDbLine
 10
443.0252869988524
 20
241.4382231375576
 30
0.0
 11
437.9934729988526
 21
238.5514741375575
 31
0.0
  0
LINE
  5
1FDC
330
21CE
100
AcDbEntity
  8
0
  6
Continuous
100
AcDbLine
 10
442.0252859988524
 20
246.2226931375578
 30
0.0
 11
437.0252869988524
 21
243.3359431375583
 31
0.0
  0
LINE
  5
1FDD
330
21CE
100
AcDbEntity
  8
0
  6
Continuous
100
AcDbLine
 10
437.0252879988525
 20
243.3359431375583
 30
0.0
 11
432.0252849988526
 21
246.2226931375578
 31
0.0
  0
LINE
  5
1FDE
330
21CE
100
AcDbEntity
  8
0
  6
Continuous
100
AcDbLine
 10
429.0252859988524
 20
215.6843361375583
 30
0.0
 11
429.0252859988524
 21
234.534555137557
 31
0.0
  0
CIRCLE
  5
1FDF
330
21CE
100
AcDbEntity
  8
0
  6
Continuous
100
AcDbCircle
 10
456.0252859988524
 20
225.6094451375584
 30
0.0
 40
4.5
  0
LINE
  5
1FE0
330
21CE
100
AcDbEntity
  8
0
  6
Continuous
100
AcDbLine
 10
448.0570986988524
 20
238.5514771375571
 30
0.0
 11
448.0570986988524
 21
232.6674141375576
 31
0.0
  0
LINE
  5
1FE1
330
21CE
100
AcDbEntity
  8
0
  6
Continuous
100
AcDbLine
 10
475.0252849988526
 20
243.3359431375583
 30
0.0
 11
470.0252859988524
 21
246.2226931375578
 31
0.0
  0
LINE
  5
1FE2
330
21CE
100
AcDbEntity
  8
0
  6
Continuous
100
AcDbLine
 10
437.0252849988526
 20
254.8829531375583
 30
0.0
 11
442.0252879988525
 21
251.9961931375584
 31
0.0
  0
LINE
  5
1FE3
330
21CE
100
AcDbEntity
  8
0
  6
Continuous
100
AcDbLine
 10
437.0252859988524
 20
254.8829531375583
 30
0.0
 11
432.0252859988524
 21
251.9961931375584
 31
0.0
  0
LINE
  5
1FE4
330
21CE
100
AcDbEntity
  8
0
  6
Continuous
100
AcDbLine
 10
462.0253079988525
 20
254.6094431375584
 30
0.0
 11
462.0253079988525
 21
269.6094531375583
 31
0.0
  0
LINE
  5
1FE5
330
21CE
100
AcDbEntity
  8
0
  6
Continuous
100
AcDbLine
 10
450.0253079988525
 20
254.6094431375584
 30
0.0
 11
450.0253079988525
 21
269.6094531375583
 31
0.0
  0
LINE
  5
1FE6
330
21CE
100
AcDbEntity
  8
0
  6
Continuous
100
AcDbLine
 10
450.0253079988525
 20
269.6094531375583
 30
0.0
 11
462.0253079988525
 21
269.6094531375583
 31
0.0
  0
LINE
  5
1FE7
330
21CE
100
AcDbEntity
  8
0
  6
Continuous
100
AcDbLine
 10
475.0252869988524
 20
254.8829531375583
 30
0.0
 11
470.0252839988526
 21
251.9961931375584
 31
0.0
  0
LINE
  5
1FE8
330
21CE
100
AcDbEntity
  8
0
  6
Continuous
100
AcDbLine
 10
480.0252859988524
 20
251.9961931375584
 30
0.0
 11
480.0252859988524
 21
246.2226931375578
 31
0.0
  0
LINE
  5
1FE9
330
21CE
100
AcDbEntity
  8
0
  6
Continuous
100
AcDbLine
 10
481.5252989988525
 20
254.6094431375584
 30
0.0
 11
483.0196959988525
 21
234.6841521375573
 31
0.0
  0
ARC
  5
1FEA
330
21CE
100
AcDbEntity
  8
0
  6
Continuous
100
AcDbCircle
 10
481.0252859988524
 20
215.6843361375583
 30
0.0
 40
2.0
100
AcDbArc
 50
355.7108499999994
 51
0.0
  0
ARC
  5
1FEB
330
21CE
100
AcDbEntity
  8
0
  6
Continuous
100
AcDbCircle
 10
481.0252859988524
 20
234.534555137557
 30
0.0
 40
2.0
100
AcDbArc
 50
0.0
 51
4.289153500001481
  0
LINE
  5
1FEC
330
21CE
100
AcDbEntity
  8
0
  6
Continuous
100
AcDbLine
 10
483.0252859988524
 20
215.6843361375583
 30
0.0
 11
483.0252859988524
 21
234.534555137557
 31
0.0
  0
LINE
  5
20A3
330
21CE
100
AcDbEntity
  8
AM_0N
100
AcDbLine
 10
334.8347119288896
 20
121.6094531375582
 30
0.0
 11
331.7955602288897
 21
129.9594535375574
 31
0.0
  0
LINE
  5
20A4
330
21CE
100
AcDbEntity
  8
0
100
AcDbLine
 10
334.8347119288896
 20
121.6094531375582
 30
0.0
 11
334.8347119288898
 21
155.6094531375582
 31
0.0
  0
LINE
  5
20A5
330
21CE
100
AcDbEntity
  8
0
  6
Continuous
100
AcDbLine
 10
337.6847113288896
 20
121.6094531375582
 30
0.0
 11
337.6847113288896
 21
155.6094531375582
 31
0.0
  0
LINE
  5
20A6
330
21CE
100
AcDbEntity
  8
AM_0N
100
AcDbLine
 10
337.6847113288896
 20
121.6094531375582
 30
0.0
 11
334.8347119288896
 21
121.6094531375582
 31
0.0
  0
LINE
  5
20A7
330
21CE
100
AcDbEntity
  8
AM_0N
100
AcDbLine
 10
331.7955602288897
 20
129.9594535375574
 30
0.0
 11
317.1843393288895
 21
129.9594535375574
 31
0.0
  0
LINE
  5
20A8
330
21CE
100
AcDbEntity
  8
AM_0N
100
AcDbLine
 10
331.7955602288897
 20
147.2594527375582
 30
0.0
 11
317.1843393288895
 21
147.2594527375582
 31
0.0
  0
LINE
  5
20A9
330
21CE
100
AcDbEntity
  8
AM_0N
100
AcDbLine
 10
334.8347119288898
 20
155.6094531375582
 30
0.0
 11
331.7955602288897
 21
147.2594527375582
 31
0.0
  0
LINE
  5
20AA
330
21CE
100
AcDbEntity
  8
AM_0N
100
AcDbLine
 10
337.6847113288896
 20
155.6094531375582
 30
0.0
 11
334.8347119288898
 21
155.6094531375582
 31
0.0
  0
LINE
  5
20AB
330
21CE
100
AcDbEntity
  8
0
100
AcDbLine
 10
331.7955602288897
 20
147.2594527375582
 30
0.0
 11
331.7955602288897
 21
129.9594535375574
 31
0.0
  0
CIRCLE
  5
20AE
330
21CE
100
AcDbEntity
  8
0
  6
Continuous
100
AcDbCircle
 10
456.0252859988524
 20
138.6094531375583
 30
0.0
 40
8.649999600000001
  0
CIRCLE
  5
20AF
330
21CE
100
AcDbEntity
  8
0
  6
Continuous
100
AcDbCircle
 10
456.0252859988524
 20
138.6094531375583
 30
0.0
 40
17.0
  0
LINE
  5
224F
330
21CE
100
AcDbEntity
  8
0
  6
CENTER
100
AcDbLine
 10
305.1847113288898
 20
96.72666755225661
 30
0.0
 11
305.1847113288898
 21
280.3443203194429
 31
0.0
  0
LINE
  5
2250
330
21CE
100
AcDbEntity
  8
0
  6
CENTER
100
AcDbLine
 10
374.435620528094
 20
388.8547331375578
 30
0.0
 11
249.7145841675931
 21
388.8547331375576
 31
0.0
  0
LINE
  5
2251
330
21CE
100
AcDbEntity
  8
0
  6
CENTER
100
AcDbLine
 10
305.1847113288898
 20
347.4422274001502
 30
0.0
 11
305.1847113288898
 21
430.2672388749652
 31
0.0
  0
LINE
  5
2252
330
21CE
100
AcDbEntity
  8
0
  6
CENTER
100
AcDbLine
 10
456.0252859988524
 20
96.72666755225661
 30
0.0
 11
456.0252859988524
 21
280.3443203194429
 31
0.0
  0
LINE
  5
2253
330
21CE
100
AcDbEntity
  8
0
  6
CENTER
100
AcDbLine
 10
415.2528397534253
 20
138.6094531375583
 30
0.0
 11
496.7977322442795
 21
138.6094531375583
 31
0.0
  0
LINE
  5
2254
330
21CE
100
AcDbEntity
  8
0
  6
CENTER
100
AcDbLine
 10
264.4122650834627
 20
138.6094531375583
 30
0.0
 11
345.9571575743169
 21
138.6094531375583
 31
0.0
  0
ENDSEC
  0
SECTION
  2
OBJECTS
  0
DICTIONARY
  5
21BC
330
0
100
AcDbDictionary
281
     1
  3
ACAD_GROUP
350
21BD
  3
ACAD_LAYOUT
350
21C9
  3
ACAD_MLINESTYLE
350
21C6
  3
ACAD_PLOTSETTINGS
350
21C8
  3
ACAD_PLOTSTYLENAME
350
21BE
  3
AcDbVariableDictionary
350
223A
  0
DICTIONARY
  5
2243
330
21B2
100
AcDbDictionary
280
     1
281
     1
  3
ACAD_LAYERSTATES
360
2244
  0
DICTIONARY
  5
21FA
330
21CE
100
AcDbDictionary
280
     1
281
     1
  3
ACAD_LAYOUTSELFREF
360
2229
  0
DICTIONARY
  5
21FC
330
21CA
100
AcDbDictionary
280
     1
281
     1
  3
ACAD_LAYOUTSELFREF
360
2228
  0
DICTIONARY
  5
21BD
102
{ACAD_REACTORS
330
21BC
102
}
330
21BC
100
AcDbDictionary
281
     1
  0
DICTIONARY
  5
21C9
102
{ACAD_REACTORS
330
21BC
102
}
330
21BC
100
AcDbDictionary
281
     1
  3
Model
350
21D1
  3
ﾚｲｱｳﾄ1
350
21CD
  0
DICTIONARY
  5
21C6
102
{ACAD_REACTORS
330
21BC
102
}
330
21BC
100
AcDbDictionary
281
     1
  3
Standard
350
21C7
  0
DICTIONARY
  5
21C8
102
{ACAD_REACTORS
330
21BC
102
}
330
21BC
100
AcDbDictionary
281
     1
  0
ACDBDICTIONARYWDFLT
  5
21BE
102
{ACAD_REACTORS
330
21BC
102
}
330
21BC
100
AcDbDictionary
281
     1
  3
Normal
350
21BF
100
AcDbDictionaryWithDefault
340
21BF
  0
DICTIONARY
  5
223A
102
{ACAD_REACTORS
330
21BC
102
}
330
21BC
100
AcDbDictionary
281
     1
  3
DIMASSOC
350
223B
  0
DICTIONARY
  5
2244
102
{ACAD_REACTORS
330
2243
102
}
330
2243
100
AcDbDictionary
281
     1
  0
XRECORD
  5
2229
102
{ACAD_REACTORS
330
21FA
102
}
330
21FA
100
AcDbXrecord
280
     1
340
21CE
  0
XRECORD
  5
2228
102
{ACAD_REACTORS
330
21FC
102
}
330
21FC
100
AcDbXrecord
280
     1
340
21CA
  0
LAYOUT
  5
21D1
102
{ACAD_REACTORS
330
21C9
102
}
330
21C9
100
AcDbPlotSettings
  1

  2
SII LP-2150 (D-SCAN C2)
  4

  6

 40
0.0
 41
0.0
 42
0.0
 43
0.0
 44
0.0
 45
0.0
 46
0.0
 47
0.0
 48
0.0
 49
0.0
140
0.0
141
0.0
142
1.0
143
1.0
 70
  1712
 72
     0
 73
     0
 74
     0
  7

 75
     0
147
1.0
148
0.0
149
0.0
100
AcDbLayout
  1
Model
 70
     1
 71
     0
 10
0.0
 20
0.0
 11
12.0
 21
9.0
 12
0.0
 22
0.0
 32
0.0
 14
0.0
 24
0.0
 34
0.0
 15
0.0
 25
0.0
 35
0.0
146
0.0
 13
0.0
 23
0.0
 33
0.0
 16
1.0
 26
0.0
 36
0.0
 17
0.0
 27
1.0
 37
0.0
 76
     0
330
21CE
  0
LAYOUT
  5
21CD
102
{ACAD_REACTORS
330
21C9
102
}
330
21C9
100
AcDbPlotSettings
  1

  2
SII LP-2150 (D-SCAN C2)
  4

  6

 40
0.0
 41
0.0
 42
0.0
 43
0.0
 44
0.0
 45
0.0
 46
0.0
 47
0.0
 48
0.0
 49
0.0
140
0.0
141
0.0
142
1.0
143
1.0
 70
   688
 72
     0
 73
     0
 74
     5
  7

 75
    16
147
1.0
148
0.0
149
0.0
100
AcDbLayout
  1
ﾚｲｱｳﾄ1
 70
     1
 71
     1
 10
0.0
 20
0.0
 11
12.0
 21
9.0
 12
0.0
 22
0.0
 32
0.0
 14
1.000000000000000E+20
 24
1.000000000000000E+20
 34
1.000000000000000E+20
 15
-1.000000000000000E+20
 25
-1.000000000000000E+20
 35
-1.000000000000000E+20
146
0.0
 13
0.0
 23
0.0
 33
0.0
 16
1.0
 26
0.0
 36
0.0
 17
0.0
 27
1.0
 37
0.0
 76
     0
330
21CA
  0
MLINESTYLE
  5
21C7
102
{ACAD_REACTORS
330
21C6
102
}
330
21C6
100
AcDbMlineStyle
  2
STANDARD
 70
     0
  3

 62
   256
 51
90.0
 52
90.0
 71
     2
 49
0.5
 62
   256
  6
BYLAYER
 49
-0.5
 62
   256
  6
BYLAYER
  0
ACDBPLACEHOLDER
  5
21BF
102
{ACAD_REACTORS
330
21BE
102
}
330
21BE
  0
DICTIONARYVAR
  5
223B
102
{ACAD_REACTORS
330
223A
102
}
330
223A
100
DictionaryVariables
280
     0
  1
1
  0
ENDSEC
  0
EOF
