  0
SECTION
  2
HEADER
  9
$ACADVER
  1
AC1024
  9
$ACADMAINTVER
 70
     6
  9
$DWGCODEPAGE
  3
ANSI_932
  9
$LASTSAVEDBY
  1
kanatani
  9
$INSBASE
 10
0.0
 20
0.0
 30
0.0
  9
$EXTMIN
 10
-208.5000314712526
 20
-253.0172741967612
 30
-0.0000000000000019
  9
$EXTMAX
 10
201.808639526367
 20
431.1777005327249
 30
0.0
  9
$LIMMIN
 10
0.0
 20
0.0
  9
$LIMMAX
 10
420.0
 20
297.0
  9
$ORTHOMODE
 70
     0
  9
$REGENMODE
 70
     1
  9
$FILLMODE
 70
     1
  9
$QTEXTMODE
 70
     0
  9
$MIRRTEXT
 70
     1
  9
$LTSCALE
 40
0.2
  9
$ATTMODE
 70
     1
  9
$TEXTSIZE
 40
2.5
  9
$TRACEWID
 40
1.0
  9
$TEXTSTYLE
  7
Standard
  9
$CLAYER
  8
0
  9
$CELTYPE
  6
ByLayer
  9
$CECOLOR
 62
   256
  9
$CELTSCALE
 40
1.0
  9
$DISPSILH
 70
     0
  9
$DIMSCALE
 40
1.0
  9
$DIMASZ
 40
2.5
  9
$DIMEXO
 40
0.625
  9
$DIMDLI
 40
3.75
  9
$DIMRND
 40
0.0
  9
$DIMDLE
 40
0.0
  9
$DIMEXE
 40
1.25
  9
$DIMTP
 40
0.0
  9
$DIMTM
 40
0.0
  9
$DIMTXT
 40
2.5
  9
$DIMCEN
 40
2.5
  9
$DIMTSZ
 40
0.0
  9
$DIMTOL
 70
     0
  9
$DIMLIM
 70
     0
  9
$DIMTIH
 70
     0
  9
$DIMTOH
 70
     0
  9
$DIMSE1
 70
     0
  9
$DIMSE2
 70
     0
  9
$DIMTAD
 70
     1
  9
$DIMZIN
 70
     8
  9
$DIMBLK
  1

  9
$DIMASO
 70
     1
  9
$DIMSHO
 70
     1
  9
$DIMPOST
  1

  9
$DIMAPOST
  1

  9
$DIMALT
 70
     0
  9
$DIMALTD
 70
     3
  9
$DIMALTF
 40
0.03937007874016
  9
$DIMLFAC
 40
1.0
  9
$DIMTOFL
 70
     1
  9
$DIMTVP
 40
0.0
  9
$DIMTIX
 70
     0
  9
$DIMSOXD
 70
     0
  9
$DIMSAH
 70
     0
  9
$DIMBLK1
  1

  9
$DIMBLK2
  1

  9
$DIMSTYLE
  2
ISO-25
  9
$DIMCLRD
 70
     0
  9
$DIMCLRE
 70
     0
  9
$DIMCLRT
 70
     0
  9
$DIMTFAC
 40
1.0
  9
$DIMGAP
 40
0.625
  9
$DIMJUST
 70
     0
  9
$DIMSD1
 70
     0
  9
$DIMSD2
 70
     0
  9
$DIMTOLJ
 70
     0
  9
$DIMTZIN
 70
     8
  9
$DIMALTZ
 70
     0
  9
$DIMALTTZ
 70
     0
  9
$DIMUPT
 70
     0
  9
$DIMDEC
 70
     2
  9
$DIMTDEC
 70
     2
  9
$DIMALTU
 70
     2
  9
$DIMALTTD
 70
     3
  9
$DIMTXSTY
  7
Standard
  9
$DIMAUNIT
 70
     0
  9
$DIMADEC
 70
     0
  9
$DIMALTRND
 40
0.0
  9
$DIMAZIN
 70
     0
  9
$DIMDSEP
 70
    44
  9
$DIMATFIT
 70
     3
  9
$DIMFRAC
 70
     0
  9
$DIMLDRBLK
  1

  9
$DIMLUNIT
 70
     2
  9
$DIMLWD
 70
    -2
  9
$DIMLWE
 70
    -2
  9
$DIMTMOVE
 70
     0
  9
$DIMFXL
 40
1.0
  9
$DIMFXLON
 70
     0
  9
$DIMJOGANG
 40
0.7853981633974483
  9
$DIMTFILL
 70
     0
  9
$DIMTFILLCLR
 70
     0
  9
$DIMARCSYM
 70
     0
  9
$DIMLTYPE
  6

  9
$DIMLTEX1
  6

  9
$DIMLTEX2
  6

  9
$DIMTXTDIRECTION
 70
     0
  9
$LUNITS
 70
     2
  9
$LUPREC
 70
     4
  9
$SKETCHINC
 40
1.0
  9
$FILLETRAD
 40
10.0
  9
$AUNITS
 70
     0
  9
$AUPREC
 70
     0
  9
$MENU
  1
.
  9
$ELEVATION
 40
0.0
  9
$PELEVATION
 40
0.0
  9
$THICKNESS
 40
0.0
  9
$LIMCHECK
 70
     0
  9
$CHAMFERA
 40
10.0
  9
$CHAMFERB
 40
10.0
  9
$CHAMFERC
 40
20.0
  9
$CHAMFERD
 40
0.0
  9
$SKPOLY
 70
     0
  9
$TDCREATE
 40
2456874.593217083
  9
$TDUCREATE
 40
2456874.218217083
  9
$TDUPDATE
 40
2456910.421726771
  9
$TDUUPDATE
 40
2456910.046726771
  9
$TDINDWG
 40
0.0033069560
  9
$TDUSRTIMER
 40
0.0033069444
  9
$USRTIMER
 70
     1
  9
$ANGBASE
 50
0.0
  9
$ANGDIR
 70
     0
  9
$PDMODE
 70
     0
  9
$PDSIZE
 40
0.0
  9
$PLINEWID
 40
0.0
  9
$SPLFRAME
 70
     0
  9
$SPLINETYPE
 70
     6
  9
$SPLINESEGS
 70
     8
  9
$HANDSEED
  5
509
  9
$SURFTAB1
 70
     6
  9
$SURFTAB2
 70
     6
  9
$SURFTYPE
 70
     6
  9
$SURFU
 70
     6
  9
$SURFV
 70
     6
  9
$UCSBASE
  2

  9
$UCSNAME
  2

  9
$UCSORG
 10
0.0
 20
0.0
 30
0.0
  9
$UCSXDIR
 10
1.0
 20
0.0
 30
0.0
  9
$UCSYDIR
 10
0.0
 20
1.0
 30
0.0
  9
$UCSORTHOREF
  2

  9
$UCSORTHOVIEW
 70
     0
  9
$UCSORGTOP
 10
0.0
 20
0.0
 30
0.0
  9
$UCSORGBOTTOM
 10
0.0
 20
0.0
 30
0.0
  9
$UCSORGLEFT
 10
0.0
 20
0.0
 30
0.0
  9
$UCSORGRIGHT
 10
0.0
 20
0.0
 30
0.0
  9
$UCSORGFRONT
 10
0.0
 20
0.0
 30
0.0
  9
$UCSORGBACK
 10
0.0
 20
0.0
 30
0.0
  9
$PUCSBASE
  2

  9
$PUCSNAME
  2

  9
$PUCSORG
 10
0.0
 20
0.0
 30
0.0
  9
$PUCSXDIR
 10
1.0
 20
0.0
 30
0.0
  9
$PUCSYDIR
 10
0.0
 20
1.0
 30
0.0
  9
$PUCSORTHOREF
  2

  9
$PUCSORTHOVIEW
 70
     0
  9
$PUCSORGTOP
 10
0.0
 20
0.0
 30
0.0
  9
$PUCSORGBOTTOM
 10
0.0
 20
0.0
 30
0.0
  9
$PUCSORGLEFT
 10
0.0
 20
0.0
 30
0.0
  9
$PUCSORGRIGHT
 10
0.0
 20
0.0
 30
0.0
  9
$PUCSORGFRONT
 10
0.0
 20
0.0
 30
0.0
  9
$PUCSORGBACK
 10
0.0
 20
0.0
 30
0.0
  9
$USERI1
 70
     0
  9
$USERI2
 70
     0
  9
$USERI3
 70
     0
  9
$USERI4
 70
     0
  9
$USERI5
 70
     0
  9
$USERR1
 40
0.0
  9
$USERR2
 40
0.0
  9
$USERR3
 40
0.0
  9
$USERR4
 40
0.0
  9
$USERR5
 40
0.0
  9
$WORLDVIEW
 70
     1
  9
$SHADEDGE
 70
     3
  9
$SHADEDIF
 70
    70
  9
$TILEMODE
 70
     1
  9
$MAXACTVP
 70
    64
  9
$PINSBASE
 10
0.0
 20
0.0
 30
0.0
  9
$PLIMCHECK
 70
     0
  9
$PEXTMIN
 10
26.66076962115563
 20
20.31135699206658
 30
-0.0015258207003583
  9
$PEXTMAX
 10
240.039213369355
 20
182.8886381005154
 30
0.0000000349246037
  9
$PLIMMIN
 10
-6.350006103515625
 20
-6.349999904632568
  9
$PLIMMAX
 10
273.0499877929688
 20
209.5499939918518
  9
$UNITMODE
 70
     0
  9
$VISRETAIN
 70
     1
  9
$PLINEGEN
 70
     0
  9
$PSLTSCALE
 70
     1
  9
$TREEDEPTH
 70
  3020
  9
$CMLSTYLE
  2
Standard
  9
$CMLJUST
 70
     0
  9
$CMLSCALE
 40
20.0
  9
$PROXYGRAPHICS
 70
     1
  9
$MEASUREMENT
 70
     1
  9
$CELWEIGHT
370
    -1
  9
$ENDCAPS
280
     0
  9
$JOINSTYLE
280
     0
  9
$LWDISPLAY
290
     0
  9
$INSUNITS
 70
     4
  9
$HYPERLINKBASE
  1

  9
$STYLESHEET
  1

  9
$XEDIT
290
     1
  9
$CEPSNTYPE
380
     0
  9
$PSTYLEMODE
290
     1
  9
$FINGERPRINTGUID
  2
{FDEAD578-A652-11D2-9A35-0060089B3A3F}
  9
$VERSIONGUID
  2
{97426216-6074-4409-AE02-27F86C81CDEC}
  9
$EXTNAMES
290
     1
  9
$PSVPSCALE
 40
0.0
  9
$OLESTARTUP
290
     0
  9
$SORTENTS
280
   127
  9
$INDEXCTL
280
     0
  9
$HIDETEXT
280
     1
  9
$XCLIPFRAME
280
     2
  9
$HALOGAP
280
     0
  9
$OBSCOLOR
 70
   257
  9
$OBSLTYPE
280
     0
  9
$INTERSECTIONDISPLAY
280
     0
  9
$INTERSECTIONCOLOR
 70
   257
  9
$DIMASSOC
280
     2
  9
$PROJECTNAME
  1

  9
$CAMERADISPLAY
290
     0
  9
$LENSLENGTH
 40
50.0
  9
$CAMERAHEIGHT
 40
0.0
  9
$STEPSPERSEC
 40
2.0
  9
$STEPSIZE
 40
6.0
  9
$3DDWFPREC
 40
2.0
  9
$PSOLWIDTH
 40
0.25
  9
$PSOLHEIGHT
 40
4.0
  9
$LOFTANG1
 40
1.570796326794896
  9
$LOFTANG2
 40
1.570796326794896
  9
$LOFTMAG1
 40
0.0
  9
$LOFTMAG2
 40
0.0
  9
$LOFTPARAM
 70
     7
  9
$LOFTNORMALS
280
     1
  9
$LATITUDE
 40
37.795
  9
$LONGITUDE
 40
-122.394
  9
$NORTHDIRECTION
 40
0.0
  9
$TIMEZONE
 70
 -8000
  9
$LIGHTGLYPHDISPLAY
280
     1
  9
$TILEMODELIGHTSYNCH
280
     1
  9
$CMATERIAL
347
4B8
  9
$SOLIDHIST
280
     1
  9
$SHOWHIST
280
     1
  9
$DWFFRAME
280
     2
  9
$DGNFRAME
280
     0
  9
$REALWORLDSCALE
290
     1
  9
$INTERFERECOLOR
 62
     1
  9
$INTERFEREOBJVS
345
4DA
  9
$INTERFEREVPVS
346
4D7
  9
$CSHADOW
280
     0
  9
$SHADOWPLANELOCATION
 40
0.0
  0
ENDSEC
  0
SECTION
  2
CLASSES
  0
CLASS
  1
ACDBDICTIONARYWDFLT
  2
AcDbDictionaryWithDefault
  3
ObjectDBX Classes
 90
        0
 91
        1
280
     0
281
     0
  0
CLASS
  1
DICTIONARYVAR
  2
AcDbDictionaryVar
  3
ObjectDBX Classes
 90
        0
 91
        9
280
     0
281
     0
  0
CLASS
  1
MATERIAL
  2
AcDbMaterial
  3
ObjectDBX Classes
 90
     1153
 91
        3
280
     0
281
     0
  0
CLASS
  1
VISUALSTYLE
  2
AcDbVisualStyle
  3
ObjectDBX Classes
 90
     4095
 91
       19
280
     0
281
     0
  0
CLASS
  1
TABLESTYLE
  2
AcDbTableStyle
  3
ObjectDBX Classes
 90
     4095
 91
        1
280
     0
281
     0
  0
CLASS
  1
SCALE
  2
AcDbScale
  3
ObjectDBX Classes
 90
     1153
 91
       17
280
     0
281
     0
  0
CLASS
  1
MLEADERSTYLE
  2
AcDbMLeaderStyle
  3
ACDB_MLEADERSTYLE_CLASS
 90
     4095
 91
        1
280
     0
281
     0
  0
CLASS
  1
CELLSTYLEMAP
  2
AcDbCellStyleMap
  3
ObjectDBX Classes
 90
     1152
 91
        1
280
     0
281
     0
  0
ENDSEC
  0
SECTION
  2
TABLES
  0
TABLE
  2
VPORT
  5
8
330
0
100
AcDbSymbolTable
 70
     1
  0
VPORT
  5
4B5
330
8
100
AcDbSymbolTableRecord
100
AcDbViewportTableRecord
  2
*Active
 70
     0
 10
0.0
 20
0.0
 11
1.0
 21
1.0
 12
-3.340080764194112
 22
106.9045582561469
 13
0.0
 23
0.0
 14
10.0
 24
10.0
 15
10.0
 25
10.0
 16
0.0
 26
0.0
 36
1.0
 17
0.0
 27
0.0
 37
0.0
 40
724.2827437576718
 41
1.857142857142857
 42
50.0
 43
0.0
 44
0.0
 50
0.0
 51
0.0
 71
     0
 72
   100
 73
     1
 74
     3
 75
     0
 76
     0
 77
     0
 78
     0
281
     0
 65
     1
110
0.0
120
0.0
130
0.0
111
1.0
121
0.0
131
0.0
112
0.0
122
1.0
132
0.0
 79
     0
146
0.0
348
4D6
 60
     3
 61
     5
292
     1
282
     1
141
0.0
142
0.0
 63
   250
421
  3355443
  0
ENDTAB
  0
TABLE
  2
LTYPE
  5
5
330
0
100
AcDbSymbolTable
 70
     4
  0
LTYPE
  5
14
330
5
100
AcDbSymbolTableRecord
100
AcDbLinetypeTableRecord
  2
ByBlock
 70
     0
  3

 72
    65
 73
     0
 40
0.0
  0
LTYPE
  5
15
330
5
100
AcDbSymbolTableRecord
100
AcDbLinetypeTableRecord
  2
ByLayer
 70
     0
  3

 72
    65
 73
     0
 40
0.0
  0
LTYPE
  5
16
330
5
100
AcDbSymbolTableRecord
100
AcDbLinetypeTableRecord
  2
Continuous
 70
     0
  3
Solid line
 72
    65
 73
     0
 40
0.0
  0
LTYPE
  5
8D
330
5
100
AcDbSymbolTableRecord
100
AcDbLinetypeTableRecord
  2
CENTER
 70
     0
  3
Center ____ _ ____ _ ____ _ ____ _ ____ _ ____
 72
    65
 73
     4
 40
50.8
 49
31.75
 74
     0
 49
-6.349999999999999
 74
     0
 49
6.349999999999999
 74
     0
 49
-6.349999999999999
 74
     0
  0
LTYPE
  5
8E
330
5
100
AcDbSymbolTableRecord
100
AcDbLinetypeTableRecord
  2
PHANTOM
 70
     0
  3
Phantom ______  __  __  ______  __  __  ______
 72
    65
 73
     6
 40
63.5
 49
31.75
 74
     0
 49
-6.349999999999999
 74
     0
 49
6.349999999999999
 74
     0
 49
-6.349999999999999
 74
     0
 49
6.349999999999999
 74
     0
 49
-6.349999999999999
 74
     0
  0
LTYPE
  5
8F
330
5
100
AcDbSymbolTableRecord
100
AcDbLinetypeTableRecord
  2
DASHED
 70
     0
  3
Dashed __ __ __ __ __ __ __ __ __ __ __ __ __ _
 72
    65
 73
     2
 40
19.05
 49
12.7
 74
     0
 49
-6.349999999999999
 74
     0
  0
ENDTAB
  0
TABLE
  2
LAYER
  5
2
102
{ACAD_XDICTIONARY
360
98
102
}
330
0
100
AcDbSymbolTable
 70
     3
  0
LAYER
  5
10
102
{ACAD_XDICTIONARY
360
4FD
102
}
330
2
100
AcDbSymbolTableRecord
100
AcDbLayerTableRecord
  2
0
 70
     0
 62
     7
  6
Continuous
370
    -3
390
F
347
4C8
  0
LAYER
  5
90
102
{ACAD_XDICTIONARY
360
91
102
}
330
2
100
AcDbSymbolTableRecord
100
AcDbLayerTableRecord
  2
2
 70
     0
 62
     2
  6
PHANTOM
370
    -3
390
F
347
4C8
1001
AcAecLayerStandard
1000

1000

1001
ACCMTRANSPARENCY
1071
        0
  0
LAYER
  5
93
102
{ACAD_XDICTIONARY
360
94
102
}
330
2
100
AcDbSymbolTableRecord
100
AcDbLayerTableRecord
  2
1
 70
     0
 62
     5
  6
CENTER
370
    -3
390
F
347
4C8
1001
AcAecLayerStandard
1000

1000

1001
ACCMTRANSPARENCY
1071
        0
  0
ENDTAB
  0
TABLE
  2
STYLE
  5
3
330
0
100
AcDbSymbolTable
 70
     1
  0
STYLE
  5
11
330
3
100
AcDbSymbolTableRecord
100
AcDbTextStyleTableRecord
  2
Standard
 70
     0
 40
0.0
 41
1.0
 50
0.0
 71
     0
 42
2.5
  3
txt
  4

  0
ENDTAB
  0
TABLE
  2
VIEW
  5
6
330
0
100
AcDbSymbolTable
 70
     0
  0
ENDTAB
  0
TABLE
  2
UCS
  5
7
330
0
100
AcDbSymbolTable
 70
     0
  0
ENDTAB
  0
TABLE
  2
APPID
  5
9
330
0
100
AcDbSymbolTable
 70
     3
  0
APPID
  5
12
330
9
100
AcDbSymbolTableRecord
100
AcDbRegAppTableRecord
  2
ACAD
 70
     0
  0
APPID
  5
96
330
9
100
AcDbSymbolTableRecord
100
AcDbRegAppTableRecord
  2
AcAecLayerStandard
 70
     0
  0
APPID
  5
97
330
9
100
AcDbSymbolTableRecord
100
AcDbRegAppTableRecord
  2
ACCMTRANSPARENCY
 70
     0
  0
ENDTAB
  0
TABLE
  2
DIMSTYLE
  5
A
330
0
100
AcDbSymbolTable
 70
     1
100
AcDbDimStyleTable
 71
     0
  0
DIMSTYLE
105
27
330
A
100
AcDbSymbolTableRecord
100
AcDbDimStyleTableRecord
  2
ISO-25
 70
     0
 41
2.5
 42
0.625
 43
3.75
 44
1.25
 73
     0
 74
     0
 77
     1
 78
     8
140
2.5
141
2.5
143
0.03937007874016
147
0.625
171
     3
172
     1
271
     2
272
     2
274
     3
278
    44
283
     0
284
     8
340
11
  0
ENDTAB
  0
TABLE
  2
BLOCK_RECORD
  5
1
330
0
100
AcDbSymbolTable
 70
     1
  0
BLOCK_RECORD
  5
1F
330
1
100
AcDbSymbolTableRecord
100
AcDbBlockTableRecord
  2
*Model_Space
340
22
 70
     0
280
     1
281
     0
  0
BLOCK_RECORD
  5
55
330
1
100
AcDbSymbolTableRecord
100
AcDbBlockTableRecord
  2
*Paper_Space
340
56
 70
     0
280
     1
281
     0
  0
BLOCK_RECORD
  5
50
330
1
100
AcDbSymbolTableRecord
100
AcDbBlockTableRecord
  2
*Paper_Space0
340
51
 70
     0
280
     1
281
     0
  0
ENDTAB
  0
ENDSEC
  0
SECTION
  2
BLOCKS
  0
BLOCK
  5
20
330
1F
100
AcDbEntity
  8
0
100
AcDbBlockBegin
  2
*Model_Space
 70
     0
 10
0.0
 20
0.0
 30
0.0
  3
*Model_Space
  1

  0
ENDBLK
  5
21
330
1F
100
AcDbEntity
  8
0
100
AcDbBlockEnd
  0
BLOCK
  5
57
330
55
100
AcDbEntity
 67
     1
  8
0
100
AcDbBlockBegin
  2
*Paper_Space
 70
     0
 10
0.0
 20
0.0
 30
0.0
  3
*Paper_Space
  1

  0
ENDBLK
  5
58
330
55
100
AcDbEntity
 67
     1
  8
0
100
AcDbBlockEnd
  0
BLOCK
  5
52
330
50
100
AcDbEntity
 67
     1
  8
0
100
AcDbBlockBegin
  2
*Paper_Space0
 70
     0
 10
0.0
 20
0.0
 30
0.0
  3
*Paper_Space0
  1

  0
VIEWPORT
  5
6B
330
50
100
AcDbEntity
 67
     1
  8
0
100
AcDbViewport
 10
133.3499908447266
 20
101.5999970436096
 30
0.0
 40
381.3957395593835
 41
218.2856291881582
 68
     0
 69
     0
 12
133.3499908447266
 22
101.5999970436096
 13
0.0
 23
0.0
 14
10.0
 24
10.0
 15
10.0
 25
10.0
 16
0.0
 26
0.0
 36
1.0
 17
0.0
 27
0.0
 37
0.0
 42
50.0
 43
0.0
 44
0.0
 45
218.2856291881582
 50
0.0
 51
0.0
 72
   100
 90
    32800
  1

281
     0
 71
     1
 74
     0
110
0.0
120
0.0
130
0.0
111
1.0
121
0.0
131
0.0
112
0.0
122
1.0
132
0.0
 79
     0
146
0.0
170
     0
 61
     5
348
4D6
292
     1
282
     1
141
0.0
142
0.0
 63
   250
421
  3355443
  0
VIEWPORT
  5
6D
330
50
100
AcDbEntity
 67
     1
  8
0
100
AcDbViewport
 10
133.3499939441681
 20
101.5999939441681
 30
0.0
 40
213.3599903106689
 41
162.5599903106689
 68
     0
 69
     0
 12
210.0
 22
148.5
 13
0.0
 23
0.0
 14
10.0
 24
10.0
 15
10.0
 25
10.0
 16
0.0
 26
0.0
 36
1.0
 17
0.0
 27
0.0
 37
0.0
 42
50.0
 43
0.0
 44
0.0
 45
324.0677920111345
 50
0.0
 51
0.0
 72
   100
 90
    32864
  1

281
     0
 71
     1
 74
     0
110
0.0
120
0.0
130
0.0
111
1.0
121
0.0
131
0.0
112
0.0
122
1.0
132
0.0
 79
     0
146
0.0
170
     0
 61
     5
348
4D6
292
     1
282
     1
141
0.0
142
0.0
 63
   250
421
  3355443
  0
ENDBLK
  5
53
330
50
100
AcDbEntity
 67
     1
  8
0
100
AcDbBlockEnd
  0
ENDSEC
  0
SECTION
  2
ENTITIES
  0
LINE
  5
2A2
330
1F
100
AcDbEntity
  8
2
100
AcDbLine
 10
-149.2500000000001
 20
178.7978055681178
 30
0.0
 11
149.2499542236326
 21
178.7978055681178
 31
0.0
  0
LINE
  5
2A3
330
1F
100
AcDbEntity
  8
2
100
AcDbLine
 10
-148.249969482422
 20
152.7978360856959
 30
0.0
 11
148.2500152587889
 21
152.7978360856959
 31
0.0
  0
LINE
  5
2A4
330
1F
100
AcDbEntity
  8
1
100
AcDbLine
 10
-208.5000314712526
 20
256.297836085696
 30
0.0
 11
201.808639526367
 21
256.297836085696
 31
0.0
  0
LINE
  5
2A5
330
1F
100
AcDbEntity
  8
0
370
    -3
100
AcDbLine
 10
-85.00003051757829
 20
0.0000000000002274
 30
0.0
 11
84.99998474121076
 21
0.0000000000002274
 31
0.0
  0
ARC
  5
2A6
330
1F
100
AcDbEntity
  8
2
100
AcDbCircle
 10
81.56575012207014
 20
215.2978666032741
 30
0.0
 40
4.00000011920929
100
AcDbArc
 50
269.9999974955313
 51
358.0000000154955
  0
ARC
  5
2A7
330
1F
100
AcDbEntity
  8
2
100
AcDbCircle
 10
81.56575012207014
 20
297.2978055681178
 30
0.0
 40
4.00000011920929
100
AcDbArc
 50
1.999999984504477
 51
90.00000250446868
  0
LINE
  5
2A8
330
1F
100
AcDbEntity
  8
2
100
AcDbLine
 10
44.00001525878889
 20
359.797836085695
 30
0.0
 11
148.2500152587889
 21
359.797836085695
 31
0.0
  0
LINE
  5
2A9
330
1F
100
AcDbEntity
  8
2
100
AcDbLine
 10
44.00001525878889
 20
333.7978666032727
 30
0.0
 11
149.2499542236326
 21
333.7978666032727
 31
0.0
  0
LINE
  5
2AA
330
1F
100
AcDbEntity
  8
2
100
AcDbLine
 10
-161.2500000000002
 20
333.2978055681178
 30
0.0
 11
-161.2500000000002
 21
179.2978666032741
 31
0.0
  0
LINE
  5
2AB
330
1F
100
AcDbEntity
  8
2
100
AcDbLine
 10
-161.2499323175054
 20
179.297878727858
 30
0.0
 11
-166.2499328393243
 21
241.2978864960269
 31
0.0
  0
LINE
  5
2AC
330
1F
100
AcDbEntity
  8
2
100
AcDbLine
 10
-135.2500305175783
 20
359.797836085696
 30
0.0
 11
-135.2500305175783
 21
152.7978360856959
 31
0.0
  0
LINE
  5
2AD
330
1F
100
AcDbEntity
  8
2
100
AcDbLine
 10
-149.2500000000001
 20
358.7978971208518
 30
0.0
 11
-149.2500000000001
 21
153.7977750505397
 31
0.0
  0
LINE
  5
2AE
330
1F
100
AcDbEntity
  8
1
100
AcDbLine
 10
-0.0000000000001705
 20
411.877757808108
 30
0.0
 11
-0.0000000000001705
 21
121.0148465837428
 31
0.0
  0
LINE
  5
2AF
330
1F
100
AcDbEntity
  8
2
100
AcDbLine
 10
-160.5899963378908
 20
179.4049833024928
 30
0.0
 11
-160.5899963378908
 21
195.1920621599147
 31
0.0
  0
LINE
  5
2B0
330
1F
100
AcDbEntity
  8
2
100
AcDbLine
 10
-159.9095764160158
 20
178.2265165056178
 30
0.0
 11
-159.9095764160158
 21
196.3705289567897
 31
0.0
  0
LINE
  5
2B1
330
1F
100
AcDbEntity
  8
2
100
AcDbLine
 10
-150.6108398437501
 20
178.2265165056178
 30
0.0
 11
-150.6108398437501
 21
196.3705289567897
 31
0.0
  0
LINE
  5
2B2
330
1F
100
AcDbEntity
  8
2
100
AcDbLine
 10
2.049957275390454
 20
30.00000000000023
 30
0.0
 11
2.049957275390454
 21
25.99996948242119
 31
0.0
  0
LINE
  5
2B3
330
1F
100
AcDbEntity
  8
2
100
AcDbLine
 10
-2.049957275390795
 20
30.00000000000023
 30
0.0
 11
-2.049957275390795
 21
25.99996948242119
 31
0.0
  0
LINE
  5
2B4
330
1F
100
AcDbEntity
  8
0
370
    -3
100
AcDbLine
 10
1.999969482421704
 20
30.00000000000023
 30
0.0
 11
1.999969482421704
 21
26.50003051757835
 31
0.0
  0
LINE
  5
2B5
330
1F
100
AcDbEntity
  8
0
370
    -3
100
AcDbLine
 10
-1.999969482422045
 20
30.00000000000023
 30
0.0
 11
-1.999969482422045
 21
26.50003051757835
 31
0.0
  0
LINE
  5
2B6
330
1F
100
AcDbEntity
  8
2
100
AcDbLine
 10
17.99999999999983
 20
30.00000000000023
 30
0.0
 11
17.99999999999983
 21
19.99996948242119
 31
0.0
  0
LINE
  5
2B7
330
1F
100
AcDbEntity
  8
2
100
AcDbLine
 10
-18.00000000000017
 20
30.00000000000023
 30
0.0
 11
-18.00000000000017
 21
19.99996948242119
 31
0.0
  0
LINE
  5
2B8
330
1F
100
AcDbEntity
  8
2
100
AcDbLine
 10
-27.50006103515642
 20
19.99996948242119
 30
0.0
 11
-18.00000000000017
 21
19.99996948242119
 31
0.0
  0
LINE
  5
2B9
330
1F
100
AcDbEntity
  8
2
100
AcDbLine
 10
-32.50003051757829
 20
3.000000000000227
 30
0.0
 11
32.50003051757796
 21
3.000000000000227
 31
0.0
  0
LINE
  5
2BA
330
1F
100
AcDbEntity
  8
2
100
AcDbLine
 10
-32.50003051757829
 20
1.000030517578352
 30
0.0
 11
32.50003051757796
 21
1.000030517578352
 31
0.0
  0
LINE
  5
2BB
330
1F
100
AcDbEntity
  8
2
100
AcDbLine
 10
-27.50006103515642
 20
19.99996948242119
 30
0.0
 11
-27.50006103515642
 21
3.000000000000227
 31
0.0
  0
LINE
  5
2BC
330
1F
100
AcDbEntity
  8
2
100
AcDbLine
 10
-32.50003051757829
 20
3.000000000000227
 30
0.0
 11
-32.50003051757829
 21
0.0000000000002274
 31
0.0
  0
LINE
  5
2BD
330
1F
100
AcDbEntity
  8
0
370
    -3
100
AcDbLine
 10
-60.7502746582033
 20
8.999816894531477
 30
0.0
 11
-60.7502746582033
 21
4.299865722656477
 31
0.0
  0
LINE
  5
2BE
330
1F
100
AcDbEntity
  8
0
370
    -3
100
AcDbLine
 10
-61.26997508985931
 20
9.299910985769429
 30
0.0
 11
-60.75032813512388
 21
8.999892671184397
 31
0.0
  0
LINE
  5
2BF
330
1F
100
AcDbEntity
  8
0
370
    -3
100
AcDbLine
 10
-61.99502563476579
 20
8.999816894531477
 30
0.0
 11
-61.99502563476579
 21
4.999877929687272
 31
0.0
  0
LINE
  5
2C0
330
1F
100
AcDbEntity
  8
0
370
    -3
100
AcDbLine
 10
-60.89511108398454
 20
8.999816894531477
 30
0.0
 11
-60.89511108398454
 21
4.999877929687272
 31
0.0
  0
LINE
  5
2C1
330
1F
100
AcDbEntity
  8
0
370
    -3
100
AcDbLine
 10
-61.3197326660158
 20
8.999816894531477
 30
0.0
 11
-61.3197326660158
 21
4.999877929687272
 31
0.0
  0
LINE
  5
2C2
330
1F
100
AcDbEntity
  8
0
370
    -3
100
AcDbLine
 10
-73.0000305175783
 20
3.000000000000227
 30
0.0
 11
-73.0000305175783
 21
0.0000000000002274
 31
0.0
  0
LINE
  5
2C3
330
1F
100
AcDbEntity
  8
0
370
    -3
100
AcDbLine
 10
-69.25021362304704
 20
8.999816894531477
 30
0.0
 11
-69.25021362304704
 21
4.299865722656477
 31
0.0
  0
LINE
  5
2C4
330
1F
100
AcDbEntity
  8
0
370
    -3
100
AcDbLine
 10
-69.25022135388752
 20
8.999923364253163
 30
0.0
 11
-68.73065368614533
 21
9.299895902471462
 31
0.0
  0
LINE
  5
2C5
330
1F
100
AcDbEntity
  8
0
370
    -3
100
AcDbLine
 10
-65.00033569335954
 20
8.999816894531477
 30
0.0
 11
-65.00033569335954
 21
4.999877929687272
 31
0.0
  0
LINE
  5
2C6
330
1F
100
AcDbEntity
  8
0
370
    -3
100
AcDbLine
 10
-69.1053771972658
 20
8.999816894531477
 30
0.0
 11
-69.1053771972658
 21
4.999877929687272
 31
0.0
  0
LINE
  5
2C7
330
1F
100
AcDbEntity
  8
0
370
    -3
100
AcDbLine
 10
-68.68075561523454
 20
8.999816894531477
 30
0.0
 11
-68.68075561523454
 21
4.999877929687272
 31
0.0
  0
LINE
  5
2C8
330
1F
100
AcDbEntity
  8
0
370
    -3
100
AcDbLine
 10
-68.00546264648454
 20
8.999816894531477
 30
0.0
 11
-68.00546264648454
 21
4.999877929687272
 31
0.0
  0
LINE
  5
2C9
330
1F
100
AcDbEntity
  8
0
370
    -3
100
AcDbLine
 10
-67.12527465820329
 20
8.999816894531477
 30
0.0
 11
-67.12527465820329
 21
4.999877929687272
 31
0.0
  0
LINE
  5
2CA
330
1F
100
AcDbEntity
  8
0
370
    -3
100
AcDbLine
 10
-66.10025024414079
 20
8.999816894531477
 30
0.0
 11
-66.10025024414079
 21
4.999877929687272
 31
0.0
  0
LINE
  5
2CB
330
1F
100
AcDbEntity
  8
0
370
    -3
100
AcDbLine
 10
-63.90023803710954
 20
8.999816894531477
 30
0.0
 11
-63.90023803710954
 21
4.999877929687272
 31
0.0
  0
LINE
  5
2CC
330
1F
100
AcDbEntity
  8
0
370
    -3
100
AcDbLine
 10
-62.87521362304705
 20
8.999816894531477
 30
0.0
 11
-62.87521362304705
 21
4.999877929687272
 31
0.0
  0
LINE
  5
2CD
330
1F
100
AcDbEntity
  8
0
370
    -3
100
AcDbLine
 10
-61.26992797851579
 20
9.299835205078352
 30
0.0
 11
-68.73056030273454
 21
9.299835205078352
 31
0.0
  0
LINE
  5
2CE
330
1F
100
AcDbEntity
  8
0
370
    -3
100
AcDbLine
 10
-60.7502746582033
 20
4.999877929687272
 30
0.0
 11
-69.25021362304704
 21
4.999877929687272
 31
0.0
  0
LINE
  5
2CF
330
1F
100
AcDbEntity
  8
0
370
    -3
100
AcDbLine
 10
-60.7502746582033
 20
8.999816894531477
 30
0.0
 11
-69.25021362304704
 21
8.999816894531477
 31
0.0
  0
LINE
  5
2D0
330
1F
100
AcDbEntity
  8
0
370
    -3
100
AcDbLine
 10
-73.0000305175783
 20
3.000000000000227
 30
0.0
 11
-32.50003051757829
 21
3.000000000000227
 31
0.0
  0
LINE
  5
2D1
330
1F
100
AcDbEntity
  8
0
370
    -3
100
AcDbLine
 10
-43.99996948242204
 20
25.99999237060524
 30
0.0
 11
-43.99996948242204
 21
3.000000000000227
 31
0.0
  0
LINE
  5
2D2
330
1F
100
AcDbEntity
  8
2
100
AcDbLine
 10
-2.049957275390795
 20
25.99996948242119
 30
0.0
 11
2.049957275390454
 21
25.99996948242119
 31
0.0
  0
LINE
  5
2D3
330
1F
100
AcDbEntity
  8
0
370
    -3
100
AcDbLine
 10
-1.999969482422045
 20
26.50003051757835
 30
0.0
 11
1.999969482421704
 21
26.50003051757835
 31
0.0
  0
LINE
  5
2D4
330
1F
100
AcDbEntity
  8
2
100
AcDbLine
 10
27.50001525878889
 20
19.99996948242119
 30
0.0
 11
27.50001525878889
 21
3.000000000000227
 31
0.0
  0
LINE
  5
2D5
330
1F
100
AcDbEntity
  8
2
100
AcDbLine
 10
17.99999999999983
 20
19.99996948242119
 30
0.0
 11
27.50001525878889
 21
19.99996948242119
 31
0.0
  0
LINE
  5
2D6
330
1F
100
AcDbEntity
  8
2
100
AcDbLine
 10
32.50003051757796
 20
3.000000000000227
 30
0.0
 11
32.50003051757796
 21
0.0000000000002274
 31
0.0
  0
LINE
  5
2D7
330
1F
100
AcDbEntity
  8
0
370
    -3
100
AcDbLine
 10
44.00001525878889
 20
25.99999237060524
 30
0.0
 11
44.00001525878889
 21
3.000000000000227
 31
0.0
  0
LINE
  5
2D8
330
1F
100
AcDbEntity
  8
0
370
    -3
100
AcDbLine
 10
32.50003051757796
 20
3.000000000000227
 30
0.0
 11
72.99998474121077
 21
3.000000000000227
 31
0.0
  0
LINE
  5
2D9
330
1F
100
AcDbEntity
  8
1
100
AcDbLine
 10
-27.7737121582033
 20
39.00004577636742
 30
0.0
 11
-16.22671508789079
 21
39.00004577636742
 31
0.0
  0
LINE
  5
2DA
330
1F
100
AcDbEntity
  8
0
370
    -3
100
AcDbLine
 10
-25.99996948242205
 20
44.00006103515647
 30
0.0
 11
14.99999999999983
 21
44.00006103515647
 31
0.0
  0
LINE
  5
2DB
330
1F
100
AcDbEntity
  8
0
370
    -3
100
AcDbLine
 10
-25.99996948242205
 20
34.00003051757835
 30
0.0
 11
-15.00000000000017
 21
34.00003051757835
 31
0.0
  0
CIRCLE
  5
2DC
330
1F
100
AcDbEntity
  8
0
370
    -3
100
AcDbCircle
 10
-22.00021362304704
 20
39.00004577636742
 30
0.0
 40
3.0
  0
LINE
  5
2DD
330
1F
100
AcDbEntity
  8
0
370
    -3
100
AcDbLine
 10
-27.00000000000017
 20
43.00003051757835
 30
0.0
 11
-27.00000000000017
 21
35.00006103515648
 31
0.0
  0
ARC
  5
2DE
330
1F
100
AcDbEntity
  8
0
370
    -3
100
AcDbCircle
 10
-25.99996948242205
 20
43.00003051757835
 30
0.0
 40
1.000000029802322
100
AcDbArc
 50
90.00000250446868
 51
180.0000050089504
  0
ARC
  5
2DF
330
1F
100
AcDbEntity
  8
0
370
    -3
100
AcDbCircle
 10
-25.99996948242205
 20
35.00006103515648
 30
0.0
 40
1.000000029802322
100
AcDbArc
 50
180.0000086514279
 51
270.0000043257205
  0
LINE
  5
2E0
330
1F
100
AcDbEntity
  8
0
370
    -3
100
AcDbLine
 10
31.96298536043542
 20
33.22654724121117
 30
0.0
 11
28.46731885652918
 21
33.22654724121117
 31
0.0
  0
LINE
  5
2E1
330
1F
100
AcDbEntity
  8
0
370
    -3
100
AcDbLine
 10
31.96298536043542
 20
36.11329650878929
 30
0.0
 11
28.46731885652918
 21
36.11329650878929
 31
0.0
  0
LINE
  5
2E2
330
1F
100
AcDbEntity
  8
0
370
    -3
100
AcDbLine
 10
31.96298536043542
 20
44.77354431152366
 30
0.0
 11
28.46731885652918
 21
44.77354431152366
 31
0.0
  0
LINE
  5
2E3
330
1F
100
AcDbEntity
  8
0
370
    -3
100
AcDbLine
 10
31.96298536043542
 20
41.88679504394554
 30
0.0
 11
28.46731885652918
 21
41.88679504394554
 31
0.0
  0
LINE
  5
2E4
330
1F
100
AcDbEntity
  8
0
370
    -3
100
AcDbLine
 10
28.46731885652918
 20
33.22654724121117
 30
0.0
 11
28.46731885652918
 21
44.77354431152366
 31
0.0
  0
ARC
  5
2E5
330
1F
100
AcDbEntity
  8
0
370
    -3
100
AcDbCircle
 10
13.9999694824217
 20
52.00003051757835
 30
0.0
 40
1.000000029802322
100
AcDbArc
 50
359.9999974955182
 51
90.00000250446868
  0
LINE
  5
2E6
330
1F
100
AcDbEntity
  8
0
370
    -3
100
AcDbLine
 10
18.49571228027327
 20
41.88674926757835
 30
0.0
 11
14.99999999999983
 21
41.88674926757835
 31
0.0
  0
LINE
  5
2E7
330
1F
100
AcDbEntity
  8
0
370
    -3
100
AcDbLine
 10
18.49571228027327
 20
44.77354431152366
 30
0.0
 11
14.99999999999983
 21
44.77354431152366
 31
0.0
  0
LINE
  5
2E8
330
1F
100
AcDbEntity
  8
0
370
    -3
100
AcDbLine
 10
18.52445983886702
 20
33.22654724121117
 30
0.0
 11
14.99999999999983
 21
33.22654724121117
 31
0.0
  0
LINE
  5
2E9
330
1F
100
AcDbEntity
  8
0
370
    -3
100
AcDbLine
 10
18.99998474121076
 20
34.66992187500023
 30
0.0
 11
18.99998474121076
 21
43.33012390136741
 31
0.0
  0
LINE
  5
2EA
330
1F
100
AcDbEntity
  8
0
370
    -3
100
AcDbLine
 10
18.49571228027327
 20
36.11325073242119
 30
0.0
 11
14.99999999999983
 21
36.11325073242119
 31
0.0
  0
LINE
  5
2EB
330
1F
100
AcDbEntity
  8
0
370
    -3
100
AcDbLine
 10
8.999999999999829
 20
44.00006103515647
 30
0.0
 11
8.999999999999829
 21
34.00003051757835
 31
0.0
  0
LINE
  5
2EC
330
1F
100
AcDbEntity
  8
0
370
    -3
100
AcDbLine
 10
8.999999999999829
 20
34.00003051757835
 30
0.0
 11
14.99999999999983
 21
34.00003051757835
 31
0.0
  0
ARC
  5
2ED
330
1F
100
AcDbEntity
  8
0
370
    -3
100
AcDbCircle
 10
9.999984741210766
 20
39.00004577636742
 30
0.0
 40
9.0
100
AcDbArc
 50
341.2917037595245
 51
18.70829965556215
  0
ARC
  5
2EE
330
1F
100
AcDbEntity
  8
0
370
    -3
100
AcDbCircle
 10
16.57173156738264
 20
34.66992187500023
 30
0.0
 40
2.428322017192841
100
AcDbArc
 50
323.5306830399439
 51
36.46931354495064
  0
ARC
  5
2EF
330
1F
100
AcDbEntity
  8
0
370
    -3
100
AcDbCircle
 10
16.57173156738264
 20
43.33012390136741
 30
0.0
 40
2.428322017192841
100
AcDbArc
 50
323.5306830399439
 51
36.46931354495064
  0
LINE
  5
2F0
330
1F
100
AcDbEntity
  8
0
370
    -3
100
AcDbLine
 10
-1.532726913816247
 20
42.00004577636741
 30
0.0
 11
-1.532726913816247
 21
36.00004577636742
 31
0.0
  0
LINE
  5
2F1
330
1F
100
AcDbEntity
  8
0
370
    -3
100
AcDbLine
 10
8.999999999999829
 20
42.00004577636741
 30
0.0
 11
-1.532726913816247
 21
42.00004577636741
 31
0.0
  0
LINE
  5
2F2
330
1F
100
AcDbEntity
  8
0
370
    -3
100
AcDbLine
 10
8.999999999999829
 20
36.00004577636742
 30
0.0
 11
-1.532726913816247
 21
36.00004577636742
 31
0.0
  0
LINE
  5
2F3
330
1F
100
AcDbEntity
  8
0
370
    -3
100
AcDbLine
 10
2.049957275390454
 20
30.00000000000023
 30
0.0
 11
17.99999999999983
 21
30.00000000000023
 31
0.0
  0
LINE
  5
2F4
330
1F
100
AcDbEntity
  8
2
100
AcDbLine
 10
17.99999999999983
 20
30.00000000000023
 30
0.0
 11
1.999969482421704
 21
30.00000000000023
 31
0.0
  0
LINE
  5
2F5
330
1F
100
AcDbEntity
  8
0
370
    -3
100
AcDbLine
 10
6.538330078124829
 20
53.00006103515648
 30
0.0
 11
6.538330078124829
 21
44.00006103515647
 31
0.0
  0
LINE
  5
2F6
330
1F
100
AcDbEntity
  8
0
370
    -3
100
AcDbLine
 10
8.421752929687329
 20
53.00006103515648
 30
0.0
 11
8.421752929687329
 21
44.00006103515647
 31
0.0
  0
LINE
  5
2F7
330
1F
100
AcDbEntity
  8
0
370
    -3
100
AcDbLine
 10
-6.53833007812517
 20
53.00006103515648
 30
0.0
 11
-6.53833007812517
 21
44.00006103515647
 31
0.0
  0
LINE
  5
2F8
330
1F
100
AcDbEntity
  8
0
370
    -3
100
AcDbLine
 10
-8.42175292968767
 20
53.00006103515648
 30
0.0
 11
-8.42175292968767
 21
44.00006103515647
 31
0.0
  0
LINE
  5
2F9
330
1F
100
AcDbEntity
  8
0
370
    -3
100
AcDbLine
 10
14.99999999999983
 20
52.00003051757835
 30
0.0
 11
14.99999999999983
 21
30.00000000000023
 31
0.0
  0
LINE
  5
2FA
330
1F
100
AcDbEntity
  8
0
370
    -3
100
AcDbLine
 10
28.46731885652918
 20
42.00004577636741
 30
0.0
 11
18.99998474121076
 21
42.00004577636741
 31
0.0
  0
LINE
  5
2FB
330
1F
100
AcDbEntity
  8
0
370
    -3
100
AcDbLine
 10
28.46731885652918
 20
36.00004577636742
 30
0.0
 11
18.99998474121076
 21
36.00004577636742
 31
0.0
  0
ARC
  5
2FC
330
1F
100
AcDbEntity
  8
0
370
    -3
100
AcDbCircle
 10
-13.99996948242204
 20
52.00003051757835
 30
0.0
 40
1.000000029802322
100
AcDbArc
 50
90.00000250446868
 51
180.0000050089504
  0
LINE
  5
2FD
330
1F
100
AcDbEntity
  8
0
370
    -3
100
AcDbLine
 10
-15.00000000000017
 20
52.00003051757835
 30
0.0
 11
-15.00000000000017
 21
30.00000000000023
 31
0.0
  0
LINE
  5
2FE
330
1F
100
AcDbEntity
  8
0
370
    -3
100
AcDbLine
 10
-13.99996948242204
 20
53.00006103515648
 30
0.0
 11
13.9999694824217
 21
53.00006103515648
 31
0.0
  0
LINE
  5
2FF
330
1F
100
AcDbEntity
  8
0
370
    -3
100
AcDbLine
 10
-18.00000000000017
 20
30.00000000000023
 30
0.0
 11
-2.049957275390795
 21
30.00000000000023
 31
0.0
  0
LINE
  5
300
330
1F
100
AcDbEntity
  8
2
100
AcDbLine
 10
-18.00000000000017
 20
30.00000000000023
 30
0.0
 11
-1.999969482422045
 21
30.00000000000023
 31
0.0
  0
LINE
  5
301
330
1F
100
AcDbEntity
  8
0
370
    -3
100
AcDbLine
 10
32.46730359774011
 20
34.66992187500023
 30
0.0
 11
32.46730359774011
 21
43.3301696777346
 31
0.0
  0
ARC
  5
302
330
1F
100
AcDbEntity
  8
0
370
    -3
100
AcDbCircle
 10
30.14964612703699
 20
34.66992187500023
 30
0.0
 40
2.317658007144928
100
AcDbArc
 50
321.4810525530695
 51
38.51894403184842
  0
ARC
  5
303
330
1F
100
AcDbEntity
  8
0
370
    -3
100
AcDbCircle
 10
30.14964612703699
 20
43.3301696777346
 30
0.0
 40
2.317658007144928
100
AcDbArc
 50
321.4810525530695
 51
38.51894403184842
  0
ARC
  5
304
330
1F
100
AcDbEntity
  8
0
370
    -3
100
AcDbCircle
 10
23.95317395906824
 20
39.00004577636742
 30
0.0
 40
8.514156818389892
100
AcDbArc
 50
340.1808008117862
 51
19.81919577311589
  0
ARC
  5
305
330
1F
100
AcDbEntity
  8
2
100
AcDbCircle
 10
-148.249969482422
 20
153.7977750505397
 30
0.0
 40
1.000000029802322
100
AcDbArc
 50
179.9999913485851
 51
270.0000006832169
  0
LINE
  5
306
330
1F
100
AcDbEntity
  8
2
100
AcDbLine
 10
-159.9095764160158
 20
178.2265165056178
 30
0.0
 11
-149.2500000000001
 21
178.2265165056178
 31
0.0
  0
LINE
  5
307
330
1F
100
AcDbEntity
  8
2
100
AcDbLine
 10
-160.5900677373812
 20
179.4050185061346
 30
0.0
 11
-159.9096478063476
 21
178.2264966362527
 31
0.0
  0
ARC
  5
308
330
1F
100
AcDbEntity
  8
2
100
AcDbCircle
 10
-155.2500000000001
 20
179.2978666032741
 30
0.0
 40
6.0
100
AcDbArc
 50
179.999991348572
 51
270.0000006832169
  0
ARC
  5
309
330
1F
100
AcDbEntity
  8
2
100
AcDbCircle
 10
-155.2500000000001
 20
167.2978666032741
 30
0.0
 40
6.0
100
AcDbArc
 50
0.0
 51
90.00000250446868
  0
LINE
  5
30A
330
1F
100
AcDbEntity
  8
2
100
AcDbLine
 10
-150.6108398437501
 20
334.3691556657741
 30
0.0
 11
-150.6108398437501
 21
316.2251432146018
 31
0.0
  0
LINE
  5
30B
330
1F
100
AcDbEntity
  8
2
100
AcDbLine
 10
-159.9095764160158
 20
334.3691556657741
 30
0.0
 11
-159.9095764160158
 21
316.2251432146018
 31
0.0
  0
LINE
  5
30C
330
1F
100
AcDbEntity
  8
2
100
AcDbLine
 10
-160.5899963378908
 20
333.1906888688991
 30
0.0
 11
-160.5899963378908
 21
317.4036100114768
 31
0.0
  0
LINE
  5
30D
330
1F
100
AcDbEntity
  8
2
100
AcDbLine
 10
-161.2499886360203
 20
333.2979536942898
 30
0.0
 11
-166.2499891578392
 21
271.297945926121
 31
0.0
  0
LINE
  5
30E
330
1F
100
AcDbEntity
  8
0
370
    -3
100
AcDbLine
 10
44.00001525878889
 20
303.7977407182639
 30
0.0
 11
44.00001525878889
 21
393.8777578081081
 31
0.0
  0
LINE
  5
30F
330
1F
100
AcDbEntity
  8
0
370
    -3
100
AcDbLine
 10
-43.99996948242204
 20
303.7977407182639
 30
0.0
 11
-43.99996948242204
 21
393.8777578081081
 31
0.0
  0
LINE
  5
310
330
1F
100
AcDbEntity
  8
2
100
AcDbLine
 10
-149.2500000000001
 20
271.2978360856959
 30
0.0
 11
-86.47622680664079
 21
271.2978360856959
 31
0.0
  0
LINE
  5
311
330
1F
100
AcDbEntity
  8
2
100
AcDbLine
 10
-149.2500000000001
 20
241.297836085696
 30
0.0
 11
-86.47622680664079
 21
241.297836085696
 31
0.0
  0
ARC
  5
312
330
1F
100
AcDbEntity
  8
2
100
AcDbCircle
 10
-155.0798950195314
 20
256.297836085696
 30
0.0
 40
25.92012977600098
100
AcDbArc
 50
163.2213447845082
 51
196.7786515730394
  0
LINE
  5
313
330
1F
100
AcDbEntity
  8
2
100
AcDbLine
 10
-181.0000305175783
 20
267.5215604509299
 30
0.0
 11
-181.0000305175783
 21
245.0741117204607
 31
0.0
  0
LINE
  5
314
330
1F
100
AcDbEntity
  8
2
100
AcDbLine
 10
-167.2500000000001
 20
271.2978360856959
 30
0.0
 11
-167.2500000000001
 21
241.297836085696
 31
0.0
  0
LINE
  5
315
330
1F
100
AcDbEntity
  8
2
100
AcDbLine
 10
-166.249969482422
 20
271.2978360856959
 30
0.0
 11
-166.249969482422
 21
241.297836085696
 31
0.0
  0
ARC
  5
316
330
1F
100
AcDbEntity
  8
2
100
AcDbCircle
 10
-181.0000305175783
 20
256.297836085696
 30
0.0
 40
12.50000095367432
100
AcDbArc
 50
90.00000250446868
 51
269.9777130656522
  0
LINE
  5
317
330
1F
100
AcDbEntity
  8
2
100
AcDbLine
 10
-160.5900105724597
 20
195.1921010887176
 30
0.0
 11
-159.9096364177932
 21
196.3705436716059
 31
0.0
  0
LINE
  5
318
330
1F
100
AcDbEntity
  8
2
100
AcDbLine
 10
-159.9095764160158
 20
196.3705289567897
 30
0.0
 11
-149.2500000000001
 21
196.3705289567897
 31
0.0
  0
ARC
  5
319
330
1F
100
AcDbEntity
  8
2
100
AcDbCircle
 10
-174.1062011718751
 20
245.0741117204607
 30
0.0
 40
6.893842935562133
100
AcDbArc
 50
147.1327658926313
 51
212.8672304649024
  0
LINE
  5
31A
330
1F
100
AcDbEntity
  8
2
100
AcDbLine
 10
-179.8965454101564
 20
248.8153226579607
 30
0.0
 11
-167.2500000000001
 21
248.8153226579607
 31
0.0
  0
LINE
  5
31B
330
1F
100
AcDbEntity
  8
2
100
AcDbLine
 10
-179.8965454101564
 20
241.3328092302267
 30
0.0
 11
-167.2500000000001
 21
241.3328092302267
 31
0.0
  0
LINE
  5
31C
330
1F
100
AcDbEntity
  8
2
100
AcDbLine
 10
-166.249969482422
 20
241.297836085696
 30
0.0
 11
-167.2500000000001
 21
241.297836085696
 31
0.0
  0
ARC
  5
31D
330
1F
100
AcDbEntity
  8
2
100
AcDbCircle
 10
-174.1062011718751
 20
267.5215604509299
 30
0.0
 40
6.893842935562133
100
AcDbArc
 50
147.1327658926313
 51
212.8672304649024
  0
LINE
  5
31E
330
1F
100
AcDbEntity
  8
2
100
AcDbLine
 10
-179.8965454101564
 20
271.2628629411647
 30
0.0
 11
-167.2500000000001
 21
271.2628629411647
 31
0.0
  0
LINE
  5
31F
330
1F
100
AcDbEntity
  8
2
100
AcDbLine
 10
-179.8965454101564
 20
263.7803495134299
 30
0.0
 11
-167.2500000000001
 21
263.7803495134299
 31
0.0
  0
LINE
  5
320
330
1F
100
AcDbEntity
  8
2
100
AcDbLine
 10
-166.249969482422
 20
271.2978360856959
 30
0.0
 11
-167.2500000000001
 21
271.2978360856959
 31
0.0
  0
LINE
  5
321
330
1F
100
AcDbEntity
  8
2
100
AcDbLine
 10
-160.589993347876
 20
317.4036518401958
 30
0.0
 11
-159.9096191932096
 21
316.225209257308
 31
0.0
  0
LINE
  5
322
330
1F
100
AcDbEntity
  8
2
100
AcDbLine
 10
-159.9095764160158
 20
316.2251432146018
 30
0.0
 11
-149.2500000000001
 21
316.2251432146018
 31
0.0
  0
ARC
  5
323
330
1F
100
AcDbEntity
  8
2
100
AcDbCircle
 10
-0.0000000000001705
 20
256.297836085696
 30
0.0
 40
32.50003051757814
100
AcDbArc
 50
151.2737760313937
 51
298.726391877118
  0
ARC
  5
324
330
1F
100
AcDbEntity
  8
2
100
AcDbCircle
 10
-0.0000000000001705
 20
256.297836085696
 30
0.0
 40
27.50002956390381
100
AcDbArc
 50
160.8967035608657
 51
285.4976461520855
  0
LINE
  5
325
330
1F
100
AcDbEntity
  8
2
100
AcDbLine
 10
-87.00002610703922
 20
256.2978405650706
 30
0.0
 11
-85.56339661456348
 21
297.4375285094707
 31
0.0
  0
LINE
  5
326
330
1F
100
AcDbEntity
  8
0
370
    -3
100
AcDbLine
 10
8.422025174608108
 20
268.7105469031258
 30
0.0
 11
14.9604926698492
 21
257.385589200992
 31
0.0
  0
CIRCLE
  5
327
330
1F
100
AcDbEntity
  8
0
370
    -3
100
AcDbCircle
 10
-0.0000000000001705
 20
256.297836085696
 30
0.0
 40
7.74999976158142
  0
LINE
  5
328
330
1F
100
AcDbEntity
  8
2
100
AcDbLine
 10
17.99999999999983
 20
277.0885465349147
 30
0.0
 11
17.99999999999983
 21
240.7975853521798
 31
0.0
  0
ARC
  5
329
330
1F
100
AcDbEntity
  8
2
100
AcDbCircle
 10
-0.0000000000001705
 20
256.297836085696
 30
0.0
 40
32.50003051757814
100
AcDbArc
 50
331.5153007399826
 51
44.81716961764933
  0
LINE
  5
32A
330
1F
100
AcDbEntity
  8
0
370
    -3
100
AcDbLine
 10
-19.00021362304704
 20
265.2978360856959
 30
0.0
 11
-19.00021362304704
 21
254.7651549482457
 31
0.0
  0
LINE
  5
32B
330
1F
100
AcDbEntity
  8
0
370
    -3
100
AcDbLine
 10
-25.00021362304705
 20
265.2978360856959
 30
0.0
 11
-25.00021362304705
 21
254.7651549482457
 31
0.0
  0
LINE
  5
32C
330
1F
100
AcDbEntity
  8
0
370
    -3
100
AcDbLine
 10
-15.00000000000017
 20
256.297836085696
 30
0.0
 11
-15.00000000000017
 21
264.7978666032741
 31
0.0
  0
LINE
  5
32D
330
1F
100
AcDbEntity
  8
2
100
AcDbLine
 10
-18.00000000000017
 20
265.2978360856959
 30
0.0
 11
-18.00000000000017
 21
235.5071256364768
 31
0.0
  0
LINE
  5
32E
330
1F
100
AcDbEntity
  8
0
370
    -3
100
AcDbLine
 10
-8.422014379295603
 20
268.7101829097446
 30
0.0
 11
-14.96034454543422
 21
257.3854630685919
 31
0.0
  0
ARC
  5
32F
330
1F
100
AcDbEntity
  8
2
100
AcDbCircle
 10
-0.0000000000001705
 20
256.297836085696
 30
0.0
 40
27.50002956390381
100
AcDbArc
 50
320.4784011093283
 51
129.5217225310138
  0
CIRCLE
  5
330
330
1F
100
AcDbEntity
  8
0
370
    -3
100
AcDbCircle
 10
-0.0000000000001705
 20
256.297836085696
 30
0.0
 40
13.5
  0
CIRCLE
  5
331
330
1F
100
AcDbEntity
  8
0
370
    -3
100
AcDbCircle
 10
-0.0000000000001705
 20
256.297836085696
 30
0.0
 40
15.0
  0
LINE
  5
332
330
1F
100
AcDbEntity
  8
2
100
AcDbLine
 10
-81.56579589843767
 20
211.2978360856959
 30
0.0
 11
81.56575012207014
 21
211.2978360856959
 31
0.0
  0
ARC
  5
333
330
1F
100
AcDbEntity
  8
2
100
AcDbCircle
 10
-0.0000000000001705
 20
256.297836085696
 30
0.0
 40
55.00000190734863
100
AcDbArc
 50
234.9032002189801
 51
305.0968050173119
  0
LINE
  5
334
330
1F
100
AcDbEntity
  8
0
370
    -3
100
AcDbLine
 10
-19.00021362304704
 20
254.7651549482457
 30
0.0
 11
-25.00021362304705
 21
254.7651549482457
 31
0.0
  0
LINE
  5
335
330
1F
100
AcDbEntity
  8
2
100
AcDbLine
 10
-87.00002144675835
 20
256.2979533345597
 30
0.0
 11
-85.56339514942663
 21
215.1583568871229
 31
0.0
  0
ARC
  5
336
330
1F
100
AcDbEntity
  8
2
100
AcDbCircle
 10
-81.56579589843767
 20
215.2978666032741
 30
0.0
 40
4.00000011920929
100
AcDbArc
 50
181.9999973234258
 51
269.9999974955313
  0
CIRCLE
  5
337
330
1F
100
AcDbEntity
  8
2
100
AcDbCircle
 10
-64.99996948242205
 20
241.2979276384299
 30
0.0
 40
2.000000059604645
  0
LINE
  5
338
330
1F
100
AcDbEntity
  8
2
100
AcDbLine
 10
-72.49996948242205
 20
241.2979276384299
 30
0.0
 11
-57.49996948242205
 21
241.2979276384299
 31
0.0
  0
CIRCLE
  5
339
330
1F
100
AcDbEntity
  8
2
100
AcDbCircle
 10
-64.99996948242205
 20
241.2979276384299
 30
0.0
 40
2.499999940395354
  0
LINE
  5
33A
330
1F
100
AcDbEntity
  8
2
100
AcDbLine
 10
-64.99996948242205
 20
233.7979276384299
 30
0.0
 11
-64.99996948242205
 21
248.7979276384299
 31
0.0
  0
LINE
  5
33B
330
1F
100
AcDbEntity
  8
0
370
    -3
100
AcDbLine
 10
31.963024313576
 20
239.2977896903126
 30
0.0
 11
28.46727308016199
 21
239.2977896903126
 31
0.0
  0
LINE
  5
33C
330
1F
100
AcDbEntity
  8
0
370
    -3
100
AcDbLine
 10
31.96293958406824
 20
229.2979554639846
 30
0.0
 11
28.46727308016199
 21
229.2979554639846
 31
0.0
  0
LINE
  5
33D
330
1F
100
AcDbEntity
  8
0
370
    -3
100
AcDbLine
 10
14.99999999999983
 20
234.2976682390158
 30
0.0
 11
18.49570545704663
 21
234.2976682390164
 31
0.0
  0
LINE
  5
33E
330
1F
100
AcDbEntity
  8
0
370
    -3
100
AcDbLine
 10
28.46727308016199
 20
239.2977896903126
 30
0.0
 11
28.46727308016199
 21
229.2979554639846
 31
0.0
  0
LINE
  5
33F
330
1F
100
AcDbEntity
  8
0
370
    -3
100
AcDbLine
 10
-4.50000000000017
 20
257.5478055681178
 30
0.0
 11
4.499999999999829
 21
257.5478055681178
 31
0.0
  0
LINE
  5
340
330
1F
100
AcDbEntity
  8
0
370
    -3
100
AcDbLine
 10
-4.50000000000017
 20
257.5478055681178
 30
0.0
 11
-4.50000000000017
 21
258.2978055681178
 31
0.0
  0
LINE
  5
341
330
1F
100
AcDbEntity
  8
0
370
    -3
100
AcDbLine
 10
-6.999965448973114
 20
256.2978430850685
 30
0.0
 11
-4.499936502608932
 21
258.2978662421597
 31
0.0
  0
LINE
  5
342
330
1F
100
AcDbEntity
  8
0
370
    -3
100
AcDbLine
 10
-4.50000000000017
 20
254.2978666032741
 30
0.0
 11
-4.50000000000017
 21
255.0478666032741
 31
0.0
  0
LINE
  5
343
330
1F
100
AcDbEntity
  8
0
370
    -3
100
AcDbLine
 10
4.499999999999829
 20
254.2978666032741
 30
0.0
 11
4.499999999999829
 21
255.0478666032741
 31
0.0
  0
LINE
  5
344
330
1F
100
AcDbEntity
  8
0
370
    -3
100
AcDbLine
 10
4.499999999999829
 20
257.5478055681178
 30
0.0
 11
4.499999999999829
 21
258.2978055681178
 31
0.0
  0
LINE
  5
345
330
1F
100
AcDbEntity
  8
0
370
    -3
100
AcDbLine
 10
-6.999902479232503
 20
256.2978012378908
 30
0.0
 11
-4.499945075906168
 21
254.297835315228
 31
0.0
  0
LINE
  5
346
330
1F
100
AcDbEntity
  8
0
370
    -3
100
AcDbLine
 10
-4.50000000000017
 20
255.0478666032741
 30
0.0
 11
4.499999999999829
 21
255.0478666032741
 31
0.0
  0
LINE
  5
347
330
1F
100
AcDbEntity
  8
0
370
    -3
100
AcDbLine
 10
6.99995906634632
 20
256.29782983416
 30
0.0
 11
4.499930172343567
 21
258.2978529493616
 31
0.0
  0
LINE
  5
348
330
1F
100
AcDbEntity
  8
0
370
    -3
100
AcDbLine
 10
4.499938885270069
 20
254.2978487197297
 30
0.0
 11
6.999896288598222
 21
256.2978146423916
 31
0.0
  0
LINE
  5
349
330
1F
100
AcDbEntity
  8
0
370
    -3
100
AcDbLine
 10
8.999999999999829
 20
229.297836085696
 30
0.0
 11
8.999999999999829
 21
240.7978666032741
 31
0.0
  0
LINE
  5
34A
330
1F
100
AcDbEntity
  8
0
370
    -3
100
AcDbLine
 10
8.999999999999829
 20
229.297836085696
 30
0.0
 11
18.49570545704756
 21
229.2977511258519
 31
0.0
  0
LINE
  5
34B
330
1F
100
AcDbEntity
  8
0
370
    -3
100
AcDbLine
 10
18.49570545704756
 20
239.2975853521798
 30
0.0
 11
14.99995422363264
 21
239.2975853521798
 31
0.0
  0
LINE
  5
34C
330
1F
100
AcDbEntity
  8
0
370
    -3
100
AcDbLine
 10
18.99998474121076
 20
236.7976267955978
 30
0.0
 11
18.99998474121076
 21
231.7977096824338
 31
0.0
  0
ARC
  5
34D
330
1F
100
AcDbEntity
  8
0
370
    -3
100
AcDbCircle
 10
8.500030517577954
 20
240.7978666032741
 30
0.0
 40
0.5000000149011612
100
AcDbArc
 50
0.0
 51
90.00000250446868
  0
ARC
  5
34E
330
1F
100
AcDbEntity
  8
0
370
    -3
100
AcDbCircle
 10
12.55108768622978
 20
231.7977096824338
 30
0.0
 40
6.448897054980518
100
AcDbArc
 50
337.1912252976165
 51
22.80877470238346
  0
ARC
  5
34F
330
1F
100
AcDbEntity
  8
0
370
    -3
100
AcDbCircle
 10
12.55108768622978
 20
236.7976267955978
 30
0.0
 40
6.448897054980518
100
AcDbArc
 50
337.1912252976165
 51
22.80877470238346
  0
LINE
  5
350
330
1F
100
AcDbEntity
  8
0
370
    -3
100
AcDbLine
 10
1.999969482421704
 20
231.2976224626491
 30
0.0
 11
1.999969482421704
 21
228.8706510271018
 31
0.0
  0
LINE
  5
351
330
1F
100
AcDbEntity
  8
2
100
AcDbLine
 10
1.999969482421704
 20
241.297836085696
 30
0.0
 11
1.999969482421704
 21
237.2976224626491
 31
0.0
  0
LINE
  5
352
330
1F
100
AcDbEntity
  8
2
100
AcDbLine
 10
-1.999969482422045
 20
241.4317777360857
 30
0.0
 11
-1.999969482422045
 21
228.8706279141556
 31
0.0
  0
LINE
  5
353
330
1F
100
AcDbEntity
  8
0
370
    -3
100
AcDbLine
 10
-1.532726913816247
 20
237.2976682390158
 30
0.0
 11
-1.532726913816247
 21
231.2976682390158
 31
0.0
  0
LINE
  5
354
330
1F
100
AcDbEntity
  8
0
370
    -3
100
AcDbLine
 10
6.538055419921704
 20
242.797836085696
 30
0.0
 11
-6.538604736328295
 21
242.797836085696
 31
0.0
  0
LINE
  5
355
330
1F
100
AcDbEntity
  8
0
370
    -3
100
AcDbLine
 10
-0.0000000000001705
 20
241.297836085696
 30
0.0
 11
8.500030517577954
 21
241.297836085696
 31
0.0
  0
LINE
  5
356
330
1F
100
AcDbEntity
  8
0
370
    -3
100
AcDbLine
 10
8.999954223632641
 20
237.2976682390158
 30
0.0
 11
-1.532726913816247
 21
237.2976682390158
 31
0.0
  0
LINE
  5
357
330
1F
100
AcDbEntity
  8
0
370
    -3
100
AcDbLine
 10
8.999954223632641
 20
231.2976682390158
 30
0.0
 11
-1.532726913816247
 21
231.2976682390158
 31
0.0
  0
LINE
  5
358
330
1F
100
AcDbEntity
  8
0
370
    -3
100
AcDbLine
 10
14.96051284397782
 20
255.2102742807547
 30
0.0
 11
8.422182677839202
 21
243.8855544396015
 31
0.0
  0
LINE
  5
359
330
1F
100
AcDbEntity
  8
0
370
    -3
100
AcDbLine
 10
14.99999999999983
 20
229.297836085696
 30
0.0
 11
14.99999999999983
 21
256.297836085696
 31
0.0
  0
LINE
  5
35A
330
1F
100
AcDbEntity
  8
0
370
    -3
100
AcDbLine
 10
28.46727308016199
 20
231.2976682390158
 30
0.0
 11
18.98056914126192
 21
231.2976682390158
 31
0.0
  0
LINE
  5
35B
330
1F
100
AcDbEntity
  8
0
370
    -3
100
AcDbLine
 10
28.46727308016199
 20
237.2976682390158
 30
0.0
 11
18.98056914126192
 21
237.2976682390158
 31
0.0
  0
LINE
  5
35C
330
1F
100
AcDbEntity
  8
0
370
    -3
100
AcDbLine
 10
-14.96064080090417
 20
255.2105581654914
 30
0.0
 11
-8.42217330566217
 21
243.8856004633585
 31
0.0
  0
CIRCLE
  5
35D
330
1F
100
AcDbEntity
  8
2
100
AcDbCircle
 10
64.99992370605451
 20
241.2979276384299
 30
0.0
 40
2.000000059604645
  0
CIRCLE
  5
35E
330
1F
100
AcDbEntity
  8
2
100
AcDbCircle
 10
64.99992370605451
 20
241.2979276384299
 30
0.0
 40
2.499999940395354
  0
LINE
  5
35F
330
1F
100
AcDbEntity
  8
2
100
AcDbLine
 10
64.99992370605451
 20
233.7979276384299
 30
0.0
 11
64.99992370605451
 21
248.7979276384299
 31
0.0
  0
LINE
  5
360
330
1F
100
AcDbEntity
  8
0
370
    -3
100
AcDbLine
 10
32.46730359774011
 20
236.7978311337306
 30
0.0
 11
32.46730359774011
 21
231.7979140205666
 31
0.0
  0
ARC
  5
361
330
1F
100
AcDbEntity
  8
0
370
    -3
100
AcDbCircle
 10
26.01840654275913
 20
236.7978311337306
 30
0.0
 40
6.448897054980518
100
AcDbArc
 50
337.1912252976165
 51
22.80877470238346
  0
ARC
  5
362
330
1F
100
AcDbEntity
  8
0
370
    -3
100
AcDbCircle
 10
26.01840654275913
 20
231.7979140205666
 30
0.0
 40
6.448897054980518
100
AcDbArc
 50
337.1912252976165
 51
22.80877470238346
  0
LINE
  5
363
330
1F
100
AcDbEntity
  8
2
100
AcDbLine
 10
72.49992370605451
 20
241.2979276384299
 30
0.0
 11
57.49992370605451
 21
241.2979276384299
 31
0.0
  0
LINE
  5
364
330
1F
100
AcDbEntity
  8
0
370
    -3
100
AcDbLine
 10
-17.00009217174937
 20
284.7651549422248
 30
0.0
 11
-26.99992639807732
 21
284.7651549422248
 31
0.0
  0
LINE
  5
365
330
1F
100
AcDbEntity
  8
0
370
    -3
100
AcDbLine
 10
-19.50025506646506
 20
275.2978666032741
 30
0.0
 11
-24.50017217962904
 21
275.2978666032741
 31
0.0
  0
LINE
  5
366
330
1F
100
AcDbEntity
  8
0
370
    -3
100
AcDbLine
 10
-19.50005072833136
 20
288.7651854598029
 30
0.0
 11
-24.49996784149533
 21
288.7651854598029
 31
0.0
  0
ARC
  5
367
330
1F
100
AcDbEntity
  8
0
370
    -3
100
AcDbCircle
 10
-19.50005072833136
 20
282.3162884048215
 30
0.0
 40
6.448897054980518
100
AcDbArc
 50
67.19122529760928
 51
112.8087747023907
  0
ARC
  5
368
330
1F
100
AcDbEntity
  8
0
370
    -3
100
AcDbCircle
 10
-19.50025506646506
 20
268.8489695482926
 30
0.0
 40
6.448897054980518
100
AcDbArc
 50
67.19122529760928
 51
112.8087747023907
  0
LINE
  5
369
330
1F
100
AcDbEntity
  8
0
370
    -3
100
AcDbLine
 10
-27.00000000000017
 20
265.2978360856959
 30
0.0
 11
-15.49996948242204
 21
265.2978360856959
 31
0.0
  0
LINE
  5
36A
330
1F
100
AcDbEntity
  8
0
370
    -3
100
AcDbLine
 10
-27.00000000000017
 20
271.2978360856959
 30
0.0
 11
-0.0000000000001705
 21
271.2978360856959
 31
0.0
  0
LINE
  5
36B
330
1F
100
AcDbEntity
  8
0
370
    -3
100
AcDbLine
 10
-66.53162529147829
 20
297.7669676704427
 30
0.0
 11
-72.75384489974403
 21
273.266977939355
 31
0.0
  0
ARC
  5
36C
330
1F
100
AcDbEntity
  8
0
370
    -3
100
AcDbCircle
 10
-64.99996948242205
 20
271.2977445329607
 30
0.0
 40
8.000000238418579
100
AcDbArc
 50
164.9999943462595
 51
297.140877501315
  0
LINE
  5
36D
330
1F
100
AcDbEntity
  8
0
370
    -3
100
AcDbLine
 10
-25.00021362304705
 20
284.7651549422248
 30
0.0
 11
-25.00021362304705
 21
275.2784510033248
 31
0.0
  0
LINE
  5
36E
330
1F
100
AcDbEntity
  8
0
370
    -3
100
AcDbLine
 10
-26.99992639807732
 20
288.2609061756389
 30
0.0
 11
-26.99992639807732
 21
284.7651549422248
 31
0.0
  0
LINE
  5
36F
330
1F
100
AcDbEntity
  8
0
370
    -3
100
AcDbLine
 10
-22.00000928491335
 20
288.2609061756389
 30
0.0
 11
-22.00000928491335
 21
284.7651549422248
 31
0.0
  0
ARC
  5
370
330
1F
100
AcDbEntity
  8
0
370
    -3
100
AcDbCircle
 10
-24.50017217962904
 20
268.8489695482926
 30
0.0
 40
6.448897054980518
100
AcDbArc
 50
67.19122529760928
 51
112.8087747023907
  0
ARC
  5
371
330
1F
100
AcDbEntity
  8
0
370
    -3
100
AcDbCircle
 10
-24.49996784149533
 20
282.3162884048215
 30
0.0
 40
6.448897054980518
100
AcDbArc
 50
67.19122529760928
 51
112.8087747023907
  0
LINE
  5
372
330
1F
100
AcDbEntity
  8
0
370
    -3
100
AcDbLine
 10
-27.00000000000017
 20
265.2978360856959
 30
0.0
 11
-27.00013073621102
 21
274.7935025896018
 31
0.0
  0
LINE
  5
373
330
1F
100
AcDbEntity
  8
0
370
    -3
100
AcDbLine
 10
-63.49996948242204
 20
270.431747218508
 30
0.0
 11
-63.49996948242204
 21
272.1637418474147
 31
0.0
  0
LINE
  5
374
330
1F
100
AcDbEntity
  8
0
370
    -3
100
AcDbLine
 10
-63.49996025608942
 20
270.4317151324467
 30
0.0
 11
-64.99997106245444
 21
269.5656834740607
 31
0.0
  0
LINE
  5
375
330
1F
100
AcDbEntity
  8
0
370
    -3
100
AcDbLine
 10
-65.00001033021016
 20
269.5657212253777
 30
0.0
 11
-66.49996167133048
 21
270.4317185514879
 31
0.0
  0
LINE
  5
376
330
1F
100
AcDbEntity
  8
0
370
    -3
100
AcDbLine
 10
-66.49996948242204
 20
270.431747218508
 30
0.0
 11
-66.49996948242204
 21
272.1637418474147
 31
0.0
  0
LINE
  5
377
330
1F
100
AcDbEntity
  8
1
100
AcDbLine
 10
-71.4999389648421
 20
271.2977445329607
 30
0.0
 11
-58.50000000000017
 21
271.2977445329607
 31
0.0
  0
LINE
  5
378
330
1F
100
AcDbEntity
  8
0
370
    -3
100
AcDbLine
 10
-66.49997108264705
 20
272.163759673756
 30
0.0
 11
-64.99996027628203
 21
273.0297913321415
 31
0.0
  0
LINE
  5
379
330
1F
100
AcDbEntity
  8
1
100
AcDbLine
 10
-64.99996948242205
 20
277.7977140153826
 30
0.0
 11
-64.99996948242205
 21
264.7977750505397
 31
0.0
  0
LINE
  5
37A
330
1F
100
AcDbEntity
  8
0
370
    -3
100
AcDbLine
 10
-63.50001031001756
 20
272.1637974250739
 30
0.0
 11
-64.99996165113788
 21
273.0297947511835
 31
0.0
  0
LINE
  5
37B
330
1F
100
AcDbEntity
  8
0
370
    -3
100
AcDbLine
 10
-22.00021362304704
 20
274.79358731911
 30
0.0
 11
-22.00021362304704
 21
271.2978360856959
 31
0.0
  0
LINE
  5
37C
330
1F
100
AcDbEntity
  8
0
370
    -3
100
AcDbLine
 10
-61.35053451132733
 20
264.17863399719
 30
0.0
 11
-28.00021362304704
 21
281.2748954810677
 31
0.0
  0
CIRCLE
  5
37D
330
1F
100
AcDbEntity
  8
0
370
    -3
100
AcDbCircle
 10
-64.99996948242205
 20
271.2977445329607
 30
0.0
 40
3.500000238418578
  0
CIRCLE
  5
37E
330
1F
100
AcDbEntity
  8
0
370
    -3
100
AcDbCircle
 10
-64.99996948242205
 20
271.2977445329607
 30
0.0
 40
2.980384826660156
  0
LINE
  5
37F
330
1F
100
AcDbEntity
  8
2
100
AcDbLine
 10
-81.56579589843767
 20
301.2978056873267
 30
0.0
 11
-64.58716916986322
 21
301.2978056873267
 31
0.0
  0
ARC
  5
380
330
1F
100
AcDbEntity
  8
2
100
AcDbCircle
 10
-81.56579589843767
 20
297.2978055681178
 30
0.0
 40
4.00000011920929
100
AcDbArc
 50
90.00000250446868
 51
178.0000026765741
  0
ARC
  5
381
330
1F
100
AcDbEntity
  8
0
370
    -3
100
AcDbCircle
 10
-58.77774810791033
 20
295.7977483476589
 30
0.0
 40
8.000000238418579
100
AcDbArc
 50
90.00000250446868
 51
165.7499627775055
  0
LINE
  5
382
330
1F
100
AcDbEntity
  8
0
370
    -3
100
AcDbLine
 10
58.77779388427717
 20
303.7977407182639
 30
0.0
 11
-58.77774810791033
 21
303.7977407182639
 31
0.0
  0
LINE
  5
383
330
1F
100
AcDbEntity
  8
0
370
    -3
100
AcDbLine
 10
66.53162529147977
 20
297.767013538391
 30
0.0
 11
72.75385898478072
 21
273.2669683474737
 31
0.0
  0
LINE
  5
384
330
1F
100
AcDbEntity
  8
0
370
    -3
100
AcDbLine
 10
61.35060325020532
 20
264.1786585923537
 30
0.0
 11
16.31750544952166
 21
287.2637919251673
 31
0.0
  0
LINE
  5
385
330
1F
100
AcDbEntity
  8
0
370
    -3
100
AcDbLine
 10
-6.538604736328295
 20
269.797836085696
 30
0.0
 11
6.538055419921704
 21
269.797836085696
 31
0.0
  0
LINE
  5
386
330
1F
100
AcDbEntity
  8
2
100
AcDbLine
 10
1.999969482421704
 20
283.7250211442897
 30
0.0
 11
1.999969482421704
 21
271.1638944353049
 31
0.0
  0
LINE
  5
387
330
1F
100
AcDbEntity
  8
2
100
AcDbLine
 10
-1.999969482422045
 20
283.7250211442897
 30
0.0
 11
-1.999969482422045
 21
271.2978360856959
 31
0.0
  0
LINE
  5
388
330
1F
100
AcDbEntity
  8
0
370
    -3
100
AcDbLine
 10
-19.00021362304704
 20
284.7651549422248
 30
0.0
 11
-19.00021362304704
 21
275.2784510033248
 31
0.0
  0
LINE
  5
389
330
1F
100
AcDbEntity
  8
0
370
    -3
100
AcDbLine
 10
-17.00009217174937
 20
288.2609061756389
 30
0.0
 11
-17.00009217174937
 21
284.7651549422248
 31
0.0
  0
ARC
  5
38A
330
1F
100
AcDbEntity
  8
0
370
    -3
100
AcDbCircle
 10
-15.49996948242204
 20
264.7978666032741
 30
0.0
 40
0.5000000149011612
100
AcDbArc
 50
0.0
 51
90.00000250446868
  0
LINE
  5
38B
330
1F
100
AcDbEntity
  8
0
370
    -3
100
AcDbLine
 10
-17.00029650988307
 20
274.79358731911
 30
0.0
 11
-17.00029650988307
 21
271.2978360856959
 31
0.0
  0
ARC
  5
38C
330
1F
100
AcDbEntity
  8
2
100
AcDbCircle
 10
-0.0000000000001705
 20
256.297836085696
 30
0.0
 40
32.50003051757814
100
AcDbArc
 50
69.92032100724313
 51
115.5165417417917
  0
ARC
  5
38D
330
1F
100
AcDbEntity
  8
0
370
    -3
100
AcDbCircle
 10
-0.000045776367358
 20
256.2977445329607
 30
0.0
 40
35.00000095367433
100
AcDbArc
 50
62.21298057305054
 51
113.578260665418
  0
LINE
  5
38E
330
1F
100
AcDbEntity
  8
1
100
AcDbLine
 10
58.49990844726545
 20
271.2977445329607
 30
0.0
 11
71.49993896484358
 21
271.2977445329607
 31
0.0
  0
LINE
  5
38F
330
1F
100
AcDbEntity
  8
0
370
    -3
100
AcDbLine
 10
66.49992370605452
 20
270.431747218508
 30
0.0
 11
66.49992370605452
 21
272.1637418474147
 31
0.0
  0
LINE
  5
390
330
1F
100
AcDbEntity
  8
0
370
    -3
100
AcDbLine
 10
66.49994437731931
 20
270.4316963215174
 30
0.0
 11
64.99994348182809
 21
269.5656703851778
 31
0.0
  0
LINE
  5
391
330
1F
100
AcDbEntity
  8
0
370
    -3
100
AcDbLine
 10
63.49992370605452
 20
270.431747218508
 30
0.0
 11
63.49992370605452
 21
272.1637418474147
 31
0.0
  0
LINE
  5
392
330
1F
100
AcDbEntity
  8
0
370
    -3
100
AcDbLine
 10
64.99990421407329
 20
269.5657343142598
 30
0.0
 11
63.49995287295297
 21
270.4317316403708
 31
0.0
  0
LINE
  5
393
330
1F
100
AcDbEntity
  8
1
100
AcDbLine
 10
64.99992370605451
 20
277.7977140153826
 30
0.0
 11
64.99992370605451
 21
264.7977750505397
 31
0.0
  0
LINE
  5
394
330
1F
100
AcDbEntity
  8
0
370
    -3
100
AcDbLine
 10
63.4999434616364
 20
272.1637465848735
 30
0.0
 11
64.99994435712853
 21
273.0297725212135
 31
0.0
  0
LINE
  5
395
330
1F
100
AcDbEntity
  8
0
370
    -3
100
AcDbLine
 10
66.4999042342659
 20
272.1638105139555
 30
0.0
 11
64.99995289314466
 21
273.029807840066
 31
0.0
  0
CIRCLE
  5
396
330
1F
100
AcDbEntity
  8
0
370
    -3
100
AcDbCircle
 10
64.99992370605451
 20
271.2977445329607
 30
0.0
 40
3.500000238418578
  0
CIRCLE
  5
397
330
1F
100
AcDbEntity
  8
0
370
    -3
100
AcDbCircle
 10
64.99992370605451
 20
271.2977445329607
 30
0.0
 40
2.980384826660156
  0
ARC
  5
398
330
1F
100
AcDbEntity
  8
0
370
    -3
100
AcDbCircle
 10
65.00001525878889
 20
271.2977445329607
 30
0.0
 40
8.000000238418579
100
AcDbArc
 50
242.8591411680316
 51
15.00000041740397
  0
LINE
  5
399
330
1F
100
AcDbEntity
  8
0
370
    -3
100
AcDbLine
 10
44.00001525878889
 20
317.0777852739279
 30
0.0
 11
-43.99996948242204
 21
317.0777852739279
 31
0.0
  0
LINE
  5
39A
330
1F
100
AcDbEntity
  8
2
100
AcDbLine
 10
64.58721494623006
 20
301.2978056873267
 30
0.0
 11
81.56575012207014
 21
301.2978056873267
 31
0.0
  0
ARC
  5
39B
330
1F
100
AcDbEntity
  8
0
370
    -3
100
AcDbCircle
 10
58.77779388427717
 20
295.7977483476589
 30
0.0
 40
8.000000238418579
100
AcDbArc
 50
14.25003283994681
 51
90.00000250446868
  0
LINE
  5
39C
330
1F
100
AcDbEntity
  8
2
100
AcDbLine
 10
-148.249969482422
 20
359.797836085695
 30
0.0
 11
-43.99996948242204
 21
359.797836085695
 31
0.0
  0
LINE
  5
39D
330
1F
100
AcDbEntity
  8
2
100
AcDbLine
 10
-149.2500000000001
 20
333.7978666032727
 30
0.0
 11
-43.99996948242204
 21
333.7978666032727
 31
0.0
  0
LINE
  5
39E
330
1F
100
AcDbEntity
  8
2
100
AcDbLine
 10
-160.5900765843081
 20
333.1907031569385
 30
0.0
 11
-159.9096795414572
 21
334.3691853833238
 31
0.0
  0
LINE
  5
39F
330
1F
100
AcDbEntity
  8
2
100
AcDbLine
 10
-159.9095764160158
 20
334.3691556657727
 30
0.0
 11
-149.2500000000001
 21
334.3691556657727
 31
0.0
  0
ARC
  5
3A0
330
1F
100
AcDbEntity
  8
2
100
AcDbCircle
 10
-155.2500000000001
 20
333.2978055681169
 30
0.0
 40
6.0
100
AcDbArc
 50
90.00000250446868
 51
180.0000050089504
  0
ARC
  5
3A1
330
1F
100
AcDbEntity
  8
2
100
AcDbCircle
 10
-155.2500000000001
 20
345.2978055681169
 30
0.0
 40
6.0
100
AcDbArc
 50
269.9999974955313
 51
0.0
  0
ARC
  5
3A2
330
1F
100
AcDbEntity
  8
2
100
AcDbCircle
 10
-148.249969482422
 20
358.7978971208518
 30
0.0
 40
1.000000029802322
100
AcDbArc
 50
90.00000250446868
 51
180.0000050089634
  0
LINE
  5
3A3
330
1F
100
AcDbEntity
  8
0
370
    -3
100
AcDbLine
 10
41.00001525878889
 20
396.8777578081081
 30
0.0
 11
-40.99996948242204
 21
396.8777578081081
 31
0.0
  0
ARC
  5
3A4
330
1F
100
AcDbEntity
  8
0
370
    -3
100
AcDbCircle
 10
-40.99996948242204
 20
393.8777578081081
 30
0.0
 40
3.0
100
AcDbArc
 50
90.00000250446868
 51
180.0000050089504
  0
ARC
  5
3A5
330
1F
100
AcDbEntity
  8
0
370
    -3
100
AcDbCircle
 10
41.00001525878889
 20
393.8777578081081
 30
0.0
 40
3.0
100
AcDbArc
 50
0.0
 51
90.00000250446868
  0
LINE
  5
3A6
330
1F
100
AcDbEntity
  8
2
100
AcDbLine
 10
161.2500284355663
 20
179.297972493704
 30
0.0
 11
166.2500289573843
 21
241.2979802618729
 31
0.0
  0
LINE
  5
3A7
330
1F
100
AcDbEntity
  8
2
100
AcDbLine
 10
161.2499542236326
 20
333.2978055681178
 30
0.0
 11
161.2499542236326
 21
179.2978666032741
 31
0.0
  0
LINE
  5
3A8
330
1F
100
AcDbEntity
  8
2
100
AcDbLine
 10
135.2499847412107
 20
359.797836085696
 30
0.0
 11
135.2499847412107
 21
152.7978360856959
 31
0.0
  0
LINE
  5
3A9
330
1F
100
AcDbEntity
  8
2
100
AcDbLine
 10
149.2499542236326
 20
358.8088834489767
 30
0.0
 11
149.2499542236326
 21
153.7867887224147
 31
0.0
  0
LINE
  5
3AA
330
1F
100
AcDbEntity
  8
2
100
AcDbLine
 10
150.6107940673826
 20
178.2265165056178
 30
0.0
 11
150.6107940673826
 21
196.3705289567897
 31
0.0
  0
LINE
  5
3AB
330
1F
100
AcDbEntity
  8
2
100
AcDbLine
 10
159.9095306396483
 20
178.2265165056178
 30
0.0
 11
159.9095306396483
 21
196.3705289567897
 31
0.0
  0
LINE
  5
3AC
330
1F
100
AcDbEntity
  8
2
100
AcDbLine
 10
160.5899505615233
 20
179.4049833024928
 30
0.0
 11
160.5899505615233
 21
195.1920621599147
 31
0.0
  0
ARC
  5
3AD
330
1F
100
AcDbEntity
  8
2
100
AcDbCircle
 10
148.2500152587889
 20
153.7977750505397
 30
0.0
 40
1.000000029802322
100
AcDbArc
 50
269.9999974955313
 51
0.0
  0
LINE
  5
3AE
330
1F
100
AcDbEntity
  8
2
100
AcDbLine
 10
160.5900176443118
 20
179.4050068146539
 30
0.0
 11
159.9095977132781
 21
178.2264849447724
 31
0.0
  0
LINE
  5
3AF
330
1F
100
AcDbEntity
  8
2
100
AcDbLine
 10
159.9095306396483
 20
178.2265165056178
 30
0.0
 11
149.2499542236326
 21
178.2265165056178
 31
0.0
  0
ARC
  5
3B0
330
1F
100
AcDbEntity
  8
2
100
AcDbCircle
 10
155.2499542236326
 20
167.2978666032741
 30
0.0
 40
6.0
100
AcDbArc
 50
90.00000250446868
 51
180.0000050089504
  0
ARC
  5
3B1
330
1F
100
AcDbEntity
  8
2
100
AcDbCircle
 10
155.2499542236326
 20
179.2978666032741
 30
0.0
 40
6.0
100
AcDbArc
 50
269.9999974955313
 51
0.0
  0
LINE
  5
3B2
330
1F
100
AcDbEntity
  8
2
100
AcDbLine
 10
160.5899505615233
 20
333.1906888688991
 30
0.0
 11
160.5899505615233
 21
317.4036100114768
 31
0.0
  0
LINE
  5
3B3
330
1F
100
AcDbEntity
  8
2
100
AcDbLine
 10
159.9095306396483
 20
334.3691556657741
 30
0.0
 11
159.9095306396483
 21
316.2251432146018
 31
0.0
  0
LINE
  5
3B4
330
1F
100
AcDbEntity
  8
2
100
AcDbLine
 10
150.6107940673826
 20
334.3691556657741
 30
0.0
 11
150.6107940673826
 21
316.2251432146018
 31
0.0
  0
LINE
  5
3B5
330
1F
100
AcDbEntity
  8
2
100
AcDbLine
 10
161.2499934976156
 20
333.2978525690519
 30
0.0
 11
166.2499940194337
 21
271.297844800883
 31
0.0
  0
ARC
  5
3B6
330
1F
100
AcDbEntity
  8
2
100
AcDbCircle
 10
155.0798492431639
 20
256.297836085696
 30
0.0
 40
25.92012977600098
100
AcDbArc
 50
343.2213414830922
 51
16.77865510182368
  0
LINE
  5
3B7
330
1F
100
AcDbEntity
  8
2
100
AcDbLine
 10
166.2500152587889
 20
271.2978360856959
 30
0.0
 11
166.2500152587889
 21
241.297836085696
 31
0.0
  0
LINE
  5
3B8
330
1F
100
AcDbEntity
  8
2
100
AcDbLine
 10
180.9999847412107
 20
267.5215604509299
 30
0.0
 11
180.9999847412107
 21
245.0741117204607
 31
0.0
  0
LINE
  5
3B9
330
1F
100
AcDbEntity
  8
2
100
AcDbLine
 10
167.2499542236326
 20
271.2978360856959
 30
0.0
 11
167.2499542236326
 21
241.297836085696
 31
0.0
  0
LINE
  5
3BA
330
1F
100
AcDbEntity
  8
2
100
AcDbLine
 10
87.00000225452077
 20
256.2979565406158
 30
0.0
 11
85.56337595718815
 21
297.4375529880526
 31
0.0
  0
ARC
  5
3BB
330
1F
100
AcDbEntity
  8
2
100
AcDbCircle
 10
180.9999847412107
 20
256.297836085696
 30
0.0
 40
12.50000095367432
100
AcDbArc
 50
269.9999974955313
 51
90.00105229574275
  0
LINE
  5
3BC
330
1F
100
AcDbEntity
  8
2
100
AcDbLine
 10
86.99999759424082
 20
256.2978373590149
 30
0.0
 11
85.5633712969082
 21
215.1582409115777
 31
0.0
  0
LINE
  5
3BD
330
1F
100
AcDbEntity
  8
2
100
AcDbLine
 10
160.5899044363648
 20
195.1921068527408
 30
0.0
 11
159.9095302816984
 21
196.3705494356286
 31
0.0
  0
LINE
  5
3BE
330
1F
100
AcDbEntity
  8
2
100
AcDbLine
 10
159.9095306396483
 20
196.3705289567897
 30
0.0
 11
149.2499542236326
 21
196.3705289567897
 31
0.0
  0
LINE
  5
3BF
330
1F
100
AcDbEntity
  8
2
100
AcDbLine
 10
86.47618103027326
 20
241.297836085696
 30
0.0
 11
149.2499542236326
 21
241.297836085696
 31
0.0
  0
LINE
  5
3C0
330
1F
100
AcDbEntity
  8
2
100
AcDbLine
 10
179.8964996337889
 20
248.8153226579607
 30
0.0
 11
167.2499542236326
 21
248.8153226579607
 31
0.0
  0
LINE
  5
3C1
330
1F
100
AcDbEntity
  8
2
100
AcDbLine
 10
166.2500152587889
 20
241.297836085696
 30
0.0
 11
167.2499542236326
 21
241.297836085696
 31
0.0
  0
LINE
  5
3C2
330
1F
100
AcDbEntity
  8
2
100
AcDbLine
 10
179.8964996337889
 20
241.3328092302267
 30
0.0
 11
167.2499542236326
 21
241.3328092302267
 31
0.0
  0
ARC
  5
3C3
330
1F
100
AcDbEntity
  8
2
100
AcDbCircle
 10
174.1061553955076
 20
245.0741117204607
 30
0.0
 40
6.893842935562133
100
AcDbArc
 50
327.1327677138637
 51
32.86723570123335
  0
LINE
  5
3C4
330
1F
100
AcDbEntity
  8
2
100
AcDbLine
 10
86.47618103027326
 20
271.2978360856959
 30
0.0
 11
149.2499542236326
 21
271.2978360856959
 31
0.0
  0
ARC
  5
3C5
330
1F
100
AcDbEntity
  8
2
100
AcDbCircle
 10
174.1061553955076
 20
267.5215604509299
 30
0.0
 40
6.893842935562133
100
AcDbArc
 50
327.1327677138637
 51
32.86723570123335
  0
LINE
  5
3C6
330
1F
100
AcDbEntity
  8
2
100
AcDbLine
 10
166.2500152587889
 20
271.2978360856959
 30
0.0
 11
167.2499542236326
 21
271.2978360856959
 31
0.0
  0
LINE
  5
3C7
330
1F
100
AcDbEntity
  8
2
100
AcDbLine
 10
179.8964996337889
 20
263.7803495134299
 30
0.0
 11
167.2499542236326
 21
263.7803495134299
 31
0.0
  0
LINE
  5
3C8
330
1F
100
AcDbEntity
  8
2
100
AcDbLine
 10
179.8964996337889
 20
271.2628629411647
 30
0.0
 11
167.2499542236326
 21
271.2628629411647
 31
0.0
  0
LINE
  5
3C9
330
1F
100
AcDbEntity
  8
2
100
AcDbLine
 10
159.9095306396483
 20
316.2251432146018
 30
0.0
 11
149.2499542236326
 21
316.2251432146018
 31
0.0
  0
LINE
  5
3CA
330
1F
100
AcDbEntity
  8
2
100
AcDbLine
 10
160.5898609013782
 20
317.4036348374939
 30
0.0
 11
159.9094638585282
 21
316.2251526111086
 31
0.0
  0
ARC
  5
3CB
330
1F
100
AcDbEntity
  8
2
100
AcDbCircle
 10
148.2500152587889
 20
358.7978971208518
 30
0.0
 40
1.000000029802322
100
AcDbArc
 50
0.0
 51
90.00000250446868
  0
LINE
  5
3CC
330
1F
100
AcDbEntity
  8
2
100
AcDbLine
 10
159.9095306396483
 20
334.3691556657727
 30
0.0
 11
149.2499542236326
 21
334.3691556657727
 31
0.0
  0
LINE
  5
3CD
330
1F
100
AcDbEntity
  8
2
100
AcDbLine
 10
160.5899850201657
 20
333.1907437630807
 30
0.0
 11
159.909565089132
 21
334.3692656329618
 31
0.0
  0
ARC
  5
3CE
330
1F
100
AcDbEntity
  8
2
100
AcDbCircle
 10
155.2499542236326
 20
345.2978055681169
 30
0.0
 40
6.0
100
AcDbArc
 50
179.999991348572
 51
270.0000006832169
  0
ARC
  5
3CF
330
1F
100
AcDbEntity
  8
2
100
AcDbCircle
 10
155.2499542236326
 20
333.2978055681169
 30
0.0
 40
6.0
100
AcDbArc
 50
0.0
 51
90.00000250446868
  0
LINE
  5
3D0
330
1F
100
AcDbEntity
  8
1
100
AcDbLine
 10
7.499991959333613
 20
39.09998341053665
 30
0.0
 11
36.49999233186264
 21
39.09998341053665
 31
0.0
  0
LINE
  5
3D1
330
1F
100
AcDbEntity
  8
0
370
    -3
100
AcDbLine
 10
-43.99996948242204
 20
25.99999237060524
 30
0.0
 11
44.00001525878889
 21
25.99999237060365
 31
-0.0000000000000019
  0
LINE
  5
3D2
330
1F
100
AcDbEntity
  8
2
100
AcDbLine
 10
-42.00027321595934
 20
67.99999267210274
 30
0.0
 11
-2.000272815959931
 21
67.99999267210274
 31
0.0
  0
CIRCLE
  5
3D3
330
1F
100
AcDbEntity
  8
0
370
    -3
100
AcDbCircle
 10
37.09999465942366
 20
331.1777532304709
 30
0.0
 40
3.5
  0
CIRCLE
  5
3D4
330
1F
100
AcDbEntity
  8
0
370
    -3
100
AcDbCircle
 10
6.899992015958389
 20
389.877758682806
 30
0.0
 40
3.5
  0
LINE
  5
3D5
330
1F
100
AcDbEntity
  8
0
370
    -3
100
AcDbLine
 10
-60.40079586504925
 20
4.299869930749309
 30
0.0
 11
-60.40079586504925
 21
3.000000000000227
 31
0.0
  0
LINE
  5
3D6
330
1F
100
AcDbEntity
  8
0
370
    -3
100
AcDbLine
 10
-69.59987552166893
 20
4.299869930749309
 30
0.0
 11
-69.59987552166893
 21
3.000000000000227
 31
0.0
  0
LINE
  5
3D7
330
1F
100
AcDbEntity
  8
0
370
    -3
100
AcDbLine
 10
-69.59987552166893
 20
4.299869930749309
 30
0.0
 11
-60.40079586504925
 21
4.299869930749309
 31
0.0
  0
LINE
  5
3D8
330
1F
100
AcDbEntity
  8
0
370
    -3
100
AcDbLine
 10
-65.75081597194838
 20
4.299869949265257
 30
0.0
 11
-65.00033569335954
 21
3.000000000000227
 31
0.0
  0
LINE
  5
3D9
330
1F
100
AcDbEntity
  8
0
370
    -3
100
AcDbLine
 10
-65.00033572890441
 20
4.299869974817511
 30
0.0
 11
-64.24985543541533
 21
2.999999999745568
 31
0.0
  0
LINE
  5
3DA
330
1F
100
AcDbEntity
  8
1
100
AcDbLine
 10
6.899992015960208
 20
382.7220797574819
 30
0.0
 11
6.899992015960208
 21
397.0334376081309
 31
0.0
  0
LINE
  5
3DB
330
1F
100
AcDbEntity
  8
1
100
AcDbLine
 10
37.09999465942548
 20
324.0220743051468
 30
0.0
 11
37.09999465942548
 21
338.3334321557959
 31
0.0
  0
LINE
  5
3DC
330
1F
100
AcDbEntity
  8
1
100
AcDbLine
 10
29.94431573410094
 20
331.1777532304713
 30
0.0
 11
44.25567358475001
 21
331.1777532304713
 31
0.0
  0
LINE
  5
3DD
330
1F
100
AcDbEntity
  8
2
100
AcDbLine
 10
10.00027321596081
 20
289.3776805327252
 30
0.0
 11
10.00027321596081
 21
326.4776905327253
 31
0.0
  0
LINE
  5
3DE
330
1F
100
AcDbEntity
  8
2
100
AcDbLine
 10
34.00027321596082
 20
289.3776805327252
 30
0.0
 11
34.00027321596082
 21
326.4776905327253
 31
0.0
  0
LINE
  5
3DF
330
1F
100
AcDbEntity
  8
2
100
AcDbLine
 10
2.00027281595959
 20
326.4776905327253
 30
0.0
 11
2.00027281595959
 21
394.1777005327249
 31
0.0
  0
LINE
  5
3E0
330
1F
100
AcDbEntity
  8
2
100
AcDbLine
 10
42.00027321595899
 20
326.4776905327253
 30
0.0
 11
42.00027321595899
 21
394.1777005327249
 31
0.0
  0
LINE
  5
3E1
330
1F
100
AcDbEntity
  8
2
100
AcDbLine
 10
35.000273215959
 20
431.1777005327249
 30
0.0
 11
35.000273215959
 21
394.1777005327249
 31
0.0
  0
LINE
  5
3E2
330
1F
100
AcDbEntity
  8
2
100
AcDbLine
 10
9.00027281595959
 20
431.1777005327249
 30
0.0
 11
9.00027281595959
 21
394.1777005327249
 31
0.0
  0
LINE
  5
3E3
330
1F
100
AcDbEntity
  8
2
100
AcDbLine
 10
34.00027321596082
 20
289.3776805327252
 30
0.0
 11
10.00027321596081
 21
289.3776805327252
 31
0.0
  0
LINE
  5
3E4
330
1F
100
AcDbEntity
  8
2
100
AcDbLine
 10
42.00027321595899
 20
326.4776905327253
 30
0.0
 11
2.00027281595959
 21
326.4776905327253
 31
0.0
  0
LINE
  5
3E5
330
1F
100
AcDbEntity
  8
2
100
AcDbLine
 10
42.00027321595899
 20
394.1777005327249
 30
0.0
 11
2.00027281595959
 21
394.1777005327249
 31
0.0
  0
LINE
  5
3E6
330
1F
100
AcDbEntity
  8
2
100
AcDbLine
 10
35.000273215959
 20
431.1777005327249
 30
0.0
 11
9.00027281595959
 21
431.1777005327249
 31
0.0
  0
CIRCLE
  5
3E7
330
1F
100
AcDbEntity
  8
0
370
    -3
100
AcDbCircle
 10
-37.099994659424
 20
331.1777532304709
 30
0.0
 40
3.5
  0
CIRCLE
  5
3E8
330
1F
100
AcDbEntity
  8
0
370
    -3
100
AcDbCircle
 10
-6.89999201595873
 20
389.877758682806
 30
0.0
 40
3.5
  0
LINE
  5
3E9
330
1F
100
AcDbEntity
  8
1
100
AcDbLine
 10
-6.899992015960549
 20
382.7220797574819
 30
0.0
 11
-6.899992015960549
 21
397.0334376081309
 31
0.0
  0
LINE
  5
3EA
330
1F
100
AcDbEntity
  8
1
100
AcDbLine
 10
14.05567094128474
 20
389.8777586828064
 30
0.0
 11
-14.05567094128508
 21
389.8777586828064
 31
0.0
  0
LINE
  5
3EB
330
1F
100
AcDbEntity
  8
1
100
AcDbLine
 10
-37.09999465942582
 20
324.0220743051468
 30
0.0
 11
-37.09999465942582
 21
338.3334321557959
 31
0.0
  0
LINE
  5
3EC
330
1F
100
AcDbEntity
  8
1
100
AcDbLine
 10
-29.94431573410128
 20
331.1777532304713
 30
0.0
 11
-44.25567358475035
 21
331.1777532304713
 31
0.0
  0
LINE
  5
3ED
330
1F
100
AcDbEntity
  8
2
100
AcDbLine
 10
-10.00027321596116
 20
289.3776805327252
 30
0.0
 11
-10.00027321596116
 21
326.4776905327253
 31
0.0
  0
LINE
  5
3EE
330
1F
100
AcDbEntity
  8
2
100
AcDbLine
 10
-34.00027321596116
 20
289.3776805327252
 30
0.0
 11
-34.00027321596116
 21
326.4776905327253
 31
0.0
  0
LINE
  5
3EF
330
1F
100
AcDbEntity
  8
2
100
AcDbLine
 10
-2.000272815959931
 20
326.4776905327253
 30
0.0
 11
-2.000272815959931
 21
394.1777005327249
 31
0.0
  0
LINE
  5
3F0
330
1F
100
AcDbEntity
  8
2
100
AcDbLine
 10
-42.00027321595934
 20
326.4776905327253
 30
0.0
 11
-42.00027321595934
 21
394.1777005327249
 31
0.0
  0
LINE
  5
3F1
330
1F
100
AcDbEntity
  8
2
100
AcDbLine
 10
-35.00027321595934
 20
431.1777005327249
 30
0.0
 11
-35.00027321595934
 21
394.1777005327249
 31
0.0
  0
LINE
  5
3F2
330
1F
100
AcDbEntity
  8
2
100
AcDbLine
 10
-9.000272815959931
 20
431.1777005327249
 30
0.0
 11
-9.000272815959931
 21
394.1777005327249
 31
0.0
  0
LINE
  5
3F3
330
1F
100
AcDbEntity
  8
2
100
AcDbLine
 10
-34.00027321596116
 20
289.3776805327252
 30
0.0
 11
-10.00027321596116
 21
289.3776805327252
 31
0.0
  0
LINE
  5
3F4
330
1F
100
AcDbEntity
  8
2
100
AcDbLine
 10
-42.00027321595934
 20
326.4776905327253
 30
0.0
 11
-2.000272815959931
 21
326.4776905327253
 31
0.0
  0
LINE
  5
3F5
330
1F
100
AcDbEntity
  8
2
100
AcDbLine
 10
-42.00027321595934
 20
394.1777005327249
 30
0.0
 11
-2.000272815959931
 21
394.1777005327249
 31
0.0
  0
LINE
  5
3F6
330
1F
100
AcDbEntity
  8
2
100
AcDbLine
 10
-35.00027321595934
 20
431.1777005327249
 30
0.0
 11
-9.000272815959931
 21
431.1777005327249
 31
0.0
  0
LINE
  5
3F7
330
1F
100
AcDbEntity
  8
0
370
    -3
100
AcDbLine
 10
69.2502136230467
 20
8.999816894531477
 30
0.0
 11
69.2502136230467
 21
4.299865722656477
 31
0.0
  0
LINE
  5
3F8
330
1F
100
AcDbEntity
  8
0
370
    -3
100
AcDbLine
 10
68.73051319139069
 20
9.299910985769429
 30
0.0
 11
69.25016014612612
 21
8.999892671184397
 31
0.0
  0
LINE
  5
3F9
330
1F
100
AcDbEntity
  8
0
370
    -3
100
AcDbLine
 10
68.00546264648421
 20
8.999816894531477
 30
0.0
 11
68.00546264648421
 21
4.999877929687272
 31
0.0
  0
LINE
  5
3FA
330
1F
100
AcDbEntity
  8
0
370
    -3
100
AcDbLine
 10
69.10537719726545
 20
8.999816894531477
 30
0.0
 11
69.10537719726545
 21
4.999877929687272
 31
0.0
  0
LINE
  5
3FB
330
1F
100
AcDbEntity
  8
0
370
    -3
100
AcDbLine
 10
68.6807556152342
 20
8.999816894531477
 30
0.0
 11
68.6807556152342
 21
4.999877929687272
 31
0.0
  0
LINE
  5
3FC
330
1F
100
AcDbEntity
  8
0
370
    -3
100
AcDbLine
 10
73.00003051757795
 20
3.000000000000227
 30
0.0
 11
73.00003051757795
 21
0.0000000000002274
 31
0.0
  0
LINE
  5
3FD
330
1F
100
AcDbEntity
  8
0
370
    -3
100
AcDbLine
 10
60.75027465820295
 20
8.999816894531477
 30
0.0
 11
60.75027465820295
 21
4.299865722656477
 31
0.0
  0
LINE
  5
3FE
330
1F
100
AcDbEntity
  8
0
370
    -3
100
AcDbLine
 10
60.75026692736248
 20
8.999923364253163
 30
0.0
 11
61.26983459510467
 21
9.299895902471462
 31
0.0
  0
LINE
  5
3FF
330
1F
100
AcDbEntity
  8
0
370
    -3
100
AcDbLine
 10
65.00015258789045
 20
8.999816894531477
 30
0.0
 11
65.00015258789045
 21
4.999877929687272
 31
0.0
  0
LINE
  5
400
330
1F
100
AcDbEntity
  8
0
370
    -3
100
AcDbLine
 10
60.8951110839842
 20
8.999816894531477
 30
0.0
 11
60.8951110839842
 21
4.999877929687272
 31
0.0
  0
LINE
  5
401
330
1F
100
AcDbEntity
  8
0
370
    -3
100
AcDbLine
 10
61.31973266601545
 20
8.999816894531477
 30
0.0
 11
61.31973266601545
 21
4.999877929687272
 31
0.0
  0
LINE
  5
402
330
1F
100
AcDbEntity
  8
0
370
    -3
100
AcDbLine
 10
61.99502563476546
 20
8.999816894531477
 30
0.0
 11
61.99502563476546
 21
4.999877929687272
 31
0.0
  0
LINE
  5
403
330
1F
100
AcDbEntity
  8
0
370
    -3
100
AcDbLine
 10
62.8752136230467
 20
8.999816894531477
 30
0.0
 11
62.8752136230467
 21
4.999877929687272
 31
0.0
  0
LINE
  5
404
330
1F
100
AcDbEntity
  8
0
370
    -3
100
AcDbLine
 10
63.90023803710921
 20
8.999816894531477
 30
0.0
 11
63.90023803710921
 21
4.999877929687272
 31
0.0
  0
LINE
  5
405
330
1F
100
AcDbEntity
  8
0
370
    -3
100
AcDbLine
 10
66.10025024414046
 20
8.999816894531477
 30
0.0
 11
66.10025024414046
 21
4.999877929687272
 31
0.0
  0
LINE
  5
406
330
1F
100
AcDbEntity
  8
0
370
    -3
100
AcDbLine
 10
67.12527465820295
 20
8.999816894531477
 30
0.0
 11
67.12527465820295
 21
4.999877929687272
 31
0.0
  0
LINE
  5
407
330
1F
100
AcDbEntity
  8
0
370
    -3
100
AcDbLine
 10
68.73056030273421
 20
9.299835205078352
 30
0.0
 11
61.26992797851546
 21
9.299835205078352
 31
0.0
  0
LINE
  5
408
330
1F
100
AcDbEntity
  8
0
370
    -3
100
AcDbLine
 10
69.2502136230467
 20
4.999877929687272
 30
0.0
 11
60.75027465820295
 21
4.999877929687272
 31
0.0
  0
LINE
  5
409
330
1F
100
AcDbEntity
  8
0
370
    -3
100
AcDbLine
 10
69.2502136230467
 20
8.999816894531477
 30
0.0
 11
60.75027465820295
 21
8.999816894531477
 31
0.0
  0
LINE
  5
40A
330
1F
100
AcDbEntity
  8
0
370
    -3
100
AcDbLine
 10
69.59969241620076
 20
4.299869930749309
 30
0.0
 11
69.59969241620076
 21
3.000000000000227
 31
0.0
  0
LINE
  5
40B
330
1F
100
AcDbEntity
  8
0
370
    -3
100
AcDbLine
 10
60.40061275958106
 20
4.299869930749309
 30
0.0
 11
60.40061275958106
 21
3.000000000000227
 31
0.0
  0
LINE
  5
40C
330
1F
100
AcDbEntity
  8
0
370
    -3
100
AcDbLine
 10
60.40061275958106
 20
4.299869930749309
 30
0.0
 11
69.59969241620076
 21
4.299869930749309
 31
0.0
  0
LINE
  5
40D
330
1F
100
AcDbEntity
  8
0
370
    -3
100
AcDbLine
 10
64.24967230930161
 20
4.299869949265257
 30
0.0
 11
65.00015258789045
 21
3.000000000000227
 31
0.0
  0
LINE
  5
40E
330
1F
100
AcDbEntity
  8
0
370
    -3
100
AcDbLine
 10
65.00015255234558
 20
4.299869974817511
 30
0.0
 11
65.75063284583468
 21
2.999999999745568
 31
0.0
  0
LINE
  5
40F
330
1F
100
AcDbEntity
  8
1
100
AcDbLine
 10
-0.0000054722287928
 20
79.5
 30
0.0
 11
0.000017415954801
 21
-253.0172741967612
 31
0.0
  0
LINE
  5
410
330
1F
100
AcDbEntity
  8
2
100
AcDbLine
 10
161.2500465465171
 20
-184.0000164445403
 30
0.0
 11
166.2500470683361
 21
-122.0000086763716
 31
0.0
  0
LINE
  5
411
330
1F
100
AcDbEntity
  8
2
100
AcDbLine
 10
35.00003267474387
 20
-106.5000000000002
 30
0.0
 11
35.00003267474387
 21
-164.5000305175781
 31
0.0
  0
LINE
  5
412
330
1F
100
AcDbEntity
  8
2
100
AcDbLine
 10
30.0000174159548
 20
-107.5000305175783
 30
0.0
 11
30.0000174159548
 21
-163.5
 31
0.0
  0
LINE
  5
413
330
1F
100
AcDbEntity
  8
2
100
AcDbLine
 10
31.00004793353293
 20
-107.5000305175783
 30
0.0
 11
31.00004793353293
 21
-163.5
 31
0.0
  0
LINE
  5
414
330
1F
100
AcDbEntity
  8
2
100
AcDbLine
 10
-31.00001310162332
 20
-107.5000305175783
 30
0.0
 11
-31.00001310162332
 21
-163.5
 31
0.0
  0
LINE
  5
415
330
1F
100
AcDbEntity
  8
2
100
AcDbLine
 10
-29.9999825840452
 20
-107.5000305175783
 30
0.0
 11
-29.9999825840452
 21
-163.5
 31
0.0
  0
LINE
  5
416
330
1F
100
AcDbEntity
  8
2
100
AcDbLine
 10
-34.99995206646707
 20
-106.5000000000002
 30
0.0
 11
-34.99995206646707
 21
-164.5000305175781
 31
0.0
  0
LINE
  5
417
330
1F
100
AcDbEntity
  8
2
100
AcDbLine
 10
-161.2499266356382
 20
-183.9999733256879
 30
0.0
 11
-166.2499271574572
 21
-121.9999655575193
 31
0.0
  0
LINE
  5
418
330
1F
100
AcDbEntity
  8
2
100
AcDbLine
 10
161.2499716395876
 20
-30.0
 30
0.0
 11
161.2499716395876
 21
-184.0000305175781
 31
0.0
  0
LINE
  5
419
330
1F
100
AcDbEntity
  8
2
100
AcDbLine
 10
149.2499716395876
 20
-4.000030517578125
 30
0.0
 11
149.2499716395876
 21
-210.0
 31
0.0
  0
LINE
  5
41A
330
1F
100
AcDbEntity
  8
2
100
AcDbLine
 10
135.2500021571657
 20
-3.0
 30
0.0
 11
135.2500021571657
 21
-211.0000305175781
 31
0.0
  0
LINE
  5
41B
330
1F
100
AcDbEntity
  8
2
100
AcDbLine
 10
-161.2499825840452
 20
-30.0
 30
0.0
 11
-161.2499825840452
 21
-184.0000305175781
 31
0.0
  0
LINE
  5
41C
330
1F
100
AcDbEntity
  8
2
100
AcDbLine
 10
-149.2499825840452
 20
-4.000030517578125
 30
0.0
 11
-149.2499825840452
 21
-210.0
 31
0.0
  0
LINE
  5
41D
330
1F
100
AcDbEntity
  8
2
100
AcDbLine
 10
-135.2500131016233
 20
-3.0
 30
0.0
 11
-135.2500131016233
 21
-211.0000305175781
 31
0.0
  0
LINE
  5
41E
330
1F
100
AcDbEntity
  8
2
100
AcDbLine
 10
-28.00001310162333
 20
-166.5
 30
0.0
 11
28.00004793353293
 21
-166.5
 31
0.0
  0
LINE
  5
41F
330
1F
100
AcDbEntity
  8
2
100
AcDbLine
 10
-28.99995206646707
 20
-170.5000305175781
 30
0.0
 11
29.00007845111105
 21
-170.5000305175781
 31
0.0
  0
LINE
  5
420
330
1F
100
AcDbEntity
  8
2
100
AcDbLine
 10
-28.00001310162333
 20
-165.5000152587888
 30
0.0
 11
28.00004793353293
 21
-165.5000152587888
 31
0.0
  0
LINE
  5
421
330
1F
100
AcDbEntity
  8
2
100
AcDbLine
 10
-62.9999825840452
 20
-220.0000305175781
 30
0.0
 11
62.99997163958761
 21
-220.0000305175781
 31
0.0
  0
LINE
  5
422
330
1F
100
AcDbEntity
  8
2
100
AcDbLine
 10
-68.9999825840452
 20
-207.0
 30
0.0
 11
-149.2499825840452
 21
-207.0
 31
0.0
  0
LINE
  5
423
330
1F
100
AcDbEntity
  8
2
100
AcDbLine
 10
-148.249952066467
 20
-211.0000305175781
 30
0.0
 11
-67.99995206646707
 21
-211.0000305175781
 31
0.0
  0
LINE
  5
424
330
1F
100
AcDbEntity
  8
2
100
AcDbLine
 10
-150.6108224277952
 20
-181.9280090332031
 30
0.0
 11
-150.6108224277952
 21
-200.072021484375
 31
0.0
  0
LINE
  5
425
330
1F
100
AcDbEntity
  8
2
100
AcDbLine
 10
-160.5899789219358
 20
-183.1064758300781
 30
0.0
 11
-160.5899789219358
 21
-198.8935546875
 31
0.0
  0
LINE
  5
426
330
1F
100
AcDbEntity
  8
2
100
AcDbLine
 10
-159.9095590000608
 20
-181.9280090332031
 30
0.0
 11
-159.9095590000608
 21
-200.072021484375
 31
0.0
  0
ARC
  5
427
330
1F
100
AcDbEntity
  8
2
100
AcDbCircle
 10
-148.249952066467
 20
-210.0
 30
0.0
 40
1.000000029802322
100
AcDbArc
 50
179.999991348572
 51
270.000000683243
  0
LINE
  5
428
330
1F
100
AcDbEntity
  8
2
100
AcDbLine
 10
-160.5900309034925
 20
-198.8934557831576
 30
0.0
 11
-159.9096109724589
 21
-200.0719776530389
 31
0.0
  0
LINE
  5
429
330
1F
100
AcDbEntity
  8
2
100
AcDbLine
 10
-159.9095590000608
 20
-200.072021484375
 30
0.0
 11
-149.2499825840452
 21
-200.072021484375
 31
0.0
  0
ARC
  5
42A
330
1F
100
AcDbEntity
  8
2
100
AcDbCircle
 10
-155.2499825840452
 20
-184.0000305175781
 30
0.0
 40
6.0
100
AcDbArc
 50
179.999991348572
 51
207.1267569958326
  0
LINE
  5
42B
330
1F
100
AcDbEntity
  8
2
100
AcDbLine
 10
-160.5900554897845
 20
-183.1064475321307
 30
0.0
 11
-159.9096527248886
 21
-181.9279553948715
 31
0.0
  0
LINE
  5
42C
330
1F
100
AcDbEntity
  8
2
100
AcDbLine
 10
-159.9095590000608
 20
-181.9280090332031
 30
0.0
 11
-149.2499825840452
 21
-181.9280090332031
 31
0.0
  0
ARC
  5
42D
330
1F
100
AcDbEntity
  8
2
100
AcDbCircle
 10
-68.9999825840452
 20
-213.0
 30
0.0
 40
6.0
100
AcDbArc
 50
0.0
 51
90.00000250446868
  0
LINE
  5
42E
330
1F
100
AcDbEntity
  8
2
100
AcDbLine
 10
-62.9999825840452
 20
-213.0
 30
0.0
 11
-62.9999825840452
 21
-220.0000305175781
 31
0.0
  0
ARC
  5
42F
330
1F
100
AcDbEntity
  8
2
100
AcDbCircle
 10
-67.99995206646707
 20
-216.0
 30
0.0
 40
4.999999880790709
100
AcDbArc
 50
0.0
 51
90.00000250446868
  0
ARC
  5
430
330
1F
100
AcDbEntity
  8
2
100
AcDbCircle
 10
-28.00001310162333
 20
-163.5
 30
0.0
 40
3.0
100
AcDbArc
 50
179.999991348572
 51
270.000000683243
  0
ARC
  5
431
330
1F
100
AcDbEntity
  8
2
100
AcDbCircle
 10
-28.00001310162333
 20
-163.5
 30
0.0
 40
2.000000059604645
100
AcDbArc
 50
179.999991348572
 51
270.000000683243
  0
ARC
  5
432
330
1F
100
AcDbEntity
  8
2
100
AcDbCircle
 10
-28.99995206646707
 20
-164.5000305175781
 30
0.0
 40
6.0
100
AcDbArc
 50
179.999991348572
 51
270.000000683243
  0
LINE
  5
433
330
1F
100
AcDbEntity
  8
2
100
AcDbLine
 10
68.99997163958762
 20
-207.0
 30
0.0
 11
149.2499716395876
 21
-207.0
 31
0.0
  0
LINE
  5
434
330
1F
100
AcDbEntity
  8
2
100
AcDbLine
 10
68.00003267474386
 20
-211.0000305175781
 30
0.0
 11
148.2500326747438
 21
-211.0000305175781
 31
0.0
  0
ARC
  5
435
330
1F
100
AcDbEntity
  8
2
100
AcDbCircle
 10
68.99997163958762
 20
-213.0
 30
0.0
 40
6.0
100
AcDbArc
 50
90.00000250446868
 51
180.0000050089504
  0
LINE
  5
436
330
1F
100
AcDbEntity
  8
2
100
AcDbLine
 10
62.99997163958761
 20
-213.0
 30
0.0
 11
62.99997163958761
 21
-220.0000305175781
 31
0.0
  0
ARC
  5
437
330
1F
100
AcDbEntity
  8
2
100
AcDbCircle
 10
68.00003267474386
 20
-216.0
 30
0.0
 40
4.999999880790709
100
AcDbArc
 50
90.00000250446868
 51
180.0000050089504
  0
ARC
  5
438
330
1F
100
AcDbEntity
  8
2
100
AcDbCircle
 10
28.00004793353293
 20
-163.5
 30
0.0
 40
3.0
100
AcDbArc
 50
269.9999974955313
 51
0.0
  0
ARC
  5
439
330
1F
100
AcDbEntity
  8
2
100
AcDbCircle
 10
29.00007845111105
 20
-164.5000305175781
 30
0.0
 40
6.0
100
AcDbArc
 50
269.9999974955313
 51
0.0
  0
ARC
  5
43A
330
1F
100
AcDbEntity
  8
2
100
AcDbCircle
 10
28.00004793353293
 20
-163.5
 30
0.0
 40
2.000000059604645
100
AcDbArc
 50
269.9999974955313
 51
0.0
  0
LINE
  5
43B
330
1F
100
AcDbEntity
  8
2
100
AcDbLine
 10
160.5899679774782
 20
-183.1064758300781
 30
0.0
 11
160.5899679774782
 21
-198.8935546875
 31
0.0
  0
LINE
  5
43C
330
1F
100
AcDbEntity
  8
2
100
AcDbLine
 10
159.9096396083376
 20
-181.9280090332031
 30
0.0
 11
159.9096396083376
 21
-200.072021484375
 31
0.0
  0
LINE
  5
43D
330
1F
100
AcDbEntity
  8
2
100
AcDbLine
 10
150.6108114833376
 20
-181.9280090332031
 30
0.0
 11
150.6108114833376
 21
-200.072021484375
 31
0.0
  0
LINE
  5
43E
330
1F
100
AcDbEntity
  8
2
100
AcDbLine
 10
160.5899927541484
 20
-198.8935071181356
 30
0.0
 11
159.9095957112984
 21
-200.07198934452
 31
0.0
  0
LINE
  5
43F
330
1F
100
AcDbEntity
  8
2
100
AcDbLine
 10
159.9096396083376
 20
-200.072021484375
 30
0.0
 11
149.2499716395876
 21
-200.072021484375
 31
0.0
  0
ARC
  5
440
330
1F
100
AcDbEntity
  8
2
100
AcDbCircle
 10
148.2500326747438
 20
-210.0
 30
0.0
 40
1.000000029802322
100
AcDbArc
 50
269.9999974955313
 51
0.0
  0
LINE
  5
441
330
1F
100
AcDbEntity
  8
2
100
AcDbLine
 10
159.9096396083376
 20
-181.9280090332031
 30
0.0
 11
149.2499716395876
 21
-181.9280090332031
 31
0.0
  0
ARC
  5
442
330
1F
100
AcDbEntity
  8
2
100
AcDbCircle
 10
155.2499716395876
 20
-184.0000305175781
 30
0.0
 40
6.0
100
AcDbArc
 50
332.8732394753966
 51
0.0
  0
LINE
  5
443
330
1F
100
AcDbEntity
  8
2
100
AcDbLine
 10
160.5900347119903
 20
-183.106472061927
 30
0.0
 11
159.9096376691403
 21
-181.9279898355423
 31
0.0
  0
ARC
  5
444
330
1F
100
AcDbEntity
  8
2
100
AcDbCircle
 10
-181.0000131016233
 20
-106.9999694824218
 30
0.0
 40
12.50000095367432
100
AcDbArc
 50
90.00000250446868
 51
269.9777130656261
  0
LINE
  5
445
330
1F
100
AcDbEntity
  8
2
100
AcDbLine
 10
85.00000215716573
 20
0.0
 30
0.0
 11
85.00000215716573
 21
-10.99996948242187
 31
0.0
  0
ARC
  5
446
330
1F
100
AcDbEntity
  8
2
100
AcDbCircle
 10
42.50003267474386
 20
-19.99996948242187
 30
0.0
 40
16.5
100
AcDbArc
 50
0.0
 51
180.0000050089504
  0
ARC
  5
447
330
1F
100
AcDbEntity
  8
2
100
AcDbCircle
 10
-42.49995206646707
 20
-19.99996948242187
 30
0.0
 40
16.5
100
AcDbArc
 50
0.0
 51
180.0000050089504
  0
LINE
  5
448
330
1F
100
AcDbEntity
  8
2
100
AcDbLine
 10
-85.00001310162332
 20
0.0
 30
0.0
 11
-85.00001310162332
 21
-10.99996948242187
 31
0.0
  0
ARC
  5
449
330
1F
100
AcDbEntity
  8
2
100
AcDbCircle
 10
0.000017415954801
 20
273.0673828125
 30
0.0
 40
286.0673904418945
100
AcDbArc
 50
264.3225325215291
 51
275.6774692996937
  0
LINE
  5
44A
330
1F
100
AcDbEntity
  8
2
100
AcDbLine
 10
-148.249952066467
 20
-22.99996948242188
 30
0.0
 11
148.2500326747438
 21
-22.99996948242188
 31
0.0
  0
LINE
  5
44B
330
1F
100
AcDbEntity
  8
2
100
AcDbLine
 10
-28.00001310162333
 20
-105.5000152587888
 30
0.0
 11
28.00004793353293
 21
-105.5000152587888
 31
0.0
  0
LINE
  5
44C
330
1F
100
AcDbEntity
  8
2
100
AcDbLine
 10
-28.99995206646707
 20
-100.5
 30
0.0
 11
29.00007845111105
 21
-100.5
 31
0.0
  0
LINE
  5
44D
330
1F
100
AcDbEntity
  8
2
100
AcDbLine
 10
-28.00001310162333
 20
-104.5000305175781
 30
0.0
 11
28.00004793353293
 21
-104.5000305175781
 31
0.0
  0
LINE
  5
44E
330
1F
100
AcDbEntity
  8
2
100
AcDbLine
 10
-149.2499825840452
 20
-87.0
 30
0.0
 11
149.2499716395876
 21
-87.0
 31
0.0
  0
LINE
  5
44F
330
1F
100
AcDbEntity
  8
2
100
AcDbLine
 10
-161.2499705250686
 20
-30.00003524395424
 30
0.0
 11
-166.2499710468875
 21
-92.00004301212288
 31
0.0
  0
LINE
  5
450
330
1F
100
AcDbEntity
  8
2
100
AcDbLine
 10
-149.2499825840452
 20
-127.0000305175781
 30
0.0
 11
-34.99995206646707
 21
-127.0000305175781
 31
0.0
  0
ARC
  5
451
330
1F
100
AcDbEntity
  8
2
100
AcDbCircle
 10
-174.1061837559202
 20
-118.2237854003906
 30
0.0
 40
6.893842935562133
100
AcDbArc
 50
147.1327658926417
 51
212.8672304648811
  0
LINE
  5
452
330
1F
100
AcDbEntity
  8
2
100
AcDbLine
 10
-167.2499825840452
 20
-91.99996948242187
 30
0.0
 11
-167.2499825840452
 21
-121.9999694824221
 31
0.0
  0
LINE
  5
453
330
1F
100
AcDbEntity
  8
2
100
AcDbLine
 10
-166.2499520664671
 20
-91.99996948242187
 30
0.0
 11
-166.2499520664671
 21
-121.9999694824221
 31
0.0
  0
LINE
  5
454
330
1F
100
AcDbEntity
  8
2
100
AcDbLine
 10
-166.2499520664671
 20
-121.9999694824216
 30
0.0
 11
-167.2499825840452
 21
-121.9999694824216
 31
0.0
  0
LINE
  5
455
330
1F
100
AcDbEntity
  8
2
100
AcDbLine
 10
-179.8965279942014
 20
-121.9649963378906
 30
0.0
 11
-167.2499825840452
 21
-121.9649963378906
 31
0.0
  0
LINE
  5
456
330
1F
100
AcDbEntity
  8
2
100
AcDbLine
 10
-166.2499520664671
 20
-91.99996948242187
 30
0.0
 11
-167.2499825840452
 21
-91.99996948242187
 31
0.0
  0
LINE
  5
457
330
1F
100
AcDbEntity
  8
2
100
AcDbLine
 10
-179.8965279942014
 20
-92.0350341796875
 30
0.0
 11
-167.2499825840452
 21
-92.0350341796875
 31
0.0
  0
LINE
  5
458
330
1F
100
AcDbEntity
  8
2
100
AcDbLine
 10
-179.8965279942014
 20
-99.51754760742188
 30
0.0
 11
-167.2499825840452
 21
-99.51754760742188
 31
0.0
  0
ARC
  5
459
330
1F
100
AcDbEntity
  8
2
100
AcDbCircle
 10
-174.1061837559202
 20
-95.77624511718751
 30
0.0
 40
6.893842935562133
100
AcDbArc
 50
147.1327658926417
 51
212.8672304648811
  0
LINE
  5
45A
330
1F
100
AcDbEntity
  8
2
100
AcDbLine
 10
-179.8965279942014
 20
-114.4824829101562
 30
0.0
 11
-167.2499825840452
 21
-114.4824829101562
 31
0.0
  0
LINE
  5
45B
330
1F
100
AcDbEntity
  8
2
100
AcDbLine
 10
-181.0000131016233
 20
-95.77624511718772
 30
0.0
 11
-181.0000131016233
 21
-118.2237854003908
 31
0.0
  0
ARC
  5
45C
330
1F
100
AcDbEntity
  8
2
100
AcDbCircle
 10
-155.0798776035764
 20
-106.9999694824218
 30
0.0
 40
25.92012977600098
100
AcDbArc
 50
163.2213447844943
 51
196.7786515730275
  0
CIRCLE
  5
45D
330
1F
100
AcDbEntity
  8
2
100
AcDbCircle
 10
0.000017415954801
 20
-119.5000305175781
 30
0.0
 40
2.000000059604645
  0
CIRCLE
  5
45E
330
1F
100
AcDbEntity
  8
2
100
AcDbCircle
 10
0.000017415954801
 20
-119.5000305175781
 30
0.0
 40
2.499999940395354
  0
CIRCLE
  5
45F
330
1F
100
AcDbEntity
  8
2
100
AcDbCircle
 10
-11.9999825840452
 20
-119.5000305175781
 30
0.0
 40
2.499999940395354
  0
CIRCLE
  5
460
330
1F
100
AcDbEntity
  8
2
100
AcDbCircle
 10
-11.9999825840452
 20
-119.5000305175781
 30
0.0
 40
2.000000059604645
  0
CIRCLE
  5
461
330
1F
100
AcDbEntity
  8
2
100
AcDbCircle
 10
12.0000174159548
 20
-151.5
 30
0.0
 40
2.000000059604645
  0
CIRCLE
  5
462
330
1F
100
AcDbEntity
  8
2
100
AcDbCircle
 10
12.0000174159548
 20
-151.5
 30
0.0
 40
2.499999940395354
  0
CIRCLE
  5
463
330
1F
100
AcDbEntity
  8
2
100
AcDbCircle
 10
0.000017415954801
 20
-151.5
 30
0.0
 40
2.000000059604645
  0
CIRCLE
  5
464
330
1F
100
AcDbEntity
  8
2
100
AcDbCircle
 10
0.000017415954801
 20
-151.5
 30
0.0
 40
2.499999940395354
  0
CIRCLE
  5
465
330
1F
100
AcDbEntity
  8
2
100
AcDbCircle
 10
-11.9999825840452
 20
-135.5000152587888
 30
0.0
 40
6.578081846237182
  0
CIRCLE
  5
466
330
1F
100
AcDbEntity
  8
2
100
AcDbCircle
 10
-11.9999825840452
 20
-135.5000152587888
 30
0.0
 40
5.727081656455993
  0
CIRCLE
  5
467
330
1F
100
AcDbEntity
  8
2
100
AcDbCircle
 10
12.0000174159548
 20
-135.5000152587888
 30
0.0
 40
6.578081846237182
  0
CIRCLE
  5
468
330
1F
100
AcDbEntity
  8
2
100
AcDbCircle
 10
12.0000174159548
 20
-135.5000152587888
 30
0.0
 40
5.727081656455993
  0
ARC
  5
469
330
1F
100
AcDbEntity
  8
2
100
AcDbCircle
 10
-28.00001310162333
 20
-107.5000305175781
 30
0.0
 40
3.0
100
AcDbArc
 50
90.00000250446868
 51
180.0000050089504
  0
ARC
  5
46A
330
1F
100
AcDbEntity
  8
2
100
AcDbCircle
 10
-28.00001310162333
 20
-107.5000305175781
 30
0.0
 40
2.000000059604645
100
AcDbArc
 50
90.00000250446868
 51
180.0000050089504
  0
ARC
  5
46B
330
1F
100
AcDbEntity
  8
2
100
AcDbCircle
 10
-28.99995206646707
 20
-106.5
 30
0.0
 40
6.0
100
AcDbArc
 50
90.00000250446868
 51
180.0000050089504
  0
LINE
  5
46C
330
1F
100
AcDbEntity
  8
2
100
AcDbLine
 10
-85.00001310162332
 20
-10.99996948242187
 30
0.0
 11
-56.32926725201395
 21
-10.99996948242187
 31
0.0
  0
LINE
  5
46D
330
1F
100
AcDbEntity
  8
2
100
AcDbLine
 10
-159.9095590000608
 20
-23.92803955078125
 30
0.0
 11
-149.2499825840452
 21
-23.92803955078125
 31
0.0
  0
ARC
  5
46E
330
1F
100
AcDbEntity
  8
2
100
AcDbCircle
 10
-155.2499825840452
 20
-30.0
 30
0.0
 40
6.0
100
AcDbArc
 50
152.873239361724
 51
180.0000050089504
  0
LINE
  5
46F
330
1F
100
AcDbEntity
  8
2
100
AcDbLine
 10
-160.5899839108926
 20
-40.89347826843777
 30
0.0
 11
-159.9096097562262
 21
-42.07192085132601
 31
0.0
  0
LINE
  5
470
330
1F
100
AcDbEntity
  8
2
100
AcDbLine
 10
-159.9095590000608
 20
-42.07196044921874
 30
0.0
 11
-149.2499825840452
 21
-42.07196044921874
 31
0.0
  0
LINE
  5
471
330
1F
100
AcDbEntity
  8
2
100
AcDbLine
 10
-160.5899789219358
 20
-25.10650634765625
 30
0.0
 11
-160.5899789219358
 21
-40.89349365234375
 31
0.0
  0
ARC
  5
472
330
1F
100
AcDbEntity
  8
2
100
AcDbCircle
 10
-155.2499825840452
 20
-18.0
 30
0.0
 40
6.0
100
AcDbArc
 50
278.8851105490366
 51
0.0
  0
LINE
  5
473
330
1F
100
AcDbEntity
  8
2
100
AcDbLine
 10
-160.5900767331779
 20
-25.10642541847687
 30
0.0
 11
-159.9096796903279
 21
-23.92794319209224
 31
0.0
  0
LINE
  5
474
330
1F
100
AcDbEntity
  8
2
100
AcDbLine
 10
-150.6108224277952
 20
-23.92803955078125
 30
0.0
 11
-150.6108224277952
 21
-42.07196044921874
 31
0.0
  0
LINE
  5
475
330
1F
100
AcDbEntity
  8
2
100
AcDbLine
 10
-159.9095590000608
 20
-23.92803955078125
 30
0.0
 11
-159.9095590000608
 21
-42.07196044921874
 31
0.0
  0
LINE
  5
476
330
1F
100
AcDbEntity
  8
2
100
AcDbLine
 10
-25.99995206646708
 20
-19.99996948242187
 30
0.0
 11
-25.99995206646708
 21
-22.99996948242188
 31
0.0
  0
LINE
  5
477
330
1F
100
AcDbEntity
  8
2
100
AcDbLine
 10
161.2499991794828
 20
-29.99999948449385
 30
0.0
 11
166.2499997013017
 21
-92.00000725266249
 31
0.0
  0
LINE
  5
478
330
1F
100
AcDbEntity
  8
2
100
AcDbLine
 10
35.00003267474387
 20
-127.0000305175781
 30
0.0
 11
149.2499716395876
 21
-127.0000305175781
 31
0.0
  0
ARC
  5
479
330
1F
100
AcDbEntity
  8
2
100
AcDbCircle
 10
28.00004793353293
 20
-107.5000305175781
 30
0.0
 40
3.0
100
AcDbArc
 50
0.0
 51
90.00000250446868
  0
ARC
  5
47A
330
1F
100
AcDbEntity
  8
2
100
AcDbCircle
 10
28.00004793353293
 20
-107.5000305175781
 30
0.0
 40
2.000000059604645
100
AcDbArc
 50
0.0
 51
90.00000250446868
  0
ARC
  5
47B
330
1F
100
AcDbEntity
  8
2
100
AcDbCircle
 10
29.00007845111105
 20
-106.5
 30
0.0
 40
6.0
100
AcDbArc
 50
0.0
 51
90.00000250446868
  0
ARC
  5
47C
330
1F
100
AcDbEntity
  8
2
100
AcDbCircle
 10
174.1061728114626
 20
-118.2237854003906
 30
0.0
 40
6.893842935562133
100
AcDbArc
 50
327.1327677138755
 51
32.86723570121212
  0
ARC
  5
47D
330
1F
100
AcDbEntity
  8
2
100
AcDbCircle
 10
181.0000021571657
 20
-106.9999694824218
 30
0.0
 40
12.50000095367432
100
AcDbArc
 50
269.9999974955313
 51
90.00105229574275
  0
LINE
  5
47E
330
1F
100
AcDbEntity
  8
2
100
AcDbLine
 10
167.2499716395876
 20
-91.99996948242187
 30
0.0
 11
167.2499716395876
 21
-121.9999694824221
 31
0.0
  0
LINE
  5
47F
330
1F
100
AcDbEntity
  8
2
100
AcDbLine
 10
166.2500326747438
 20
-91.99996948242187
 30
0.0
 11
166.2500326747438
 21
-121.9999694824221
 31
0.0
  0
LINE
  5
480
330
1F
100
AcDbEntity
  8
2
100
AcDbLine
 10
166.2500326747438
 20
-121.9999694824216
 30
0.0
 11
167.2499716395876
 21
-121.9999694824216
 31
0.0
  0
LINE
  5
481
330
1F
100
AcDbEntity
  8
2
100
AcDbLine
 10
179.8965170497439
 20
-121.9649963378906
 30
0.0
 11
167.2499716395876
 21
-121.9649963378906
 31
0.0
  0
LINE
  5
482
330
1F
100
AcDbEntity
  8
2
100
AcDbLine
 10
166.2500326747438
 20
-91.99996948242187
 30
0.0
 11
167.2499716395876
 21
-91.99996948242187
 31
0.0
  0
LINE
  5
483
330
1F
100
AcDbEntity
  8
2
100
AcDbLine
 10
179.8965170497439
 20
-92.0350341796875
 30
0.0
 11
167.2499716395876
 21
-92.0350341796875
 31
0.0
  0
LINE
  5
484
330
1F
100
AcDbEntity
  8
2
100
AcDbLine
 10
179.8965170497439
 20
-99.51754760742188
 30
0.0
 11
167.2499716395876
 21
-99.51754760742188
 31
0.0
  0
ARC
  5
485
330
1F
100
AcDbEntity
  8
2
100
AcDbCircle
 10
174.1061728114626
 20
-95.77624511718751
 30
0.0
 40
6.893842935562133
100
AcDbArc
 50
327.1327677138755
 51
32.86723570121212
  0
LINE
  5
486
330
1F
100
AcDbEntity
  8
2
100
AcDbLine
 10
179.8965170497439
 20
-114.4824829101562
 30
0.0
 11
167.2499716395876
 21
-114.4824829101562
 31
0.0
  0
LINE
  5
487
330
1F
100
AcDbEntity
  8
2
100
AcDbLine
 10
181.0000021571657
 20
-95.77624511718772
 30
0.0
 11
181.0000021571657
 21
-118.2237854003908
 31
0.0
  0
ARC
  5
488
330
1F
100
AcDbEntity
  8
2
100
AcDbCircle
 10
155.0798666591188
 20
-106.9999694824218
 30
0.0
 40
25.92012977600098
100
AcDbArc
 50
343.2213414830922
 51
16.77865510182368
  0
LINE
  5
489
330
1F
100
AcDbEntity
  8
2
100
AcDbLine
 10
56.32934786029074
 20
-10.99996948242187
 30
0.0
 11
85.00000215716573
 21
-10.99996948242187
 31
0.0
  0
LINE
  5
48A
330
1F
100
AcDbEntity
  8
2
100
AcDbLine
 10
159.9096396083376
 20
-23.92803955078125
 30
0.0
 11
149.2499716395876
 21
-23.92803955078125
 31
0.0
  0
ARC
  5
48B
330
1F
100
AcDbEntity
  8
2
100
AcDbCircle
 10
155.2499716395876
 20
-30.0
 30
0.0
 40
6.0
100
AcDbArc
 50
0.0
 51
27.12676052460337
  0
LINE
  5
48C
330
1F
100
AcDbEntity
  8
2
100
AcDbLine
 10
160.5899800938239
 20
-40.89347013817064
 30
0.0
 11
159.9095716068812
 21
-42.07197218630381
 31
0.0
  0
LINE
  5
48D
330
1F
100
AcDbEntity
  8
2
100
AcDbLine
 10
159.9096396083376
 20
-42.07196044921874
 30
0.0
 11
149.2499716395876
 21
-42.07196044921874
 31
0.0
  0
LINE
  5
48E
330
1F
100
AcDbEntity
  8
2
100
AcDbLine
 10
160.5899679774782
 20
-25.10650634765625
 30
0.0
 11
160.5899679774782
 21
-40.89349365234375
 31
0.0
  0
LINE
  5
48F
330
1F
100
AcDbEntity
  8
2
100
AcDbLine
 10
160.5899733965423
 20
-25.10639850490088
 30
0.0
 11
159.9095992418759
 21
-23.92795592201287
 31
0.0
  0
ARC
  5
490
330
1F
100
AcDbEntity
  8
2
100
AcDbCircle
 10
155.2499716395876
 20
-18.0
 30
0.0
 40
6.0
100
AcDbArc
 50
179.999991348572
 51
261.1148807995367
  0
LINE
  5
491
330
1F
100
AcDbEntity
  8
2
100
AcDbLine
 10
159.9096396083376
 20
-23.92803955078125
 30
0.0
 11
159.9096396083376
 21
-42.07196044921874
 31
0.0
  0
LINE
  5
492
330
1F
100
AcDbEntity
  8
2
100
AcDbLine
 10
150.6108114833376
 20
-23.92803955078125
 30
0.0
 11
150.6108114833376
 21
-42.07196044921874
 31
0.0
  0
LINE
  5
493
330
1F
100
AcDbEntity
  8
2
100
AcDbLine
 10
-85.00001310162332
 20
0.0
 30
0.0
 11
85.00000215716573
 21
0.0
 31
0.0
  0
LINE
  5
494
330
1F
100
AcDbEntity
  8
2
100
AcDbLine
 10
-148.249952066467
 20
-3.0
 30
0.0
 11
-88.00001310162333
 21
-3.0
 31
0.0
  0
ARC
  5
495
330
1F
100
AcDbEntity
  8
2
100
AcDbCircle
 10
-148.249952066467
 20
-4.000030517578125
 30
0.0
 40
1.000000029802322
100
AcDbArc
 50
90.00000250446868
 51
180.0000050089504
  0
LINE
  5
496
330
1F
100
AcDbEntity
  8
2
100
AcDbLine
 10
88.00000215716574
 20
-3.0
 30
0.0
 11
148.2500326747438
 21
-3.0
 31
0.0
  0
ARC
  5
497
330
1F
100
AcDbEntity
  8
2
100
AcDbCircle
 10
88.00000215716574
 20
0.0
 30
0.0
 40
3.0
100
AcDbArc
 50
179.999991348572
 51
270.000000683243
  0
ARC
  5
498
330
1F
100
AcDbEntity
  8
2
100
AcDbCircle
 10
148.2500326747438
 20
-4.000030517578125
 30
0.0
 40
1.000000029802322
100
AcDbArc
 50
0.0
 51
90.00000250446868
  0
LINE
  5
499
330
1F
100
AcDbEntity
  8
2
100
AcDbLine
 10
-58.99997495465067
 20
-19.99996948242187
 30
0.0
 11
-58.99997495465067
 21
-22.99996948242188
 31
0.0
  0
LINE
  5
49A
330
1F
100
AcDbEntity
  8
1
100
AcDbLine
 10
-65.00033569335954
 20
11.50377262589427
 30
0.0
 11
-65.00033569335954
 21
-1.999999999999772
 31
0.0
  0
ARC
  5
49B
330
1F
100
AcDbEntity
  8
2
100
AcDbCircle
 10
-88.00003598980692
 20
0.0
 30
0.0
 40
3.0
100
AcDbArc
 50
269.9999974955313
 51
0.0
  0
LINE
  5
49C
330
1F
100
AcDbEntity
  8
2
100
AcDbLine
 10
-33.76785825543192
 20
-6.0
 30
0.0
 11
33.76789308734152
 21
-6.0
 31
0.0
  0
LINE
  5
49D
330
1F
100
AcDbEntity
  8
2
100
AcDbLine
 10
59.00000978656027
 20
-19.99996948242187
 30
0.0
 11
59.00000978656027
 21
-22.99996948242188
 31
0.0
  0
LINE
  5
49E
330
1F
100
AcDbEntity
  8
2
100
AcDbLine
 10
26.00005556292746
 20
-19.99996948242187
 30
0.0
 11
26.00005556292746
 21
-22.99996948242188
 31
0.0
  0
LINE
  5
49F
330
1F
100
AcDbEntity
  8
2
100
AcDbLine
 10
-42.00027321595934
 20
67.99999267210274
 30
0.0
 11
-42.00027321595934
 21
25.99999237060524
 31
0.0
  0
LINE
  5
4A0
330
1F
100
AcDbEntity
  8
2
100
AcDbLine
 10
-2.000272815959931
 20
67.99999267210274
 30
0.0
 11
-2.000272815959931
 21
25.99999237060524
 31
0.0
  0
LINE
  5
4A1
330
1F
100
AcDbEntity
  8
2
100
AcDbLine
 10
42.00026227150175
 20
67.99999267210274
 30
0.0
 11
2.000261871502345
 21
67.99999267210274
 31
0.0
  0
LINE
  5
4A2
330
1F
100
AcDbEntity
  8
2
100
AcDbLine
 10
42.00026227150175
 20
67.99999267210274
 30
0.0
 11
42.00026227150175
 21
25.99999237060524
 31
0.0
  0
LINE
  5
4A3
330
1F
100
AcDbEntity
  8
2
100
AcDbLine
 10
2.000261871502345
 20
67.99999267210274
 30
0.0
 11
2.000261871502345
 21
25.99999237060524
 31
0.0
  0
LINE
  5
4A5
330
1F
100
AcDbEntity
  8
0
  6
DASHED
100
AcDbLine
 10
-43.99996948242204
 20
22.99999237060524
 30
0.0
 11
44.00001525878889
 21
22.99999237060365
 31
-0.0000000000000019
  0
LINE
  5
4AC
330
1F
100
AcDbEntity
  8
0
370
    -3
100
AcDbLine
 10
28.46727308016199
 20
234.2976682390158
 30
0.0
 11
31.96311024211048
 21
234.2976682390158
 31
0.0
  0
LINE
  5
4AD
330
1F
100
AcDbEntity
  8
1
100
AcDbLine
 10
-22.00021362304704
 20
252.3177912910489
 30
0.0
 11
-22.00021362304704
 21
293.7582924344285
 31
0.0
  0
LINE
  5
4AE
330
1F
100
AcDbEntity
  8
1
100
AcDbLine
 10
-4.220622310533144
 20
234.2976682390158
 30
0.0
 11
36.52392854145456
 21
234.2976682390158
 31
0.0
  0
LINE
  5
4AF
330
1F
100
AcDbEntity
  8
1
100
AcDbLine
 10
65.00015258789045
 20
11.50377262589427
 30
0.0
 11
65.00015258789045
 21
-1.999999999999772
 31
0.0
  0
VIEWPORT
  5
71
330
55
100
AcDbEntity
 67
     1
  8
0
100
AcDbViewport
 10
133.3499908447266
 20
101.5999970436096
 30
0.0
 40
381.3957395593835
 41
218.2856291881582
 68
     1
 69
     1
 12
133.3499908447266
 22
101.5999970436096
 13
0.0
 23
0.0
 14
10.0
 24
10.0
 15
10.0
 25
10.0
 16
0.0
 26
0.0
 36
1.0
 17
0.0
 27
0.0
 37
0.0
 42
50.0
 43
0.0
 44
0.0
 45
218.2856291881582
 50
0.0
 51
0.0
 72
   100
 90
    32800
  1

281
     0
 71
     1
 74
     0
110
0.0
120
0.0
130
0.0
111
1.0
121
0.0
131
0.0
112
0.0
122
1.0
132
0.0
 79
     0
146
0.0
170
     0
 61
     5
348
4D6
292
     1
282
     1
141
0.0
142
0.0
 63
   250
421
  3355443
  0
VIEWPORT
  5
73
330
55
100
AcDbEntity
 67
     1
  8
0
100
AcDbViewport
 10
133.3499939441681
 20
101.5999939441681
 30
0.0
 40
213.3599903106689
 41
162.5599903106689
 68
     2
 69
     2
 12
210.0
 22
148.5
 13
0.0
 23
0.0
 14
10.0
 24
10.0
 15
10.0
 25
10.0
 16
0.0
 26
0.0
 36
1.0
 17
0.0
 27
0.0
 37
0.0
 42
50.0
 43
0.0
 44
0.0
 45
324.0677920111345
 50
0.0
 51
0.0
 72
   100
 90
    32864
  1

281
     0
 71
     1
 74
     0
110
0.0
120
0.0
130
0.0
111
1.0
121
0.0
131
0.0
112
0.0
122
1.0
132
0.0
 79
     0
146
0.0
170
     0
 61
     5
348
4D6
292
     1
282
     1
141
0.0
142
0.0
 63
   250
421
  3355443
  0
ENDSEC
  0
SECTION
  2
OBJECTS
  0
DICTIONARY
  5
C
330
0
100
AcDbDictionary
281
     1
  3
ACAD_COLOR
350
4E4
  3
ACAD_GROUP
350
D
  3
ACAD_LAYOUT
350
1A
  3
ACAD_MATERIAL
350
4B7
  3
ACAD_MLEADERSTYLE
350
4F9
  3
ACAD_MLINESTYLE
350
17
  3
ACAD_PLOTSETTINGS
350
19
  3
ACAD_PLOTSTYLENAME
350
E
  3
ACAD_SCALELIST
350
4E7
  3
ACAD_TABLESTYLE
350
4E5
  3
ACAD_VISUALSTYLE
350
4D0
  3
ACDB_RECOMPOSE_DATA
350
508
  3
AcDbVariableDictionary
350
5E
  0
DICTIONARY
  5
98
330
2
100
AcDbDictionary
280
     1
281
     1
  3
ACAD_LAYERSTATES
360
99
  0
DICTIONARY
  5
4FD
330
10
100
AcDbDictionary
280
     1
281
     1
  3
ADSK_XREC_LAYER_RECONCILED
360
4FE
  0
DICTIONARY
  5
91
330
90
100
AcDbDictionary
280
     1
281
     1
  3
ADSK_XREC_LAYER_RECONCILED
360
92
  0
DICTIONARY
  5
94
330
93
100
AcDbDictionary
280
     1
281
     1
  3
ADSK_XREC_LAYER_RECONCILED
360
95
  0
DICTIONARY
  5
4E4
102
{ACAD_REACTORS
330
C
102
}
330
C
100
AcDbDictionary
281
     1
  0
DICTIONARY
  5
D
102
{ACAD_REACTORS
330
C
102
}
330
C
100
AcDbDictionary
281
     1
  0
DICTIONARY
  5
1A
102
{ACAD_REACTORS
330
C
102
}
330
C
100
AcDbDictionary
281
     1
  3
Model
350
22
  3
ﾚｲｱｳﾄ1
350
51
  3
ﾚｲｱｳﾄ2
350
56
  0
DICTIONARY
  5
4B7
102
{ACAD_REACTORS
330
C
102
}
330
C
100
AcDbDictionary
281
     1
  3
ByBlock
350
4C0
  3
ByLayer
350
4B8
  3
Global
350
4C8
  0
DICTIONARY
  5
4F9
102
{ACAD_REACTORS
330
C
102
}
330
C
100
AcDbDictionary
281
     1
  3
Standard
350
4FA
  0
DICTIONARY
  5
17
102
{ACAD_REACTORS
330
C
102
}
330
C
100
AcDbDictionary
281
     1
  3
Standard
350
18
  0
DICTIONARY
  5
19
102
{ACAD_REACTORS
330
C
102
}
330
C
100
AcDbDictionary
281
     1
  0
ACDBDICTIONARYWDFLT
  5
E
102
{ACAD_REACTORS
330
C
102
}
330
C
100
AcDbDictionary
281
     1
  3
Normal
350
F
100
AcDbDictionaryWithDefault
340
F
  0
DICTIONARY
  5
4E7
102
{ACAD_REACTORS
330
C
102
}
330
C
100
AcDbDictionary
281
     1
  3
A0
350
4E8
  3
A1
350
4E9
  3
A2
350
4EA
  3
A3
350
4EB
  3
A4
350
4EC
  3
A5
350
4ED
  3
A6
350
4EE
  3
A7
350
4EF
  3
A8
350
4F0
  3
A9
350
4F1
  3
B0
350
4F2
  3
B1
350
4F3
  3
B2
350
4F4
  3
B3
350
4F5
  3
B4
350
4F6
  3
B5
350
4F7
  3
B6
350
4F8
  0
DICTIONARY
  5
4E5
102
{ACAD_REACTORS
330
C
102
}
330
C
100
AcDbDictionary
281
     1
  3
Standard
350
4E6
  0
DICTIONARY
  5
4D0
102
{ACAD_REACTORS
330
C
102
}
330
C
100
AcDbDictionary
281
     1
  3
2dWireframe
350
4D6
  3
3D Hidden
350
4D8
  3
3dWireframe
350
4D7
  3
Basic
350
4D5
  3
Brighten
350
4DC
  3
ColorChange
350
4E0
  3
Conceptual
350
4D9
  3
Dim
350
4DB
  3
EdgeColorOff
350
4E3
  3
Facepattern
350
4DF
  3
Flat
350
4D1
  3
FlatWithEdges
350
4D2
  3
Gouraud
350
4D3
  3
GouraudWithEdges
350
4D4
  3
JitterOff
350
4E1
  3
Linepattern
350
4DE
  3
OverhangOff
350
4E2
  3
Realistic
350
4DA
  3
Thicken
350
4DD
  0
XRECORD
  5
508
102
{ACAD_REACTORS
330
C
102
}
330
C
100
AcDbXrecord
280
     1
 90
        1
330
4E6
  0
DICTIONARY
  5
5E
102
{ACAD_REACTORS
330
C
102
}
330
C
100
AcDbDictionary
281
     1
  3
CANNOSCALE
350
502
  3
CMLEADERSTYLE
350
500
  3
CTABLESTYLE
350
4FF
  3
DIMASSOC
350
5F
  3
HIDETEXT
350
63
  3
LAYEREVAL
350
504
  3
LAYERNOTIFY
350
505
  3
LIGHTINGUNITS
350
503
  3
MSLTSCALE
350
501
  0
DICTIONARY
  5
99
102
{ACAD_REACTORS
330
98
102
}
330
98
100
AcDbDictionary
281
     1
  0
XRECORD
  5
4FE
102
{ACAD_REACTORS
330
4FD
102
}
330
4FD
100
AcDbXrecord
280
     1
290
     1
  0
XRECORD
  5
92
102
{ACAD_REACTORS
330
91
102
}
330
91
100
AcDbXrecord
280
     1
290
     1
  0
XRECORD
  5
95
102
{ACAD_REACTORS
330
94
102
}
330
94
100
AcDbXrecord
280
     1
290
     1
  0
LAYOUT
  5
22
102
{ACAD_REACTORS
330
1A
102
}
330
1A
100
AcDbPlotSettings
  1

  2
none_device
  4
ANSI_A_(8.50_x_11.00_Inches)
  6

 40
6.349999904632568
 41
19.04999923706055
 42
6.350006103515625
 43
19.04998779296875
 44
215.8999938964844
 45
279.3999938964844
 46
0.0
 47
0.0
 48
0.0
 49
0.0
140
0.0
141
0.0
142
1.0
143
78.436453180766
 70
 11952
 72
     0
 73
     1
 74
     0
  7

 75
     0
147
0.0127491741332998
 76
     0
 77
     2
 78
   300
148
0.0
149
0.0
100
AcDbLayout
  1
Model
 70
     1
 71
     0
 10
0.0
 20
0.0
 11
12.0
 21
9.0
 12
0.0
 22
0.0
 32
0.0
 14
0.0
 24
0.0
 34
0.0
 15
0.0
 25
0.0
 35
0.0
146
0.0
 13
0.0
 23
0.0
 33
0.0
 16
1.0
 26
0.0
 36
0.0
 17
0.0
 27
1.0
 37
0.0
 76
     0
330
1F
331
4B5
  0
LAYOUT
  5
51
102
{ACAD_REACTORS
330
1A
102
}
330
1A
100
AcDbPlotSettings
  1

  2
none_device
  4
Letter_(8.50_x_11.00_Inches)
  6

 40
6.349999904632568
 41
6.349999904632568
 42
6.350006103515625
 43
6.350006103515625
 44
215.8999938964844
 45
279.3999938964844
 46
0.0
 47
0.0
 48
0.0
 49
0.0
140
0.0
141
0.0
142
1.0
143
1.0
 70
   688
 72
     1
 73
     1
 74
     5
  7

 75
    16
147
1.0
 76
     0
 77
     2
 78
   300
148
0.0
149
0.0
100
AcDbLayout
  1
ﾚｲｱｳﾄ1
 70
     1
 71
     1
 10
-6.350006103515625
 20
-6.349999904632568
 11
273.0499877929688
 21
209.5499939918518
 12
0.0
 22
0.0
 32
0.0
 14
26.66076962115563
 24
20.31135699206658
 34
-0.0015258207003583
 15
240.039213369355
 25
182.8886381005154
 35
0.0000000349246037
146
0.0
 13
0.0
 23
0.0
 33
0.0
 16
1.0
 26
0.0
 36
0.0
 17
0.0
 27
1.0
 37
0.0
 76
     0
330
50
331
6B
  0
LAYOUT
  5
56
102
{ACAD_REACTORS
330
1A
102
}
330
1A
100
AcDbPlotSettings
  1

  2
none_device
  4
Letter_(8.50_x_11.00_Inches)
  6

 40
6.349999904632568
 41
6.349999904632568
 42
6.350006103515625
 43
6.350006103515625
 44
215.8999938964844
 45
279.3999938964844
 46
0.0
 47
0.0
 48
0.0
 49
0.0
140
0.0
141
0.0
142
1.0
143
1.0
 70
   688
 72
     1
 73
     1
 74
     5
  7

 75
    16
147
1.0
 76
     0
 77
     2
 78
   300
148
0.0
149
0.0
100
AcDbLayout
  1
ﾚｲｱｳﾄ2
 70
     1
 71
     2
 10
-6.350006103515625
 20
-6.349999904632568
 11
273.0499877929688
 21
209.5499939918518
 12
0.0
 22
0.0
 32
0.0
 14
26.66076962115563
 24
20.31135699206658
 34
-0.0015258207003583
 15
240.039213369355
 25
182.8886381005154
 35
0.0000000349246037
146
0.0
 13
0.0
 23
0.0
 33
0.0
 16
1.0
 26
0.0
 36
0.0
 17
0.0
 27
1.0
 37
0.0
 76
     0
330
55
331
71
  0
MATERIAL
  5
4C0
102
{ACAD_XDICTIONARY
360
4C1
102
}
102
{ACAD_REACTORS
330
4B7
102
}
330
4B7
100
AcDbMaterial
  1
ByBlock
 72
     0
 43
0.0008202099737533
 43
0.0
 43
0.0
 43
0.0
 43
0.0
 43
0.0008202099737533
 43
0.0
 43
0.0
 43
0.0
 43
0.0
 43
1.0
 43
0.0
 43
0.0
 43
0.0
 43
0.0
 43
1.0
 77
     0
 47
0.0008202099737533
 47
0.0
 47
0.0
 47
0.0
 47
0.0
 47
0.0008202099737533
 47
0.0
 47
0.0
 47
0.0
 47
0.0
 47
1.0
 47
0.0
 47
0.0
 47
0.0
 47
0.0
 47
1.0
171
     0
 49
0.0008202099737533
 49
0.0
 49
0.0
 49
0.0
 49
0.0
 49
0.0008202099737533
 49
0.0
 49
0.0
 49
0.0
 49
0.0
 49
1.0
 49
0.0
 49
0.0
 49
0.0
 49
0.0
 49
1.0
175
     0
142
0.0008202099737533
142
0.0
142
0.0
142
0.0
142
0.0
142
0.0008202099737533
142
0.0
142
0.0
142
0.0
142
0.0
142
1.0
142
0.0
142
0.0
142
0.0
142
0.0
142
1.0
179
     0
144
0.0008202099737533
144
0.0
144
0.0
144
0.0
144
0.0
144
0.0008202099737533
144
0.0
144
0.0
144
0.0
144
0.0
144
1.0
144
0.0
144
0.0
144
0.0
144
0.0
144
1.0
147
0.0008202099737533
147
0.0
147
0.0
147
0.0
147
0.0
147
0.0008202099737533
147
0.0
147
0.0
147
0.0
147
0.0
147
1.0
147
0.0
147
0.0
147
0.0
147
0.0
147
1.0
  0
MATERIAL
  5
4B8
102
{ACAD_XDICTIONARY
360
4B9
102
}
102
{ACAD_REACTORS
330
4B7
102
}
330
4B7
100
AcDbMaterial
  1
ByLayer
 72
     0
 43
0.0008202099737533
 43
0.0
 43
0.0
 43
0.0
 43
0.0
 43
0.0008202099737533
 43
0.0
 43
0.0
 43
0.0
 43
0.0
 43
1.0
 43
0.0
 43
0.0
 43
0.0
 43
0.0
 43
1.0
 77
     0
 47
0.0008202099737533
 47
0.0
 47
0.0
 47
0.0
 47
0.0
 47
0.0008202099737533
 47
0.0
 47
0.0
 47
0.0
 47
0.0
 47
1.0
 47
0.0
 47
0.0
 47
0.0
 47
0.0
 47
1.0
171
     0
 49
0.0008202099737533
 49
0.0
 49
0.0
 49
0.0
 49
0.0
 49
0.0008202099737533
 49
0.0
 49
0.0
 49
0.0
 49
0.0
 49
1.0
 49
0.0
 49
0.0
 49
0.0
 49
0.0
 49
1.0
175
     0
142
0.0008202099737533
142
0.0
142
0.0
142
0.0
142
0.0
142
0.0008202099737533
142
0.0
142
0.0
142
0.0
142
0.0
142
1.0
142
0.0
142
0.0
142
0.0
142
0.0
142
1.0
179
     0
144
0.0008202099737533
144
0.0
144
0.0
144
0.0
144
0.0
144
0.0008202099737533
144
0.0
144
0.0
144
0.0
144
0.0
144
1.0
144
0.0
144
0.0
144
0.0
144
0.0
144
1.0
147
0.0008202099737533
147
0.0
147
0.0
147
0.0
147
0.0
147
0.0008202099737533
147
0.0
147
0.0
147
0.0
147
0.0
147
1.0
147
0.0
147
0.0
147
0.0
147
0.0
147
1.0
  0
MATERIAL
  5
4C8
102
{ACAD_XDICTIONARY
360
4C9
102
}
102
{ACAD_REACTORS
330
4B7
102
}
330
4B7
100
AcDbMaterial
  1
Global
 72
     0
 43
0.0008202099737533
 43
0.0
 43
0.0
 43
0.0
 43
0.0
 43
0.0008202099737533
 43
0.0
 43
0.0
 43
0.0
 43
0.0
 43
1.0
 43
0.0
 43
0.0
 43
0.0
 43
0.0
 43
1.0
 77
     0
 47
0.0008202099737533
 47
0.0
 47
0.0
 47
0.0
 47
0.0
 47
0.0008202099737533
 47
0.0
 47
0.0
 47
0.0
 47
0.0
 47
1.0
 47
0.0
 47
0.0
 47
0.0
 47
0.0
 47
1.0
171
     0
 49
0.0008202099737533
 49
0.0
 49
0.0
 49
0.0
 49
0.0
 49
0.0008202099737533
 49
0.0
 49
0.0
 49
0.0
 49
0.0
 49
1.0
 49
0.0
 49
0.0
 49
0.0
 49
0.0
 49
1.0
175
     0
142
0.0008202099737533
142
0.0
142
0.0
142
0.0
142
0.0
142
0.0008202099737533
142
0.0
142
0.0
142
0.0
142
0.0
142
1.0
142
0.0
142
0.0
142
0.0
142
0.0
142
1.0
179
     0
144
0.0008202099737533
144
0.0
144
0.0
144
0.0
144
0.0
144
0.0008202099737533
144
0.0
144
0.0
144
0.0
144
0.0
144
1.0
144
0.0
144
0.0
144
0.0
144
0.0
144
1.0
147
0.0008202099737533
147
0.0
147
0.0
147
0.0
147
0.0
147
0.0008202099737533
147
0.0
147
0.0
147
0.0
147
0.0
147
1.0
147
0.0
147
0.0
147
0.0
147
0.0
147
1.0
  0
MLEADERSTYLE
  5
4FA
102
{ACAD_REACTORS
330
4F9
102
}
330
4F9
100
AcDbMLeaderStyle
179
     2
170
     2
171
     1
172
     0
 90
        2
 40
0.0
 41
0.0
173
     1
 91
-1056964608
340
14
 92
       -2
290
     1
 42
2.0
291
     1
 43
0.36
  3
Standard
 44
4.0
300

342
11
174
     1
178
     6
175
     1
176
     0
 93
-1056964608
 45
4.0
292
     0
297
     0
 46
4.0
 94
-1056964608
 47
1.0
 49
1.0
140
1.0
293
     1
141
0.0
294
     1
177
     0
142
1.0
295
     1
296
     0
143
0.125
271
     0
272
     9
273
     9
  0
MLINESTYLE
  5
18
102
{ACAD_REACTORS
330
17
102
}
330
17
100
AcDbMlineStyle
  2
STANDARD
 70
     0
  3

 62
   256
 51
90.0
 52
90.0
 71
     2
 49
0.5
 62
   256
  6
BYLAYER
 49
-0.5
 62
   256
  6
BYLAYER
  0
ACDBPLACEHOLDER
  5
F
102
{ACAD_REACTORS
330
E
102
}
330
E
  0
SCALE
  5
4E8
102
{ACAD_REACTORS
330
4E7
102
}
330
4E7
100
AcDbScale
 70
     0
300
1:1
140
1.0
141
1.0
290
     1
  0
SCALE
  5
4E9
102
{ACAD_REACTORS
330
4E7
102
}
330
4E7
100
AcDbScale
 70
     0
300
1:2
140
1.0
141
2.0
290
     0
  0
SCALE
  5
4EA
102
{ACAD_REACTORS
330
4E7
102
}
330
4E7
100
AcDbScale
 70
     0
300
1:4
140
1.0
141
4.0
290
     0
  0
SCALE
  5
4EB
102
{ACAD_REACTORS
330
4E7
102
}
330
4E7
100
AcDbScale
 70
     0
300
1:5
140
1.0
141
5.0
290
     0
  0
SCALE
  5
4EC
102
{ACAD_REACTORS
330
4E7
102
}
330
4E7
100
AcDbScale
 70
     0
300
1:8
140
1.0
141
8.0
290
     0
  0
SCALE
  5
4ED
102
{ACAD_REACTORS
330
4E7
102
}
330
4E7
100
AcDbScale
 70
     0
300
1:10
140
1.0
141
10.0
290
     0
  0
SCALE
  5
4EE
102
{ACAD_REACTORS
330
4E7
102
}
330
4E7
100
AcDbScale
 70
     0
300
1:16
140
1.0
141
16.0
290
     0
  0
SCALE
  5
4EF
102
{ACAD_REACTORS
330
4E7
102
}
330
4E7
100
AcDbScale
 70
     0
300
1:20
140
1.0
141
20.0
290
     0
  0
SCALE
  5
4F0
102
{ACAD_REACTORS
330
4E7
102
}
330
4E7
100
AcDbScale
 70
     0
300
1:30
140
1.0
141
30.0
290
     0
  0
SCALE
  5
4F1
102
{ACAD_REACTORS
330
4E7
102
}
330
4E7
100
AcDbScale
 70
     0
300
1:40
140
1.0
141
40.0
290
     0
  0
SCALE
  5
4F2
102
{ACAD_REACTORS
330
4E7
102
}
330
4E7
100
AcDbScale
 70
     0
300
1:50
140
1.0
141
50.0
290
     0
  0
SCALE
  5
4F3
102
{ACAD_REACTORS
330
4E7
102
}
330
4E7
100
AcDbScale
 70
     0
300
1:100
140
1.0
141
100.0
290
     0
  0
SCALE
  5
4F4
102
{ACAD_REACTORS
330
4E7
102
}
330
4E7
100
AcDbScale
 70
     0
300
2:1
140
2.0
141
1.0
290
     0
  0
SCALE
  5
4F5
102
{ACAD_REACTORS
330
4E7
102
}
330
4E7
100
AcDbScale
 70
     0
300
4:1
140
4.0
141
1.0
290
     0
  0
SCALE
  5
4F6
102
{ACAD_REACTORS
330
4E7
102
}
330
4E7
100
AcDbScale
 70
     0
300
8:1
140
8.0
141
1.0
290
     0
  0
SCALE
  5
4F7
102
{ACAD_REACTORS
330
4E7
102
}
330
4E7
100
AcDbScale
 70
     0
300
10:1
140
10.0
141
1.0
290
     0
  0
SCALE
  5
4F8
102
{ACAD_REACTORS
330
4E7
102
}
330
4E7
100
AcDbScale
 70
     0
300
100:1
140
100.0
141
1.0
290
     0
  0
TABLESTYLE
  5
4E6
102
{ACAD_XDICTIONARY
360
506
102
}
102
{ACAD_REACTORS
330
4E5
102
}
330
4E5
100
AcDbTableStyle
280
     0
  3
Standard
 70
     0
 71
     0
 40
1.5
 41
1.5
280
     0
281
     0
  7
Standard
140
4.5
170
     2
 62
     0
 63
     7
283
     0
 90
      512
 91
        0
  1

274
    -2
284
     1
 64
     0
275
    -2
285
     1
 65
     0
276
    -2
286
     1
 66
     0
277
    -2
287
     1
 67
     0
278
    -2
288
     1
 68
     0
279
    -2
289
     1
 69
     0
  7
Standard
140
6.0
170
     5
 62
     0
 63
     7
283
     0
 90
      512
 91
        0
  1

274
    -2
284
     1
 64
     0
275
    -2
285
     1
 65
     0
276
    -2
286
     1
 66
     0
277
    -2
287
     1
 67
     0
278
    -2
288
     1
 68
     0
279
    -2
289
     1
 69
     0
  7
Standard
140
4.5
170
     5
 62
     0
 63
     7
283
     0
 90
      512
 91
        0
  1

274
    -2
284
     1
 64
     0
275
    -2
285
     1
 65
     0
276
    -2
286
     1
 66
     0
277
    -2
287
     1
 67
     0
278
    -2
288
     1
 68
     0
279
    -2
289
     1
 69
     0
  0
VISUALSTYLE
  5
4D6
102
{ACAD_REACTORS
330
4D0
102
}
330
4D0
100
AcDbVisualStyle
  2
2dWireframe
 70
     4
177
     2
291
     0
 71
     0
176
     1
 72
     2
176
     1
 73
     0
176
     1
 90
        0
176
     1
 40
0.6
176
     1
 41
30.0
176
     1
 63
     7
421
 16777215
176
     1
 74
     1
176
     1
 91
        4
176
     1
 64
     7
176
     1
 65
   257
176
     1
 75
     1
176
     1
175
     1
176
     1
 42
1.0
176
     1
 92
        0
176
     1
 66
   257
176
     1
 43
1.0
176
     1
 76
     1
176
     1
 77
     6
176
     1
 78
     2
176
     1
 67
     7
176
     1
 79
     5
176
     1
170
     0
176
     1
171
     0
176
     1
290
     0
176
     1
 93
        1
176
     1
 44
0.0
176
     1
173
     0
176
     1
  0
VISUALSTYLE
  5
4D8
102
{ACAD_REACTORS
330
4D0
102
}
330
4D0
100
AcDbVisualStyle
  2
3D Hidden
 70
     6
177
     2
291
     0
 71
     1
176
     1
 72
     2
176
     1
 73
     2
176
     1
 90
        0
176
     1
 40
0.6
176
     1
 41
30.0
176
     1
 63
     7
421
 16777215
176
     1
 74
     2
176
     1
 91
        2
176
     1
 64
     7
176
     1
 65
   257
176
     1
 75
     2
176
     1
175
     1
176
     1
 42
179.0
176
     1
 92
        0
176
     1
 66
   257
176
     1
 43
1.0
176
     1
 76
     1
176
     1
 77
     6
176
     1
 78
     2
176
     1
 67
     7
176
     1
 79
     3
176
     1
170
     0
176
     1
171
     0
176
     1
290
     0
176
     1
 93
        1
176
     1
 44
0.0
176
     1
173
     0
176
     1
  0
VISUALSTYLE
  5
4D7
102
{ACAD_REACTORS
330
4D0
102
}
330
4D0
100
AcDbVisualStyle
  2
3dWireframe
 70
     5
177
     2
291
     0
 71
     0
176
     1
 72
     2
176
     1
 73
     0
176
     1
 90
        0
176
     1
 40
0.6
176
     1
 41
30.0
176
     1
 63
     7
421
 16777215
176
     1
 74
     1
176
     1
 91
        4
176
     1
 64
     7
176
     1
 65
   257
176
     1
 75
     1
176
     1
175
     1
176
     1
 42
1.0
176
     1
 92
        0
176
     1
 66
   257
176
     1
 43
1.0
176
     1
 76
     1
176
     1
 77
     6
176
     1
 78
     2
176
     1
 67
     7
176
     1
 79
     5
176
     1
170
     0
176
     1
171
     0
176
     1
290
     0
176
     1
 93
        1
176
     1
 44
0.0
176
     1
173
     0
176
     1
  0
VISUALSTYLE
  5
4D5
102
{ACAD_REACTORS
330
4D0
102
}
330
4D0
100
AcDbVisualStyle
  2
Basic
 70
     7
177
     2
291
     1
 71
     1
176
     1
 72
     0
176
     1
 73
     1
176
     1
 90
        0
176
     1
 40
0.6
176
     1
 41
30.0
176
     1
 63
     7
421
 16777215
176
     1
 74
     0
176
     1
 91
        4
176
     1
 64
     7
176
     1
 65
   257
176
     1
 75
     1
176
     1
175
     1
176
     1
 42
1.0
176
     1
 92
        8
176
     1
 66
     7
176
     1
 43
1.0
176
     1
 76
     1
176
     1
 77
     6
176
     1
 78
     2
176
     1
 67
     7
176
     1
 79
     5
176
     1
170
     0
176
     1
171
     0
176
     1
290
     0
176
     1
 93
        1
176
     1
 44
0.0
176
     1
173
     0
176
     1
  0
VISUALSTYLE
  5
4DC
102
{ACAD_REACTORS
330
4D0
102
}
330
4D0
100
AcDbVisualStyle
  2
Brighten
 70
    12
177
     2
291
     1
 71
     2
176
     1
 72
     2
176
     1
 73
     0
176
     1
 90
        0
176
     1
 40
0.6
176
     1
 41
30.0
176
     1
 63
     7
421
 16777215
176
     1
 74
     1
176
     1
 91
        4
176
     1
 64
     7
176
     1
 65
   257
176
     1
 75
     1
176
     1
175
     1
176
     1
 42
1.0
176
     1
 92
        8
176
     1
 66
     7
176
     1
 43
1.0
176
     1
 76
     1
176
     1
 77
     6
176
     1
 78
     2
176
     1
 67
     7
176
     1
 79
     5
176
     1
170
     0
176
     1
171
     0
176
     1
290
     0
176
     1
 93
        1
176
     1
 44
50.0
176
     1
173
     0
176
     1
  0
VISUALSTYLE
  5
4E0
102
{ACAD_REACTORS
330
4D0
102
}
330
4D0
100
AcDbVisualStyle
  2
ColorChange
 70
    16
177
     2
291
     1
 71
     2
176
     1
 72
     2
176
     1
 73
     3
176
     1
 90
        0
176
     1
 40
0.6
176
     1
 41
30.0
176
     1
 63
     8
421
  8421504
176
     1
 74
     1
176
     1
 91
        4
176
     1
 64
     7
176
     1
 65
   257
176
     1
 75
     1
176
     1
175
     1
176
     1
 42
1.0
176
     1
 92
        8
176
     1
 66
     8
424
  8421504
176
     1
 43
1.0
176
     1
 76
     1
176
     1
 77
     6
176
     1
 78
     2
176
     1
 67
     7
176
     1
 79
     5
176
     1
170
     0
176
     1
171
     0
176
     1
290
     0
176
     1
 93
        1
176
     1
 44
0.0
176
     1
173
     0
176
     1
  0
VISUALSTYLE
  5
4D9
102
{ACAD_REACTORS
330
4D0
102
}
330
4D0
100
AcDbVisualStyle
  2
Conceptual
 70
     9
177
     2
291
     0
 71
     3
176
     1
 72
     2
176
     1
 73
     0
176
     1
 90
        0
176
     1
 40
0.6
176
     1
 41
30.0
176
     1
 63
     7
421
 16777215
176
     1
 74
     2
176
     1
 91
        2
176
     1
 64
     7
176
     1
 65
   257
176
     1
 75
     1
176
     1
175
     1
176
     1
 42
179.0
176
     1
 92
        8
176
     1
 66
     7
176
     1
 43
1.0
176
     1
 76
     1
176
     1
 77
     6
176
     1
 78
     2
176
     1
 67
     7
176
     1
 79
     3
176
     1
170
     0
176
     1
171
     0
176
     1
290
     0
176
     1
 93
        1
176
     1
 44
0.0
176
     1
173
     0
176
     1
  0
VISUALSTYLE
  5
4DB
102
{ACAD_REACTORS
330
4D0
102
}
330
4D0
100
AcDbVisualStyle
  2
Dim
 70
    11
177
     2
291
     1
 71
     2
176
     1
 72
     2
176
     1
 73
     0
176
     1
 90
        0
176
     1
 40
0.6
176
     1
 41
30.0
176
     1
 63
     7
421
 16777215
176
     1
 74
     1
176
     1
 91
        4
176
     1
 64
     7
176
     1
 65
   257
176
     1
 75
     1
176
     1
175
     1
176
     1
 42
1.0
176
     1
 92
        8
176
     1
 66
     7
176
     1
 43
1.0
176
     1
 76
     1
176
     1
 77
     6
176
     1
 78
     2
176
     1
 67
     7
176
     1
 79
     5
176
     1
170
     0
176
     1
171
     0
176
     1
290
     0
176
     1
 93
        1
176
     1
 44
-50.0
176
     1
173
     0
176
     1
  0
VISUALSTYLE
  5
4E3
102
{ACAD_REACTORS
330
4D0
102
}
330
4D0
100
AcDbVisualStyle
  2
EdgeColorOff
 70
    22
177
     2
291
     1
 71
     2
176
     0
 72
     2
176
     0
 73
     0
176
     0
 90
        0
176
     0
 40
0.6
176
     0
 41
30.0
176
     0
 63
     7
421
 16777215
176
     0
 74
     1
176
     0
 91
        4
176
     0
 64
     7
176
     0
 65
   257
176
     0
 75
     1
176
     0
175
     1
176
     0
 42
1.0
176
     0
 92
        8
176
     2
 66
     7
176
     0
 43
1.0
176
     0
 76
     1
176
     0
 77
     6
176
     0
 78
     2
176
     0
 67
     7
176
     0
 79
     5
176
     0
170
     0
176
     0
171
     0
176
     0
290
     0
176
     0
 93
        1
176
     0
 44
0.0
176
     0
173
     0
176
     0
  0
VISUALSTYLE
  5
4DF
102
{ACAD_REACTORS
330
4D0
102
}
330
4D0
100
AcDbVisualStyle
  2
Facepattern
 70
    15
177
     2
291
     1
 71
     2
176
     1
 72
     2
176
     1
 73
     0
176
     1
 90
        0
176
     1
 40
0.6
176
     1
 41
30.0
176
     1
 63
     7
421
 16777215
176
     1
 74
     1
176
     1
 91
        4
176
     1
 64
     7
176
     1
 65
   257
176
     1
 75
     1
176
     1
175
     1
176
     1
 42
1.0
176
     1
 92
        8
176
     1
 66
     7
176
     1
 43
1.0
176
     1
 76
     1
176
     1
 77
     6
176
     1
 78
     2
176
     1
 67
     7
176
     1
 79
     5
176
     1
170
     0
176
     1
171
     0
176
     1
290
     0
176
     1
 93
        1
176
     1
 44
0.0
176
     1
173
     0
176
     1
  0
VISUALSTYLE
  5
4D1
102
{ACAD_REACTORS
330
4D0
102
}
330
4D0
100
AcDbVisualStyle
  2
Flat
 70
     0
177
     2
291
     1
 71
     2
176
     1
 72
     1
176
     1
 73
     1
176
     1
 90
        2
176
     1
 40
0.6
176
     1
 41
30.0
176
     1
 63
     7
421
 16777215
176
     1
 74
     0
176
     1
 91
        4
176
     1
 64
     7
176
     1
 65
   257
176
     1
 75
     1
176
     1
175
     1
176
     1
 42
1.0
176
     1
 92
        8
176
     1
 66
     7
176
     1
 43
1.0
176
     1
 76
     1
176
     1
 77
     6
176
     1
 78
     2
176
     1
 67
     7
176
     1
 79
     5
176
     1
170
     0
176
     1
171
     0
176
     1
290
     0
176
     1
 93
       13
176
     1
 44
0.0
176
     1
173
     0
176
     1
  0
VISUALSTYLE
  5
4D2
102
{ACAD_REACTORS
330
4D0
102
}
330
4D0
100
AcDbVisualStyle
  2
FlatWithEdges
 70
     1
177
     2
291
     1
 71
     2
176
     1
 72
     1
176
     1
 73
     1
176
     1
 90
        2
176
     1
 40
0.6
176
     1
 41
30.0
176
     1
 63
     7
421
 16777215
176
     1
 74
     1
176
     1
 91
        4
176
     1
 64
     7
176
     1
 65
   257
176
     1
 75
     1
176
     1
175
     1
176
     1
 42
1.0
176
     1
 92
        0
176
     1
 66
   257
176
     1
 43
1.0
176
     1
 76
     1
176
     1
 77
     6
176
     1
 78
     2
176
     1
 67
     7
176
     1
 79
     5
176
     1
170
     0
176
     1
171
     0
176
     1
290
     0
176
     1
 93
       13
176
     1
 44
0.0
176
     1
173
     0
176
     1
  0
VISUALSTYLE
  5
4D3
102
{ACAD_REACTORS
330
4D0
102
}
330
4D0
100
AcDbVisualStyle
  2
Gouraud
 70
     2
177
     2
291
     1
 71
     2
176
     1
 72
     2
176
     1
 73
     1
176
     1
 90
        2
176
     1
 40
0.6
176
     1
 41
30.0
176
     1
 63
     7
421
 16777215
176
     1
 74
     0
176
     1
 91
        4
176
     1
 64
     7
176
     1
 65
   257
176
     1
 75
     1
176
     1
175
     1
176
     1
 42
1.0
176
     1
 92
        0
176
     1
 66
     7
176
     1
 43
1.0
176
     1
 76
     1
176
     1
 77
     6
176
     1
 78
     2
176
     1
 67
     7
176
     1
 79
     5
176
     1
170
     0
176
     1
171
     0
176
     1
290
     0
176
     1
 93
       13
176
     1
 44
0.0
176
     1
173
     0
176
     1
  0
VISUALSTYLE
  5
4D4
102
{ACAD_REACTORS
330
4D0
102
}
330
4D0
100
AcDbVisualStyle
  2
GouraudWithEdges
 70
     3
177
     2
291
     1
 71
     2
176
     1
 72
     2
176
     1
 73
     1
176
     1
 90
        2
176
     1
 40
0.6
176
     1
 41
30.0
176
     1
 63
     7
421
 16777215
176
     1
 74
     1
176
     1
 91
        4
176
     1
 64
     7
176
     1
 65
   257
176
     1
 75
     1
176
     1
175
     1
176
     1
 42
1.0
176
     1
 92
        0
176
     1
 66
   257
176
     1
 43
1.0
176
     1
 76
     1
176
     1
 77
     6
176
     1
 78
     2
176
     1
 67
     7
176
     1
 79
     5
176
     1
170
     0
176
     1
171
     0
176
     1
290
     0
176
     1
 93
       13
176
     1
 44
0.0
176
     1
173
     0
176
     1
  0
VISUALSTYLE
  5
4E1
102
{ACAD_REACTORS
330
4D0
102
}
330
4D0
100
AcDbVisualStyle
  2
JitterOff
 70
    20
177
     2
291
     1
 71
     2
176
     0
 72
     2
176
     0
 73
     0
176
     0
 90
        0
176
     0
 40
0.6
176
     0
 41
30.0
176
     0
 63
     7
421
 16777215
176
     0
 74
     1
176
     0
 91
        4
176
     0
 64
     7
176
     0
 65
   257
176
     0
 75
     1
176
     0
175
     1
176
     0
 42
1.0
176
     0
 92
       10
176
     2
 66
     7
176
     0
 43
1.0
176
     0
 76
     1
176
     0
 77
     6
176
     0
 78
     2
176
     0
 67
     7
176
     0
 79
     5
176
     0
170
     0
176
     0
171
     0
176
     0
290
     0
176
     0
 93
        1
176
     0
 44
0.0
176
     0
173
     0
176
     0
  0
VISUALSTYLE
  5
4DE
102
{ACAD_REACTORS
330
4D0
102
}
330
4D0
100
AcDbVisualStyle
  2
Linepattern
 70
    14
177
     2
291
     1
 71
     2
176
     1
 72
     2
176
     1
 73
     0
176
     1
 90
        0
176
     1
 40
0.6
176
     1
 41
30.0
176
     1
 63
     7
421
 16777215
176
     1
 74
     1
176
     1
 91
        4
176
     1
 64
     7
176
     1
 65
   257
176
     1
 75
     7
176
     1
175
     7
176
     1
 42
1.0
176
     1
 92
        8
176
     1
 66
     7
176
     1
 43
1.0
176
     1
 76
     1
176
     1
 77
     6
176
     1
 78
     2
176
     1
 67
     7
176
     1
 79
     5
176
     1
170
     0
176
     1
171
     0
176
     1
290
     0
176
     1
 93
        1
176
     1
 44
0.0
176
     1
173
     0
176
     1
  0
VISUALSTYLE
  5
4E2
102
{ACAD_REACTORS
330
4D0
102
}
330
4D0
100
AcDbVisualStyle
  2
OverhangOff
 70
    21
177
     2
291
     1
 71
     2
176
     0
 72
     2
176
     0
 73
     0
176
     0
 90
        0
176
     0
 40
0.6
176
     0
 41
30.0
176
     0
 63
     7
421
 16777215
176
     0
 74
     1
176
     0
 91
        4
176
     0
 64
     7
176
     0
 65
   257
176
     0
 75
     1
176
     0
175
     1
176
     0
 42
1.0
176
     0
 92
        9
176
     2
 66
     7
176
     0
 43
1.0
176
     0
 76
     1
176
     0
 77
     6
176
     0
 78
     2
176
     0
 67
     7
176
     0
 79
     5
176
     0
170
     0
176
     0
171
     0
176
     0
290
     0
176
     0
 93
        1
176
     0
 44
0.0
176
     0
173
     0
176
     0
  0
VISUALSTYLE
  5
4DA
102
{ACAD_REACTORS
330
4D0
102
}
330
4D0
100
AcDbVisualStyle
  2
Realistic
 70
     8
177
     2
291
     0
 71
     2
176
     1
 72
     2
176
     1
 73
     0
176
     1
 90
        0
176
     1
 40
0.6
176
     1
 41
30.0
176
     1
 63
     7
421
 16777215
176
     1
 74
     1
176
     1
 91
        0
176
     1
 64
     7
176
     1
 65
   257
176
     1
 75
     1
176
     1
175
     1
176
     1
 42
1.0
176
     1
 92
        8
176
     1
 66
     8
424
  7895160
176
     1
 43
1.0
176
     1
 76
     1
176
     1
 77
     6
176
     1
 78
     2
176
     1
 67
     7
176
     1
 79
     5
176
     1
170
     0
176
     1
171
     0
176
     1
290
     0
176
     1
 93
       13
176
     1
 44
0.0
176
     1
173
     0
176
     1
  0
VISUALSTYLE
  5
4DD
102
{ACAD_REACTORS
330
4D0
102
}
330
4D0
100
AcDbVisualStyle
  2
Thicken
 70
    13
177
     2
291
     1
 71
     2
176
     1
 72
     2
176
     1
 73
     0
176
     1
 90
        0
176
     1
 40
0.6
176
     1
 41
30.0
176
     1
 63
     7
421
 16777215
176
     1
 74
     1
176
     1
 91
        4
176
     1
 64
     7
176
     1
 65
   257
176
     1
 75
     1
176
     1
175
     1
176
     1
 42
1.0
176
     1
 92
       12
176
     1
 66
     7
176
     1
 43
1.0
176
     1
 76
     1
176
     1
 77
     6
176
     1
 78
     2
176
     1
 67
     7
176
     1
 79
     5
176
     1
170
     0
176
     1
171
     0
176
     1
290
     0
176
     1
 93
        1
176
     1
 44
0.0
176
     1
173
     0
176
     1
  0
DICTIONARYVAR
  5
502
102
{ACAD_REACTORS
330
5E
102
}
330
5E
100
DictionaryVariables
280
     0
  1
1:1
  0
DICTIONARYVAR
  5
500
102
{ACAD_REACTORS
330
5E
102
}
330
5E
100
DictionaryVariables
280
     0
  1
STANDARD
  0
DICTIONARYVAR
  5
4FF
102
{ACAD_REACTORS
330
5E
102
}
330
5E
100
DictionaryVariables
280
     0
  1
STANDARD
  0
DICTIONARYVAR
  5
5F
102
{ACAD_REACTORS
330
5E
102
}
330
5E
100
DictionaryVariables
280
     0
  1
2
  0
DICTIONARYVAR
  5
63
102
{ACAD_REACTORS
330
5E
102
}
330
5E
100
DictionaryVariables
280
     0
  1
1
  0
DICTIONARYVAR
  5
504
102
{ACAD_REACTORS
330
5E
102
}
330
5E
100
DictionaryVariables
280
     0
  1
1
  0
DICTIONARYVAR
  5
505
102
{ACAD_REACTORS
330
5E
102
}
330
5E
100
DictionaryVariables
280
     0
  1
15
  0
DICTIONARYVAR
  5
503
102
{ACAD_REACTORS
330
5E
102
}
330
5E
100
DictionaryVariables
280
     0
  1
0
  0
DICTIONARYVAR
  5
501
102
{ACAD_REACTORS
330
5E
102
}
330
5E
100
DictionaryVariables
280
     0
  1
0
  0
DICTIONARY
  5
4C1
330
4C0
100
AcDbDictionary
280
     1
281
     1
  3
BUMPTILE
360
4C3
  3
DIFFUSETILE
360
4C2
  3
OPACITYTILE
360
4C6
  3
REFLECTIONTILE
360
4C5
  3
REFRACTIONTILE
360
4C7
  3
SPECULARTILE
360
4C4
  0
DICTIONARY
  5
4B9
330
4B8
100
AcDbDictionary
280
     1
281
     1
  3
BUMPTILE
360
4BB
  3
DIFFUSETILE
360
4BA
  3
OPACITYTILE
360
4BE
  3
REFLECTIONTILE
360
4BD
  3
REFRACTIONTILE
360
4BF
  3
SPECULARTILE
360
4BC
  0
DICTIONARY
  5
4C9
330
4C8
100
AcDbDictionary
280
     1
281
     1
  3
BUMPTILE
360
4CB
  3
DIFFUSETILE
360
4CA
  3
OPACITYTILE
360
4CE
  3
REFLECTIONTILE
360
4CD
  3
REFRACTIONTILE
360
4CF
  3
SPECULARTILE
360
4CC
  0
DICTIONARY
  5
506
330
4E6
100
AcDbDictionary
280
     1
281
     1
  3
ACAD_ROUNDTRIP_2008_TABLESTYLE_CELLSTYLEMAP
360
507
  0
XRECORD
  5
4C3
102
{ACAD_REACTORS
330
4C1
102
}
330
4C1
100
AcDbXrecord
280
     1
270
     1
271
     1
  0
XRECORD
  5
4C2
102
{ACAD_REACTORS
330
4C1
102
}
330
4C1
100
AcDbXrecord
280
     1
270
     1
271
     1
  0
XRECORD
  5
4C6
102
{ACAD_REACTORS
330
4C1
102
}
330
4C1
100
AcDbXrecord
280
     1
270
     1
271
     1
  0
XRECORD
  5
4C5
102
{ACAD_REACTORS
330
4C1
102
}
330
4C1
100
AcDbXrecord
280
     1
270
     1
271
     1
  0
XRECORD
  5
4C7
102
{ACAD_REACTORS
330
4C1
102
}
330
4C1
100
AcDbXrecord
280
     1
270
     1
271
     1
  0
XRECORD
  5
4C4
102
{ACAD_REACTORS
330
4C1
102
}
330
4C1
100
AcDbXrecord
280
     1
270
     1
271
     1
  0
XRECORD
  5
4BB
102
{ACAD_REACTORS
330
4B9
102
}
330
4B9
100
AcDbXrecord
280
     1
270
     1
271
     1
  0
XRECORD
  5
4BA
102
{ACAD_REACTORS
330
4B9
102
}
330
4B9
100
AcDbXrecord
280
     1
270
     1
271
     1
  0
XRECORD
  5
4BE
102
{ACAD_REACTORS
330
4B9
102
}
330
4B9
100
AcDbXrecord
280
     1
270
     1
271
     1
  0
XRECORD
  5
4BD
102
{ACAD_REACTORS
330
4B9
102
}
330
4B9
100
AcDbXrecord
280
     1
270
     1
271
     1
  0
XRECORD
  5
4BF
102
{ACAD_REACTORS
330
4B9
102
}
330
4B9
100
AcDbXrecord
280
     1
270
     1
271
     1
  0
XRECORD
  5
4BC
102
{ACAD_REACTORS
330
4B9
102
}
330
4B9
100
AcDbXrecord
280
     1
270
     1
271
     1
  0
XRECORD
  5
4CB
102
{ACAD_REACTORS
330
4C9
102
}
330
4C9
100
AcDbXrecord
280
     1
270
     1
271
     1
  0
XRECORD
  5
4CA
102
{ACAD_REACTORS
330
4C9
102
}
330
4C9
100
AcDbXrecord
280
     1
270
     1
271
     1
  0
XRECORD
  5
4CE
102
{ACAD_REACTORS
330
4C9
102
}
330
4C9
100
AcDbXrecord
280
     1
270
     1
271
     1
  0
XRECORD
  5
4CD
102
{ACAD_REACTORS
330
4C9
102
}
330
4C9
100
AcDbXrecord
280
     1
270
     1
271
     1
  0
XRECORD
  5
4CF
102
{ACAD_REACTORS
330
4C9
102
}
330
4C9
100
AcDbXrecord
280
     1
270
     1
271
     1
  0
XRECORD
  5
4CC
102
{ACAD_REACTORS
330
4C9
102
}
330
4C9
100
AcDbXrecord
280
     1
270
     1
271
     1
  0
CELLSTYLEMAP
  5
507
102
{ACAD_REACTORS
330
506
102
}
330
506
100
AcDbCellStyleMap
 90
        3
300
CELLSTYLE
  1
TABLEFORMAT_BEGIN
 90
        5
170
     1
 91
        0
 92
    32768
 62
   257
 93
        1
300
CONTENTFORMAT
  1
CONTENTFORMAT_BEGIN
 90
        0
 91
        0
 92
      512
 93
        0
300

 40
0.0
140
1.0
 94
        5
 62
     0
340
11
144
6.0
309
CONTENTFORMAT_END
171
     1
301
MARGIN
  1
CELLMARGIN_BEGIN
 40
1.5
 40
1.5
 40
1.5
 40
1.5
 40
4.5
 40
4.5
309
CELLMARGIN_END
 94
        6
 95
        1
302
GRIDFORMAT
  1
GRIDFORMAT_BEGIN
 90
        0
 91
        1
 62
     0
 92
       -2
340
0
 93
        0
 40
1.125
309
GRIDFORMAT_END
 95
        2
302
GRIDFORMAT
  1
GRIDFORMAT_BEGIN
 90
        0
 91
        1
 62
     0
 92
       -2
340
0
 93
        0
 40
1.125
309
GRIDFORMAT_END
 95
        4
302
GRIDFORMAT
  1
GRIDFORMAT_BEGIN
 90
        0
 91
        1
 62
     0
 92
       -2
340
0
 93
        0
 40
1.125
309
GRIDFORMAT_END
 95
        8
302
GRIDFORMAT
  1
GRIDFORMAT_BEGIN
 90
        0
 91
        1
 62
     0
 92
       -2
340
0
 93
        0
 40
1.125
309
GRIDFORMAT_END
 95
       16
302
GRIDFORMAT
  1
GRIDFORMAT_BEGIN
 90
        0
 91
        1
 62
     0
 92
       -2
340
0
 93
        0
 40
1.125
309
GRIDFORMAT_END
 95
       32
302
GRIDFORMAT
  1
GRIDFORMAT_BEGIN
 90
        0
 91
        1
 62
     0
 92
       -2
340
0
 93
        0
 40
1.125
309
GRIDFORMAT_END
309
TABLEFORMAT_END
  1
CELLSTYLE_BEGIN
 90
        1
 91
        1
300
_TITLE
309
CELLSTYLE_END
300
CELLSTYLE
  1
TABLEFORMAT_BEGIN
 90
        5
170
     1
 91
        0
 92
        0
 62
   257
 93
        1
300
CONTENTFORMAT
  1
CONTENTFORMAT_BEGIN
 90
        0
 91
        0
 92
      512
 93
        0
300

 40
0.0
140
1.0
 94
        5
 62
     0
340
11
144
4.5
309
CONTENTFORMAT_END
171
     1
301
MARGIN
  1
CELLMARGIN_BEGIN
 40
1.5
 40
1.5
 40
1.5
 40
1.5
 40
4.5
 40
4.5
309
CELLMARGIN_END
 94
        6
 95
        1
302
GRIDFORMAT
  1
GRIDFORMAT_BEGIN
 90
        0
 91
        1
 62
     0
 92
       -2
340
0
 93
        0
 40
1.125
309
GRIDFORMAT_END
 95
        2
302
GRIDFORMAT
  1
GRIDFORMAT_BEGIN
 90
        0
 91
        1
 62
     0
 92
       -2
340
0
 93
        0
 40
1.125
309
GRIDFORMAT_END
 95
        4
302
GRIDFORMAT
  1
GRIDFORMAT_BEGIN
 90
        0
 91
        1
 62
     0
 92
       -2
340
0
 93
        0
 40
1.125
309
GRIDFORMAT_END
 95
        8
302
GRIDFORMAT
  1
GRIDFORMAT_BEGIN
 90
        0
 91
        1
 62
     0
 92
       -2
340
0
 93
        0
 40
1.125
309
GRIDFORMAT_END
 95
       16
302
GRIDFORMAT
  1
GRIDFORMAT_BEGIN
 90
        0
 91
        1
 62
     0
 92
       -2
340
0
 93
        0
 40
1.125
309
GRIDFORMAT_END
 95
       32
302
GRIDFORMAT
  1
GRIDFORMAT_BEGIN
 90
        0
 91
        1
 62
     0
 92
       -2
340
0
 93
        0
 40
1.125
309
GRIDFORMAT_END
309
TABLEFORMAT_END
  1
CELLSTYLE_BEGIN
 90
        2
 91
        1
300
_HEADER
309
CELLSTYLE_END
300
CELLSTYLE
  1
TABLEFORMAT_BEGIN
 90
        5
170
     1
 91
        0
 92
        0
 62
   257
 93
        1
300
CONTENTFORMAT
  1
CONTENTFORMAT_BEGIN
 90
        0
 91
        0
 92
      512
 93
        0
300

 40
0.0
140
1.0
 94
        2
 62
     0
340
11
144
4.5
309
CONTENTFORMAT_END
171
     1
301
MARGIN
  1
CELLMARGIN_BEGIN
 40
1.5
 40
1.5
 40
1.5
 40
1.5
 40
4.5
 40
4.5
309
CELLMARGIN_END
 94
        6
 95
        1
302
GRIDFORMAT
  1
GRIDFORMAT_BEGIN
 90
        0
 91
        1
 62
     0
 92
       -2
340
0
 93
        0
 40
1.125
309
GRIDFORMAT_END
 95
        2
302
GRIDFORMAT
  1
GRIDFORMAT_BEGIN
 90
        0
 91
        1
 62
     0
 92
       -2
340
0
 93
        0
 40
1.125
309
GRIDFORMAT_END
 95
        4
302
GRIDFORMAT
  1
GRIDFORMAT_BEGIN
 90
        0
 91
        1
 62
     0
 92
       -2
340
0
 93
        0
 40
1.125
309
GRIDFORMAT_END
 95
        8
302
GRIDFORMAT
  1
GRIDFORMAT_BEGIN
 90
        0
 91
        1
 62
     0
 92
       -2
340
0
 93
        0
 40
1.125
309
GRIDFORMAT_END
 95
       16
302
GRIDFORMAT
  1
GRIDFORMAT_BEGIN
 90
        0
 91
        1
 62
     0
 92
       -2
340
0
 93
        0
 40
1.125
309
GRIDFORMAT_END
 95
       32
302
GRIDFORMAT
  1
GRIDFORMAT_BEGIN
 90
        0
 91
        1
 62
     0
 92
       -2
340
0
 93
        0
 40
1.125
309
GRIDFORMAT_END
309
TABLEFORMAT_END
  1
CELLSTYLE_BEGIN
 90
        3
 91
        2
300
_DATA
309
CELLSTYLE_END
  0
ENDSEC
  0
EOF
