  0
SECTION
  2
HEADER
  9
$ACADVER
  1
AC1024
  9
$ACADMAINTVER
 70
     6
  9
$DWGCODEPAGE
  3
ANSI_932
  9
$LASTSAVEDBY
  1
kanatani
  9
$INSBASE
 10
0.0
 20
0.0
 30
0.0
  9
$EXTMIN
 10
-79.99993332673724
 20
-117.1277200000001
 30
0.0
  9
$EXTMAX
 10
166.4999756726263
 20
207.3740492064195
 30
0.0
  9
$LIMMIN
 10
0.0
 20
0.0
  9
$LIMMAX
 10
420.0
 20
297.0
  9
$ORTHOMODE
 70
     0
  9
$REGENMODE
 70
     1
  9
$FILLMODE
 70
     1
  9
$QTEXTMODE
 70
     0
  9
$MIRRTEXT
 70
     1
  9
$LTSCALE
 40
0.2
  9
$ATTMODE
 70
     1
  9
$TEXTSIZE
 40
2.5
  9
$TRACEWID
 40
1.0
  9
$TEXTSTYLE
  7
Standard
  9
$CLAYER
  8
0
  9
$CELTYPE
  6
ByLayer
  9
$CECOLOR
 62
   256
  9
$CELTSCALE
 40
1.0
  9
$DISPSILH
 70
     0
  9
$DIMSCALE
 40
1.0
  9
$DIMASZ
 40
2.5
  9
$DIMEXO
 40
0.625
  9
$DIMDLI
 40
3.75
  9
$DIMRND
 40
0.0
  9
$DIMDLE
 40
0.0
  9
$DIMEXE
 40
1.25
  9
$DIMTP
 40
0.0
  9
$DIMTM
 40
0.0
  9
$DIMTXT
 40
2.5
  9
$DIMCEN
 40
2.5
  9
$DIMTSZ
 40
0.0
  9
$DIMTOL
 70
     0
  9
$DIMLIM
 70
     0
  9
$DIMTIH
 70
     0
  9
$DIMTOH
 70
     0
  9
$DIMSE1
 70
     0
  9
$DIMSE2
 70
     0
  9
$DIMTAD
 70
     1
  9
$DIMZIN
 70
     8
  9
$DIMBLK
  1

  9
$DIMASO
 70
     1
  9
$DIMSHO
 70
     1
  9
$DIMPOST
  1

  9
$DIMAPOST
  1

  9
$DIMALT
 70
     0
  9
$DIMALTD
 70
     3
  9
$DIMALTF
 40
0.03937007874016
  9
$DIMLFAC
 40
1.0
  9
$DIMTOFL
 70
     1
  9
$DIMTVP
 40
0.0
  9
$DIMTIX
 70
     0
  9
$DIMSOXD
 70
     0
  9
$DIMSAH
 70
     0
  9
$DIMBLK1
  1

  9
$DIMBLK2
  1

  9
$DIMSTYLE
  2
ISO-25
  9
$DIMCLRD
 70
     0
  9
$DIMCLRE
 70
     0
  9
$DIMCLRT
 70
     0
  9
$DIMTFAC
 40
1.0
  9
$DIMGAP
 40
0.625
  9
$DIMJUST
 70
     0
  9
$DIMSD1
 70
     0
  9
$DIMSD2
 70
     0
  9
$DIMTOLJ
 70
     0
  9
$DIMTZIN
 70
     8
  9
$DIMALTZ
 70
     0
  9
$DIMALTTZ
 70
     0
  9
$DIMUPT
 70
     0
  9
$DIMDEC
 70
     2
  9
$DIMTDEC
 70
     2
  9
$DIMALTU
 70
     2
  9
$DIMALTTD
 70
     3
  9
$DIMTXSTY
  7
Standard
  9
$DIMAUNIT
 70
     0
  9
$DIMADEC
 70
     0
  9
$DIMALTRND
 40
0.0
  9
$DIMAZIN
 70
     0
  9
$DIMDSEP
 70
    44
  9
$DIMATFIT
 70
     3
  9
$DIMFRAC
 70
     0
  9
$DIMLDRBLK
  1

  9
$DIMLUNIT
 70
     2
  9
$DIMLWD
 70
    -2
  9
$DIMLWE
 70
    -2
  9
$DIMTMOVE
 70
     0
  9
$DIMFXL
 40
1.0
  9
$DIMFXLON
 70
     0
  9
$DIMJOGANG
 40
0.7853981633974483
  9
$DIMTFILL
 70
     0
  9
$DIMTFILLCLR
 70
     0
  9
$DIMARCSYM
 70
     0
  9
$DIMLTYPE
  6

  9
$DIMLTEX1
  6

  9
$DIMLTEX2
  6

  9
$DIMTXTDIRECTION
 70
     0
  9
$LUNITS
 70
     2
  9
$LUPREC
 70
     4
  9
$SKETCHINC
 40
1.0
  9
$FILLETRAD
 40
10.0
  9
$AUNITS
 70
     0
  9
$AUPREC
 70
     0
  9
$MENU
  1
.
  9
$ELEVATION
 40
0.0
  9
$PELEVATION
 40
0.0
  9
$THICKNESS
 40
0.0
  9
$LIMCHECK
 70
     0
  9
$CHAMFERA
 40
10.0
  9
$CHAMFERB
 40
10.0
  9
$CHAMFERC
 40
20.0
  9
$CHAMFERD
 40
0.0
  9
$SKPOLY
 70
     0
  9
$TDCREATE
 40
2456874.593217083
  9
$TDUCREATE
 40
2456874.218217083
  9
$TDUPDATE
 40
2456910.420540706
  9
$TDUUPDATE
 40
2456910.045540706
  9
$TDINDWG
 40
0.0011288773
  9
$TDUSRTIMER
 40
0.0011288657
  9
$USRTIMER
 70
     1
  9
$ANGBASE
 50
0.0
  9
$ANGDIR
 70
     0
  9
$PDMODE
 70
     0
  9
$PDSIZE
 40
0.0
  9
$PLINEWID
 40
0.0
  9
$SPLFRAME
 70
     0
  9
$SPLINETYPE
 70
     6
  9
$SPLINESEGS
 70
     8
  9
$HANDSEED
  5
492
  9
$SURFTAB1
 70
     6
  9
$SURFTAB2
 70
     6
  9
$SURFTYPE
 70
     6
  9
$SURFU
 70
     6
  9
$SURFV
 70
     6
  9
$UCSBASE
  2

  9
$UCSNAME
  2

  9
$UCSORG
 10
0.0
 20
0.0
 30
0.0
  9
$UCSXDIR
 10
1.0
 20
0.0
 30
0.0
  9
$UCSYDIR
 10
0.0
 20
1.0
 30
0.0
  9
$UCSORTHOREF
  2

  9
$UCSORTHOVIEW
 70
     0
  9
$UCSORGTOP
 10
0.0
 20
0.0
 30
0.0
  9
$UCSORGBOTTOM
 10
0.0
 20
0.0
 30
0.0
  9
$UCSORGLEFT
 10
0.0
 20
0.0
 30
0.0
  9
$UCSORGRIGHT
 10
0.0
 20
0.0
 30
0.0
  9
$UCSORGFRONT
 10
0.0
 20
0.0
 30
0.0
  9
$UCSORGBACK
 10
0.0
 20
0.0
 30
0.0
  9
$PUCSBASE
  2

  9
$PUCSNAME
  2

  9
$PUCSORG
 10
0.0
 20
0.0
 30
0.0
  9
$PUCSXDIR
 10
1.0
 20
0.0
 30
0.0
  9
$PUCSYDIR
 10
0.0
 20
1.0
 30
0.0
  9
$PUCSORTHOREF
  2

  9
$PUCSORTHOVIEW
 70
     0
  9
$PUCSORGTOP
 10
0.0
 20
0.0
 30
0.0
  9
$PUCSORGBOTTOM
 10
0.0
 20
0.0
 30
0.0
  9
$PUCSORGLEFT
 10
0.0
 20
0.0
 30
0.0
  9
$PUCSORGRIGHT
 10
0.0
 20
0.0
 30
0.0
  9
$PUCSORGFRONT
 10
0.0
 20
0.0
 30
0.0
  9
$PUCSORGBACK
 10
0.0
 20
0.0
 30
0.0
  9
$USERI1
 70
     0
  9
$USERI2
 70
     0
  9
$USERI3
 70
     0
  9
$USERI4
 70
     0
  9
$USERI5
 70
     0
  9
$USERR1
 40
0.0
  9
$USERR2
 40
0.0
  9
$USERR3
 40
0.0
  9
$USERR4
 40
0.0
  9
$USERR5
 40
0.0
  9
$WORLDVIEW
 70
     1
  9
$SHADEDGE
 70
     3
  9
$SHADEDIF
 70
    70
  9
$TILEMODE
 70
     1
  9
$MAXACTVP
 70
    64
  9
$PINSBASE
 10
0.0
 20
0.0
 30
0.0
  9
$PLIMCHECK
 70
     0
  9
$PEXTMIN
 10
26.66076962115563
 20
20.31135699206658
 30
-0.0015258207003583
  9
$PEXTMAX
 10
240.039213369355
 20
182.8886381005154
 30
0.0000000349246037
  9
$PLIMMIN
 10
-6.350006103515625
 20
-6.349999904632568
  9
$PLIMMAX
 10
273.0499877929688
 20
209.5499939918518
  9
$UNITMODE
 70
     0
  9
$VISRETAIN
 70
     1
  9
$PLINEGEN
 70
     0
  9
$PSLTSCALE
 70
     1
  9
$TREEDEPTH
 70
  3020
  9
$CMLSTYLE
  2
Standard
  9
$CMLJUST
 70
     0
  9
$CMLSCALE
 40
20.0
  9
$PROXYGRAPHICS
 70
     1
  9
$MEASUREMENT
 70
     1
  9
$CELWEIGHT
370
    -1
  9
$ENDCAPS
280
     0
  9
$JOINSTYLE
280
     0
  9
$LWDISPLAY
290
     0
  9
$INSUNITS
 70
     4
  9
$HYPERLINKBASE
  1

  9
$STYLESHEET
  1

  9
$XEDIT
290
     1
  9
$CEPSNTYPE
380
     0
  9
$PSTYLEMODE
290
     1
  9
$FINGERPRINTGUID
  2
{FDEAD578-A652-11D2-9A35-0060089B3A3F}
  9
$VERSIONGUID
  2
{37C2927F-8BBC-49ED-93A5-ACF982287C48}
  9
$EXTNAMES
290
     1
  9
$PSVPSCALE
 40
0.0
  9
$OLESTARTUP
290
     0
  9
$SORTENTS
280
   127
  9
$INDEXCTL
280
     0
  9
$HIDETEXT
280
     1
  9
$XCLIPFRAME
280
     2
  9
$HALOGAP
280
     0
  9
$OBSCOLOR
 70
   257
  9
$OBSLTYPE
280
     0
  9
$INTERSECTIONDISPLAY
280
     0
  9
$INTERSECTIONCOLOR
 70
   257
  9
$DIMASSOC
280
     2
  9
$PROJECTNAME
  1

  9
$CAMERADISPLAY
290
     0
  9
$LENSLENGTH
 40
50.0
  9
$CAMERAHEIGHT
 40
0.0
  9
$STEPSPERSEC
 40
2.0
  9
$STEPSIZE
 40
6.0
  9
$3DDWFPREC
 40
2.0
  9
$PSOLWIDTH
 40
0.25
  9
$PSOLHEIGHT
 40
4.0
  9
$LOFTANG1
 40
1.570796326794896
  9
$LOFTANG2
 40
1.570796326794896
  9
$LOFTMAG1
 40
0.0
  9
$LOFTMAG2
 40
0.0
  9
$LOFTPARAM
 70
     7
  9
$LOFTNORMALS
280
     1
  9
$LATITUDE
 40
37.795
  9
$LONGITUDE
 40
-122.394
  9
$NORTHDIRECTION
 40
0.0
  9
$TIMEZONE
 70
 -8000
  9
$LIGHTGLYPHDISPLAY
280
     1
  9
$TILEMODELIGHTSYNCH
280
     1
  9
$CMATERIAL
347
441
  9
$SOLIDHIST
280
     1
  9
$SHOWHIST
280
     1
  9
$DWFFRAME
280
     2
  9
$DGNFRAME
280
     0
  9
$REALWORLDSCALE
290
     1
  9
$INTERFERECOLOR
 62
     1
  9
$INTERFEREOBJVS
345
463
  9
$INTERFEREVPVS
346
460
  9
$CSHADOW
280
     0
  9
$SHADOWPLANELOCATION
 40
0.0
  0
ENDSEC
  0
SECTION
  2
CLASSES
  0
CLASS
  1
ACDBDICTIONARYWDFLT
  2
AcDbDictionaryWithDefault
  3
ObjectDBX Classes
 90
        0
 91
        1
280
     0
281
     0
  0
CLASS
  1
DICTIONARYVAR
  2
AcDbDictionaryVar
  3
ObjectDBX Classes
 90
        0
 91
        9
280
     0
281
     0
  0
CLASS
  1
MATERIAL
  2
AcDbMaterial
  3
ObjectDBX Classes
 90
     1153
 91
        3
280
     0
281
     0
  0
CLASS
  1
VISUALSTYLE
  2
AcDbVisualStyle
  3
ObjectDBX Classes
 90
     4095
 91
       19
280
     0
281
     0
  0
CLASS
  1
TABLESTYLE
  2
AcDbTableStyle
  3
ObjectDBX Classes
 90
     4095
 91
        1
280
     0
281
     0
  0
CLASS
  1
SCALE
  2
AcDbScale
  3
ObjectDBX Classes
 90
     1153
 91
       17
280
     0
281
     0
  0
CLASS
  1
MLEADERSTYLE
  2
AcDbMLeaderStyle
  3
ACDB_MLEADERSTYLE_CLASS
 90
     4095
 91
        1
280
     0
281
     0
  0
CLASS
  1
CELLSTYLEMAP
  2
AcDbCellStyleMap
  3
ObjectDBX Classes
 90
     1152
 91
        1
280
     0
281
     0
  0
ENDSEC
  0
SECTION
  2
TABLES
  0
TABLE
  2
VPORT
  5
8
330
0
100
AcDbSymbolTable
 70
     1
  0
VPORT
  5
43E
330
8
100
AcDbSymbolTableRecord
100
AcDbViewportTableRecord
  2
*Active
 70
     0
 10
0.0
 20
0.0
 11
1.0
 21
1.0
 12
43.25667397808518
 22
53.57621574890699
 13
0.0
 23
0.0
 14
10.0
 24
10.0
 15
10.0
 25
10.0
 16
0.0
 26
0.0
 36
1.0
 17
0.0
 27
0.0
 37
0.0
 40
343.5081542013681
 41
1.857142857142857
 42
50.0
 43
0.0
 44
0.0
 50
0.0
 51
0.0
 71
     0
 72
   100
 73
     1
 74
     3
 75
     0
 76
     0
 77
     0
 78
     0
281
     0
 65
     1
110
0.0
120
0.0
130
0.0
111
1.0
121
0.0
131
0.0
112
0.0
122
1.0
132
0.0
 79
     0
146
0.0
348
45F
 60
     3
 61
     5
292
     1
282
     1
141
0.0
142
0.0
 63
   250
421
  3355443
  0
ENDTAB
  0
TABLE
  2
LTYPE
  5
5
330
0
100
AcDbSymbolTable
 70
     3
  0
LTYPE
  5
14
330
5
100
AcDbSymbolTableRecord
100
AcDbLinetypeTableRecord
  2
ByBlock
 70
     0
  3

 72
    65
 73
     0
 40
0.0
  0
LTYPE
  5
15
330
5
100
AcDbSymbolTableRecord
100
AcDbLinetypeTableRecord
  2
ByLayer
 70
     0
  3

 72
    65
 73
     0
 40
0.0
  0
LTYPE
  5
16
330
5
100
AcDbSymbolTableRecord
100
AcDbLinetypeTableRecord
  2
Continuous
 70
     0
  3
Solid line
 72
    65
 73
     0
 40
0.0
  0
LTYPE
  5
8D
330
5
100
AcDbSymbolTableRecord
100
AcDbLinetypeTableRecord
  2
CENTER
 70
     0
  3
Center ____ _ ____ _ ____ _ ____ _ ____ _ ____
 72
    65
 73
     4
 40
50.8
 49
31.75
 74
     0
 49
-6.349999999999999
 74
     0
 49
6.349999999999999
 74
     0
 49
-6.349999999999999
 74
     0
  0
LTYPE
  5
8E
330
5
100
AcDbSymbolTableRecord
100
AcDbLinetypeTableRecord
  2
PHANTOM
 70
     0
  3
Phantom ______  __  __  ______  __  __  ______
 72
    65
 73
     6
 40
63.5
 49
31.75
 74
     0
 49
-6.349999999999999
 74
     0
 49
6.349999999999999
 74
     0
 49
-6.349999999999999
 74
     0
 49
6.349999999999999
 74
     0
 49
-6.349999999999999
 74
     0
  0
ENDTAB
  0
TABLE
  2
LAYER
  5
2
102
{ACAD_XDICTIONARY
360
97
102
}
330
0
100
AcDbSymbolTable
 70
     3
  0
LAYER
  5
10
102
{ACAD_XDICTIONARY
360
486
102
}
330
2
100
AcDbSymbolTableRecord
100
AcDbLayerTableRecord
  2
0
 70
     0
 62
     7
  6
Continuous
370
    -3
390
F
347
451
  0
LAYER
  5
8F
102
{ACAD_XDICTIONARY
360
90
102
}
330
2
100
AcDbSymbolTableRecord
100
AcDbLayerTableRecord
  2
2
 70
     0
 62
     2
  6
PHANTOM
370
    -3
390
F
347
451
1001
AcAecLayerStandard
1000

1000

1001
ACCMTRANSPARENCY
1071
        0
  0
LAYER
  5
92
102
{ACAD_XDICTIONARY
360
93
102
}
330
2
100
AcDbSymbolTableRecord
100
AcDbLayerTableRecord
  2
1
 70
     0
 62
     5
  6
CENTER
370
    -3
390
F
347
451
1001
AcAecLayerStandard
1000

1000

1001
ACCMTRANSPARENCY
1071
        0
  0
ENDTAB
  0
TABLE
  2
STYLE
  5
3
330
0
100
AcDbSymbolTable
 70
     1
  0
STYLE
  5
11
330
3
100
AcDbSymbolTableRecord
100
AcDbTextStyleTableRecord
  2
Standard
 70
     0
 40
0.0
 41
1.0
 50
0.0
 71
     0
 42
2.5
  3
txt
  4

  0
ENDTAB
  0
TABLE
  2
VIEW
  5
6
330
0
100
AcDbSymbolTable
 70
     0
  0
ENDTAB
  0
TABLE
  2
UCS
  5
7
330
0
100
AcDbSymbolTable
 70
     0
  0
ENDTAB
  0
TABLE
  2
APPID
  5
9
330
0
100
AcDbSymbolTable
 70
     3
  0
APPID
  5
12
330
9
100
AcDbSymbolTableRecord
100
AcDbRegAppTableRecord
  2
ACAD
 70
     0
  0
APPID
  5
95
330
9
100
AcDbSymbolTableRecord
100
AcDbRegAppTableRecord
  2
AcAecLayerStandard
 70
     0
  0
APPID
  5
96
330
9
100
AcDbSymbolTableRecord
100
AcDbRegAppTableRecord
  2
ACCMTRANSPARENCY
 70
     0
  0
ENDTAB
  0
TABLE
  2
DIMSTYLE
  5
A
330
0
100
AcDbSymbolTable
 70
     1
100
AcDbDimStyleTable
 71
     0
  0
DIMSTYLE
105
27
330
A
100
AcDbSymbolTableRecord
100
AcDbDimStyleTableRecord
  2
ISO-25
 70
     0
 41
2.5
 42
0.625
 43
3.75
 44
1.25
 73
     0
 74
     0
 77
     1
 78
     8
140
2.5
141
2.5
143
0.03937007874016
147
0.625
171
     3
172
     1
271
     2
272
     2
274
     3
278
    44
283
     0
284
     8
340
11
  0
ENDTAB
  0
TABLE
  2
BLOCK_RECORD
  5
1
330
0
100
AcDbSymbolTable
 70
     1
  0
BLOCK_RECORD
  5
1F
330
1
100
AcDbSymbolTableRecord
100
AcDbBlockTableRecord
  2
*Model_Space
340
22
 70
     0
280
     1
281
     0
  0
BLOCK_RECORD
  5
55
330
1
100
AcDbSymbolTableRecord
100
AcDbBlockTableRecord
  2
*Paper_Space
340
56
 70
     0
280
     1
281
     0
  0
BLOCK_RECORD
  5
50
330
1
100
AcDbSymbolTableRecord
100
AcDbBlockTableRecord
  2
*Paper_Space0
340
51
 70
     0
280
     1
281
     0
  0
ENDTAB
  0
ENDSEC
  0
SECTION
  2
BLOCKS
  0
BLOCK
  5
20
330
1F
100
AcDbEntity
  8
0
100
AcDbBlockBegin
  2
*Model_Space
 70
     0
 10
0.0
 20
0.0
 30
0.0
  3
*Model_Space
  1

  0
ENDBLK
  5
21
330
1F
100
AcDbEntity
  8
0
100
AcDbBlockEnd
  0
BLOCK
  5
57
330
55
100
AcDbEntity
 67
     1
  8
0
100
AcDbBlockBegin
  2
*Paper_Space
 70
     0
 10
0.0
 20
0.0
 30
0.0
  3
*Paper_Space
  1

  0
ENDBLK
  5
58
330
55
100
AcDbEntity
 67
     1
  8
0
100
AcDbBlockEnd
  0
BLOCK
  5
52
330
50
100
AcDbEntity
 67
     1
  8
0
100
AcDbBlockBegin
  2
*Paper_Space0
 70
     0
 10
0.0
 20
0.0
 30
0.0
  3
*Paper_Space0
  1

  0
VIEWPORT
  5
6B
330
50
100
AcDbEntity
 67
     1
  8
0
100
AcDbViewport
 10
133.3499908447266
 20
101.5999970436096
 30
0.0
 40
381.3957395593835
 41
218.2856291881582
 68
     0
 69
     0
 12
133.3499908447266
 22
101.5999970436096
 13
0.0
 23
0.0
 14
10.0
 24
10.0
 15
10.0
 25
10.0
 16
0.0
 26
0.0
 36
1.0
 17
0.0
 27
0.0
 37
0.0
 42
50.0
 43
0.0
 44
0.0
 45
218.2856291881582
 50
0.0
 51
0.0
 72
   100
 90
    32800
  1

281
     0
 71
     1
 74
     0
110
0.0
120
0.0
130
0.0
111
1.0
121
0.0
131
0.0
112
0.0
122
1.0
132
0.0
 79
     0
146
0.0
170
     0
 61
     5
348
45F
292
     1
282
     1
141
0.0
142
0.0
 63
   250
421
  3355443
  0
VIEWPORT
  5
6D
330
50
100
AcDbEntity
 67
     1
  8
0
100
AcDbViewport
 10
133.3499939441681
 20
101.5999939441681
 30
0.0
 40
213.3599903106689
 41
162.5599903106689
 68
     0
 69
     0
 12
210.0
 22
148.5
 13
0.0
 23
0.0
 14
10.0
 24
10.0
 15
10.0
 25
10.0
 16
0.0
 26
0.0
 36
1.0
 17
0.0
 27
0.0
 37
0.0
 42
50.0
 43
0.0
 44
0.0
 45
324.0677920111345
 50
0.0
 51
0.0
 72
   100
 90
    32864
  1

281
     0
 71
     1
 74
     0
110
0.0
120
0.0
130
0.0
111
1.0
121
0.0
131
0.0
112
0.0
122
1.0
132
0.0
 79
     0
146
0.0
170
     0
 61
     5
348
45F
292
     1
282
     1
141
0.0
142
0.0
 63
   250
421
  3355443
  0
ENDBLK
  5
53
330
50
100
AcDbEntity
 67
     1
  8
0
100
AcDbBlockEnd
  0
ENDSEC
  0
SECTION
  2
ENTITIES
  0
LINE
  5
26B
330
1F
100
AcDbEntity
  8
0
100
AcDbLine
 10
131.1999938227066
 20
120.8161582064191
 30
0.0
 11
131.1999938227066
 21
198.8161582064191
 31
0.0
  0
ARC
  5
26C
330
1F
100
AcDbEntity
  8
0
100
AcDbCircle
 10
128.1999938227066
 20
198.8161582064191
 30
0.0
 40
3.0
100
AcDbArc
 50
0.0
 51
90.0
  0
LINE
  5
26D
330
1F
100
AcDbEntity
  8
1
100
AcDbLine
 10
138.578938343858
 20
159.81600520642
 30
0.0
 11
-71.90389190748709
 21
159.8160052064202
 31
0.0
  0
LINE
  5
26E
330
1F
100
AcDbEntity
  8
0
100
AcDbLine
 10
-0.1139253472944688
 20
117.8161582064191
 30
0.0
 11
128.1999938227066
 21
117.8161582064191
 31
0.0
  0
ARC
  5
26F
330
1F
100
AcDbEntity
  8
0
100
AcDbCircle
 10
128.1999938227066
 20
120.8161582064191
 30
0.0
 40
3.0
100
AcDbArc
 50
270.0
 51
0.0
  0
LINE
  5
270
330
1F
100
AcDbEntity
  8
0
100
AcDbLine
 10
-0.0000061772940967
 20
201.8161582064191
 30
0.0
 11
128.1999938227066
 21
201.8161582064191
 31
0.0
  0
LINE
  5
271
330
1F
100
AcDbEntity
  8
1
100
AcDbLine
 10
-23.80000917729256
 20
192.9126827064217
 30
0.0
 11
-23.80000917729256
 21
174.3190137064199
 31
0.0
  0
LINE
  5
272
330
1F
100
AcDbEntity
  8
1
100
AcDbLine
 10
-33.18913717729237
 20
183.6158482064208
 30
0.0
 11
-14.41088117729276
 21
183.6158482064207
 31
0.0
  0
LINE
  5
273
330
1F
100
AcDbEntity
  8
1
100
AcDbLine
 10
-23.80000917729256
 20
135.6260042064192
 30
0.0
 11
-23.80000917729256
 21
126.9414442064196
 31
0.0
  0
LINE
  5
274
330
1F
100
AcDbEntity
  8
1
100
AcDbLine
 10
-32.90808717729368
 20
136.015849206419
 30
0.0
 11
-27.77375217729121
 21
136.015849206419
 31
0.0
  0
LINE
  5
275
330
1F
100
AcDbEntity
  8
0
100
AcDbLine
 10
31.3055474140329
 20
183.6158482064207
 30
0.0
 11
27.55277382270771
 21
190.1158482064189
 31
0.0
  0
LINE
  5
276
330
1F
100
AcDbEntity
  8
0
100
AcDbLine
 10
27.55277382270771
 20
190.1158482064189
 30
0.0
 11
20.0472198227065
 21
190.1158482064189
 31
0.0
  0
LINE
  5
277
330
1F
100
AcDbEntity
  8
0
100
AcDbLine
 10
-20.04723217729469
 20
129.5158492064207
 30
0.0
 11
-27.55278617729408
 21
129.5158492064208
 31
0.0
  0
LINE
  5
278
330
1F
100
AcDbEntity
  8
0
100
AcDbLine
 10
18.65757282270653
 20
187.7089092064185
 30
0.0
 11
20.0472198227065
 21
190.11584620642
 31
0.0
  0
LINE
  5
279
330
1F
100
AcDbEntity
  8
0
100
AcDbLine
 10
20.04722182270717
 20
177.1158482064189
 30
0.0
 11
19.15907982270738
 21
178.6541552064214
 31
0.0
  0
LINE
  5
27A
330
1F
100
AcDbEntity
  8
0
100
AcDbLine
 10
27.55277382270566
 20
177.1158482064189
 30
0.0
 11
24.67017282270655
 21
177.1158482064189
 31
0.0
  0
LINE
  5
27B
330
1F
100
AcDbEntity
  8
0
100
AcDbLine
 10
27.55277382270953
 20
142.5158492064207
 30
0.0
 11
20.0472198227065
 21
142.5158492064207
 31
0.0
  0
LINE
  5
27C
330
1F
100
AcDbEntity
  8
0
100
AcDbLine
 10
16.29444482270747
 20
136.0158492064189
 30
0.0
 11
20.04722182270717
 21
142.5158492064207
 31
0.0
  0
LINE
  5
27D
330
1F
100
AcDbEntity
  8
0
100
AcDbLine
 10
20.0472198227065
 20
129.5158512064196
 30
0.0
 11
16.2944428227068
 21
136.0158492064189
 31
0.0
  0
LINE
  5
27E
330
1F
100
AcDbEntity
  8
0
100
AcDbLine
 10
27.55277382270771
 20
129.5158492064207
 30
0.0
 11
20.0472198227065
 21
129.5158492064207
 31
0.0
  0
LINE
  5
27F
330
1F
100
AcDbEntity
  8
0
100
AcDbLine
 10
-31.3055611772931
 20
136.0158512064215
 30
0.0
 11
-27.95966217729318
 21
141.8111182064192
 31
0.0
  0
LINE
  5
280
330
1F
100
AcDbEntity
  8
0
100
AcDbLine
 10
-16.29445717729385
 20
183.6158482064207
 30
0.0
 11
-20.04723417729355
 21
177.1158482064189
 31
0.0
  0
LINE
  5
281
330
1F
100
AcDbEntity
  8
0
100
AcDbLine
 10
-27.55278617729408
 20
129.5158492064208
 30
0.0
 11
-31.30556317729196
 21
136.015849206419
 31
0.0
  0
LINE
  5
282
330
1F
100
AcDbEntity
  8
0
100
AcDbLine
 10
-16.29445517729317
 20
183.6158482064207
 30
0.0
 11
-20.04723217729469
 21
190.11584620642
 31
0.0
  0
LINE
  5
283
330
1F
100
AcDbEntity
  8
0
100
AcDbLine
 10
-16.79280717729369
 20
135.1526812064208
 30
0.0
 11
-20.04723217729469
 21
129.5158512064196
 31
0.0
  0
LINE
  5
284
330
1F
100
AcDbEntity
  8
0
100
AcDbLine
 10
-31.30556317729196
 20
183.6158482064208
 30
0.0
 11
-27.55278617729408
 21
190.115848206419
 31
0.0
  0
LINE
  5
285
330
1F
100
AcDbEntity
  8
0
100
AcDbLine
 10
-20.04723217729469
 20
190.1158482064189
 30
0.0
 11
-27.55278617729408
 21
190.115848206419
 31
0.0
  0
LINE
  5
286
330
1F
100
AcDbEntity
  8
0
100
AcDbLine
 10
-27.55278617729408
 20
177.115848206419
 30
0.0
 11
-31.3055611772931
 21
183.6158462064202
 31
0.0
  0
LINE
  5
287
330
1F
100
AcDbEntity
  8
0
100
AcDbLine
 10
-20.04723217729469
 20
177.1158482064189
 30
0.0
 11
-27.55278617729408
 21
177.115848206419
 31
0.0
  0
LINE
  5
288
330
1F
100
AcDbEntity
  8
2
100
AcDbLine
 10
24.69995567262623
 20
169.8161582064209
 30
0.0
 11
61.79996567262634
 21
169.8161582064209
 31
0.0
  0
LINE
  5
289
330
1F
100
AcDbEntity
  8
2
100
AcDbLine
 10
24.69995567262623
 20
193.8161582064209
 30
0.0
 11
61.79996567262634
 21
193.8161582064209
 31
0.0
  0
LINE
  5
28A
330
1F
100
AcDbEntity
  8
2
100
AcDbLine
 10
166.4999756726263
 20
194.8161582064191
 30
0.0
 11
129.4999756726263
 21
194.8161582064191
 31
0.0
  0
LINE
  5
28B
330
1F
100
AcDbEntity
  8
2
100
AcDbLine
 10
61.79996567262634
 20
161.8161578064197
 30
0.0
 11
129.4999756726263
 21
161.8161578064197
 31
0.0
  0
LINE
  5
28C
330
1F
100
AcDbEntity
  8
2
100
AcDbLine
 10
61.79996567262634
 20
201.8161582064191
 30
0.0
 11
129.4999756726263
 21
201.8161582064191
 31
0.0
  0
LINE
  5
28D
330
1F
100
AcDbEntity
  8
1
100
AcDbLine
 10
-0.0000061772940967
 20
207.3740492064195
 30
0.0
 11
-0.0000061772940967
 21
114.1875262064192
 31
0.0
  0
LINE
  5
28E
330
1F
100
AcDbEntity
  8
2
100
AcDbLine
 10
166.4999756726263
 20
168.8161578064197
 30
0.0
 11
129.4999756726263
 21
168.8161578064197
 31
0.0
  0
ARC
  5
28F
330
1F
100
AcDbEntity
  8
0
100
AcDbCircle
 10
-23.80000917729256
 20
136.0158492064189
 30
0.0
 40
7.699999799999998
100
AcDbArc
 50
25.48976999999985
 51
38.25929000000702
  0
ARC
  5
290
330
1F
100
AcDbEntity
  8
0
100
AcDbCircle
 10
23.79999682270801
 20
183.6158482064207
 30
0.0
 40
6.5
100
AcDbArc
 50
229.1399769999789
 51
241.5148409999997
  0
ARC
  5
291
330
1F
100
AcDbEntity
  8
0
100
AcDbCircle
 10
-23.80000917729256
 20
136.0158492064189
 30
0.0
 40
7.699999799999998
100
AcDbArc
 50
121.9689200000004
 51
7.327719999995339
  0
CIRCLE
  5
292
330
1F
100
AcDbEntity
  8
0
100
AcDbCircle
 10
23.79999682270801
 20
136.0158492064189
 30
0.0
 40
7.699999799999998
  0
CIRCLE
  5
293
330
1F
100
AcDbEntity
  8
0
100
AcDbCircle
 10
-23.80000917729256
 20
183.6158482064207
 30
0.0
 40
7.699999799999998
  0
ARC
  5
294
330
1F
100
AcDbEntity
  8
0
100
AcDbCircle
 10
23.79999682270801
 20
183.6158482064207
 30
0.0
 40
7.699999799999998
100
AcDbArc
 50
259.5835607455343
 51
147.9133299999964
  0
ARC
  5
295
330
1F
100
AcDbEntity
  8
0
100
AcDbCircle
 10
23.79999682270801
 20
136.0158492064189
 30
0.0
 40
6.5
100
AcDbArc
 50
96.45122000000462
 51
83.52662921077103
  0
ARC
  5
296
330
1F
100
AcDbEntity
  8
0
100
AcDbCircle
 10
-23.80000917729256
 20
136.0158492064189
 30
0.0
 40
6.5
100
AcDbArc
 50
128.3543800000076
 51
350.9784099999831
  0
ARC
  5
297
330
1F
100
AcDbEntity
  8
0
100
AcDbCircle
 10
23.79999682270801
 20
183.6158482064207
 30
0.0
 40
6.5
100
AcDbArc
 50
277.9584656267923
 51
142.4527300000048
  0
CIRCLE
  5
298
330
1F
100
AcDbEntity
  8
0
100
AcDbCircle
 10
-23.80000917729256
 20
183.6158482064207
 30
0.0
 40
6.5
  0
ARC
  5
299
330
1F
100
AcDbEntity
  8
0
100
AcDbCircle
 10
-0.0000061772940967
 20
159.81600520642
 30
0.0
 40
42.0
100
AcDbArc
 50
89.9999970000023
 51
269.8446000000072
  0
LINE
  5
29A
330
1F
100
AcDbEntity
  8
0
100
AcDbLine
 10
-15.0001587651829
 20
159.81600520642
 30
0.0
 11
-15.0001587651829
 21
151.3162493064216
 31
0.0
  0
LINE
  5
29B
330
1F
100
AcDbEntity
  8
0
100
AcDbLine
 10
-12.41274976518315
 20
151.3939223064195
 30
0.0
 11
-1.087818165183023
 21
144.8554702064199
 31
0.0
  0
LINE
  5
29C
330
1F
100
AcDbEntity
  8
0
100
AcDbLine
 10
-13.5001587651829
 20
166.3545794064199
 30
0.0
 11
-13.5001587651829
 21
153.2779193064185
 31
0.0
  0
LINE
  5
29D
330
1F
100
AcDbEntity
  8
0
100
AcDbLine
 10
-12.41243776518303
 20
168.2379813064204
 30
0.0
 11
-1.087718465184195
 21
174.7763122064194
 31
0.0
  0
LINE
  5
29E
330
1F
100
AcDbEntity
  8
0
100
AcDbLine
 10
14.99984123481709
 20
187.589751206419
 30
0.0
 11
14.99984123481709
 21
159.81600520642
 31
0.0
  0
LINE
  5
29F
330
1F
100
AcDbEntity
  8
0
100
AcDbLine
 10
-0.0001587651829027
 20
174.81600520642
 30
0.0
 11
8.499841234817097
 21
174.81600520642
 31
0.0
  0
LINE
  5
2A0
330
1F
100
AcDbEntity
  8
0
100
AcDbLine
 10
1.087243234816298
 20
174.7765942064185
 30
0.0
 11
12.41217423481731
 21
168.2381425064201
 31
0.0
  0
LINE
  5
2A1
330
1F
100
AcDbEntity
  8
0
100
AcDbLine
 10
13.4998412348171
 20
153.2779193064185
 30
0.0
 11
13.4998412348171
 21
166.3545794064199
 31
0.0
  0
LINE
  5
2A2
330
1F
100
AcDbEntity
  8
0
100
AcDbLine
 10
1.087438834815941
 20
144.8555092064204
 30
0.0
 11
12.41215823481553
 21
151.3938393064187
 31
0.0
  0
LINE
  5
2A3
330
1F
100
AcDbEntity
  8
0
100
AcDbLine
 10
8.999841234817097
 20
186.8160052064201
 30
0.0
 11
14.99984123481709
 21
186.8160052064201
 31
0.0
  0
LINE
  5
2A4
330
1F
100
AcDbEntity
  8
0
100
AcDbLine
 10
8.999841234817097
 20
186.8160052064201
 30
0.0
 11
8.999841234817097
 21
175.3160052064219
 31
0.0
  0
LINE
  5
2A5
330
1F
100
AcDbEntity
  8
0
100
AcDbLine
 10
-27.77391276518273
 20
144.8160052064201
 30
0.0
 11
-0.0001587651829027
 21
144.8160052064201
 31
0.0
  0
LINE
  5
2A6
330
1F
100
AcDbEntity
  8
0
100
AcDbLine
 10
-27.00016676518379
 20
150.81600520642
 30
0.0
 11
-15.5001587651829
 21
150.81600520642
 31
0.0
  0
LINE
  5
2A7
330
1F
100
AcDbEntity
  8
1
100
AcDbLine
 10
-22.00041076518454
 20
153.8004398064209
 30
0.0
 11
-22.00041076518454
 21
133.3811752064199
 31
0.0
  0
LINE
  5
2A8
330
1F
100
AcDbEntity
  8
0
100
AcDbLine
 10
-27.00016676518379
 20
144.8160052064201
 30
0.0
 11
-27.00016676518379
 21
150.81600520642
 31
0.0
  0
LINE
  5
2A9
330
1F
100
AcDbEntity
  8
0
100
AcDbLine
 10
-17.67028276518312
 20
135.1160542064195
 30
0.0
 11
-26.33053776518381
 21
135.1160542064195
 31
0.0
  0
LINE
  5
2AA
330
1F
100
AcDbEntity
  8
0
100
AcDbLine
 10
-16.22690776518237
 20
135.6203722064189
 30
0.0
 11
-16.22690776518237
 21
139.1160542064195
 31
0.0
  0
LINE
  5
2AB
330
1F
100
AcDbEntity
  8
0
100
AcDbLine
 10
-27.77391276518273
 20
135.620372206419
 30
0.0
 11
-27.77391276518273
 21
139.1160542064197
 31
0.0
  0
LINE
  5
2AC
330
1F
100
AcDbEntity
  8
0
100
AcDbLine
 10
-19.11365976518272
 20
135.6203722064189
 30
0.0
 11
-19.11365976518272
 21
139.1160542064195
 31
0.0
  0
LINE
  5
2AD
330
1F
100
AcDbEntity
  8
0
100
AcDbLine
 10
-24.88716176518273
 20
135.6203722064189
 30
0.0
 11
-24.88716176518273
 21
139.1160542064195
 31
0.0
  0
LINE
  5
2AE
330
1F
100
AcDbEntity
  8
0
100
AcDbLine
 10
-16.22690776518237
 20
139.1160542064195
 30
0.0
 11
-27.77391276518273
 21
139.1160542064197
 31
0.0
  0
LINE
  5
2AF
330
1F
100
AcDbEntity
  8
0
100
AcDbLine
 10
20.69979823481782
 20
187.589751206419
 30
0.0
 11
20.69979823481782
 21
176.0427472064208
 31
0.0
  0
LINE
  5
2B0
330
1F
100
AcDbEntity
  8
0
100
AcDbLine
 10
24.19548223481553
 20
178.929498206419
 30
0.0
 11
20.69979823481782
 21
178.929498206419
 31
0.0
  0
LINE
  5
2B1
330
1F
100
AcDbEntity
  8
0
100
AcDbLine
 10
24.19548223481553
 20
184.7030002064208
 30
0.0
 11
20.69979823481782
 21
184.7030002064208
 31
0.0
  0
LINE
  5
2B2
330
1F
100
AcDbEntity
  8
0
100
AcDbLine
 10
24.19548223481553
 20
176.0427472064208
 30
0.0
 11
20.69979823481782
 21
176.0427472064208
 31
0.0
  0
LINE
  5
2B3
330
1F
100
AcDbEntity
  8
0
100
AcDbLine
 10
24.19548223481553
 20
187.589751206419
 30
0.0
 11
20.69979823481782
 21
187.589751206419
 31
0.0
  0
LINE
  5
2B4
330
1F
100
AcDbEntity
  8
0
100
AcDbLine
 10
24.699798234816
 20
186.1463772064186
 30
0.0
 11
24.699798234816
 21
177.4861212064212
 31
0.0
  0
LINE
  5
2B5
330
1F
100
AcDbEntity
  8
0
100
AcDbLine
 10
-20.00041076518272
 20
154.1160550064202
 30
0.0
 11
-24.00041076518272
 21
154.1160550064202
 31
0.0
  0
LINE
  5
2B6
330
1F
100
AcDbEntity
  8
0
100
AcDbLine
 10
-19.00041076518454
 20
139.1160542064195
 30
0.0
 11
-19.00041076518454
 21
140.8160052064201
 31
0.0
  0
LINE
  5
2B7
330
1F
100
AcDbEntity
  8
0
100
AcDbLine
 10
-25.00041076518454
 20
139.1160542064195
 30
0.0
 11
-25.00041076518454
 21
140.8160052064201
 31
0.0
  0
LINE
  5
2B8
330
1F
100
AcDbEntity
  8
0
100
AcDbLine
 10
-19.00041076518454
 20
153.1160550064202
 30
0.0
 11
-25.00041076518454
 21
153.1160550064202
 31
0.0
  0
LINE
  5
2B9
330
1F
100
AcDbEntity
  8
0
100
AcDbLine
 10
-25.00041076518454
 20
153.1160540064198
 30
0.0
 11
-24.00040876518386
 21
154.1160555064204
 31
0.0
  0
LINE
  5
2BA
330
1F
100
AcDbEntity
  8
0
100
AcDbLine
 10
-19.00041076518454
 20
153.1160550064202
 30
0.0
 11
-20.00041076518272
 21
154.1160555064204
 31
0.0
  0
LINE
  5
2BB
330
1F
100
AcDbEntity
  8
0
100
AcDbLine
 10
-19.60041076518308
 20
139.1160542064195
 30
0.0
 11
-19.60041076518308
 21
140.8160052064201
 31
0.0
  0
LINE
  5
2BC
330
1F
100
AcDbEntity
  8
0
100
AcDbLine
 10
-24.40040976518384
 20
139.1160542064195
 30
0.0
 11
-24.40040976518384
 21
140.8160052064201
 31
0.0
  0
LINE
  5
2BD
330
1F
100
AcDbEntity
  8
0
100
AcDbLine
 10
-19.00041076518454
 20
150.81600520642
 30
0.0
 11
-19.00041076518454
 21
153.1160550064202
 31
0.0
  0
LINE
  5
2BE
330
1F
100
AcDbEntity
  8
0
100
AcDbLine
 10
-19.60041076518308
 20
150.81600520642
 30
0.0
 11
-19.60041076518308
 21
153.7160558064194
 31
0.0
  0
LINE
  5
2BF
330
1F
100
AcDbEntity
  8
0
100
AcDbLine
 10
-24.40040976518384
 20
150.81600520642
 30
0.0
 11
-24.40040976518384
 21
153.7160554064199
 31
0.0
  0
LINE
  5
2C0
330
1F
100
AcDbEntity
  8
0
100
AcDbLine
 10
-25.00041076518454
 20
150.81600520642
 30
0.0
 11
-25.00041076518454
 21
153.11605450642
 31
0.0
  0
LINE
  5
2C1
330
1F
100
AcDbEntity
  8
0
100
AcDbLine
 10
-24.88716176518273
 20
141.3203212064187
 30
0.0
 11
-24.88716176518273
 21
144.8160052064201
 31
0.0
  0
LINE
  5
2C2
330
1F
100
AcDbEntity
  8
0
100
AcDbLine
 10
-19.11365976518272
 20
141.3203212064187
 30
0.0
 11
-19.11365976518272
 21
144.8160052064201
 31
0.0
  0
LINE
  5
2C3
330
1F
100
AcDbEntity
  8
0
100
AcDbLine
 10
-27.77391276518273
 20
141.3203212064188
 30
0.0
 11
-27.77391276518273
 21
144.8160052064201
 31
0.0
  0
LINE
  5
2C4
330
1F
100
AcDbEntity
  8
0
100
AcDbLine
 10
-16.22690776518237
 20
141.3203212064187
 30
0.0
 11
-16.22690776518237
 21
144.8160052064201
 31
0.0
  0
LINE
  5
2C5
330
1F
100
AcDbEntity
  8
0
100
AcDbLine
 10
-17.67028276518312
 20
140.8160052064201
 30
0.0
 11
-26.33053776518381
 21
140.8160052064201
 31
0.0
  0
LINE
  5
2C6
330
1F
100
AcDbEntity
  8
0
100
AcDbLine
 10
6.699798134817058
 20
184.8162512064215
 30
0.0
 11
5.699797134816719
 21
183.816249206419
 31
0.0
  0
LINE
  5
2C7
330
1F
100
AcDbEntity
  8
0
100
AcDbLine
 10
18.9998412348171
 20
186.1463772064186
 30
0.0
 11
18.9998412348171
 21
177.4861212064212
 31
0.0
  0
LINE
  5
2C8
330
1F
100
AcDbEntity
  8
0
100
AcDbLine
 10
8.999841234817097
 20
184.8162492064208
 30
0.0
 11
6.699798134817058
 21
184.8162492064208
 31
0.0
  0
LINE
  5
2C9
330
1F
100
AcDbEntity
  8
0
100
AcDbLine
 10
8.999841234817097
 20
184.2162492064186
 30
0.0
 11
6.099797734815467
 21
184.2162492064186
 31
0.0
  0
LINE
  5
2CA
330
1F
100
AcDbEntity
  8
0
100
AcDbLine
 10
18.49552523481662
 20
178.929498206419
 30
0.0
 11
14.99984123481709
 21
178.929498206419
 31
0.0
  0
LINE
  5
2CB
330
1F
100
AcDbEntity
  8
0
100
AcDbLine
 10
18.49552523481662
 20
187.589751206419
 30
0.0
 11
14.99984123481709
 21
187.589751206419
 31
0.0
  0
LINE
  5
2CC
330
1F
100
AcDbEntity
  8
0
100
AcDbLine
 10
18.49552523481662
 20
176.0427472064208
 30
0.0
 11
14.99984123481709
 21
176.0427472064208
 31
0.0
  0
LINE
  5
2CD
330
1F
100
AcDbEntity
  8
0
100
AcDbLine
 10
18.49552523481662
 20
184.7030002064208
 30
0.0
 11
14.99984123481709
 21
184.7030002064208
 31
0.0
  0
LINE
  5
2CE
330
1F
100
AcDbEntity
  8
0
100
AcDbLine
 10
8.999841234817097
 20
179.4162502064197
 30
0.0
 11
6.099797734815467
 21
179.4162502064197
 31
0.0
  0
LINE
  5
2CF
330
1F
100
AcDbEntity
  8
0
100
AcDbLine
 10
20.69979823481782
 20
179.4162502064197
 30
0.0
 11
18.9998412348171
 21
179.4162502064197
 31
0.0
  0
LINE
  5
2D0
330
1F
100
AcDbEntity
  8
0
100
AcDbLine
 10
20.69979823481782
 20
184.2162492064186
 30
0.0
 11
18.9998412348171
 21
184.2162492064186
 31
0.0
  0
ARC
  5
2D1
330
1F
100
AcDbEntity
  8
0
100
AcDbCircle
 10
16.6821842348175
 20
186.1463772064186
 30
0.0
 40
2.317657899999999
100
AcDbArc
 50
321.4810399999996
 51
38.51895799999461
  0
LINE
  5
2D2
330
1F
100
AcDbEntity
  8
0
100
AcDbLine
 10
6.699798134817058
 20
178.8162492064208
 30
0.0
 11
5.699797634816889
 21
179.816249206419
 31
0.0
  0
LINE
  5
2D3
330
1F
100
AcDbEntity
  8
0
100
AcDbLine
 10
6.699798134817058
 20
184.8162492064208
 30
0.0
 11
6.699798134817058
 21
178.8162492064208
 31
0.0
  0
LINE
  5
2D4
330
1F
100
AcDbEntity
  8
0
100
AcDbLine
 10
20.69979823481782
 20
178.8162492064208
 30
0.0
 11
18.9998412348171
 21
178.8162492064208
 31
0.0
  0
LINE
  5
2D5
330
1F
100
AcDbEntity
  8
0
100
AcDbLine
 10
20.69979823481782
 20
184.8162492064208
 30
0.0
 11
18.9998412348171
 21
184.8162492064208
 31
0.0
  0
LINE
  5
2D6
330
1F
100
AcDbEntity
  8
0
100
AcDbLine
 10
5.699798134817058
 20
183.816249206419
 30
0.0
 11
5.699798134817058
 21
179.816249206419
 31
0.0
  0
LINE
  5
2D7
330
1F
100
AcDbEntity
  8
0
100
AcDbLine
 10
8.999841234817097
 20
178.8162492064208
 30
0.0
 11
6.699798634817227
 21
178.8162492064208
 31
0.0
  0
ARC
  5
2D8
330
1F
100
AcDbEntity
  8
0
100
AcDbCircle
 10
23.79999723481825
 20
183.6160082064203
 30
0.0
 40
7.699999799999998
100
AcDbArc
 50
231.7407099999964
 51
246.2572603472285
  0
CIRCLE
  5
2D9
330
1F
100
AcDbEntity
  8
0
100
AcDbCircle
 10
-0.0001587651829027
 20
159.81600520642
 30
0.0
 40
7.5
  0
ARC
  5
2DA
330
1F
100
AcDbEntity
  8
0
100
AcDbCircle
 10
16.6821842348175
 20
177.4861212064212
 30
0.0
 40
2.317657899999999
100
AcDbArc
 50
321.4810399999996
 51
38.51895799999461
  0
ARC
  5
2DB
330
1F
100
AcDbEntity
  8
0
100
AcDbCircle
 10
10.485685234816
 20
181.8162492064208
 30
0.0
 40
8.514156299999999
100
AcDbArc
 50
340.1808100000056
 51
19.81919300002141
  0
ARC
  5
2DC
330
1F
100
AcDbEntity
  8
0
100
AcDbCircle
 10
-26.33053776518381
 20
143.1336622064196
 30
0.0
 40
2.317657899999999
100
AcDbArc
 50
231.4810799999964
 51
308.5189200000036
  0
ARC
  5
2DD
330
1F
100
AcDbEntity
  8
0
100
AcDbCircle
 10
-17.67028276518312
 20
143.1336622064196
 30
0.0
 40
2.317657899999999
100
AcDbArc
 50
231.4810799999964
 51
308.5189200000036
  0
ARC
  5
2DE
330
1F
100
AcDbEntity
  8
0
100
AcDbCircle
 10
-22.00041076518454
 20
149.3301612064193
 30
0.0
 40
8.514156299999999
100
AcDbArc
 50
250.1808100000056
 51
289.8191899999944
  0
ARC
  5
2DF
330
1F
100
AcDbEntity
  8
0
100
AcDbCircle
 10
-17.67028276518312
 20
137.4337132064198
 30
0.0
 40
2.317657899999999
100
AcDbArc
 50
231.4810799999964
 51
308.5189200000036
  0
ARC
  5
2E0
330
1F
100
AcDbEntity
  8
0
100
AcDbCircle
 10
22.38214023481788
 20
177.4861212064212
 30
0.0
 40
2.317657899999999
100
AcDbArc
 50
321.4810399999996
 51
38.51895799999461
  0
ARC
  5
2E1
330
1F
100
AcDbEntity
  8
0
100
AcDbCircle
 10
16.18564223481672
 20
181.8162492064208
 30
0.0
 40
8.514156299999999
100
AcDbArc
 50
340.1808100000056
 51
19.81919300002141
  0
ARC
  5
2E2
330
1F
100
AcDbEntity
  8
0
100
AcDbCircle
 10
22.38214023481788
 20
186.1463772064186
 30
0.0
 40
2.317657899999999
100
AcDbArc
 50
321.4810399999996
 51
38.51895799999461
  0
ARC
  5
2E3
330
1F
100
AcDbEntity
  8
0
100
AcDbCircle
 10
-22.00041076518454
 20
143.6302102064206
 30
0.0
 40
8.514156299999999
100
AcDbArc
 50
250.1808100000056
 51
289.8191899999944
  0
ARC
  5
2E4
330
1F
100
AcDbEntity
  8
0
100
AcDbCircle
 10
-15.5001587651829
 20
151.3162493064216
 30
0.0
 40
0.5
100
AcDbArc
 50
270.0
 51
0.0
  0
ARC
  5
2E5
330
1F
100
AcDbEntity
  8
0
100
AcDbCircle
 10
-26.33053776518381
 20
137.4337132064198
 30
0.0
 40
2.317657899999999
100
AcDbArc
 50
231.4810799999964
 51
308.5189200000036
  0
ARC
  5
2E6
330
1F
100
AcDbEntity
  8
0
100
AcDbCircle
 10
8.499841234817097
 20
175.3160052064219
 30
0.0
 40
0.5
100
AcDbArc
 50
270.0
 51
0.0
  0
ARC
  5
2E7
330
1F
100
AcDbEntity
  8
0
100
AcDbCircle
 10
-0.0000061772940967
 20
159.81600520642
 30
0.0
 40
17.5
100
AcDbArc
 50
61.86937699999113
 51
206.2357099999963
  0
CIRCLE
  5
2E8
330
1F
100
AcDbEntity
  8
0
100
AcDbCircle
 10
-0.0001587651829027
 20
159.81600520642
 30
0.0
 40
15.0
  0
ARC
  5
2E9
330
1F
100
AcDbEntity
  8
0
100
AcDbCircle
 10
-0.0000061772940967
 20
159.81600520642
 30
0.0
 40
17.5
100
AcDbArc
 50
242.2082400000005
 51
27.42930000000535
  0
LINE
  5
2EA
330
1F
100
AcDbEntity
  8
2
100
AcDbLine
 10
-59.50000617729227
 20
198.8160052064202
 30
0.0
 11
-59.50000617729227
 21
120.8160052064202
 31
0.0
  0
LINE
  5
2EB
330
1F
100
AcDbEntity
  8
2
100
AcDbLine
 10
-64.49993616383716
 20
129.0160052064191
 30
0.0
 11
-28.55451545341265
 21
129.0160052064191
 31
0.0
  0
LINE
  5
2EC
330
1F
100
AcDbEntity
  8
2
100
AcDbLine
 10
-64.49993616383716
 20
190.6160052064213
 30
0.0
 11
-28.55451545341265
 21
190.6160052064213
 31
0.0
  0
LINE
  5
2ED
330
1F
100
AcDbEntity
  8
2
100
AcDbLine
 10
-63.49993616383898
 20
198.8160052064202
 30
0.0
 11
-15.58846344541297
 21
198.8160052064201
 31
0.0
  0
LINE
  5
2EE
330
1F
100
AcDbEntity
  8
2
100
AcDbLine
 10
-63.49993616383898
 20
120.8160052064202
 30
0.0
 11
-15.58846344541297
 21
120.8160052064201
 31
0.0
  0
LINE
  5
2EF
330
1F
100
AcDbEntity
  8
2
100
AcDbLine
 10
-64.49993616383716
 20
175.8160052064202
 30
0.0
 11
-38.83298185518896
 21
175.8160052064202
 31
0.0
  0
LINE
  5
2F0
330
1F
100
AcDbEntity
  8
2
100
AcDbLine
 10
-64.49993616383716
 20
143.8160052064202
 30
0.0
 11
-38.83298185518896
 21
143.8160052064202
 31
0.0
  0
LINE
  5
2F1
330
1F
100
AcDbEntity
  8
2
100
AcDbLine
 10
-64.49993616383716
 20
177.8160052064202
 30
0.0
 11
-37.94733809931194
 21
177.8160052064202
 31
0.0
  0
LINE
  5
2F2
330
1F
100
AcDbEntity
  8
2
100
AcDbLine
 10
-64.49993616383716
 20
141.8160052064202
 30
0.0
 11
-37.94733809931194
 21
141.8160052064202
 31
0.0
  0
LINE
  5
2F3
330
1F
100
AcDbEntity
  8
2
100
AcDbLine
 10
-67.59993616383752
 20
177.0660052064202
 30
0.0
 11
-71.16692346194639
 21
177.0660052064202
 31
0.0
  0
LINE
  5
2F4
330
1F
100
AcDbEntity
  8
2
100
AcDbLine
 10
-64.49993616383716
 20
121.8160052064183
 30
0.0
 11
-64.49993616383716
 21
197.816005206422
 31
0.0
  0
ARC
  5
2F5
330
1F
100
AcDbEntity
  8
2
100
AcDbCircle
 10
-63.49993616383898
 20
197.816005206422
 30
0.0
 40
1.0
100
AcDbArc
 50
90.0
 51
180.0
  0
ARC
  5
2F6
330
1F
100
AcDbEntity
  8
2
100
AcDbCircle
 10
-63.49993616383898
 20
121.8160052064183
 30
0.0
 40
1.0
100
AcDbArc
 50
180.0
 51
270.0
  0
LINE
  5
2F7
330
1F
100
AcDbEntity
  8
2
100
AcDbLine
 10
-71.16692346194685
 20
182.8160052064188
 30
0.0
 11
-67.59993616383752
 21
182.8160052064202
 31
0.0
  0
LINE
  5
2F8
330
1F
100
AcDbEntity
  8
2
100
AcDbLine
 10
-67.59993616383752
 20
176.8160052064201
 30
0.0
 11
-67.59993616383752
 21
188.8160052064202
 31
0.0
  0
LINE
  5
2F9
330
1F
100
AcDbEntity
  8
2
100
AcDbLine
 10
-71.10003382008716
 20
143.016200518922
 30
0.0
 11
-75.00042444508716
 21
143.016200518922
 31
0.0
  0
LINE
  5
2FA
330
1F
100
AcDbEntity
  8
2
100
AcDbLine
 10
-71.59993616383935
 20
179.9410052064184
 30
0.0
 11
-71.59993616383935
 21
185.6910052064202
 31
0.0
  0
LINE
  5
2FB
330
1F
100
AcDbEntity
  8
2
100
AcDbLine
 10
-71.59993616383935
 20
135.8158831361077
 30
0.0
 11
-75.00042444508716
 21
135.8158831361058
 31
0.0
  0
LINE
  5
2FC
330
1F
100
AcDbEntity
  8
2
100
AcDbLine
 10
-64.49993616383716
 20
147.8160052064202
 30
0.0
 11
-66.10003382008716
 21
147.8160052064202
 31
0.0
  0
LINE
  5
2FD
330
1F
100
AcDbEntity
  8
2
100
AcDbLine
 10
-67.59993616383752
 20
188.5660052064202
 30
0.0
 11
-71.16692346194639
 21
188.5660052064202
 31
0.0
  0
LINE
  5
2FE
330
1F
100
AcDbEntity
  8
2
100
AcDbLine
 10
-64.49993616383716
 20
176.8160052064201
 30
0.0
 11
-67.59993616383752
 21
176.8160052064201
 31
0.0
  0
LINE
  5
2FF
330
1F
100
AcDbEntity
  8
2
100
AcDbLine
 10
-66.09993616383753
 20
176.8160052064201
 30
0.0
 11
-66.09993616383753
 21
188.8160052064202
 31
0.0
  0
LINE
  5
300
330
1F
100
AcDbEntity
  8
2
100
AcDbLine
 10
-64.49993616383716
 20
188.8160052064202
 30
0.0
 11
-67.59993616383752
 21
188.8160052064202
 31
0.0
  0
ARC
  5
301
330
1F
100
AcDbEntity
  8
2
100
AcDbCircle
 10
-61.83910817534405
 20
179.9410052064184
 30
0.0
 40
9.76082798849484
100
AcDbArc
 50
162.8697633249811
 51
197.1302366750189
  0
LINE
  5
302
330
1F
100
AcDbEntity
  8
2
100
AcDbLine
 10
-79.99993332647926
 20
143.5619954355541
 30
0.0
 11
-79.99993332647926
 21
136.0700149772845
 31
0.0
  0
ARC
  5
303
330
1F
100
AcDbEntity
  8
2
100
AcDbCircle
 10
-61.83910817534405
 20
185.6910052064202
 30
0.0
 40
9.76082798849484
100
AcDbArc
 50
162.8697633249811
 51
197.1302366750189
  0
LINE
  5
304
330
1F
100
AcDbEntity
  8
2
100
AcDbLine
 10
-79.4197550898728
 20
139.8160052064179
 30
0.0
 11
-75.00042444508716
 21
139.8296950144456
 31
0.0
  0
LINE
  5
305
330
1F
100
AcDbEntity
  8
2
100
AcDbLine
 10
-71.10003382008716
 20
143.8160052064202
 30
0.0
 11
-75.00042444508716
 21
143.8160052064202
 31
0.0
  0
ARC
  5
306
330
1F
100
AcDbEntity
  8
2
100
AcDbCircle
 10
-58.71620983345446
 20
143.5619619640117
 30
0.0
 40
12.38382106163012
100
AcDbArc
 50
162.3930911287102
 51
184.612939220615
  0
LINE
  5
307
330
1F
100
AcDbEntity
  8
2
100
AcDbLine
 10
-71.10003089482842
 20
143.5618822322638
 30
0.0
 11
-71.10003089482842
 21
142.5660052064202
 31
0.0
  0
LINE
  5
308
330
1F
100
AcDbEntity
  8
2
100
AcDbLine
 10
-75.00042444508716
 20
132.3242476267503
 30
0.0
 11
-79.41985803883716
 21
132.3242476267503
 31
0.0
  0
LINE
  5
309
330
1F
100
AcDbEntity
  8
2
100
AcDbLine
 10
-70.51995569508716
 20
147.3213763001702
 30
0.0
 11
-66.68060022633716
 21
147.3213763001702
 31
0.0
  0
LINE
  5
30A
330
1F
100
AcDbEntity
  8
2
100
AcDbLine
 10
-75.00042444508716
 20
132.3242476267503
 30
0.0
 11
-75.00042444508716
 21
147.3351424021409
 31
0.0
  0
LINE
  5
30B
330
1F
100
AcDbEntity
  8
2
100
AcDbLine
 10
-79.41985803883716
 20
147.3351424021409
 30
0.0
 11
-75.00042444508716
 21
147.3351424021409
 31
0.0
  0
LINE
  5
30C
330
1F
100
AcDbEntity
  8
2
100
AcDbLine
 10
-71.59993616383935
 20
136.6158098939183
 30
0.0
 11
-75.00042444508716
 21
136.6158098939183
 31
0.0
  0
LINE
  5
30D
330
1F
100
AcDbEntity
  8
2
100
AcDbLine
 10
-71.16692346194753
 20
136.8160052064183
 30
0.0
 11
-67.59993616383752
 21
136.8160052064202
 31
0.0
  0
ARC
  5
30E
330
1F
100
AcDbEntity
  8
2
100
AcDbCircle
 10
-67.61611226510712
 20
143.5620751673039
 30
0.0
 40
12.38382106163012
100
AcDbArc
 50
162.3930911287102
 51
197.6076466553042
  0
ARC
  5
30F
330
1F
100
AcDbEntity
  8
2
100
AcDbCircle
 10
-67.61611226510712
 20
136.0699352455347
 30
0.0
 40
12.38382106163012
100
AcDbArc
 50
162.3923533446958
 51
197.6069088712898
  0
LINE
  5
310
330
1F
100
AcDbEntity
  8
2
100
AcDbLine
 10
-64.49993616383716
 20
130.8160052064202
 30
0.0
 11
-67.59993616383752
 21
130.8160052064202
 31
0.0
  0
ARC
  5
311
330
1F
100
AcDbEntity
  8
2
100
AcDbCircle
 10
-78.48385780671986
 20
143.5619619640117
 30
0.0
 40
12.38382106163012
100
AcDbArc
 50
356.5466181588856
 51
17.60690887128982
  0
LINE
  5
312
330
1F
100
AcDbEntity
  8
2
100
AcDbLine
 10
-67.59993616383752
 20
142.5660052064202
 30
0.0
 11
-71.16692346194639
 21
142.5660052064202
 31
0.0
  0
LINE
  5
313
330
1F
100
AcDbEntity
  8
2
100
AcDbLine
 10
-67.59993616383752
 20
130.8160052064202
 30
0.0
 11
-67.59993616383752
 21
142.8160052064202
 31
0.0
  0
LINE
  5
314
330
1F
100
AcDbEntity
  8
2
100
AcDbLine
 10
-71.59993616383935
 20
133.9410052064202
 30
0.0
 11
-71.59993616383935
 21
139.691005206422
 31
0.0
  0
LINE
  5
315
330
1F
100
AcDbEntity
  8
2
100
AcDbLine
 10
-67.59993616383752
 20
131.0660052064202
 30
0.0
 11
-71.16692346194639
 21
131.0660052064202
 31
0.0
  0
ARC
  5
316
330
1F
100
AcDbEntity
  8
2
100
AcDbCircle
 10
-61.83910817534405
 20
133.9410052064202
 30
0.0
 40
9.760827988494838
100
AcDbArc
 50
162.8697633249811
 51
197.1302366750189
  0
ARC
  5
317
330
1F
100
AcDbEntity
  8
2
100
AcDbCircle
 10
-61.83910817534405
 20
139.691005206422
 30
0.0
 40
9.760827988494838
100
AcDbArc
 50
162.8697633249811
 51
197.1302366750189
  0
LINE
  5
318
330
1F
100
AcDbEntity
  8
2
100
AcDbLine
 10
-64.49993616383716
 20
142.8160052064202
 30
0.0
 11
-67.59993616383752
 21
142.8160052064202
 31
0.0
  0
LINE
  5
319
330
1F
100
AcDbEntity
  8
2
100
AcDbLine
 10
-66.09993616383753
 20
130.8160052064202
 30
0.0
 11
-66.10052210133716
 21
147.8160052064202
 31
0.0
  0
LINE
  5
31A
330
1F
100
AcDbEntity
  8
0
100
AcDbLine
 10
-7.000013377292532
 20
159.8158710099221
 30
0.0
 11
-4.000004977294054
 21
161.5479266185309
 31
0.0
  0
LINE
  5
31B
330
1F
100
AcDbEntity
  8
0
100
AcDbLine
 10
4.0000076227073
 20
158.0838325185311
 30
0.0
 11
7.000016222705482
 21
159.8158881164552
 31
0.0
  0
LINE
  5
31C
330
1F
100
AcDbEntity
  8
0
100
AcDbLine
 10
3.999993822705903
 20
158.5658526185313
 30
0.0
 11
3.999993822705903
 21
158.0837969185311
 31
0.0
  0
LINE
  5
31D
330
1F
100
AcDbEntity
  8
0
100
AcDbLine
 10
-4.000006177294096
 20
158.5658526185313
 30
0.0
 11
-4.000006177294096
 21
158.0837969185311
 31
0.0
  0
LINE
  5
31E
330
1F
100
AcDbEntity
  8
0
100
AcDbLine
 10
-4.000006177294096
 20
161.5479083185298
 30
0.0
 11
-4.000006177294096
 21
161.0658526185314
 31
0.0
  0
LINE
  5
31F
330
1F
100
AcDbEntity
  8
0
100
AcDbLine
 10
3.999993822705903
 20
161.5479083185298
 30
0.0
 11
3.999993822705903
 21
161.0658526185314
 31
0.0
  0
LINE
  5
320
330
1F
100
AcDbEntity
  8
0
100
AcDbLine
 10
3.999989722705606
 20
161.5478861185299
 30
0.0
 11
6.999991422705818
 21
159.8158344122209
 31
0.0
  0
LINE
  5
321
330
1F
100
AcDbEntity
  8
0
100
AcDbLine
 10
-7.000008077294012
 20
159.8158343526163
 30
0.0
 11
-4.000009477293758
 21
158.0837843185316
 31
0.0
  0
LINE
  5
322
330
1F
100
AcDbEntity
  8
0
100
AcDbLine
 10
3.999993822705903
 20
161.0658526185314
 30
0.0
 11
-4.000006177294096
 21
161.0658526185314
 31
0.0
  0
LINE
  5
323
330
1F
100
AcDbEntity
  8
0
100
AcDbLine
 10
3.999993822705903
 20
158.5658526185313
 30
0.0
 11
-4.000006177294096
 21
158.5658526185313
 31
0.0
  0
ARC
  5
324
330
1F
100
AcDbEntity
  8
0
100
AcDbCircle
 10
13.9999457027173
 20
37.00000003009109
 30
0.0
 40
0.9999999699089986
100
AcDbArc
 50
359.9999982759077
 51
90.00000172408576
  0
ARC
  5
325
330
1F
100
AcDbEntity
  8
0
100
AcDbCircle
 10
-26.00005435746465
 20
28.00000003009109
 30
0.0
 40
0.9999999699089133
100
AcDbArc
 50
89.99999827591423
 51
180.0000017240922
  0
ARC
  5
326
330
1F
100
AcDbEntity
  8
0
100
AcDbCircle
 10
-26.00005428918047
 20
20.00000003819332
 30
0.0
 40
1.000000038193264
100
AcDbArc
 50
180.0000021883161
 51
269.999997811684
  0
ARC
  5
327
330
1F
100
AcDbEntity
  8
2
100
AcDbCircle
 10
55.45527737187473
 20
13.49996499409394
 30
0.0
 40
1.499964994205584
100
AcDbArc
 50
258.1791306287321
 51
270.0006990535276
  0
ARC
  5
328
330
1F
100
AcDbEntity
  8
2
100
AcDbCircle
 10
55.35163847400991
 20
12.50003495979399
 30
0.0
 40
0.5000349605337034
100
AcDbArc
 50
258.181548089157
 51
270.0031165139537
  0
ARC
  5
329
330
1F
100
AcDbEntity
  8
0
100
AcDbCircle
 10
-29.42922432737367
 20
7.209045414676666
 30
0.0
 40
2.790960820725833
100
AcDbArc
 50
47.75442107405261
 51
132.2455789259474
  0
ARC
  5
32A
330
1F
100
AcDbEntity
  8
0
100
AcDbCircle
 10
-23.80003932737367
 20
-0.076473537139691
 30
0.0
 40
10.07649784977242
100
AcDbArc
 50
68.13453253155451
 51
111.8654674684455
  0
ARC
  5
32B
330
1F
100
AcDbEntity
  8
0
100
AcDbCircle
 10
-18.17089432737379
 20
7.209045414676893
 30
0.0
 40
2.790960820725636
100
AcDbArc
 50
47.75442107405261
 51
132.2455789259474
  0
ARC
  5
32C
330
1F
100
AcDbEntity
  8
0
100
AcDbCircle
 10
18.17078567262621
 20
7.209045414676893
 30
0.0
 40
2.790960820725636
100
AcDbArc
 50
47.75442107405261
 51
132.2455789259474
  0
ARC
  5
32D
330
1F
100
AcDbEntity
  8
0
100
AcDbCircle
 10
23.79996567262634
 20
-0.0764859967243865
 30
0.0
 40
10.07651127516817
100
AcDbArc
 50
68.13453253155451
 51
111.8654674684455
  0
ARC
  5
32E
330
1F
100
AcDbEntity
  8
0
100
AcDbCircle
 10
29.42911567262632
 20
7.209045414676666
 30
0.0
 40
2.790960820725823
100
AcDbArc
 50
47.75442107405261
 51
132.2455789259474
  0
ARC
  5
32F
330
1F
100
AcDbEntity
  8
0
100
AcDbCircle
 10
-14.00005435746465
 20
37.00000003009109
 30
0.0
 40
0.9999999699089133
100
AcDbArc
 50
89.99999827591423
 51
180.0000017240922
  0
ARC
  5
330
330
1F
100
AcDbEntity
  8
0
100
AcDbCircle
 10
-13.00005425098715
 20
13.50000007638664
 30
0.0
 40
2.000000076386529
100
AcDbArc
 50
180.0000021883161
 51
269.999997811684
  0
ARC
  5
331
330
1F
100
AcDbEntity
  8
0
100
AcDbCircle
 10
12.99994573280838
 20
13.49999993981805
 30
0.0
 40
1.999999939818054
100
AcDbArc
 50
269.9999982759142
 51
0.0000017240857697
  0
ARC
  5
332
330
1F
100
AcDbEntity
  8
0
100
AcDbCircle
 10
18.25132570767124
 20
21.5
 30
0.0
 40
6.448657039955021
100
AcDbArc
 50
337.1899290236394
 51
22.8100709763606
  0
ARC
  5
333
330
1F
100
AcDbEntity
  8
0
100
AcDbCircle
 10
18.25132570767124
 20
26.5
 30
0.0
 40
6.448657039955021
100
AcDbArc
 50
337.1899290236394
 51
22.8100709763606
  0
ARC
  5
334
330
1F
100
AcDbEntity
  8
0
100
AcDbCircle
 10
12.55130570767124
 20
21.5
 30
0.0
 40
6.448657039955021
100
AcDbArc
 50
337.1899290236394
 51
22.8100709763606
  0
ARC
  5
335
330
1F
100
AcDbEntity
  8
0
100
AcDbCircle
 10
12.55130570767124
 20
26.5
 30
0.0
 40
6.448657039955021
100
AcDbArc
 50
337.1899290236394
 51
22.8100709763606
  0
LINE
  5
336
330
1F
100
AcDbEntity
  8
1
100
AcDbLine
 10
0.0000056726262869
 20
46.37428999999997
 30
0.0
 11
-0.0000143273736626
 21
-117.1277200000001
 31
0.0
  0
LINE
  5
337
330
1F
100
AcDbEntity
  8
0
100
AcDbLine
 10
43.03549567262627
 20
0.0
 30
0.0
 11
-42.00005432737379
 21
0.0
 31
0.0
  0
LINE
  5
338
330
1F
100
AcDbEntity
  8
0
100
AcDbLine
 10
-27.00005432737379
 20
22.13201999999979
 30
0.0
 11
-27.00005432737379
 21
20.0
 31
0.0
  0
LINE
  5
339
330
1F
100
AcDbEntity
  8
1
100
AcDbLine
 10
-22.00029432737364
 20
31.29155999999989
 30
0.0
 11
-22.00029432737364
 21
16.57286999999974
 31
0.0
  0
LINE
  5
33A
330
1F
100
AcDbEntity
  8
0
100
AcDbLine
 10
-27.00005432737379
 20
28.0
 30
0.0
 11
-27.00005432737379
 21
25.86797999999999
 31
0.0
  0
LINE
  5
33B
330
1F
100
AcDbEntity
  8
1
100
AcDbLine
 10
-28.64380432737375
 20
24.0
 30
0.0
 11
-15.35678432737376
 21
24.0
 31
0.0
  0
LINE
  5
33C
330
1F
100
AcDbEntity
  8
0
100
AcDbLine
 10
-26.00005432737379
 20
29.0
 30
0.0
 11
6.538305672626222
 21
29.0
 31
0.0
  0
LINE
  5
33D
330
1F
100
AcDbEntity
  8
0
100
AcDbLine
 10
-26.00005432737379
 20
19.0
 30
0.0
 11
-0.0000243273736373
 21
19.0
 31
0.0
  0
LINE
  5
33E
330
1F
100
AcDbEntity
  8
1
100
AcDbLine
 10
-23.80004432737377
 20
12.65666999999985
 30
0.0
 11
-23.80004432737377
 21
0.0
 31
0.0
  0
LINE
  5
33F
330
1F
100
AcDbEntity
  8
1
100
AcDbLine
 10
23.79996567262634
 20
12.84313999999995
 30
0.0
 11
23.79996567262634
 21
0.0
 31
0.0
  0
LINE
  5
340
330
1F
100
AcDbEntity
  8
0
100
AcDbLine
 10
131.1999556726262
 20
10.0
 30
0.0
 11
49.49997567262636
 21
10.0
 31
0.0
  0
LINE
  5
341
330
1F
100
AcDbEntity
  8
1
100
AcDbLine
 10
66.49994567262621
 20
15.47217558223247
 30
0.0
 11
66.49994567262621
 21
0.0893499999999676
 31
0.0
  0
LINE
  5
342
330
1F
100
AcDbEntity
  8
1
100
AcDbLine
 10
125.1999556726262
 20
15.47217558223247
 30
0.0
 11
125.1999556726262
 21
0.0893499999999676
 31
0.0
  0
LINE
  5
343
330
1F
100
AcDbEntity
  8
0
100
AcDbLine
 10
-42.00005432737379
 20
2.5
 30
0.0
 11
-42.00005432737379
 21
0.0
 31
0.0
  0
LINE
  5
344
330
1F
100
AcDbEntity
  8
0
100
AcDbLine
 10
-7.250024327373637
 20
6.0
 30
0.0
 11
-11.50002432737363
 21
6.0
 31
0.0
  0
LINE
  5
345
330
1F
100
AcDbEntity
  8
0
100
AcDbLine
 10
7.249975672626362
 20
11.5
 30
0.0
 11
7.249975672626362
 21
6.0
 31
0.0
  0
LINE
  5
346
330
1F
100
AcDbEntity
  8
0
100
AcDbLine
 10
-7.250024327373637
 20
11.5
 30
0.0
 11
-7.250024327373637
 21
6.0
 31
0.0
  0
LINE
  5
347
330
1F
100
AcDbEntity
  8
0
100
AcDbLine
 10
11.49997567262636
 20
6.0
 30
0.0
 11
7.249975672626362
 21
6.0
 31
0.0
  0
LINE
  5
348
330
1F
100
AcDbEntity
  8
0
100
AcDbLine
 10
131.1999556726262
 20
10.0
 30
0.0
 11
131.1999556726262
 21
7.5
 31
0.0
  0
LINE
  5
349
330
1F
100
AcDbEntity
  8
0
100
AcDbLine
 10
50.53552567262642
 20
7.500009999999974
 30
0.0
 11
43.03551567262622
 21
-0.0000099999999748
 31
0.0
  0
LINE
  5
34A
330
1F
100
AcDbEntity
  8
0
100
AcDbLine
 10
131.1999556726262
 20
7.5
 30
0.0
 11
50.53549567262627
 21
7.5
 31
0.0
  0
LINE
  5
34B
330
1F
100
AcDbEntity
  8
0
100
AcDbLine
 10
31.49994567262621
 20
4.5
 30
0.0
 11
16.09995567262632
 21
4.5
 31
0.0
  0
LINE
  5
34C
330
1F
100
AcDbEntity
  8
0
100
AcDbLine
 10
49.49995567262641
 20
10.0
 30
0.0
 11
41.99992567262626
 21
2.499990000000025
 31
0.0
  0
LINE
  5
34D
330
1F
100
AcDbEntity
  8
2
100
AcDbLine
 10
166.4999756726263
 20
8.988889999999855
 30
0.0
 11
131.9999756726263
 21
8.988889999999855
 31
0.0
  0
LINE
  5
34E
330
1F
100
AcDbEntity
  8
2
100
AcDbLine
 10
131.9999756726263
 20
11.48888999999985
 30
0.0
 11
129.4999756726263
 21
11.48888999999985
 31
0.0
  0
LINE
  5
34F
330
1F
100
AcDbEntity
  8
2
100
AcDbLine
 10
166.4999756726263
 20
39.01110999999992
 30
0.0
 11
131.9999756726263
 21
39.01110999999992
 31
0.0
  0
LINE
  5
350
330
1F
100
AcDbEntity
  8
2
100
AcDbLine
 10
131.9999756726263
 20
36.51110999999992
 30
0.0
 11
129.4999756726263
 21
36.51110999999992
 31
0.0
  0
LINE
  5
351
330
1F
100
AcDbEntity
  8
2
100
AcDbLine
 10
166.4999756726263
 20
39.01110999999992
 30
0.0
 11
166.4999756726263
 21
8.988889999999855
 31
0.0
  0
LINE
  5
352
330
1F
100
AcDbEntity
  8
2
100
AcDbLine
 10
24.69995567262623
 20
12.00011999999992
 30
0.0
 11
61.79996567262634
 21
12.00011999999992
 31
0.0
  0
LINE
  5
353
330
1F
100
AcDbEntity
  8
2
100
AcDbLine
 10
24.69995567262623
 20
36.0
 30
0.0
 11
61.79996567262634
 21
36.0
 31
0.0
  0
LINE
  5
354
330
1F
100
AcDbEntity
  8
2
100
AcDbLine
 10
61.79996567262634
 20
52.00000030149749
 30
0.0
 11
61.79996567262634
 21
10.0
 31
0.0
  0
LINE
  5
355
330
1F
100
AcDbEntity
  8
2
100
AcDbLine
 10
129.4999756726263
 20
52.00000030149749
 30
0.0
 11
129.4999756726263
 21
10.0
 31
0.0
  0
LINE
  5
356
330
1F
100
AcDbEntity
  8
2
100
AcDbLine
 10
131.9999756726263
 20
39.01110999999992
 30
0.0
 11
131.9999756726263
 21
36.51110999999992
 31
0.0
  0
LINE
  5
357
330
1F
100
AcDbEntity
  8
2
100
AcDbLine
 10
131.9999756726263
 20
11.48888999999985
 30
0.0
 11
131.9999756726263
 21
8.988889999999855
 31
0.0
  0
LINE
  5
358
330
1F
100
AcDbEntity
  8
0
100
AcDbLine
 10
41.99997567262636
 20
2.5
 30
0.0
 11
-42.00005432737379
 21
2.5
 31
0.0
  0
LINE
  5
359
330
1F
100
AcDbEntity
  8
0
100
AcDbLine
 10
-16.1000543273737
 20
4.5
 30
0.0
 11
-31.50005432737379
 21
4.5
 31
0.0
  0
LINE
  5
35A
330
1F
100
AcDbEntity
  8
0
100
AcDbLine
 10
-16.1000543273737
 20
4.5
 30
0.0
 11
-16.1000543273737
 21
2.5
 31
0.0
  0
LINE
  5
35B
330
1F
100
AcDbEntity
  8
0
100
AcDbLine
 10
-31.50005432737379
 20
4.5
 30
0.0
 11
-31.50005432737379
 21
2.5
 31
0.0
  0
LINE
  5
35C
330
1F
100
AcDbEntity
  8
0
100
AcDbLine
 10
-14.00005432737379
 20
38.0
 30
0.0
 11
13.99994567262621
 21
38.0
 31
0.0
  0
LINE
  5
35D
330
1F
100
AcDbEntity
  8
0
100
AcDbLine
 10
31.49994567262621
 20
4.5
 30
0.0
 11
31.49994567262621
 21
2.5
 31
0.0
  0
LINE
  5
35E
330
1F
100
AcDbEntity
  8
0
100
AcDbLine
 10
16.09995567262632
 20
4.5
 30
0.0
 11
16.09995567262632
 21
2.5
 31
0.0
  0
LINE
  5
35F
330
1F
100
AcDbEntity
  8
0
100
AcDbLine
 10
-15.00005432737379
 20
37.0
 30
0.0
 11
-15.00005432737379
 21
29.0
 31
0.0
  0
LINE
  5
360
330
1F
100
AcDbEntity
  8
0
100
AcDbLine
 10
-20.04726432737374
 20
9.275080000000116
 30
0.0
 11
-20.04726432737374
 21
4.5
 31
0.0
  0
LINE
  5
361
330
1F
100
AcDbEntity
  8
0
100
AcDbLine
 10
-27.55281432737382
 20
9.275080000000116
 30
0.0
 11
-27.55281432737382
 21
4.5
 31
0.0
  0
LINE
  5
362
330
1F
100
AcDbEntity
  8
0
100
AcDbLine
 10
-16.29448432737371
 20
9.275080000000116
 30
0.0
 11
-16.29448432737371
 21
4.5
 31
0.0
  0
LINE
  5
363
330
1F
100
AcDbEntity
  8
0
100
AcDbLine
 10
-31.30559432737363
 20
9.275080000000116
 30
0.0
 11
-31.30559432737363
 21
4.5
 31
0.0
  0
LINE
  5
364
330
1F
100
AcDbEntity
  8
0
100
AcDbLine
 10
-29.42922432737367
 20
10.0
 30
0.0
 11
-18.17089432737379
 21
10.0
 31
0.0
  0
LINE
  5
365
330
1F
100
AcDbEntity
  8
0
100
AcDbLine
 10
27.55274567262637
 20
9.275080000000116
 30
0.0
 11
27.55274567262637
 21
4.5
 31
0.0
  0
LINE
  5
366
330
1F
100
AcDbEntity
  8
0
100
AcDbLine
 10
20.04718567262631
 20
9.275080000000116
 30
0.0
 11
20.04718567262631
 21
4.5
 31
0.0
  0
LINE
  5
367
330
1F
100
AcDbEntity
  8
0
100
AcDbLine
 10
31.3055156726262
 20
9.275080000000116
 30
0.0
 11
31.3055156726262
 21
4.5
 31
0.0
  0
LINE
  5
368
330
1F
100
AcDbEntity
  8
0
100
AcDbLine
 10
16.29441567262626
 20
9.275080000000116
 30
0.0
 11
16.29441567262626
 21
4.5
 31
0.0
  0
LINE
  5
369
330
1F
100
AcDbEntity
  8
0
100
AcDbLine
 10
18.17078567262621
 20
10.0
 30
0.0
 11
29.42911567262632
 21
10.0
 31
0.0
  0
LINE
  5
36A
330
1F
100
AcDbEntity
  8
0
100
AcDbLine
 10
11.49994567262621
 20
2.5
 30
0.0
 11
11.49994567262621
 21
6.0
 31
0.0
  0
LINE
  5
36B
330
1F
100
AcDbEntity
  8
0
100
AcDbLine
 10
-11.50005432737379
 20
2.5
 30
0.0
 11
-11.50005432737379
 21
6.0
 31
0.0
  0
LINE
  5
36C
330
1F
100
AcDbEntity
  8
0
100
AcDbLine
 10
-6.538384327373648
 20
38.0
 30
0.0
 11
-6.538384327373648
 21
29.0
 31
0.0
  0
LINE
  5
36D
330
1F
100
AcDbEntity
  8
0
100
AcDbLine
 10
-15.00005432737379
 20
19.0
 30
0.0
 11
-15.00005432737379
 21
13.5
 31
0.0
  0
LINE
  5
36E
330
1F
100
AcDbEntity
  8
0
100
AcDbLine
 10
14.99994567262621
 20
37.0
 30
0.0
 11
14.99994567262621
 21
13.5
 31
0.0
  0
LINE
  5
36F
330
1F
100
AcDbEntity
  8
0
100
AcDbLine
 10
20.69995567262623
 20
26.40001999999981
 30
0.0
 11
18.99994567262621
 21
26.40001999999981
 31
0.0
  0
LINE
  5
370
330
1F
100
AcDbEntity
  8
0
100
AcDbLine
 10
-8.421804327373763
 20
38.0
 30
0.0
 11
-8.421804327373763
 21
29.0
 31
0.0
  0
LINE
  5
371
330
1F
100
AcDbEntity
  8
0
100
AcDbLine
 10
8.421695672626185
 20
29.0
 30
0.0
 11
18.49564567262638
 21
29.0
 31
0.0
  0
LINE
  5
372
330
1F
100
AcDbEntity
  8
0
100
AcDbLine
 10
-13.00005432737379
 20
11.5
 30
0.0
 11
12.99994567262621
 21
11.5
 31
0.0
  0
LINE
  5
373
330
1F
100
AcDbEntity
  8
0
100
AcDbLine
 10
8.421725672626337
 20
38.0
 30
0.0
 11
8.421725672626337
 21
29.0
 31
0.0
  0
LINE
  5
374
330
1F
100
AcDbEntity
  8
0
100
AcDbLine
 10
6.538305672626222
 20
38.0
 30
0.0
 11
6.538305672626222
 21
29.0
 31
0.0
  0
LINE
  5
375
330
1F
100
AcDbEntity
  8
0
100
AcDbLine
 10
24.69995567262623
 20
21.5
 30
0.0
 11
24.69995567262623
 21
27.25018
 31
0.0
  0
LINE
  5
376
330
1F
100
AcDbEntity
  8
1
100
AcDbLine
 10
3.760715672626304
 20
24.0
 30
0.0
 11
24.69995567262623
 21
24.0
 31
0.0
  0
LINE
  5
377
330
1F
100
AcDbEntity
  8
0
100
AcDbLine
 10
24.19565567262618
 20
29.0
 30
0.0
 11
20.69995567262623
 21
29.0
 31
0.0
  0
LINE
  5
378
330
1F
100
AcDbEntity
  8
0
100
AcDbLine
 10
20.69995567262623
 20
21.59996999999998
 30
0.0
 11
18.99994567262621
 21
21.59996999999998
 31
0.0
  0
LINE
  5
379
330
1F
100
AcDbEntity
  8
0
100
AcDbLine
 10
20.69995567262623
 20
27.0
 30
0.0
 11
18.98053567262633
 21
27.0
 31
0.0
  0
LINE
  5
37A
330
1F
100
AcDbEntity
  8
0
100
AcDbLine
 10
24.19565567262618
 20
19.0
 30
0.0
 11
20.69995567262623
 21
19.0
 31
0.0
  0
LINE
  5
37B
330
1F
100
AcDbEntity
  8
0
100
AcDbLine
 10
20.69995567262623
 20
21.0
 30
0.0
 11
18.99994567262621
 21
21.0
 31
0.0
  0
LINE
  5
37C
330
1F
100
AcDbEntity
  8
0
100
AcDbLine
 10
20.69995567262623
 20
19.0
 30
0.0
 11
20.69995567262623
 21
29.0
 31
0.0
  0
LINE
  5
37D
330
1F
100
AcDbEntity
  8
0
100
AcDbLine
 10
18.99994567262621
 20
21.5
 30
0.0
 11
18.99994567262621
 21
26.5
 31
0.0
  0
LINE
  5
37E
330
1F
100
AcDbEntity
  8
0
100
AcDbLine
 10
18.49564567262638
 20
19.0
 30
0.0
 11
14.99994567262621
 21
19.0
 31
0.0
  0
LINE
  5
37F
330
1F
100
AcDbEntity
  8
2
100
AcDbLine
 10
85.01779058464155
 20
-0.9999999999990905
 30
0.0
 11
85.01779058464155
 21
-85.99997699999946
 31
0.0
  0
ARC
  5
380
330
1F
100
AcDbEntity
  8
2
100
AcDbCircle
 10
84.01779058464336
 20
-0.9999999999990905
 30
0.0
 40
1.0
100
AcDbArc
 50
0.0
 51
90.0
  0
LINE
  5
381
330
1F
100
AcDbEntity
  8
2
100
AcDbLine
 10
-62.98220941535664
 20
0.0
 30
0.0
 11
84.01779058464336
 21
0.0
 31
0.0
  0
LINE
  5
382
330
1F
100
AcDbEntity
  8
2
100
AcDbLine
 10
-63.98220941535754
 20
-0.9999999999990905
 30
0.0
 11
-63.98220941535754
 21
-85.99997699999946
 31
0.0
  0
ARC
  5
383
330
1F
100
AcDbEntity
  8
2
100
AcDbCircle
 10
-62.98220941535664
 20
-0.9999999999990905
 30
0.0
 40
1.0
100
AcDbArc
 50
90.0
 51
180.0
  0
LINE
  5
384
330
1F
100
AcDbEntity
  8
2
100
AcDbLine
 10
-62.98220941535664
 20
-86.99997699999945
 30
0.0
 11
84.01779058464336
 21
-86.99997699999945
 31
0.0
  0
ARC
  5
385
330
1F
100
AcDbEntity
  8
2
100
AcDbCircle
 10
-62.98220941535664
 20
-85.99997699999946
 30
0.0
 40
1.0
100
AcDbArc
 50
180.0
 51
270.0
  0
ARC
  5
386
330
1F
100
AcDbEntity
  8
2
100
AcDbCircle
 10
84.01779058464336
 20
-85.99997699999946
 30
0.0
 40
1.0
100
AcDbArc
 50
270.0
 51
0.0
  0
LINE
  5
387
330
1F
100
AcDbEntity
  8
2
100
AcDbLine
 10
-63.98220941535754
 20
-67.42394999999939
 30
0.0
 11
85.01779058464155
 21
-67.42394999999939
 31
0.0
  0
LINE
  5
388
330
1F
100
AcDbEntity
  8
2
100
AcDbLine
 10
-63.98220941535754
 20
-19.57598899999902
 30
0.0
 11
85.01779058464155
 21
-19.57598899999902
 31
0.0
  0
LINE
  5
389
330
1F
100
AcDbEntity
  8
2
100
AcDbLine
 10
-58.98227942881266
 20
0.0
 30
0.0
 11
-58.98227942881266
 21
-86.99997699999945
 31
0.0
  0
LINE
  5
38A
330
1F
100
AcDbEntity
  8
2
100
AcDbLine
 10
80.01772057118825
 20
0.0
 30
0.0
 11
80.01772057118825
 21
-86.99997699999945
 31
0.0
  0
LINE
  5
38B
330
1F
100
AcDbEntity
  8
2
100
AcDbLine
 10
50.78542076649984
 20
-80.2791977792194
 30
0.0
 11
63.912679067282
 21
-80.2791977792194
 31
0.0
  0
LINE
  5
38C
330
1F
100
AcDbEntity
  8
2
100
AcDbLine
 10
50.78542076649984
 20
-70.2791977792194
 30
0.0
 11
63.912679067282
 21
-70.2791977792194
 31
0.0
  0
LINE
  5
38D
330
1F
100
AcDbEntity
  8
2
100
AcDbLine
 10
65.91267906728109
 20
-72.27919777922031
 30
0.0
 11
65.91267906728109
 21
-78.27919777922031
 31
0.0
  0
LINE
  5
38E
330
1F
100
AcDbEntity
  8
2
100
AcDbLine
 10
48.78542076650075
 20
-72.27919777922031
 30
0.0
 11
48.78542076650075
 21
-78.27919777922031
 31
0.0
  0
ARC
  5
38F
330
1F
100
AcDbEntity
  8
2
100
AcDbCircle
 10
50.78542076649984
 20
-72.27919777922031
 30
0.0
 40
2.0
100
AcDbArc
 50
90.0
 51
180.0
  0
ARC
  5
390
330
1F
100
AcDbEntity
  8
2
100
AcDbCircle
 10
63.912679067282
 20
-72.27919777922031
 30
0.0
 40
2.0
100
AcDbArc
 50
0.0
 51
90.0
  0
ARC
  5
391
330
1F
100
AcDbEntity
  8
2
100
AcDbCircle
 10
63.912679067282
 20
-78.27919777922031
 30
0.0
 40
2.0
100
AcDbArc
 50
270.0
 51
0.0
  0
ARC
  5
392
330
1F
100
AcDbEntity
  8
2
100
AcDbCircle
 10
50.78542076649984
 20
-78.27919777922031
 30
0.0
 40
2.0
100
AcDbArc
 50
180.0
 51
270.0
  0
LWPOLYLINE
  5
393
330
1F
100
AcDbEntity
  8
2
100
AcDbPolyline
 90
        2
 70
     0
 43
0.6
 10
61.73703209462502
 20
-77.59372699999946
 42
1.0
 10
61.13703209462466
 20
-77.59372699999946
 42
1.0
  0
LINE
  5
394
330
1F
100
AcDbEntity
  8
2
100
AcDbLine
 10
91.61788824089246
 20
-37.0000609999988
 30
0.0
 11
91.61788824089246
 21
-50.00021358788941
 31
0.0
  0
LINE
  5
395
330
1F
100
AcDbEntity
  8
2
100
AcDbLine
 10
91.03732183464336
 20
-39.7471313124988
 30
0.0
 11
87.19894292839336
 21
-39.7471313124988
 31
0.0
  0
LINE
  5
396
330
1F
100
AcDbEntity
  8
2
100
AcDbLine
 10
91.61822516110561
 20
-37.00010387058225
 30
0.0
 11
91.0376587548547
 21
-35.99453337583779
 31
0.0
  0
LINE
  5
397
330
1F
100
AcDbEntity
  8
2
100
AcDbLine
 10
87.19846003885624
 20
-51.00558468163942
 30
0.0
 11
91.03781011589246
 21
-51.00558468163942
 31
0.0
  0
LINE
  5
398
330
1F
100
AcDbEntity
  8
2
100
AcDbLine
 10
87.19843599452753
 20
-47.25283362299157
 30
0.0
 11
91.03732183464336
 21
-47.25289913476442
 31
0.0
  0
ARC
  5
399
330
1F
100
AcDbEntity
  8
2
100
AcDbCircle
 10
88.29513433464336
 20
-49.12933346093629
 30
0.0
 40
3.322566986083983
100
AcDbArc
 50
0.0
 51
34.38430267815861
  0
ARC
  5
39A
330
1F
100
AcDbEntity
  8
2
100
AcDbCircle
 10
79.19845464714336
 20
-43.50006099999879
 30
0.0
 40
12.41944122314453
100
AcDbArc
 50
342.4120272456765
 51
17.58793860336095
  0
LINE
  5
39B
330
1F
100
AcDbEntity
  8
2
100
AcDbLine
 10
91.61788824089246
 20
-39.5000609999988
 30
0.0
 11
95.51827886589155
 21
-39.5000609999988
 31
0.0
  0
LINE
  5
39C
330
1F
100
AcDbEntity
  8
2
100
AcDbLine
 10
91.61788824089246
 20
-40.29986568749879
 30
0.0
 11
95.51827886589155
 21
-40.29986568749879
 31
0.0
  0
LINE
  5
39D
330
1F
100
AcDbEntity
  8
2
100
AcDbLine
 10
91.61788824089246
 20
-47.50018307031129
 30
0.0
 11
95.51827886589155
 21
-47.50018307031129
 31
0.0
  0
LINE
  5
39E
330
1F
100
AcDbEntity
  8
2
100
AcDbLine
 10
85.01779058464336
 20
-35.5000609999988
 30
0.0
 11
86.61788824089336
 21
-35.5000609999988
 31
0.0
  0
ARC
  5
39F
330
1F
100
AcDbEntity
  8
2
100
AcDbCircle
 10
88.29513433464336
 20
-37.8706664687488
 30
0.0
 40
3.322566986083983
100
AcDbArc
 50
325.6156973218414
 51
0.0
  0
LINE
  5
3A0
330
1F
100
AcDbEntity
  8
2
100
AcDbLine
 10
86.61837652214245
 20
-35.5000609999988
 30
0.0
 11
86.61837652214245
 21
-51.50018307031129
 31
0.0
  0
LINE
  5
3A1
330
1F
100
AcDbEntity
  8
2
100
AcDbLine
 10
86.61794198201851
 20
-37.00002406946439
 30
0.0
 11
87.19849312948037
 21
-35.99448000371828
 31
0.0
  0
LINE
  5
3A2
330
1F
100
AcDbEntity
  8
2
100
AcDbLine
 10
100.5182241531941
 20
-49.98647843403066
 30
0.0
 11
99.93765774694503
 21
-50.99204892877421
 31
0.0
  0
LINE
  5
3A3
330
1F
100
AcDbEntity
  8
2
100
AcDbLine
 10
99.93722417839155
 20
-39.73336521052985
 30
0.0
 11
95.51827886589155
 21
-39.73336521052985
 31
0.0
  0
LINE
  5
3A4
330
1F
100
AcDbEntity
  8
2
100
AcDbLine
 10
99.93771245964337
 20
-35.98092380427985
 30
0.0
 11
95.51827886589155
 21
-35.98092380427985
 31
0.0
  0
LINE
  5
3A5
330
1F
100
AcDbEntity
  8
2
100
AcDbLine
 10
100.5181275048547
 20
-36.9863377686124
 30
0.0
 11
99.93756109860379
 21
-35.98076727386885
 31
0.0
  0
LINE
  5
3A6
330
1F
100
AcDbEntity
  8
2
100
AcDbLine
 10
100.5177905846433
 20
-36.98629489802986
 30
0.0
 11
100.5177905846433
 21
-49.98644748592048
 31
0.0
  0
ARC
  5
3A7
330
1F
100
AcDbEntity
  8
2
100
AcDbCircle
 10
89.94064214714246
 20
-49.12945553124879
 30
0.0
 40
3.322566986083983
100
AcDbArc
 50
145.6157162185432
 51
180.0000359721715
  0
LINE
  5
3A8
330
1F
100
AcDbEntity
  8
2
100
AcDbLine
 10
91.03781011589246
 20
-35.9946899062488
 30
0.0
 11
87.19845464714245
 21
-35.9946899062488
 31
0.0
  0
LINE
  5
3A9
330
1F
100
AcDbEntity
  8
2
100
AcDbLine
 10
91.61832180944504
 20
-50.0002445359996
 30
0.0
 11
91.03775540319412
 21
-51.00581503074406
 31
0.0
  0
ARC
  5
3AA
330
1F
100
AcDbEntity
  8
2
100
AcDbCircle
 10
99.03732183464246
 20
-43.50006099999879
 30
0.0
 40
12.41944122314453
100
AcDbArc
 50
162.4120629904973
 51
197.6131435406209
  0
ARC
  5
3AB
330
1F
100
AcDbEntity
  8
2
100
AcDbCircle
 10
89.94064214714246
 20
-37.8706664687488
 30
0.0
 40
3.322566986083983
100
AcDbArc
 50
179.9999640278024
 51
214.3842837814568
  0
LINE
  5
3AC
330
1F
100
AcDbEntity
  8
2
100
AcDbLine
 10
95.51827886589155
 20
-50.99181857967048
 30
0.0
 11
95.51827886589155
 21
-35.98092380427985
 31
0.0
  0
LINE
  5
3AD
330
1F
100
AcDbEntity
  8
2
100
AcDbLine
 10
95.51827886589155
 20
-50.99181857967048
 30
0.0
 11
99.93771245964337
 21
-50.99181857967048
 31
0.0
  0
ARC
  5
3AE
330
1F
100
AcDbEntity
  8
2
100
AcDbCircle
 10
97.19503667839155
 20
-49.11556735896644
 30
0.0
 40
3.322566986083983
100
AcDbArc
 50
0.0
 51
34.38430267815861
  0
LINE
  5
3AF
330
1F
100
AcDbEntity
  8
2
100
AcDbLine
 10
95.51827886589155
 20
-47.23913303279547
 30
0.0
 11
99.93722417839155
 21
-47.23913303279547
 31
0.0
  0
ARC
  5
3B0
330
1F
100
AcDbEntity
  8
2
100
AcDbCircle
 10
97.19503667839155
 20
-37.85690036677986
 30
0.0
 40
3.322566986083983
100
AcDbArc
 50
325.6156973218414
 51
0.0
  0
ARC
  5
3B1
330
1F
100
AcDbEntity
  8
2
100
AcDbCircle
 10
88.09835699089154
 20
-43.48629489802985
 30
0.0
 40
12.41944122314453
100
AcDbArc
 50
342.4120272456765
 51
17.58793860336095
  0
LINE
  5
3B2
330
1F
100
AcDbEntity
  8
2
100
AcDbLine
 10
86.61794198201851
 20
-50.0000979305332
 30
0.0
 11
87.19849312948037
 21
-51.00564199628021
 31
0.0
  0
LINE
  5
3B3
330
1F
100
AcDbEntity
  8
2
100
AcDbLine
 10
85.01779058464336
 20
-51.50006099999879
 30
0.0
 11
86.61788824089336
 21
-51.50006099999879
 31
0.0
  0
LINE
  5
3B4
330
1F
100
AcDbEntity
  8
2
100
AcDbLine
 10
91.61788824089246
 20
-46.7002563124997
 30
0.0
 11
95.51827886589155
 21
-46.7002563124997
 31
0.0
  0
LINE
  5
3B5
330
1F
100
AcDbEntity
  8
2
100
AcDbLine
 10
88.11779058464191
 20
-85.49998839999895
 30
0.0
 11
88.11779058464191
 21
-73.49998839999895
 31
0.0
  0
LINE
  5
3B6
330
1F
100
AcDbEntity
  8
2
100
AcDbLine
 10
92.11779058464191
 20
-84.49998839999896
 30
0.0
 11
92.11779058464191
 21
-74.49998839999896
 31
0.0
  0
LINE
  5
3B7
330
1F
100
AcDbEntity
  8
2
100
AcDbLine
 10
88.11779058464191
 20
-85.24998839999895
 30
0.0
 11
91.68477788274987
 21
-85.24998839999895
 31
0.0
  0
LINE
  5
3B8
330
1F
100
AcDbEntity
  8
2
100
AcDbLine
 10
88.11779058464191
 20
-73.74998839999896
 30
0.0
 11
91.68477788274987
 21
-73.74998839999896
 31
0.0
  0
LINE
  5
3B9
330
1F
100
AcDbEntity
  8
2
100
AcDbLine
 10
91.68477788274987
 20
-73.74998839999896
 30
0.0
 11
92.11779058464191
 21
-74.49998839999896
 31
0.0
  0
LINE
  5
3BA
330
1F
100
AcDbEntity
  8
2
100
AcDbLine
 10
91.68477788274987
 20
-85.24998839999895
 30
0.0
 11
92.11779058464191
 21
-84.49998839999896
 31
0.0
  0
LINE
  5
3BB
330
1F
100
AcDbEntity
  8
2
100
AcDbLine
 10
88.11779058464191
 20
-82.37498839999895
 30
0.0
 11
91.68477788274987
 21
-82.37498839999895
 31
0.0
  0
LINE
  5
3BC
330
1F
100
AcDbEntity
  8
2
100
AcDbLine
 10
88.11779058464191
 20
-76.62498839999895
 30
0.0
 11
91.68477788274987
 21
-76.62498839999895
 31
0.0
  0
ARC
  5
3BD
330
1F
100
AcDbEntity
  8
2
100
AcDbCircle
 10
82.35696259615663
 20
-79.49998839999896
 30
0.0
 40
9.760827988486084
100
AcDbArc
 50
342.8697633249664
 51
17.13023667503359
  0
ARC
  5
3BE
330
1F
100
AcDbEntity
  8
2
100
AcDbCircle
 10
89.51520382431255
 20
-83.81248839999896
 30
0.0
 40
2.602586760331064
100
AcDbArc
 50
326.4726419507284
 51
33.5273580492716
  0
ARC
  5
3BF
330
1F
100
AcDbEntity
  8
2
100
AcDbCircle
 10
89.51520382431255
 20
-75.18748839999895
 30
0.0
 40
2.602586760331064
100
AcDbArc
 50
326.4726419507284
 51
33.5273580492716
  0
LINE
  5
3C0
330
1F
100
AcDbEntity
  8
2
100
AcDbLine
 10
85.01779058464155
 20
-85.49998839999895
 30
0.0
 11
88.11779058464191
 21
-85.49998839999895
 31
0.0
  0
LINE
  5
3C1
330
1F
100
AcDbEntity
  8
2
100
AcDbLine
 10
85.01779058464155
 20
-73.49998839999895
 30
0.0
 11
88.11779058464191
 21
-73.49998839999895
 31
0.0
  0
LINE
  5
3C2
330
1F
100
AcDbEntity
  8
2
100
AcDbLine
 10
86.6177905846419
 20
-85.49998839999895
 30
0.0
 11
86.6177905846419
 21
-73.49998839999895
 31
0.0
  0
LINE
  5
3C3
330
1F
100
AcDbEntity
  8
2
100
AcDbLine
 10
88.11779058464191
 20
-13.5
 30
0.0
 11
88.11779058464191
 21
-1.5
 31
0.0
  0
LINE
  5
3C4
330
1F
100
AcDbEntity
  8
2
100
AcDbLine
 10
92.11779058464191
 20
-12.49999999999909
 30
0.0
 11
92.11779058464191
 21
-2.49999999999909
 31
0.0
  0
LINE
  5
3C5
330
1F
100
AcDbEntity
  8
2
100
AcDbLine
 10
88.11779058464191
 20
-13.24999999999909
 30
0.0
 11
91.68477788274987
 21
-13.24999999999909
 31
0.0
  0
LINE
  5
3C6
330
1F
100
AcDbEntity
  8
2
100
AcDbLine
 10
88.11779058464191
 20
-1.74999999999909
 30
0.0
 11
91.68477788274987
 21
-1.74999999999909
 31
0.0
  0
LINE
  5
3C7
330
1F
100
AcDbEntity
  8
2
100
AcDbLine
 10
91.68477788274987
 20
-1.74999999999909
 30
0.0
 11
92.11779058464191
 21
-2.49999999999909
 31
0.0
  0
LINE
  5
3C8
330
1F
100
AcDbEntity
  8
2
100
AcDbLine
 10
91.68477788274987
 20
-13.24999999999909
 30
0.0
 11
92.11779058464191
 21
-12.49999999999909
 31
0.0
  0
LINE
  5
3C9
330
1F
100
AcDbEntity
  8
2
100
AcDbLine
 10
88.11779058464191
 20
-10.37499999999909
 30
0.0
 11
91.68477788274987
 21
-10.37499999999909
 31
0.0
  0
LINE
  5
3CA
330
1F
100
AcDbEntity
  8
2
100
AcDbLine
 10
88.11779058464191
 20
-4.62499999999909
 30
0.0
 11
91.68477788274987
 21
-4.62499999999909
 31
0.0
  0
ARC
  5
3CB
330
1F
100
AcDbEntity
  8
2
100
AcDbCircle
 10
82.35696259615663
 20
-7.5
 30
0.0
 40
9.760827988486084
100
AcDbArc
 50
342.8697633249664
 51
17.13023667503359
  0
ARC
  5
3CC
330
1F
100
AcDbEntity
  8
2
100
AcDbCircle
 10
89.51520382431255
 20
-11.8125
 30
0.0
 40
2.602586760331064
100
AcDbArc
 50
326.4726419507284
 51
33.5273580492716
  0
ARC
  5
3CD
330
1F
100
AcDbEntity
  8
2
100
AcDbCircle
 10
89.51520382431255
 20
-3.1875
 30
0.0
 40
2.602586760331064
100
AcDbArc
 50
326.4726419507284
 51
33.5273580492716
  0
LINE
  5
3CE
330
1F
100
AcDbEntity
  8
2
100
AcDbLine
 10
85.01779058464155
 20
-13.5
 30
0.0
 11
88.11779058464191
 21
-13.5
 31
0.0
  0
LINE
  5
3CF
330
1F
100
AcDbEntity
  8
2
100
AcDbLine
 10
85.01779058464155
 20
-1.5
 30
0.0
 11
88.11779058464191
 21
-1.5
 31
0.0
  0
LINE
  5
3D0
330
1F
100
AcDbEntity
  8
2
100
AcDbLine
 10
86.6177905846419
 20
-13.5
 30
0.0
 11
86.6177905846419
 21
-1.5
 31
0.0
  0
LINE
  5
3D1
330
1F
100
AcDbEntity
  8
2
100
AcDbLine
 10
-70.58230707160845
 20
-37.0000609999988
 30
0.0
 11
-70.58230707160845
 21
-50.00021358788941
 31
0.0
  0
LINE
  5
3D2
330
1F
100
AcDbEntity
  8
2
100
AcDbLine
 10
-70.00174066535845
 20
-39.7471313124988
 30
0.0
 11
-66.16336175910754
 21
-39.7471313124988
 31
0.0
  0
LINE
  5
3D3
330
1F
100
AcDbEntity
  8
2
100
AcDbLine
 10
-70.58264399181979
 20
-37.00010387058225
 30
0.0
 11
-70.00207758556979
 21
-35.99453337583779
 31
0.0
  0
ARC
  5
3D4
330
1F
100
AcDbEntity
  8
2
100
AcDbCircle
 10
-67.25955316535845
 20
-49.12933346093629
 30
0.0
 40
3.322566986083983
100
AcDbArc
 50
145.6156973218413
 51
180.0
  0
LINE
  5
3D5
330
1F
100
AcDbEntity
  8
2
100
AcDbLine
 10
-70.58230707160845
 20
-39.5000609999988
 30
0.0
 11
-74.48269769660663
 21
-39.5000609999988
 31
0.0
  0
LINE
  5
3D6
330
1F
100
AcDbEntity
  8
2
100
AcDbLine
 10
-70.58230707160845
 20
-40.29986568749879
 30
0.0
 11
-74.48269769660663
 21
-40.29986568749879
 31
0.0
  0
LINE
  5
3D7
330
1F
100
AcDbEntity
  8
2
100
AcDbLine
 10
-70.58230707160845
 20
-47.50018307031129
 30
0.0
 11
-74.48269769660663
 21
-47.50018307031129
 31
0.0
  0
LINE
  5
3D8
330
1F
100
AcDbEntity
  8
2
100
AcDbLine
 10
-70.58274064015922
 20
-50.0002445359996
 30
0.0
 11
-70.00217423391013
 21
-51.00581503074406
 31
0.0
  0
ARC
  5
3D9
330
1F
100
AcDbEntity
  8
2
100
AcDbCircle
 10
-67.25955316535845
 20
-37.8706664687488
 30
0.0
 40
3.322566986083983
100
AcDbArc
 50
180.0
 51
214.3843026781586
  0
ARC
  5
3DA
330
1F
100
AcDbEntity
  8
2
100
AcDbCircle
 10
-68.90506097785845
 20
-37.8706664687488
 30
0.0
 40
3.322566986083983
100
AcDbArc
 50
325.6157162185432
 51
0.0000359721976162
  0
LINE
  5
3DB
330
1F
100
AcDbEntity
  8
2
100
AcDbLine
 10
-74.48269769660663
 20
-50.99181857967048
 30
0.0
 11
-78.90213129035846
 21
-50.99181857967048
 31
0.0
  0
LINE
  5
3DC
330
1F
100
AcDbEntity
  8
2
100
AcDbLine
 10
-74.48269769660663
 20
-47.23913303279547
 30
0.0
 11
-78.90164300910754
 21
-47.23913303279547
 31
0.0
  0
LINE
  5
3DD
330
1F
100
AcDbEntity
  8
2
100
AcDbLine
 10
-78.90164300910754
 20
-39.73336521052985
 30
0.0
 11
-74.48269769660663
 21
-39.73336521052985
 31
0.0
  0
LINE
  5
3DE
330
1F
100
AcDbEntity
  8
2
100
AcDbLine
 10
-78.90213129035846
 20
-35.98092380427985
 30
0.0
 11
-74.48269769660663
 21
-35.98092380427985
 31
0.0
  0
LINE
  5
3DF
330
1F
100
AcDbEntity
  8
2
100
AcDbLine
 10
-79.48220941535845
 20
-36.98629489802986
 30
0.0
 11
-79.48220941535845
 21
-49.98644748592048
 31
0.0
  0
ARC
  5
3E0
330
1F
100
AcDbEntity
  8
2
100
AcDbCircle
 10
-67.06277582160755
 20
-43.48629489802985
 30
0.0
 40
12.41944122314453
100
AcDbArc
 50
162.412061396639
 51
197.5879727543235
  0
ARC
  5
3E1
330
1F
100
AcDbEntity
  8
2
100
AcDbCircle
 10
-78.00174066535845
 20
-43.50006099999879
 30
0.0
 40
12.41944122314453
100
AcDbArc
 50
342.4120629904974
 51
17.57918699121209
  0
LINE
  5
3E2
330
1F
100
AcDbEntity
  8
2
100
AcDbLine
 10
-65.58236081273452
 20
-50.0000979305332
 30
0.0
 11
-66.16291196019455
 21
-51.00564199628021
 31
0.0
  0
ARC
  5
3E3
330
1F
100
AcDbEntity
  8
2
100
AcDbCircle
 10
-68.90506097785845
 20
-49.12945553124879
 30
0.0
 40
3.322566986083983
100
AcDbArc
 50
359.9999640278284
 51
34.38428378145682
  0
LINE
  5
3E4
330
1F
100
AcDbEntity
  8
2
100
AcDbLine
 10
-70.00222894660845
 20
-35.9946899062488
 30
0.0
 11
-66.16287347785846
 21
-35.9946899062488
 31
0.0
  0
LINE
  5
3E5
330
1F
100
AcDbEntity
  8
2
100
AcDbLine
 10
-66.16287886957042
 20
-51.00558468163942
 30
0.0
 11
-70.00222894660845
 21
-51.00558468163942
 31
0.0
  0
LINE
  5
3E6
330
1F
100
AcDbEntity
  8
2
100
AcDbLine
 10
-66.16285482524353
 20
-47.25283362299157
 30
0.0
 11
-70.00174066535845
 21
-47.25289913476442
 31
0.0
  0
ARC
  5
3E7
330
1F
100
AcDbEntity
  8
2
100
AcDbCircle
 10
-58.16287347785845
 20
-43.50006099999879
 30
0.0
 40
12.41944122314453
100
AcDbArc
 50
162.412061396639
 51
197.5879727543235
  0
LINE
  5
3E8
330
1F
100
AcDbEntity
  8
2
100
AcDbLine
 10
-63.98220941535754
 20
-35.5000609999988
 30
0.0
 11
-65.58230707160845
 21
-35.5000609999988
 31
0.0
  0
LINE
  5
3E9
330
1F
100
AcDbEntity
  8
2
100
AcDbLine
 10
-65.58279535285845
 20
-35.5000609999988
 30
0.0
 11
-65.58279535285845
 21
-51.50018307031129
 31
0.0
  0
LINE
  5
3EA
330
1F
100
AcDbEntity
  8
2
100
AcDbLine
 10
-65.58236081273452
 20
-37.00002406946439
 30
0.0
 11
-66.16291196019455
 21
-35.99448000371828
 31
0.0
  0
LINE
  5
3EB
330
1F
100
AcDbEntity
  8
2
100
AcDbLine
 10
-74.48269769660663
 20
-50.99181857967048
 30
0.0
 11
-74.48269769660663
 21
-35.98092380427985
 31
0.0
  0
LINE
  5
3EC
330
1F
100
AcDbEntity
  8
2
100
AcDbLine
 10
-79.48264298390831
 20
-49.98647843403066
 30
0.0
 11
-78.90207657766012
 21
-50.99204892877421
 31
0.0
  0
ARC
  5
3ED
330
1F
100
AcDbEntity
  8
2
100
AcDbCircle
 10
-76.15945550910755
 20
-49.11556735896644
 30
0.0
 40
3.322566986083983
100
AcDbArc
 50
145.6156973218413
 51
180.0
  0
LINE
  5
3EE
330
1F
100
AcDbEntity
  8
2
100
AcDbLine
 10
-79.48254633556979
 20
-36.9863377686124
 30
0.0
 11
-78.90197992931979
 21
-35.98076727386885
 31
0.0
  0
ARC
  5
3EF
330
1F
100
AcDbEntity
  8
2
100
AcDbCircle
 10
-76.15945550910755
 20
-37.85690036677986
 30
0.0
 40
3.322566986083983
100
AcDbArc
 50
180.0
 51
214.3843026781586
  0
LINE
  5
3F0
330
1F
100
AcDbEntity
  8
2
100
AcDbLine
 10
-63.98220941535754
 20
-51.50006099999879
 30
0.0
 11
-65.58230707160845
 21
-51.50006099999879
 31
0.0
  0
LINE
  5
3F1
330
1F
100
AcDbEntity
  8
2
100
AcDbLine
 10
-70.58230707160845
 20
-46.7002563124997
 30
0.0
 11
-74.48269769660663
 21
-46.7002563124997
 31
0.0
  0
LINE
  5
3F2
330
1F
100
AcDbEntity
  8
2
100
AcDbLine
 10
-71.0822094153579
 20
-12.49999999999909
 30
0.0
 11
-71.0822094153579
 21
-2.49999999999909
 31
0.0
  0
LINE
  5
3F3
330
1F
100
AcDbEntity
  8
2
100
AcDbLine
 10
-67.08220941535699
 20
-85.49998839999895
 30
0.0
 11
-67.08220941535699
 21
-73.49998839999895
 31
0.0
  0
LINE
  5
3F4
330
1F
100
AcDbEntity
  8
2
100
AcDbLine
 10
-71.0822094153579
 20
-84.49998839999896
 30
0.0
 11
-71.0822094153579
 21
-74.49998839999896
 31
0.0
  0
LINE
  5
3F5
330
1F
100
AcDbEntity
  8
2
100
AcDbLine
 10
-67.08220941535699
 20
-85.24998839999895
 30
0.0
 11
-70.64919671346586
 21
-85.24998839999895
 31
0.0
  0
LINE
  5
3F6
330
1F
100
AcDbEntity
  8
2
100
AcDbLine
 10
-67.08220941535699
 20
-73.74998839999896
 30
0.0
 11
-70.64919671346586
 21
-73.74998839999896
 31
0.0
  0
LINE
  5
3F7
330
1F
100
AcDbEntity
  8
2
100
AcDbLine
 10
-70.64919671346586
 20
-73.74998839999896
 30
0.0
 11
-71.0822094153579
 21
-74.49998839999896
 31
0.0
  0
LINE
  5
3F8
330
1F
100
AcDbEntity
  8
2
100
AcDbLine
 10
-70.64919671346586
 20
-85.24998839999895
 30
0.0
 11
-71.0822094153579
 21
-84.49998839999896
 31
0.0
  0
LINE
  5
3F9
330
1F
100
AcDbEntity
  8
2
100
AcDbLine
 10
-67.08220941535699
 20
-82.37498839999895
 30
0.0
 11
-70.64919671346586
 21
-82.37498839999895
 31
0.0
  0
LINE
  5
3FA
330
1F
100
AcDbEntity
  8
2
100
AcDbLine
 10
-67.08220941535699
 20
-76.62498839999895
 30
0.0
 11
-70.64919671346586
 21
-76.62498839999895
 31
0.0
  0
ARC
  5
3FB
330
1F
100
AcDbEntity
  8
2
100
AcDbCircle
 10
-61.3213814268708
 20
-79.49998839999896
 30
0.0
 40
9.760827988486084
100
AcDbArc
 50
162.8697633249664
 51
197.1302366750336
  0
ARC
  5
3FC
330
1F
100
AcDbEntity
  8
2
100
AcDbCircle
 10
-68.47962265502582
 20
-83.81248839999896
 30
0.0
 40
2.602586760331064
100
AcDbArc
 50
146.4726419507284
 51
213.5273580492716
  0
ARC
  5
3FD
330
1F
100
AcDbEntity
  8
2
100
AcDbCircle
 10
-68.47962265502582
 20
-75.18748839999895
 30
0.0
 40
2.602586760331064
100
AcDbArc
 50
146.4726419507284
 51
213.5273580492716
  0
LINE
  5
3FE
330
1F
100
AcDbEntity
  8
2
100
AcDbLine
 10
-63.98220941535754
 20
-85.49998839999895
 30
0.0
 11
-67.08220941535699
 21
-85.49998839999895
 31
0.0
  0
LINE
  5
3FF
330
1F
100
AcDbEntity
  8
2
100
AcDbLine
 10
-63.98220941535754
 20
-73.49998839999895
 30
0.0
 11
-67.08220941535699
 21
-73.49998839999895
 31
0.0
  0
LINE
  5
400
330
1F
100
AcDbEntity
  8
2
100
AcDbLine
 10
-65.582209415357
 20
-85.49998839999895
 30
0.0
 11
-65.582209415357
 21
-73.49998839999895
 31
0.0
  0
LINE
  5
401
330
1F
100
AcDbEntity
  8
2
100
AcDbLine
 10
-67.08220941535699
 20
-13.5
 30
0.0
 11
-67.08220941535699
 21
-1.5
 31
0.0
  0
LINE
  5
402
330
1F
100
AcDbEntity
  8
2
100
AcDbLine
 10
-67.08220941535699
 20
-13.24999999999909
 30
0.0
 11
-70.64919671346586
 21
-13.24999999999909
 31
0.0
  0
LINE
  5
403
330
1F
100
AcDbEntity
  8
2
100
AcDbLine
 10
-67.08220941535699
 20
-1.74999999999909
 30
0.0
 11
-70.64919671346586
 21
-1.74999999999909
 31
0.0
  0
LINE
  5
404
330
1F
100
AcDbEntity
  8
2
100
AcDbLine
 10
-70.64919671346586
 20
-1.74999999999909
 30
0.0
 11
-71.0822094153579
 21
-2.49999999999909
 31
0.0
  0
LINE
  5
405
330
1F
100
AcDbEntity
  8
2
100
AcDbLine
 10
-70.64919671346586
 20
-13.24999999999909
 30
0.0
 11
-71.0822094153579
 21
-12.49999999999909
 31
0.0
  0
LINE
  5
406
330
1F
100
AcDbEntity
  8
2
100
AcDbLine
 10
-67.08220941535699
 20
-10.37499999999909
 30
0.0
 11
-70.64919671346586
 21
-10.37499999999909
 31
0.0
  0
LINE
  5
407
330
1F
100
AcDbEntity
  8
2
100
AcDbLine
 10
-67.08220941535699
 20
-4.62499999999909
 30
0.0
 11
-70.64919671346586
 21
-4.62499999999909
 31
0.0
  0
ARC
  5
408
330
1F
100
AcDbEntity
  8
2
100
AcDbCircle
 10
-61.3213814268708
 20
-7.5
 30
0.0
 40
9.760827988486084
100
AcDbArc
 50
162.8697633249664
 51
197.1302366750336
  0
ARC
  5
409
330
1F
100
AcDbEntity
  8
2
100
AcDbCircle
 10
-68.47962265502582
 20
-11.8125
 30
0.0
 40
2.602586760331064
100
AcDbArc
 50
146.4726419507284
 51
213.5273580492716
  0
ARC
  5
40A
330
1F
100
AcDbEntity
  8
2
100
AcDbCircle
 10
-68.47962265502582
 20
-3.1875
 30
0.0
 40
2.602586760331064
100
AcDbArc
 50
146.4726419507284
 51
213.5273580492716
  0
LINE
  5
40B
330
1F
100
AcDbEntity
  8
2
100
AcDbLine
 10
-63.98220941535754
 20
-13.5
 30
0.0
 11
-67.08220941535699
 21
-13.5
 31
0.0
  0
LINE
  5
40C
330
1F
100
AcDbEntity
  8
2
100
AcDbLine
 10
-63.98220941535754
 20
-1.5
 30
0.0
 11
-67.08220941535699
 21
-1.5
 31
0.0
  0
LINE
  5
40D
330
1F
100
AcDbEntity
  8
2
100
AcDbLine
 10
-65.582209415357
 20
-13.5
 30
0.0
 11
-65.582209415357
 21
-1.5
 31
0.0
  0
CIRCLE
  5
40E
330
1F
100
AcDbEntity
  8
0
100
AcDbCircle
 10
-22.13215627747667
 20
24.00000344827572
 30
0.0
 40
4.899999999999998
  0
LINE
  5
40F
330
1F
100
AcDbEntity
  8
0
100
AcDbLine
 10
-25.01890627747656
 20
29.00000111702525
 30
0.0
 11
-27.90565627747668
 21
24.00000344827572
 31
0.0
  0
LINE
  5
410
330
1F
100
AcDbEntity
  8
0
100
AcDbLine
 10
-19.24540627747655
 20
19.00000577952642
 30
0.0
 11
-16.35865627747665
 21
24.00000344827572
 31
0.0
  0
LINE
  5
411
330
1F
100
AcDbEntity
  8
0
100
AcDbLine
 10
-27.90565627747668
 20
24.00000344827572
 30
0.0
 11
-25.01890627747656
 21
19.00000577952642
 31
0.0
  0
LINE
  5
412
330
1F
100
AcDbEntity
  8
0
100
AcDbLine
 10
-16.35865627747665
 20
24.00000344827572
 30
0.0
 11
-19.24540627747655
 21
29.00000111702525
 31
0.0
  0
LINE
  5
413
330
1F
100
AcDbEntity
  8
2
100
AcDbLine
 10
61.79996567262634
 20
201.8161582064191
 30
0.0
 11
61.79996567262634
 21
161.8161578064197
 31
0.0
  0
LINE
  5
414
330
1F
100
AcDbEntity
  8
2
100
AcDbLine
 10
24.69995567262623
 20
12.00011999999992
 30
0.0
 11
24.69995567262623
 21
36.0
 31
0.0
  0
LINE
  5
415
330
1F
100
AcDbEntity
  8
2
100
AcDbLine
 10
129.4999756726263
 20
52.00000030149749
 30
0.0
 11
61.79996567262634
 21
52.00000030149749
 31
0.0
  0
LINE
  5
416
330
1F
100
AcDbEntity
  8
2
100
AcDbLine
 10
24.69995567262623
 20
193.8161582064209
 30
0.0
 11
24.69995567262623
 21
169.8161582064209
 31
0.0
  0
LINE
  5
417
330
1F
100
AcDbEntity
  8
2
100
AcDbLine
 10
166.4999756726263
 20
194.8161582064191
 30
0.0
 11
166.4999756726263
 21
168.8161578064197
 31
0.0
  0
LINE
  5
418
330
1F
100
AcDbEntity
  8
2
100
AcDbLine
 10
129.4999756726263
 20
201.8161582064191
 30
0.0
 11
129.4999756726263
 21
161.8161578064197
 31
0.0
  0
CIRCLE
  5
419
330
1F
100
AcDbEntity
  8
0
100
AcDbCircle
 10
66.49999382270658
 20
197.0160052064201
 30
0.0
 40
3.5
  0
CIRCLE
  5
41A
330
1F
100
AcDbEntity
  8
0
100
AcDbCircle
 10
125.1999938227066
 20
166.8160052064201
 30
0.0
 40
3.5
  0
LINE
  5
41B
330
1F
100
AcDbEntity
  8
0
100
AcDbLine
 10
31.30554882270855
 20
136.0158492064189
 30
0.0
 11
27.55277182270885
 21
142.5158492064207
 31
0.0
  0
LINE
  5
41C
330
1F
100
AcDbEntity
  8
0
100
AcDbLine
 10
27.55277382270953
 20
129.5158512064196
 30
0.0
 11
31.30555082270922
 21
136.0158492064189
 31
0.0
  0
LINE
  5
41D
330
1F
100
AcDbEntity
  8
1
100
AcDbLine
 10
23.79999682270801
 20
145.3126837064198
 30
0.0
 11
23.79999682270801
 21
126.7190147064181
 31
0.0
  0
LINE
  5
41E
330
1F
100
AcDbEntity
  8
1
100
AcDbLine
 10
14.41086882270821
 20
136.015849206419
 30
0.0
 11
33.18912482270781
 21
136.0158492064189
 31
0.0
  0
LINE
  5
41F
330
1F
100
AcDbEntity
  8
2
100
AcDbLine
 10
24.69995567262623
 20
149.8158522064193
 30
0.0
 11
61.79996567262634
 21
149.8158522064192
 31
0.0
  0
LINE
  5
420
330
1F
100
AcDbEntity
  8
2
100
AcDbLine
 10
24.69995567262623
 20
125.8158522064193
 30
0.0
 11
61.79996567262634
 21
125.8158522064192
 31
0.0
  0
LINE
  5
421
330
1F
100
AcDbEntity
  8
2
100
AcDbLine
 10
61.79996567262634
 20
157.8158526064205
 30
0.0
 11
129.4999756726263
 21
157.8158526064204
 31
0.0
  0
LINE
  5
422
330
1F
100
AcDbEntity
  8
2
100
AcDbLine
 10
61.79996567262634
 20
117.8158522064211
 30
0.0
 11
129.4999756726263
 21
117.815852206421
 31
0.0
  0
LINE
  5
423
330
1F
100
AcDbEntity
  8
2
100
AcDbLine
 10
166.4999756726263
 20
124.815852206421
 30
0.0
 11
129.4999756726263
 21
124.815852206421
 31
0.0
  0
LINE
  5
424
330
1F
100
AcDbEntity
  8
2
100
AcDbLine
 10
166.4999756726263
 20
150.8158526064204
 30
0.0
 11
129.4999756726263
 21
150.8158526064204
 31
0.0
  0
LINE
  5
425
330
1F
100
AcDbEntity
  8
2
100
AcDbLine
 10
24.69995567262623
 20
125.8158522064193
 30
0.0
 11
24.69995567262623
 21
149.8158522064193
 31
0.0
  0
LINE
  5
426
330
1F
100
AcDbEntity
  8
2
100
AcDbLine
 10
61.79996567262634
 20
117.8158522064211
 30
0.0
 11
61.79996567262634
 21
157.8158526064205
 31
0.0
  0
LINE
  5
427
330
1F
100
AcDbEntity
  8
2
100
AcDbLine
 10
129.4999756726263
 20
117.815852206421
 30
0.0
 11
129.4999756726263
 21
157.8158526064204
 31
0.0
  0
LINE
  5
428
330
1F
100
AcDbEntity
  8
2
100
AcDbLine
 10
166.4999756726263
 20
124.815852206421
 30
0.0
 11
166.4999756726263
 21
150.8158526064204
 31
0.0
  0
CIRCLE
  5
429
330
1F
100
AcDbEntity
  8
0
100
AcDbCircle
 10
66.49999382270658
 20
152.8160052064201
 30
0.0
 40
3.5
  0
CIRCLE
  5
42A
330
1F
100
AcDbEntity
  8
0
100
AcDbCircle
 10
125.1999938227066
 20
122.6160052064201
 30
0.0
 40
3.5
  0
LINE
  5
42B
330
1F
100
AcDbEntity
  8
0
100
AcDbLine
 10
31.3055474140329
 20
183.6158482064207
 30
0.0
 11
27.55277382270566
 21
177.115848206419
 31
0.0
  0
LINE
  5
42C
330
1F
100
AcDbEntity
  8
1
100
AcDbLine
 10
23.79999682270801
 20
192.9126827064217
 30
0.0
 11
23.79999682270801
 21
174.3190137064199
 31
0.0
  0
LINE
  5
42D
330
1F
100
AcDbEntity
  8
1
100
AcDbLine
 10
14.41086882270821
 20
183.6158482064208
 30
0.0
 11
33.18912482270781
 21
183.6158482064207
 31
0.0
  0
LINE
  5
42E
330
1F
100
AcDbEntity
  8
0
100
AcDbLine
 10
49.49997567262636
 20
117.8161582064191
 30
0.0
 11
49.49997567262636
 21
201.8161582064191
 31
0.0
  0
LINE
  5
42F
330
1F
100
AcDbEntity
  8
0
100
AcDbLine
 10
41.99997567262636
 20
117.8161582064191
 30
0.0
 11
41.99997567262636
 21
201.8161582064191
 31
0.0
  0
LINE
  5
430
330
1F
100
AcDbEntity
  8
1
100
AcDbLine
 10
66.49999382270613
 20
191.0616630560387
 30
0.0
 11
66.49999382270613
 21
202.9703473568018
 31
0.0
  0
LINE
  5
431
330
1F
100
AcDbEntity
  8
1
100
AcDbLine
 10
60.5456516723246
 20
197.0160052064202
 30
0.0
 11
72.45433597308767
 21
197.0160052064202
 31
0.0
  0
LINE
  5
432
330
1F
100
AcDbEntity
  8
1
100
AcDbLine
 10
66.49999382270658
 20
146.8616630560386
 30
0.0
 11
66.49999382270658
 21
158.7703473568016
 31
0.0
  0
LINE
  5
433
330
1F
100
AcDbEntity
  8
1
100
AcDbLine
 10
60.54565167232505
 20
152.8160052064201
 30
0.0
 11
72.45433597308812
 21
152.8160052064201
 31
0.0
  0
LINE
  5
434
330
1F
100
AcDbEntity
  8
1
100
AcDbLine
 10
125.1999938227066
 20
160.8616630560385
 30
0.0
 11
125.1999938227066
 21
172.7703473568016
 31
0.0
  0
LINE
  5
435
330
1F
100
AcDbEntity
  8
1
100
AcDbLine
 10
119.2456516723251
 20
166.8160052064201
 30
0.0
 11
131.1543359730881
 21
166.8160052064201
 31
0.0
  0
LINE
  5
436
330
1F
100
AcDbEntity
  8
1
100
AcDbLine
 10
125.1999938227066
 20
116.6616630560386
 30
0.0
 11
125.1999938227066
 21
128.5703473568017
 31
0.0
  0
LINE
  5
437
330
1F
100
AcDbEntity
  8
1
100
AcDbLine
 10
119.2456516723251
 20
122.6160052064201
 30
0.0
 11
131.1543359730881
 21
122.6160052064201
 31
0.0
  0
VIEWPORT
  5
71
330
55
100
AcDbEntity
 67
     1
  8
0
100
AcDbViewport
 10
133.3499908447266
 20
101.5999970436096
 30
0.0
 40
381.3957395593835
 41
218.2856291881582
 68
     1
 69
     1
 12
133.3499908447266
 22
101.5999970436096
 13
0.0
 23
0.0
 14
10.0
 24
10.0
 15
10.0
 25
10.0
 16
0.0
 26
0.0
 36
1.0
 17
0.0
 27
0.0
 37
0.0
 42
50.0
 43
0.0
 44
0.0
 45
218.2856291881582
 50
0.0
 51
0.0
 72
   100
 90
    32800
  1

281
     0
 71
     1
 74
     0
110
0.0
120
0.0
130
0.0
111
1.0
121
0.0
131
0.0
112
0.0
122
1.0
132
0.0
 79
     0
146
0.0
170
     0
 61
     5
348
45F
292
     1
282
     1
141
0.0
142
0.0
 63
   250
421
  3355443
  0
VIEWPORT
  5
73
330
55
100
AcDbEntity
 67
     1
  8
0
100
AcDbViewport
 10
133.3499939441681
 20
101.5999939441681
 30
0.0
 40
213.3599903106689
 41
162.5599903106689
 68
     2
 69
     2
 12
210.0
 22
148.5
 13
0.0
 23
0.0
 14
10.0
 24
10.0
 15
10.0
 25
10.0
 16
0.0
 26
0.0
 36
1.0
 17
0.0
 27
0.0
 37
0.0
 42
50.0
 43
0.0
 44
0.0
 45
324.0677920111345
 50
0.0
 51
0.0
 72
   100
 90
    32864
  1

281
     0
 71
     1
 74
     0
110
0.0
120
0.0
130
0.0
111
1.0
121
0.0
131
0.0
112
0.0
122
1.0
132
0.0
 79
     0
146
0.0
170
     0
 61
     5
348
45F
292
     1
282
     1
141
0.0
142
0.0
 63
   250
421
  3355443
  0
ENDSEC
  0
SECTION
  2
OBJECTS
  0
DICTIONARY
  5
C
330
0
100
AcDbDictionary
281
     1
  3
ACAD_COLOR
350
46D
  3
ACAD_GROUP
350
D
  3
ACAD_LAYOUT
350
1A
  3
ACAD_MATERIAL
350
440
  3
ACAD_MLEADERSTYLE
350
482
  3
ACAD_MLINESTYLE
350
17
  3
ACAD_PLOTSETTINGS
350
19
  3
ACAD_PLOTSTYLENAME
350
E
  3
ACAD_SCALELIST
350
470
  3
ACAD_TABLESTYLE
350
46E
  3
ACAD_VISUALSTYLE
350
459
  3
ACDB_RECOMPOSE_DATA
350
491
  3
AcDbVariableDictionary
350
5E
  0
DICTIONARY
  5
97
330
2
100
AcDbDictionary
280
     1
281
     1
  3
ACAD_LAYERSTATES
360
98
  0
DICTIONARY
  5
486
330
10
100
AcDbDictionary
280
     1
281
     1
  3
ADSK_XREC_LAYER_RECONCILED
360
487
  0
DICTIONARY
  5
90
330
8F
100
AcDbDictionary
280
     1
281
     1
  3
ADSK_XREC_LAYER_RECONCILED
360
91
  0
DICTIONARY
  5
93
330
92
100
AcDbDictionary
280
     1
281
     1
  3
ADSK_XREC_LAYER_RECONCILED
360
94
  0
DICTIONARY
  5
46D
102
{ACAD_REACTORS
330
C
102
}
330
C
100
AcDbDictionary
281
     1
  0
DICTIONARY
  5
D
102
{ACAD_REACTORS
330
C
102
}
330
C
100
AcDbDictionary
281
     1
  0
DICTIONARY
  5
1A
102
{ACAD_REACTORS
330
C
102
}
330
C
100
AcDbDictionary
281
     1
  3
Model
350
22
  3
ﾚｲｱｳﾄ1
350
51
  3
ﾚｲｱｳﾄ2
350
56
  0
DICTIONARY
  5
440
102
{ACAD_REACTORS
330
C
102
}
330
C
100
AcDbDictionary
281
     1
  3
ByBlock
350
449
  3
ByLayer
350
441
  3
Global
350
451
  0
DICTIONARY
  5
482
102
{ACAD_REACTORS
330
C
102
}
330
C
100
AcDbDictionary
281
     1
  3
Standard
350
483
  0
DICTIONARY
  5
17
102
{ACAD_REACTORS
330
C
102
}
330
C
100
AcDbDictionary
281
     1
  3
Standard
350
18
  0
DICTIONARY
  5
19
102
{ACAD_REACTORS
330
C
102
}
330
C
100
AcDbDictionary
281
     1
  0
ACDBDICTIONARYWDFLT
  5
E
102
{ACAD_REACTORS
330
C
102
}
330
C
100
AcDbDictionary
281
     1
  3
Normal
350
F
100
AcDbDictionaryWithDefault
340
F
  0
DICTIONARY
  5
470
102
{ACAD_REACTORS
330
C
102
}
330
C
100
AcDbDictionary
281
     1
  3
A0
350
471
  3
A1
350
472
  3
A2
350
473
  3
A3
350
474
  3
A4
350
475
  3
A5
350
476
  3
A6
350
477
  3
A7
350
478
  3
A8
350
479
  3
A9
350
47A
  3
B0
350
47B
  3
B1
350
47C
  3
B2
350
47D
  3
B3
350
47E
  3
B4
350
47F
  3
B5
350
480
  3
B6
350
481
  0
DICTIONARY
  5
46E
102
{ACAD_REACTORS
330
C
102
}
330
C
100
AcDbDictionary
281
     1
  3
Standard
350
46F
  0
DICTIONARY
  5
459
102
{ACAD_REACTORS
330
C
102
}
330
C
100
AcDbDictionary
281
     1
  3
2dWireframe
350
45F
  3
3D Hidden
350
461
  3
3dWireframe
350
460
  3
Basic
350
45E
  3
Brighten
350
465
  3
ColorChange
350
469
  3
Conceptual
350
462
  3
Dim
350
464
  3
EdgeColorOff
350
46C
  3
Facepattern
350
468
  3
Flat
350
45A
  3
FlatWithEdges
350
45B
  3
Gouraud
350
45C
  3
GouraudWithEdges
350
45D
  3
JitterOff
350
46A
  3
Linepattern
350
467
  3
OverhangOff
350
46B
  3
Realistic
350
463
  3
Thicken
350
466
  0
XRECORD
  5
491
102
{ACAD_REACTORS
330
C
102
}
330
C
100
AcDbXrecord
280
     1
 90
        1
330
46F
  0
DICTIONARY
  5
5E
102
{ACAD_REACTORS
330
C
102
}
330
C
100
AcDbDictionary
281
     1
  3
CANNOSCALE
350
48B
  3
CMLEADERSTYLE
350
489
  3
CTABLESTYLE
350
488
  3
DIMASSOC
350
5F
  3
HIDETEXT
350
63
  3
LAYEREVAL
350
48D
  3
LAYERNOTIFY
350
48E
  3
LIGHTINGUNITS
350
48C
  3
MSLTSCALE
350
48A
  0
DICTIONARY
  5
98
102
{ACAD_REACTORS
330
97
102
}
330
97
100
AcDbDictionary
281
     1
  0
XRECORD
  5
487
102
{ACAD_REACTORS
330
486
102
}
330
486
100
AcDbXrecord
280
     1
290
     1
  0
XRECORD
  5
91
102
{ACAD_REACTORS
330
90
102
}
330
90
100
AcDbXrecord
280
     1
290
     1
  0
XRECORD
  5
94
102
{ACAD_REACTORS
330
93
102
}
330
93
100
AcDbXrecord
280
     1
290
     1
  0
LAYOUT
  5
22
102
{ACAD_REACTORS
330
1A
102
}
330
1A
100
AcDbPlotSettings
  1

  2
none_device
  4
ANSI_A_(8.50_x_11.00_Inches)
  6

 40
6.349999904632568
 41
19.04999923706055
 42
6.350006103515625
 43
19.04998779296875
 44
215.8999938964844
 45
279.3999938964844
 46
0.0
 47
0.0
 48
0.0
 49
0.0
140
0.0
141
0.0
142
1.0
143
78.436453180766
 70
 11952
 72
     0
 73
     1
 74
     0
  7

 75
     0
147
0.0127491741332998
 76
     0
 77
     2
 78
   300
148
0.0
149
0.0
100
AcDbLayout
  1
Model
 70
     1
 71
     0
 10
0.0
 20
0.0
 11
12.0
 21
9.0
 12
0.0
 22
0.0
 32
0.0
 14
0.0
 24
0.0
 34
0.0
 15
0.0
 25
0.0
 35
0.0
146
0.0
 13
0.0
 23
0.0
 33
0.0
 16
1.0
 26
0.0
 36
0.0
 17
0.0
 27
1.0
 37
0.0
 76
     0
330
1F
331
43E
  0
LAYOUT
  5
51
102
{ACAD_REACTORS
330
1A
102
}
330
1A
100
AcDbPlotSettings
  1

  2
none_device
  4
Letter_(8.50_x_11.00_Inches)
  6

 40
6.349999904632568
 41
6.349999904632568
 42
6.350006103515625
 43
6.350006103515625
 44
215.8999938964844
 45
279.3999938964844
 46
0.0
 47
0.0
 48
0.0
 49
0.0
140
0.0
141
0.0
142
1.0
143
1.0
 70
   688
 72
     1
 73
     1
 74
     5
  7

 75
    16
147
1.0
 76
     0
 77
     2
 78
   300
148
0.0
149
0.0
100
AcDbLayout
  1
ﾚｲｱｳﾄ1
 70
     1
 71
     1
 10
-6.350006103515625
 20
-6.349999904632568
 11
273.0499877929688
 21
209.5499939918518
 12
0.0
 22
0.0
 32
0.0
 14
26.66076962115563
 24
20.31135699206658
 34
-0.0015258207003583
 15
240.039213369355
 25
182.8886381005154
 35
0.0000000349246037
146
0.0
 13
0.0
 23
0.0
 33
0.0
 16
1.0
 26
0.0
 36
0.0
 17
0.0
 27
1.0
 37
0.0
 76
     0
330
50
331
6B
  0
LAYOUT
  5
56
102
{ACAD_REACTORS
330
1A
102
}
330
1A
100
AcDbPlotSettings
  1

  2
none_device
  4
Letter_(8.50_x_11.00_Inches)
  6

 40
6.349999904632568
 41
6.349999904632568
 42
6.350006103515625
 43
6.350006103515625
 44
215.8999938964844
 45
279.3999938964844
 46
0.0
 47
0.0
 48
0.0
 49
0.0
140
0.0
141
0.0
142
1.0
143
1.0
 70
   688
 72
     1
 73
     1
 74
     5
  7

 75
    16
147
1.0
 76
     0
 77
     2
 78
   300
148
0.0
149
0.0
100
AcDbLayout
  1
ﾚｲｱｳﾄ2
 70
     1
 71
     2
 10
-6.350006103515625
 20
-6.349999904632568
 11
273.0499877929688
 21
209.5499939918518
 12
0.0
 22
0.0
 32
0.0
 14
26.66076962115563
 24
20.31135699206658
 34
-0.0015258207003583
 15
240.039213369355
 25
182.8886381005154
 35
0.0000000349246037
146
0.0
 13
0.0
 23
0.0
 33
0.0
 16
1.0
 26
0.0
 36
0.0
 17
0.0
 27
1.0
 37
0.0
 76
     0
330
55
331
71
  0
MATERIAL
  5
449
102
{ACAD_XDICTIONARY
360
44A
102
}
102
{ACAD_REACTORS
330
440
102
}
330
440
100
AcDbMaterial
  1
ByBlock
 72
     0
 43
0.0008202099737533
 43
0.0
 43
0.0
 43
0.0
 43
0.0
 43
0.0008202099737533
 43
0.0
 43
0.0
 43
0.0
 43
0.0
 43
1.0
 43
0.0
 43
0.0
 43
0.0
 43
0.0
 43
1.0
 77
     0
 47
0.0008202099737533
 47
0.0
 47
0.0
 47
0.0
 47
0.0
 47
0.0008202099737533
 47
0.0
 47
0.0
 47
0.0
 47
0.0
 47
1.0
 47
0.0
 47
0.0
 47
0.0
 47
0.0
 47
1.0
171
     0
 49
0.0008202099737533
 49
0.0
 49
0.0
 49
0.0
 49
0.0
 49
0.0008202099737533
 49
0.0
 49
0.0
 49
0.0
 49
0.0
 49
1.0
 49
0.0
 49
0.0
 49
0.0
 49
0.0
 49
1.0
175
     0
142
0.0008202099737533
142
0.0
142
0.0
142
0.0
142
0.0
142
0.0008202099737533
142
0.0
142
0.0
142
0.0
142
0.0
142
1.0
142
0.0
142
0.0
142
0.0
142
0.0
142
1.0
179
     0
144
0.0008202099737533
144
0.0
144
0.0
144
0.0
144
0.0
144
0.0008202099737533
144
0.0
144
0.0
144
0.0
144
0.0
144
1.0
144
0.0
144
0.0
144
0.0
144
0.0
144
1.0
147
0.0008202099737533
147
0.0
147
0.0
147
0.0
147
0.0
147
0.0008202099737533
147
0.0
147
0.0
147
0.0
147
0.0
147
1.0
147
0.0
147
0.0
147
0.0
147
0.0
147
1.0
  0
MATERIAL
  5
441
102
{ACAD_XDICTIONARY
360
442
102
}
102
{ACAD_REACTORS
330
440
102
}
330
440
100
AcDbMaterial
  1
ByLayer
 72
     0
 43
0.0008202099737533
 43
0.0
 43
0.0
 43
0.0
 43
0.0
 43
0.0008202099737533
 43
0.0
 43
0.0
 43
0.0
 43
0.0
 43
1.0
 43
0.0
 43
0.0
 43
0.0
 43
0.0
 43
1.0
 77
     0
 47
0.0008202099737533
 47
0.0
 47
0.0
 47
0.0
 47
0.0
 47
0.0008202099737533
 47
0.0
 47
0.0
 47
0.0
 47
0.0
 47
1.0
 47
0.0
 47
0.0
 47
0.0
 47
0.0
 47
1.0
171
     0
 49
0.0008202099737533
 49
0.0
 49
0.0
 49
0.0
 49
0.0
 49
0.0008202099737533
 49
0.0
 49
0.0
 49
0.0
 49
0.0
 49
1.0
 49
0.0
 49
0.0
 49
0.0
 49
0.0
 49
1.0
175
     0
142
0.0008202099737533
142
0.0
142
0.0
142
0.0
142
0.0
142
0.0008202099737533
142
0.0
142
0.0
142
0.0
142
0.0
142
1.0
142
0.0
142
0.0
142
0.0
142
0.0
142
1.0
179
     0
144
0.0008202099737533
144
0.0
144
0.0
144
0.0
144
0.0
144
0.0008202099737533
144
0.0
144
0.0
144
0.0
144
0.0
144
1.0
144
0.0
144
0.0
144
0.0
144
0.0
144
1.0
147
0.0008202099737533
147
0.0
147
0.0
147
0.0
147
0.0
147
0.0008202099737533
147
0.0
147
0.0
147
0.0
147
0.0
147
1.0
147
0.0
147
0.0
147
0.0
147
0.0
147
1.0
  0
MATERIAL
  5
451
102
{ACAD_XDICTIONARY
360
452
102
}
102
{ACAD_REACTORS
330
440
102
}
330
440
100
AcDbMaterial
  1
Global
 72
     0
 43
0.0008202099737533
 43
0.0
 43
0.0
 43
0.0
 43
0.0
 43
0.0008202099737533
 43
0.0
 43
0.0
 43
0.0
 43
0.0
 43
1.0
 43
0.0
 43
0.0
 43
0.0
 43
0.0
 43
1.0
 77
     0
 47
0.0008202099737533
 47
0.0
 47
0.0
 47
0.0
 47
0.0
 47
0.0008202099737533
 47
0.0
 47
0.0
 47
0.0
 47
0.0
 47
1.0
 47
0.0
 47
0.0
 47
0.0
 47
0.0
 47
1.0
171
     0
 49
0.0008202099737533
 49
0.0
 49
0.0
 49
0.0
 49
0.0
 49
0.0008202099737533
 49
0.0
 49
0.0
 49
0.0
 49
0.0
 49
1.0
 49
0.0
 49
0.0
 49
0.0
 49
0.0
 49
1.0
175
     0
142
0.0008202099737533
142
0.0
142
0.0
142
0.0
142
0.0
142
0.0008202099737533
142
0.0
142
0.0
142
0.0
142
0.0
142
1.0
142
0.0
142
0.0
142
0.0
142
0.0
142
1.0
179
     0
144
0.0008202099737533
144
0.0
144
0.0
144
0.0
144
0.0
144
0.0008202099737533
144
0.0
144
0.0
144
0.0
144
0.0
144
1.0
144
0.0
144
0.0
144
0.0
144
0.0
144
1.0
147
0.0008202099737533
147
0.0
147
0.0
147
0.0
147
0.0
147
0.0008202099737533
147
0.0
147
0.0
147
0.0
147
0.0
147
1.0
147
0.0
147
0.0
147
0.0
147
0.0
147
1.0
  0
MLEADERSTYLE
  5
483
102
{ACAD_REACTORS
330
482
102
}
330
482
100
AcDbMLeaderStyle
179
     2
170
     2
171
     1
172
     0
 90
        2
 40
0.0
 41
0.0
173
     1
 91
-1056964608
340
14
 92
       -2
290
     1
 42
2.0
291
     1
 43
0.36
  3
Standard
 44
4.0
300

342
11
174
     1
178
     6
175
     1
176
     0
 93
-1056964608
 45
4.0
292
     0
297
     0
 46
4.0
 94
-1056964608
 47
1.0
 49
1.0
140
1.0
293
     1
141
0.0
294
     1
177
     0
142
1.0
295
     1
296
     0
143
0.125
271
     0
272
     9
273
     9
  0
MLINESTYLE
  5
18
102
{ACAD_REACTORS
330
17
102
}
330
17
100
AcDbMlineStyle
  2
STANDARD
 70
     0
  3

 62
   256
 51
90.0
 52
90.0
 71
     2
 49
0.5
 62
   256
  6
BYLAYER
 49
-0.5
 62
   256
  6
BYLAYER
  0
ACDBPLACEHOLDER
  5
F
102
{ACAD_REACTORS
330
E
102
}
330
E
  0
SCALE
  5
471
102
{ACAD_REACTORS
330
470
102
}
330
470
100
AcDbScale
 70
     0
300
1:1
140
1.0
141
1.0
290
     1
  0
SCALE
  5
472
102
{ACAD_REACTORS
330
470
102
}
330
470
100
AcDbScale
 70
     0
300
1:2
140
1.0
141
2.0
290
     0
  0
SCALE
  5
473
102
{ACAD_REACTORS
330
470
102
}
330
470
100
AcDbScale
 70
     0
300
1:4
140
1.0
141
4.0
290
     0
  0
SCALE
  5
474
102
{ACAD_REACTORS
330
470
102
}
330
470
100
AcDbScale
 70
     0
300
1:5
140
1.0
141
5.0
290
     0
  0
SCALE
  5
475
102
{ACAD_REACTORS
330
470
102
}
330
470
100
AcDbScale
 70
     0
300
1:8
140
1.0
141
8.0
290
     0
  0
SCALE
  5
476
102
{ACAD_REACTORS
330
470
102
}
330
470
100
AcDbScale
 70
     0
300
1:10
140
1.0
141
10.0
290
     0
  0
SCALE
  5
477
102
{ACAD_REACTORS
330
470
102
}
330
470
100
AcDbScale
 70
     0
300
1:16
140
1.0
141
16.0
290
     0
  0
SCALE
  5
478
102
{ACAD_REACTORS
330
470
102
}
330
470
100
AcDbScale
 70
     0
300
1:20
140
1.0
141
20.0
290
     0
  0
SCALE
  5
479
102
{ACAD_REACTORS
330
470
102
}
330
470
100
AcDbScale
 70
     0
300
1:30
140
1.0
141
30.0
290
     0
  0
SCALE
  5
47A
102
{ACAD_REACTORS
330
470
102
}
330
470
100
AcDbScale
 70
     0
300
1:40
140
1.0
141
40.0
290
     0
  0
SCALE
  5
47B
102
{ACAD_REACTORS
330
470
102
}
330
470
100
AcDbScale
 70
     0
300
1:50
140
1.0
141
50.0
290
     0
  0
SCALE
  5
47C
102
{ACAD_REACTORS
330
470
102
}
330
470
100
AcDbScale
 70
     0
300
1:100
140
1.0
141
100.0
290
     0
  0
SCALE
  5
47D
102
{ACAD_REACTORS
330
470
102
}
330
470
100
AcDbScale
 70
     0
300
2:1
140
2.0
141
1.0
290
     0
  0
SCALE
  5
47E
102
{ACAD_REACTORS
330
470
102
}
330
470
100
AcDbScale
 70
     0
300
4:1
140
4.0
141
1.0
290
     0
  0
SCALE
  5
47F
102
{ACAD_REACTORS
330
470
102
}
330
470
100
AcDbScale
 70
     0
300
8:1
140
8.0
141
1.0
290
     0
  0
SCALE
  5
480
102
{ACAD_REACTORS
330
470
102
}
330
470
100
AcDbScale
 70
     0
300
10:1
140
10.0
141
1.0
290
     0
  0
SCALE
  5
481
102
{ACAD_REACTORS
330
470
102
}
330
470
100
AcDbScale
 70
     0
300
100:1
140
100.0
141
1.0
290
     0
  0
TABLESTYLE
  5
46F
102
{ACAD_XDICTIONARY
360
48F
102
}
102
{ACAD_REACTORS
330
46E
102
}
330
46E
100
AcDbTableStyle
280
     0
  3
Standard
 70
     0
 71
     0
 40
1.5
 41
1.5
280
     0
281
     0
  7
Standard
140
4.5
170
     2
 62
     0
 63
     7
283
     0
 90
      512
 91
        0
  1

274
    -2
284
     1
 64
     0
275
    -2
285
     1
 65
     0
276
    -2
286
     1
 66
     0
277
    -2
287
     1
 67
     0
278
    -2
288
     1
 68
     0
279
    -2
289
     1
 69
     0
  7
Standard
140
6.0
170
     5
 62
     0
 63
     7
283
     0
 90
      512
 91
        0
  1

274
    -2
284
     1
 64
     0
275
    -2
285
     1
 65
     0
276
    -2
286
     1
 66
     0
277
    -2
287
     1
 67
     0
278
    -2
288
     1
 68
     0
279
    -2
289
     1
 69
     0
  7
Standard
140
4.5
170
     5
 62
     0
 63
     7
283
     0
 90
      512
 91
        0
  1

274
    -2
284
     1
 64
     0
275
    -2
285
     1
 65
     0
276
    -2
286
     1
 66
     0
277
    -2
287
     1
 67
     0
278
    -2
288
     1
 68
     0
279
    -2
289
     1
 69
     0
  0
VISUALSTYLE
  5
45F
102
{ACAD_REACTORS
330
459
102
}
330
459
100
AcDbVisualStyle
  2
2dWireframe
 70
     4
177
     2
291
     0
 71
     0
176
     1
 72
     2
176
     1
 73
     0
176
     1
 90
        0
176
     1
 40
0.6
176
     1
 41
30.0
176
     1
 63
     7
421
 16777215
176
     1
 74
     1
176
     1
 91
        4
176
     1
 64
     7
176
     1
 65
   257
176
     1
 75
     1
176
     1
175
     1
176
     1
 42
1.0
176
     1
 92
        0
176
     1
 66
   257
176
     1
 43
1.0
176
     1
 76
     1
176
     1
 77
     6
176
     1
 78
     2
176
     1
 67
     7
176
     1
 79
     5
176
     1
170
     0
176
     1
171
     0
176
     1
290
     0
176
     1
 93
        1
176
     1
 44
0.0
176
     1
173
     0
176
     1
  0
VISUALSTYLE
  5
461
102
{ACAD_REACTORS
330
459
102
}
330
459
100
AcDbVisualStyle
  2
3D Hidden
 70
     6
177
     2
291
     0
 71
     1
176
     1
 72
     2
176
     1
 73
     2
176
     1
 90
        0
176
     1
 40
0.6
176
     1
 41
30.0
176
     1
 63
     7
421
 16777215
176
     1
 74
     2
176
     1
 91
        2
176
     1
 64
     7
176
     1
 65
   257
176
     1
 75
     2
176
     1
175
     1
176
     1
 42
179.0
176
     1
 92
        0
176
     1
 66
   257
176
     1
 43
1.0
176
     1
 76
     1
176
     1
 77
     6
176
     1
 78
     2
176
     1
 67
     7
176
     1
 79
     3
176
     1
170
     0
176
     1
171
     0
176
     1
290
     0
176
     1
 93
        1
176
     1
 44
0.0
176
     1
173
     0
176
     1
  0
VISUALSTYLE
  5
460
102
{ACAD_REACTORS
330
459
102
}
330
459
100
AcDbVisualStyle
  2
3dWireframe
 70
     5
177
     2
291
     0
 71
     0
176
     1
 72
     2
176
     1
 73
     0
176
     1
 90
        0
176
     1
 40
0.6
176
     1
 41
30.0
176
     1
 63
     7
421
 16777215
176
     1
 74
     1
176
     1
 91
        4
176
     1
 64
     7
176
     1
 65
   257
176
     1
 75
     1
176
     1
175
     1
176
     1
 42
1.0
176
     1
 92
        0
176
     1
 66
   257
176
     1
 43
1.0
176
     1
 76
     1
176
     1
 77
     6
176
     1
 78
     2
176
     1
 67
     7
176
     1
 79
     5
176
     1
170
     0
176
     1
171
     0
176
     1
290
     0
176
     1
 93
        1
176
     1
 44
0.0
176
     1
173
     0
176
     1
  0
VISUALSTYLE
  5
45E
102
{ACAD_REACTORS
330
459
102
}
330
459
100
AcDbVisualStyle
  2
Basic
 70
     7
177
     2
291
     1
 71
     1
176
     1
 72
     0
176
     1
 73
     1
176
     1
 90
        0
176
     1
 40
0.6
176
     1
 41
30.0
176
     1
 63
     7
421
 16777215
176
     1
 74
     0
176
     1
 91
        4
176
     1
 64
     7
176
     1
 65
   257
176
     1
 75
     1
176
     1
175
     1
176
     1
 42
1.0
176
     1
 92
        8
176
     1
 66
     7
176
     1
 43
1.0
176
     1
 76
     1
176
     1
 77
     6
176
     1
 78
     2
176
     1
 67
     7
176
     1
 79
     5
176
     1
170
     0
176
     1
171
     0
176
     1
290
     0
176
     1
 93
        1
176
     1
 44
0.0
176
     1
173
     0
176
     1
  0
VISUALSTYLE
  5
465
102
{ACAD_REACTORS
330
459
102
}
330
459
100
AcDbVisualStyle
  2
Brighten
 70
    12
177
     2
291
     1
 71
     2
176
     1
 72
     2
176
     1
 73
     0
176
     1
 90
        0
176
     1
 40
0.6
176
     1
 41
30.0
176
     1
 63
     7
421
 16777215
176
     1
 74
     1
176
     1
 91
        4
176
     1
 64
     7
176
     1
 65
   257
176
     1
 75
     1
176
     1
175
     1
176
     1
 42
1.0
176
     1
 92
        8
176
     1
 66
     7
176
     1
 43
1.0
176
     1
 76
     1
176
     1
 77
     6
176
     1
 78
     2
176
     1
 67
     7
176
     1
 79
     5
176
     1
170
     0
176
     1
171
     0
176
     1
290
     0
176
     1
 93
        1
176
     1
 44
50.0
176
     1
173
     0
176
     1
  0
VISUALSTYLE
  5
469
102
{ACAD_REACTORS
330
459
102
}
330
459
100
AcDbVisualStyle
  2
ColorChange
 70
    16
177
     2
291
     1
 71
     2
176
     1
 72
     2
176
     1
 73
     3
176
     1
 90
        0
176
     1
 40
0.6
176
     1
 41
30.0
176
     1
 63
     8
421
  8421504
176
     1
 74
     1
176
     1
 91
        4
176
     1
 64
     7
176
     1
 65
   257
176
     1
 75
     1
176
     1
175
     1
176
     1
 42
1.0
176
     1
 92
        8
176
     1
 66
     8
424
  8421504
176
     1
 43
1.0
176
     1
 76
     1
176
     1
 77
     6
176
     1
 78
     2
176
     1
 67
     7
176
     1
 79
     5
176
     1
170
     0
176
     1
171
     0
176
     1
290
     0
176
     1
 93
        1
176
     1
 44
0.0
176
     1
173
     0
176
     1
  0
VISUALSTYLE
  5
462
102
{ACAD_REACTORS
330
459
102
}
330
459
100
AcDbVisualStyle
  2
Conceptual
 70
     9
177
     2
291
     0
 71
     3
176
     1
 72
     2
176
     1
 73
     0
176
     1
 90
        0
176
     1
 40
0.6
176
     1
 41
30.0
176
     1
 63
     7
421
 16777215
176
     1
 74
     2
176
     1
 91
        2
176
     1
 64
     7
176
     1
 65
   257
176
     1
 75
     1
176
     1
175
     1
176
     1
 42
179.0
176
     1
 92
        8
176
     1
 66
     7
176
     1
 43
1.0
176
     1
 76
     1
176
     1
 77
     6
176
     1
 78
     2
176
     1
 67
     7
176
     1
 79
     3
176
     1
170
     0
176
     1
171
     0
176
     1
290
     0
176
     1
 93
        1
176
     1
 44
0.0
176
     1
173
     0
176
     1
  0
VISUALSTYLE
  5
464
102
{ACAD_REACTORS
330
459
102
}
330
459
100
AcDbVisualStyle
  2
Dim
 70
    11
177
     2
291
     1
 71
     2
176
     1
 72
     2
176
     1
 73
     0
176
     1
 90
        0
176
     1
 40
0.6
176
     1
 41
30.0
176
     1
 63
     7
421
 16777215
176
     1
 74
     1
176
     1
 91
        4
176
     1
 64
     7
176
     1
 65
   257
176
     1
 75
     1
176
     1
175
     1
176
     1
 42
1.0
176
     1
 92
        8
176
     1
 66
     7
176
     1
 43
1.0
176
     1
 76
     1
176
     1
 77
     6
176
     1
 78
     2
176
     1
 67
     7
176
     1
 79
     5
176
     1
170
     0
176
     1
171
     0
176
     1
290
     0
176
     1
 93
        1
176
     1
 44
-50.0
176
     1
173
     0
176
     1
  0
VISUALSTYLE
  5
46C
102
{ACAD_REACTORS
330
459
102
}
330
459
100
AcDbVisualStyle
  2
EdgeColorOff
 70
    22
177
     2
291
     1
 71
     2
176
     0
 72
     2
176
     0
 73
     0
176
     0
 90
        0
176
     0
 40
0.6
176
     0
 41
30.0
176
     0
 63
     7
421
 16777215
176
     0
 74
     1
176
     0
 91
        4
176
     0
 64
     7
176
     0
 65
   257
176
     0
 75
     1
176
     0
175
     1
176
     0
 42
1.0
176
     0
 92
        8
176
     2
 66
     7
176
     0
 43
1.0
176
     0
 76
     1
176
     0
 77
     6
176
     0
 78
     2
176
     0
 67
     7
176
     0
 79
     5
176
     0
170
     0
176
     0
171
     0
176
     0
290
     0
176
     0
 93
        1
176
     0
 44
0.0
176
     0
173
     0
176
     0
  0
VISUALSTYLE
  5
468
102
{ACAD_REACTORS
330
459
102
}
330
459
100
AcDbVisualStyle
  2
Facepattern
 70
    15
177
     2
291
     1
 71
     2
176
     1
 72
     2
176
     1
 73
     0
176
     1
 90
        0
176
     1
 40
0.6
176
     1
 41
30.0
176
     1
 63
     7
421
 16777215
176
     1
 74
     1
176
     1
 91
        4
176
     1
 64
     7
176
     1
 65
   257
176
     1
 75
     1
176
     1
175
     1
176
     1
 42
1.0
176
     1
 92
        8
176
     1
 66
     7
176
     1
 43
1.0
176
     1
 76
     1
176
     1
 77
     6
176
     1
 78
     2
176
     1
 67
     7
176
     1
 79
     5
176
     1
170
     0
176
     1
171
     0
176
     1
290
     0
176
     1
 93
        1
176
     1
 44
0.0
176
     1
173
     0
176
     1
  0
VISUALSTYLE
  5
45A
102
{ACAD_REACTORS
330
459
102
}
330
459
100
AcDbVisualStyle
  2
Flat
 70
     0
177
     2
291
     1
 71
     2
176
     1
 72
     1
176
     1
 73
     1
176
     1
 90
        2
176
     1
 40
0.6
176
     1
 41
30.0
176
     1
 63
     7
421
 16777215
176
     1
 74
     0
176
     1
 91
        4
176
     1
 64
     7
176
     1
 65
   257
176
     1
 75
     1
176
     1
175
     1
176
     1
 42
1.0
176
     1
 92
        8
176
     1
 66
     7
176
     1
 43
1.0
176
     1
 76
     1
176
     1
 77
     6
176
     1
 78
     2
176
     1
 67
     7
176
     1
 79
     5
176
     1
170
     0
176
     1
171
     0
176
     1
290
     0
176
     1
 93
       13
176
     1
 44
0.0
176
     1
173
     0
176
     1
  0
VISUALSTYLE
  5
45B
102
{ACAD_REACTORS
330
459
102
}
330
459
100
AcDbVisualStyle
  2
FlatWithEdges
 70
     1
177
     2
291
     1
 71
     2
176
     1
 72
     1
176
     1
 73
     1
176
     1
 90
        2
176
     1
 40
0.6
176
     1
 41
30.0
176
     1
 63
     7
421
 16777215
176
     1
 74
     1
176
     1
 91
        4
176
     1
 64
     7
176
     1
 65
   257
176
     1
 75
     1
176
     1
175
     1
176
     1
 42
1.0
176
     1
 92
        0
176
     1
 66
   257
176
     1
 43
1.0
176
     1
 76
     1
176
     1
 77
     6
176
     1
 78
     2
176
     1
 67
     7
176
     1
 79
     5
176
     1
170
     0
176
     1
171
     0
176
     1
290
     0
176
     1
 93
       13
176
     1
 44
0.0
176
     1
173
     0
176
     1
  0
VISUALSTYLE
  5
45C
102
{ACAD_REACTORS
330
459
102
}
330
459
100
AcDbVisualStyle
  2
Gouraud
 70
     2
177
     2
291
     1
 71
     2
176
     1
 72
     2
176
     1
 73
     1
176
     1
 90
        2
176
     1
 40
0.6
176
     1
 41
30.0
176
     1
 63
     7
421
 16777215
176
     1
 74
     0
176
     1
 91
        4
176
     1
 64
     7
176
     1
 65
   257
176
     1
 75
     1
176
     1
175
     1
176
     1
 42
1.0
176
     1
 92
        0
176
     1
 66
     7
176
     1
 43
1.0
176
     1
 76
     1
176
     1
 77
     6
176
     1
 78
     2
176
     1
 67
     7
176
     1
 79
     5
176
     1
170
     0
176
     1
171
     0
176
     1
290
     0
176
     1
 93
       13
176
     1
 44
0.0
176
     1
173
     0
176
     1
  0
VISUALSTYLE
  5
45D
102
{ACAD_REACTORS
330
459
102
}
330
459
100
AcDbVisualStyle
  2
GouraudWithEdges
 70
     3
177
     2
291
     1
 71
     2
176
     1
 72
     2
176
     1
 73
     1
176
     1
 90
        2
176
     1
 40
0.6
176
     1
 41
30.0
176
     1
 63
     7
421
 16777215
176
     1
 74
     1
176
     1
 91
        4
176
     1
 64
     7
176
     1
 65
   257
176
     1
 75
     1
176
     1
175
     1
176
     1
 42
1.0
176
     1
 92
        0
176
     1
 66
   257
176
     1
 43
1.0
176
     1
 76
     1
176
     1
 77
     6
176
     1
 78
     2
176
     1
 67
     7
176
     1
 79
     5
176
     1
170
     0
176
     1
171
     0
176
     1
290
     0
176
     1
 93
       13
176
     1
 44
0.0
176
     1
173
     0
176
     1
  0
VISUALSTYLE
  5
46A
102
{ACAD_REACTORS
330
459
102
}
330
459
100
AcDbVisualStyle
  2
JitterOff
 70
    20
177
     2
291
     1
 71
     2
176
     0
 72
     2
176
     0
 73
     0
176
     0
 90
        0
176
     0
 40
0.6
176
     0
 41
30.0
176
     0
 63
     7
421
 16777215
176
     0
 74
     1
176
     0
 91
        4
176
     0
 64
     7
176
     0
 65
   257
176
     0
 75
     1
176
     0
175
     1
176
     0
 42
1.0
176
     0
 92
       10
176
     2
 66
     7
176
     0
 43
1.0
176
     0
 76
     1
176
     0
 77
     6
176
     0
 78
     2
176
     0
 67
     7
176
     0
 79
     5
176
     0
170
     0
176
     0
171
     0
176
     0
290
     0
176
     0
 93
        1
176
     0
 44
0.0
176
     0
173
     0
176
     0
  0
VISUALSTYLE
  5
467
102
{ACAD_REACTORS
330
459
102
}
330
459
100
AcDbVisualStyle
  2
Linepattern
 70
    14
177
     2
291
     1
 71
     2
176
     1
 72
     2
176
     1
 73
     0
176
     1
 90
        0
176
     1
 40
0.6
176
     1
 41
30.0
176
     1
 63
     7
421
 16777215
176
     1
 74
     1
176
     1
 91
        4
176
     1
 64
     7
176
     1
 65
   257
176
     1
 75
     7
176
     1
175
     7
176
     1
 42
1.0
176
     1
 92
        8
176
     1
 66
     7
176
     1
 43
1.0
176
     1
 76
     1
176
     1
 77
     6
176
     1
 78
     2
176
     1
 67
     7
176
     1
 79
     5
176
     1
170
     0
176
     1
171
     0
176
     1
290
     0
176
     1
 93
        1
176
     1
 44
0.0
176
     1
173
     0
176
     1
  0
VISUALSTYLE
  5
46B
102
{ACAD_REACTORS
330
459
102
}
330
459
100
AcDbVisualStyle
  2
OverhangOff
 70
    21
177
     2
291
     1
 71
     2
176
     0
 72
     2
176
     0
 73
     0
176
     0
 90
        0
176
     0
 40
0.6
176
     0
 41
30.0
176
     0
 63
     7
421
 16777215
176
     0
 74
     1
176
     0
 91
        4
176
     0
 64
     7
176
     0
 65
   257
176
     0
 75
     1
176
     0
175
     1
176
     0
 42
1.0
176
     0
 92
        9
176
     2
 66
     7
176
     0
 43
1.0
176
     0
 76
     1
176
     0
 77
     6
176
     0
 78
     2
176
     0
 67
     7
176
     0
 79
     5
176
     0
170
     0
176
     0
171
     0
176
     0
290
     0
176
     0
 93
        1
176
     0
 44
0.0
176
     0
173
     0
176
     0
  0
VISUALSTYLE
  5
463
102
{ACAD_REACTORS
330
459
102
}
330
459
100
AcDbVisualStyle
  2
Realistic
 70
     8
177
     2
291
     0
 71
     2
176
     1
 72
     2
176
     1
 73
     0
176
     1
 90
        0
176
     1
 40
0.6
176
     1
 41
30.0
176
     1
 63
     7
421
 16777215
176
     1
 74
     1
176
     1
 91
        0
176
     1
 64
     7
176
     1
 65
   257
176
     1
 75
     1
176
     1
175
     1
176
     1
 42
1.0
176
     1
 92
        8
176
     1
 66
     8
424
  7895160
176
     1
 43
1.0
176
     1
 76
     1
176
     1
 77
     6
176
     1
 78
     2
176
     1
 67
     7
176
     1
 79
     5
176
     1
170
     0
176
     1
171
     0
176
     1
290
     0
176
     1
 93
       13
176
     1
 44
0.0
176
     1
173
     0
176
     1
  0
VISUALSTYLE
  5
466
102
{ACAD_REACTORS
330
459
102
}
330
459
100
AcDbVisualStyle
  2
Thicken
 70
    13
177
     2
291
     1
 71
     2
176
     1
 72
     2
176
     1
 73
     0
176
     1
 90
        0
176
     1
 40
0.6
176
     1
 41
30.0
176
     1
 63
     7
421
 16777215
176
     1
 74
     1
176
     1
 91
        4
176
     1
 64
     7
176
     1
 65
   257
176
     1
 75
     1
176
     1
175
     1
176
     1
 42
1.0
176
     1
 92
       12
176
     1
 66
     7
176
     1
 43
1.0
176
     1
 76
     1
176
     1
 77
     6
176
     1
 78
     2
176
     1
 67
     7
176
     1
 79
     5
176
     1
170
     0
176
     1
171
     0
176
     1
290
     0
176
     1
 93
        1
176
     1
 44
0.0
176
     1
173
     0
176
     1
  0
DICTIONARYVAR
  5
48B
102
{ACAD_REACTORS
330
5E
102
}
330
5E
100
DictionaryVariables
280
     0
  1
1:1
  0
DICTIONARYVAR
  5
489
102
{ACAD_REACTORS
330
5E
102
}
330
5E
100
DictionaryVariables
280
     0
  1
STANDARD
  0
DICTIONARYVAR
  5
488
102
{ACAD_REACTORS
330
5E
102
}
330
5E
100
DictionaryVariables
280
     0
  1
STANDARD
  0
DICTIONARYVAR
  5
5F
102
{ACAD_REACTORS
330
5E
102
}
330
5E
100
DictionaryVariables
280
     0
  1
2
  0
DICTIONARYVAR
  5
63
102
{ACAD_REACTORS
330
5E
102
}
330
5E
100
DictionaryVariables
280
     0
  1
1
  0
DICTIONARYVAR
  5
48D
102
{ACAD_REACTORS
330
5E
102
}
330
5E
100
DictionaryVariables
280
     0
  1
1
  0
DICTIONARYVAR
  5
48E
102
{ACAD_REACTORS
330
5E
102
}
330
5E
100
DictionaryVariables
280
     0
  1
15
  0
DICTIONARYVAR
  5
48C
102
{ACAD_REACTORS
330
5E
102
}
330
5E
100
DictionaryVariables
280
     0
  1
0
  0
DICTIONARYVAR
  5
48A
102
{ACAD_REACTORS
330
5E
102
}
330
5E
100
DictionaryVariables
280
     0
  1
0
  0
DICTIONARY
  5
44A
330
449
100
AcDbDictionary
280
     1
281
     1
  3
BUMPTILE
360
44C
  3
DIFFUSETILE
360
44B
  3
OPACITYTILE
360
44F
  3
REFLECTIONTILE
360
44E
  3
REFRACTIONTILE
360
450
  3
SPECULARTILE
360
44D
  0
DICTIONARY
  5
442
330
441
100
AcDbDictionary
280
     1
281
     1
  3
BUMPTILE
360
444
  3
DIFFUSETILE
360
443
  3
OPACITYTILE
360
447
  3
REFLECTIONTILE
360
446
  3
REFRACTIONTILE
360
448
  3
SPECULARTILE
360
445
  0
DICTIONARY
  5
452
330
451
100
AcDbDictionary
280
     1
281
     1
  3
BUMPTILE
360
454
  3
DIFFUSETILE
360
453
  3
OPACITYTILE
360
457
  3
REFLECTIONTILE
360
456
  3
REFRACTIONTILE
360
458
  3
SPECULARTILE
360
455
  0
DICTIONARY
  5
48F
330
46F
100
AcDbDictionary
280
     1
281
     1
  3
ACAD_ROUNDTRIP_2008_TABLESTYLE_CELLSTYLEMAP
360
490
  0
XRECORD
  5
44C
102
{ACAD_REACTORS
330
44A
102
}
330
44A
100
AcDbXrecord
280
     1
270
     1
271
     1
  0
XRECORD
  5
44B
102
{ACAD_REACTORS
330
44A
102
}
330
44A
100
AcDbXrecord
280
     1
270
     1
271
     1
  0
XRECORD
  5
44F
102
{ACAD_REACTORS
330
44A
102
}
330
44A
100
AcDbXrecord
280
     1
270
     1
271
     1
  0
XRECORD
  5
44E
102
{ACAD_REACTORS
330
44A
102
}
330
44A
100
AcDbXrecord
280
     1
270
     1
271
     1
  0
XRECORD
  5
450
102
{ACAD_REACTORS
330
44A
102
}
330
44A
100
AcDbXrecord
280
     1
270
     1
271
     1
  0
XRECORD
  5
44D
102
{ACAD_REACTORS
330
44A
102
}
330
44A
100
AcDbXrecord
280
     1
270
     1
271
     1
  0
XRECORD
  5
444
102
{ACAD_REACTORS
330
442
102
}
330
442
100
AcDbXrecord
280
     1
270
     1
271
     1
  0
XRECORD
  5
443
102
{ACAD_REACTORS
330
442
102
}
330
442
100
AcDbXrecord
280
     1
270
     1
271
     1
  0
XRECORD
  5
447
102
{ACAD_REACTORS
330
442
102
}
330
442
100
AcDbXrecord
280
     1
270
     1
271
     1
  0
XRECORD
  5
446
102
{ACAD_REACTORS
330
442
102
}
330
442
100
AcDbXrecord
280
     1
270
     1
271
     1
  0
XRECORD
  5
448
102
{ACAD_REACTORS
330
442
102
}
330
442
100
AcDbXrecord
280
     1
270
     1
271
     1
  0
XRECORD
  5
445
102
{ACAD_REACTORS
330
442
102
}
330
442
100
AcDbXrecord
280
     1
270
     1
271
     1
  0
XRECORD
  5
454
102
{ACAD_REACTORS
330
452
102
}
330
452
100
AcDbXrecord
280
     1
270
     1
271
     1
  0
XRECORD
  5
453
102
{ACAD_REACTORS
330
452
102
}
330
452
100
AcDbXrecord
280
     1
270
     1
271
     1
  0
XRECORD
  5
457
102
{ACAD_REACTORS
330
452
102
}
330
452
100
AcDbXrecord
280
     1
270
     1
271
     1
  0
XRECORD
  5
456
102
{ACAD_REACTORS
330
452
102
}
330
452
100
AcDbXrecord
280
     1
270
     1
271
     1
  0
XRECORD
  5
458
102
{ACAD_REACTORS
330
452
102
}
330
452
100
AcDbXrecord
280
     1
270
     1
271
     1
  0
XRECORD
  5
455
102
{ACAD_REACTORS
330
452
102
}
330
452
100
AcDbXrecord
280
     1
270
     1
271
     1
  0
CELLSTYLEMAP
  5
490
102
{ACAD_REACTORS
330
48F
102
}
330
48F
100
AcDbCellStyleMap
 90
        3
300
CELLSTYLE
  1
TABLEFORMAT_BEGIN
 90
        5
170
     1
 91
        0
 92
    32768
 62
   257
 93
        1
300
CONTENTFORMAT
  1
CONTENTFORMAT_BEGIN
 90
        0
 91
        0
 92
      512
 93
        0
300

 40
0.0
140
1.0
 94
        5
 62
     0
340
11
144
6.0
309
CONTENTFORMAT_END
171
     1
301
MARGIN
  1
CELLMARGIN_BEGIN
 40
1.5
 40
1.5
 40
1.5
 40
1.5
 40
4.5
 40
4.5
309
CELLMARGIN_END
 94
        6
 95
        1
302
GRIDFORMAT
  1
GRIDFORMAT_BEGIN
 90
        0
 91
        1
 62
     0
 92
       -2
340
0
 93
        0
 40
1.125
309
GRIDFORMAT_END
 95
        2
302
GRIDFORMAT
  1
GRIDFORMAT_BEGIN
 90
        0
 91
        1
 62
     0
 92
       -2
340
0
 93
        0
 40
1.125
309
GRIDFORMAT_END
 95
        4
302
GRIDFORMAT
  1
GRIDFORMAT_BEGIN
 90
        0
 91
        1
 62
     0
 92
       -2
340
0
 93
        0
 40
1.125
309
GRIDFORMAT_END
 95
        8
302
GRIDFORMAT
  1
GRIDFORMAT_BEGIN
 90
        0
 91
        1
 62
     0
 92
       -2
340
0
 93
        0
 40
1.125
309
GRIDFORMAT_END
 95
       16
302
GRIDFORMAT
  1
GRIDFORMAT_BEGIN
 90
        0
 91
        1
 62
     0
 92
       -2
340
0
 93
        0
 40
1.125
309
GRIDFORMAT_END
 95
       32
302
GRIDFORMAT
  1
GRIDFORMAT_BEGIN
 90
        0
 91
        1
 62
     0
 92
       -2
340
0
 93
        0
 40
1.125
309
GRIDFORMAT_END
309
TABLEFORMAT_END
  1
CELLSTYLE_BEGIN
 90
        1
 91
        1
300
_TITLE
309
CELLSTYLE_END
300
CELLSTYLE
  1
TABLEFORMAT_BEGIN
 90
        5
170
     1
 91
        0
 92
        0
 62
   257
 93
        1
300
CONTENTFORMAT
  1
CONTENTFORMAT_BEGIN
 90
        0
 91
        0
 92
      512
 93
        0
300

 40
0.0
140
1.0
 94
        5
 62
     0
340
11
144
4.5
309
CONTENTFORMAT_END
171
     1
301
MARGIN
  1
CELLMARGIN_BEGIN
 40
1.5
 40
1.5
 40
1.5
 40
1.5
 40
4.5
 40
4.5
309
CELLMARGIN_END
 94
        6
 95
        1
302
GRIDFORMAT
  1
GRIDFORMAT_BEGIN
 90
        0
 91
        1
 62
     0
 92
       -2
340
0
 93
        0
 40
1.125
309
GRIDFORMAT_END
 95
        2
302
GRIDFORMAT
  1
GRIDFORMAT_BEGIN
 90
        0
 91
        1
 62
     0
 92
       -2
340
0
 93
        0
 40
1.125
309
GRIDFORMAT_END
 95
        4
302
GRIDFORMAT
  1
GRIDFORMAT_BEGIN
 90
        0
 91
        1
 62
     0
 92
       -2
340
0
 93
        0
 40
1.125
309
GRIDFORMAT_END
 95
        8
302
GRIDFORMAT
  1
GRIDFORMAT_BEGIN
 90
        0
 91
        1
 62
     0
 92
       -2
340
0
 93
        0
 40
1.125
309
GRIDFORMAT_END
 95
       16
302
GRIDFORMAT
  1
GRIDFORMAT_BEGIN
 90
        0
 91
        1
 62
     0
 92
       -2
340
0
 93
        0
 40
1.125
309
GRIDFORMAT_END
 95
       32
302
GRIDFORMAT
  1
GRIDFORMAT_BEGIN
 90
        0
 91
        1
 62
     0
 92
       -2
340
0
 93
        0
 40
1.125
309
GRIDFORMAT_END
309
TABLEFORMAT_END
  1
CELLSTYLE_BEGIN
 90
        2
 91
        1
300
_HEADER
309
CELLSTYLE_END
300
CELLSTYLE
  1
TABLEFORMAT_BEGIN
 90
        5
170
     1
 91
        0
 92
        0
 62
   257
 93
        1
300
CONTENTFORMAT
  1
CONTENTFORMAT_BEGIN
 90
        0
 91
        0
 92
      512
 93
        0
300

 40
0.0
140
1.0
 94
        2
 62
     0
340
11
144
4.5
309
CONTENTFORMAT_END
171
     1
301
MARGIN
  1
CELLMARGIN_BEGIN
 40
1.5
 40
1.5
 40
1.5
 40
1.5
 40
4.5
 40
4.5
309
CELLMARGIN_END
 94
        6
 95
        1
302
GRIDFORMAT
  1
GRIDFORMAT_BEGIN
 90
        0
 91
        1
 62
     0
 92
       -2
340
0
 93
        0
 40
1.125
309
GRIDFORMAT_END
 95
        2
302
GRIDFORMAT
  1
GRIDFORMAT_BEGIN
 90
        0
 91
        1
 62
     0
 92
       -2
340
0
 93
        0
 40
1.125
309
GRIDFORMAT_END
 95
        4
302
GRIDFORMAT
  1
GRIDFORMAT_BEGIN
 90
        0
 91
        1
 62
     0
 92
       -2
340
0
 93
        0
 40
1.125
309
GRIDFORMAT_END
 95
        8
302
GRIDFORMAT
  1
GRIDFORMAT_BEGIN
 90
        0
 91
        1
 62
     0
 92
       -2
340
0
 93
        0
 40
1.125
309
GRIDFORMAT_END
 95
       16
302
GRIDFORMAT
  1
GRIDFORMAT_BEGIN
 90
        0
 91
        1
 62
     0
 92
       -2
340
0
 93
        0
 40
1.125
309
GRIDFORMAT_END
 95
       32
302
GRIDFORMAT
  1
GRIDFORMAT_BEGIN
 90
        0
 91
        1
 62
     0
 92
       -2
340
0
 93
        0
 40
1.125
309
GRIDFORMAT_END
309
TABLEFORMAT_END
  1
CELLSTYLE_BEGIN
 90
        3
 91
        2
300
_DATA
309
CELLSTYLE_END
  0
ENDSEC
  0
EOF
