  0
SECTION
  2
HEADER
  9
$ACADVER
  1
AC1024
  9
$ACADMAINTVER
 70
     6
  9
$DWGCODEPAGE
  3
ANSI_932
  9
$LASTSAVEDBY
  1
kanatani
  9
$INSBASE
 10
0.0
 20
0.0
 30
0.0
  9
$EXTMIN
 10
-83.53700873838352
 20
-117.1277499999999
 30
0.0
  9
$EXTMAX
 10
100.7835062749327
 20
231.1803411543633
 30
0.0
  9
$LIMMIN
 10
0.0
 20
0.0
  9
$LIMMAX
 10
420.0
 20
297.0
  9
$ORTHOMODE
 70
     0
  9
$REGENMODE
 70
     1
  9
$FILLMODE
 70
     1
  9
$QTEXTMODE
 70
     0
  9
$MIRRTEXT
 70
     1
  9
$LTSCALE
 40
0.2
  9
$ATTMODE
 70
     1
  9
$TEXTSIZE
 40
2.5
  9
$TRACEWID
 40
1.0
  9
$TEXTSTYLE
  7
Standard
  9
$CLAYER
  8
0
  9
$CELTYPE
  6
ByLayer
  9
$CECOLOR
 62
   256
  9
$CELTSCALE
 40
1.0
  9
$DISPSILH
 70
     0
  9
$DIMSCALE
 40
1.0
  9
$DIMASZ
 40
2.5
  9
$DIMEXO
 40
0.625
  9
$DIMDLI
 40
3.75
  9
$DIMRND
 40
0.0
  9
$DIMDLE
 40
0.0
  9
$DIMEXE
 40
1.25
  9
$DIMTP
 40
0.0
  9
$DIMTM
 40
0.0
  9
$DIMTXT
 40
2.5
  9
$DIMCEN
 40
2.5
  9
$DIMTSZ
 40
0.0
  9
$DIMTOL
 70
     0
  9
$DIMLIM
 70
     0
  9
$DIMTIH
 70
     0
  9
$DIMTOH
 70
     0
  9
$DIMSE1
 70
     0
  9
$DIMSE2
 70
     0
  9
$DIMTAD
 70
     1
  9
$DIMZIN
 70
     8
  9
$DIMBLK
  1

  9
$DIMASO
 70
     1
  9
$DIMSHO
 70
     1
  9
$DIMPOST
  1

  9
$DIMAPOST
  1

  9
$DIMALT
 70
     0
  9
$DIMALTD
 70
     3
  9
$DIMALTF
 40
0.03937007874016
  9
$DIMLFAC
 40
1.0
  9
$DIMTOFL
 70
     1
  9
$DIMTVP
 40
0.0
  9
$DIMTIX
 70
     0
  9
$DIMSOXD
 70
     0
  9
$DIMSAH
 70
     0
  9
$DIMBLK1
  1

  9
$DIMBLK2
  1

  9
$DIMSTYLE
  2
ISO-25
  9
$DIMCLRD
 70
     0
  9
$DIMCLRE
 70
     0
  9
$DIMCLRT
 70
     0
  9
$DIMTFAC
 40
1.0
  9
$DIMGAP
 40
0.625
  9
$DIMJUST
 70
     0
  9
$DIMSD1
 70
     0
  9
$DIMSD2
 70
     0
  9
$DIMTOLJ
 70
     0
  9
$DIMTZIN
 70
     8
  9
$DIMALTZ
 70
     0
  9
$DIMALTTZ
 70
     0
  9
$DIMUPT
 70
     0
  9
$DIMDEC
 70
     2
  9
$DIMTDEC
 70
     2
  9
$DIMALTU
 70
     2
  9
$DIMALTTD
 70
     3
  9
$DIMTXSTY
  7
Standard
  9
$DIMAUNIT
 70
     0
  9
$DIMADEC
 70
     0
  9
$DIMALTRND
 40
0.0
  9
$DIMAZIN
 70
     0
  9
$DIMDSEP
 70
    44
  9
$DIMATFIT
 70
     3
  9
$DIMFRAC
 70
     0
  9
$DIMLDRBLK
  1

  9
$DIMLUNIT
 70
     2
  9
$DIMLWD
 70
    -2
  9
$DIMLWE
 70
    -2
  9
$DIMTMOVE
 70
     0
  9
$DIMFXL
 40
1.0
  9
$DIMFXLON
 70
     0
  9
$DIMJOGANG
 40
0.7853981633974483
  9
$DIMTFILL
 70
     0
  9
$DIMTFILLCLR
 70
     0
  9
$DIMARCSYM
 70
     0
  9
$DIMLTYPE
  6

  9
$DIMLTEX1
  6

  9
$DIMLTEX2
  6

  9
$DIMTXTDIRECTION
 70
     0
  9
$LUNITS
 70
     2
  9
$LUPREC
 70
     4
  9
$SKETCHINC
 40
1.0
  9
$FILLETRAD
 40
10.0
  9
$AUNITS
 70
     0
  9
$AUPREC
 70
     0
  9
$MENU
  1
.
  9
$ELEVATION
 40
0.0
  9
$PELEVATION
 40
0.0
  9
$THICKNESS
 40
0.0
  9
$LIMCHECK
 70
     0
  9
$CHAMFERA
 40
10.0
  9
$CHAMFERB
 40
10.0
  9
$CHAMFERC
 40
20.0
  9
$CHAMFERD
 40
0.0
  9
$SKPOLY
 70
     0
  9
$TDCREATE
 40
2456874.593217083
  9
$TDUCREATE
 40
2456874.218217083
  9
$TDUPDATE
 40
2456910.417476250
  9
$TDUUPDATE
 40
2456910.042476250
  9
$TDINDWG
 40
0.0021040625
  9
$TDUSRTIMER
 40
0.0021040509
  9
$USRTIMER
 70
     1
  9
$ANGBASE
 50
0.0
  9
$ANGDIR
 70
     0
  9
$PDMODE
 70
     0
  9
$PDSIZE
 40
0.0
  9
$PLINEWID
 40
0.0
  9
$SPLFRAME
 70
     0
  9
$SPLINETYPE
 70
     6
  9
$SPLINESEGS
 70
     8
  9
$HANDSEED
  5
4B1
  9
$SURFTAB1
 70
     6
  9
$SURFTAB2
 70
     6
  9
$SURFTYPE
 70
     6
  9
$SURFU
 70
     6
  9
$SURFV
 70
     6
  9
$UCSBASE
  2

  9
$UCSNAME
  2

  9
$UCSORG
 10
0.0
 20
0.0
 30
0.0
  9
$UCSXDIR
 10
1.0
 20
0.0
 30
0.0
  9
$UCSYDIR
 10
0.0
 20
1.0
 30
0.0
  9
$UCSORTHOREF
  2

  9
$UCSORTHOVIEW
 70
     0
  9
$UCSORGTOP
 10
0.0
 20
0.0
 30
0.0
  9
$UCSORGBOTTOM
 10
0.0
 20
0.0
 30
0.0
  9
$UCSORGLEFT
 10
0.0
 20
0.0
 30
0.0
  9
$UCSORGRIGHT
 10
0.0
 20
0.0
 30
0.0
  9
$UCSORGFRONT
 10
0.0
 20
0.0
 30
0.0
  9
$UCSORGBACK
 10
0.0
 20
0.0
 30
0.0
  9
$PUCSBASE
  2

  9
$PUCSNAME
  2

  9
$PUCSORG
 10
0.0
 20
0.0
 30
0.0
  9
$PUCSXDIR
 10
1.0
 20
0.0
 30
0.0
  9
$PUCSYDIR
 10
0.0
 20
1.0
 30
0.0
  9
$PUCSORTHOREF
  2

  9
$PUCSORTHOVIEW
 70
     0
  9
$PUCSORGTOP
 10
0.0
 20
0.0
 30
0.0
  9
$PUCSORGBOTTOM
 10
0.0
 20
0.0
 30
0.0
  9
$PUCSORGLEFT
 10
0.0
 20
0.0
 30
0.0
  9
$PUCSORGRIGHT
 10
0.0
 20
0.0
 30
0.0
  9
$PUCSORGFRONT
 10
0.0
 20
0.0
 30
0.0
  9
$PUCSORGBACK
 10
0.0
 20
0.0
 30
0.0
  9
$USERI1
 70
     0
  9
$USERI2
 70
     0
  9
$USERI3
 70
     0
  9
$USERI4
 70
     0
  9
$USERI5
 70
     0
  9
$USERR1
 40
0.0
  9
$USERR2
 40
0.0
  9
$USERR3
 40
0.0
  9
$USERR4
 40
0.0
  9
$USERR5
 40
0.0
  9
$WORLDVIEW
 70
     1
  9
$SHADEDGE
 70
     3
  9
$SHADEDIF
 70
    70
  9
$TILEMODE
 70
     1
  9
$MAXACTVP
 70
    64
  9
$PINSBASE
 10
0.0
 20
0.0
 30
0.0
  9
$PLIMCHECK
 70
     0
  9
$PEXTMIN
 10
26.66076962115563
 20
20.31135699206658
 30
-0.0015258207003583
  9
$PEXTMAX
 10
240.039213369355
 20
182.8886381005154
 30
0.0000000349246037
  9
$PLIMMIN
 10
-6.350006103515625
 20
-6.349999904632568
  9
$PLIMMAX
 10
273.0499877929688
 20
209.5499939918518
  9
$UNITMODE
 70
     0
  9
$VISRETAIN
 70
     1
  9
$PLINEGEN
 70
     0
  9
$PSLTSCALE
 70
     1
  9
$TREEDEPTH
 70
  3020
  9
$CMLSTYLE
  2
Standard
  9
$CMLJUST
 70
     0
  9
$CMLSCALE
 40
20.0
  9
$PROXYGRAPHICS
 70
     1
  9
$MEASUREMENT
 70
     1
  9
$CELWEIGHT
370
    -1
  9
$ENDCAPS
280
     0
  9
$JOINSTYLE
280
     0
  9
$LWDISPLAY
290
     0
  9
$INSUNITS
 70
     4
  9
$HYPERLINKBASE
  1

  9
$STYLESHEET
  1

  9
$XEDIT
290
     1
  9
$CEPSNTYPE
380
     0
  9
$PSTYLEMODE
290
     1
  9
$FINGERPRINTGUID
  2
{FDEAD578-A652-11D2-9A35-0060089B3A3F}
  9
$VERSIONGUID
  2
{6BD9C858-3E5A-49FA-93CF-DA097594AC18}
  9
$EXTNAMES
290
     1
  9
$PSVPSCALE
 40
0.0
  9
$OLESTARTUP
290
     0
  9
$SORTENTS
280
   127
  9
$INDEXCTL
280
     0
  9
$HIDETEXT
280
     1
  9
$XCLIPFRAME
280
     2
  9
$HALOGAP
280
     0
  9
$OBSCOLOR
 70
   257
  9
$OBSLTYPE
280
     0
  9
$INTERSECTIONDISPLAY
280
     0
  9
$INTERSECTIONCOLOR
 70
   257
  9
$DIMASSOC
280
     2
  9
$PROJECTNAME
  1

  9
$CAMERADISPLAY
290
     0
  9
$LENSLENGTH
 40
50.0
  9
$CAMERAHEIGHT
 40
0.0
  9
$STEPSPERSEC
 40
2.0
  9
$STEPSIZE
 40
6.0
  9
$3DDWFPREC
 40
2.0
  9
$PSOLWIDTH
 40
0.25
  9
$PSOLHEIGHT
 40
4.0
  9
$LOFTANG1
 40
1.570796326794896
  9
$LOFTANG2
 40
1.570796326794896
  9
$LOFTMAG1
 40
0.0
  9
$LOFTMAG2
 40
0.0
  9
$LOFTPARAM
 70
     7
  9
$LOFTNORMALS
280
     1
  9
$LATITUDE
 40
37.795
  9
$LONGITUDE
 40
-122.394
  9
$NORTHDIRECTION
 40
0.0
  9
$TIMEZONE
 70
 -8000
  9
$LIGHTGLYPHDISPLAY
280
     1
  9
$TILEMODELIGHTSYNCH
280
     1
  9
$CMATERIAL
347
460
  9
$SOLIDHIST
280
     1
  9
$SHOWHIST
280
     1
  9
$DWFFRAME
280
     2
  9
$DGNFRAME
280
     0
  9
$REALWORLDSCALE
290
     1
  9
$INTERFERECOLOR
 62
     1
  9
$INTERFEREOBJVS
345
482
  9
$INTERFEREVPVS
346
47F
  9
$CSHADOW
280
     0
  9
$SHADOWPLANELOCATION
 40
0.0
  0
ENDSEC
  0
SECTION
  2
CLASSES
  0
CLASS
  1
ACDBDICTIONARYWDFLT
  2
AcDbDictionaryWithDefault
  3
ObjectDBX Classes
 90
        0
 91
        1
280
     0
281
     0
  0
CLASS
  1
DICTIONARYVAR
  2
AcDbDictionaryVar
  3
ObjectDBX Classes
 90
        0
 91
        9
280
     0
281
     0
  0
CLASS
  1
MATERIAL
  2
AcDbMaterial
  3
ObjectDBX Classes
 90
     1153
 91
        3
280
     0
281
     0
  0
CLASS
  1
VISUALSTYLE
  2
AcDbVisualStyle
  3
ObjectDBX Classes
 90
     4095
 91
       19
280
     0
281
     0
  0
CLASS
  1
TABLESTYLE
  2
AcDbTableStyle
  3
ObjectDBX Classes
 90
     4095
 91
        1
280
     0
281
     0
  0
CLASS
  1
SCALE
  2
AcDbScale
  3
ObjectDBX Classes
 90
     1153
 91
       17
280
     0
281
     0
  0
CLASS
  1
MLEADERSTYLE
  2
AcDbMLeaderStyle
  3
ACDB_MLEADERSTYLE_CLASS
 90
     4095
 91
        1
280
     0
281
     0
  0
CLASS
  1
CELLSTYLEMAP
  2
AcDbCellStyleMap
  3
ObjectDBX Classes
 90
     1152
 91
        1
280
     0
281
     0
  0
ENDSEC
  0
SECTION
  2
TABLES
  0
TABLE
  2
VPORT
  5
8
330
0
100
AcDbSymbolTable
 70
     1
  0
VPORT
  5
45D
330
8
100
AcDbSymbolTableRecord
100
AcDbViewportTableRecord
  2
*Active
 70
     0
 10
0.0
 20
0.0
 11
1.0
 21
1.0
 12
8.61809470630817
 22
66.10915128876001
 13
0.0
 23
0.0
 14
10.0
 24
10.0
 15
10.0
 25
10.0
 16
0.0
 26
0.0
 36
1.0
 17
0.0
 27
0.0
 37
0.0
 40
368.7252848266835
 41
1.857142857142857
 42
50.0
 43
0.0
 44
0.0
 50
0.0
 51
0.0
 71
     0
 72
   100
 73
     1
 74
     3
 75
     0
 76
     0
 77
     0
 78
     0
281
     0
 65
     1
110
0.0
120
0.0
130
0.0
111
1.0
121
0.0
131
0.0
112
0.0
122
1.0
132
0.0
 79
     0
146
0.0
348
47E
 60
     3
 61
     5
292
     1
282
     1
141
0.0
142
0.0
 63
   250
421
  3355443
  0
ENDTAB
  0
TABLE
  2
LTYPE
  5
5
330
0
100
AcDbSymbolTable
 70
     3
  0
LTYPE
  5
14
330
5
100
AcDbSymbolTableRecord
100
AcDbLinetypeTableRecord
  2
ByBlock
 70
     0
  3

 72
    65
 73
     0
 40
0.0
  0
LTYPE
  5
15
330
5
100
AcDbSymbolTableRecord
100
AcDbLinetypeTableRecord
  2
ByLayer
 70
     0
  3

 72
    65
 73
     0
 40
0.0
  0
LTYPE
  5
16
330
5
100
AcDbSymbolTableRecord
100
AcDbLinetypeTableRecord
  2
Continuous
 70
     0
  3
Solid line
 72
    65
 73
     0
 40
0.0
  0
LTYPE
  5
8D
330
5
100
AcDbSymbolTableRecord
100
AcDbLinetypeTableRecord
  2
CENTER
 70
     0
  3
Center ____ _ ____ _ ____ _ ____ _ ____ _ ____
 72
    65
 73
     4
 40
50.8
 49
31.75
 74
     0
 49
-6.349999999999999
 74
     0
 49
6.349999999999999
 74
     0
 49
-6.349999999999999
 74
     0
  0
LTYPE
  5
8E
330
5
100
AcDbSymbolTableRecord
100
AcDbLinetypeTableRecord
  2
PHANTOM
 70
     0
  3
Phantom ______  __  __  ______  __  __  ______
 72
    65
 73
     6
 40
63.5
 49
31.75
 74
     0
 49
-6.349999999999999
 74
     0
 49
6.349999999999999
 74
     0
 49
-6.349999999999999
 74
     0
 49
6.349999999999999
 74
     0
 49
-6.349999999999999
 74
     0
  0
ENDTAB
  0
TABLE
  2
LAYER
  5
2
102
{ACAD_XDICTIONARY
360
97
102
}
330
0
100
AcDbSymbolTable
 70
     3
  0
LAYER
  5
10
102
{ACAD_XDICTIONARY
360
4A5
102
}
330
2
100
AcDbSymbolTableRecord
100
AcDbLayerTableRecord
  2
0
 70
     0
 62
     7
  6
Continuous
370
    -3
390
F
347
470
  0
LAYER
  5
8F
102
{ACAD_XDICTIONARY
360
90
102
}
330
2
100
AcDbSymbolTableRecord
100
AcDbLayerTableRecord
  2
2
 70
     0
 62
     2
  6
PHANTOM
370
    -3
390
F
347
470
1001
AcAecLayerStandard
1000

1000

1001
ACCMTRANSPARENCY
1071
        0
  0
LAYER
  5
92
102
{ACAD_XDICTIONARY
360
93
102
}
330
2
100
AcDbSymbolTableRecord
100
AcDbLayerTableRecord
  2
1
 70
     0
 62
     5
  6
CENTER
370
    -3
390
F
347
470
1001
AcAecLayerStandard
1000

1000

1001
ACCMTRANSPARENCY
1071
        0
  0
ENDTAB
  0
TABLE
  2
STYLE
  5
3
330
0
100
AcDbSymbolTable
 70
     1
  0
STYLE
  5
11
330
3
100
AcDbSymbolTableRecord
100
AcDbTextStyleTableRecord
  2
Standard
 70
     0
 40
0.0
 41
1.0
 50
0.0
 71
     0
 42
2.5
  3
txt
  4

  0
ENDTAB
  0
TABLE
  2
VIEW
  5
6
330
0
100
AcDbSymbolTable
 70
     0
  0
ENDTAB
  0
TABLE
  2
UCS
  5
7
330
0
100
AcDbSymbolTable
 70
     0
  0
ENDTAB
  0
TABLE
  2
APPID
  5
9
330
0
100
AcDbSymbolTable
 70
     3
  0
APPID
  5
12
330
9
100
AcDbSymbolTableRecord
100
AcDbRegAppTableRecord
  2
ACAD
 70
     0
  0
APPID
  5
95
330
9
100
AcDbSymbolTableRecord
100
AcDbRegAppTableRecord
  2
AcAecLayerStandard
 70
     0
  0
APPID
  5
96
330
9
100
AcDbSymbolTableRecord
100
AcDbRegAppTableRecord
  2
ACCMTRANSPARENCY
 70
     0
  0
ENDTAB
  0
TABLE
  2
DIMSTYLE
  5
A
330
0
100
AcDbSymbolTable
 70
     1
100
AcDbDimStyleTable
 71
     0
  0
DIMSTYLE
105
27
330
A
100
AcDbSymbolTableRecord
100
AcDbDimStyleTableRecord
  2
ISO-25
 70
     0
 41
2.5
 42
0.625
 43
3.75
 44
1.25
 73
     0
 74
     0
 77
     1
 78
     8
140
2.5
141
2.5
143
0.03937007874016
147
0.625
171
     3
172
     1
271
     2
272
     2
274
     3
278
    44
283
     0
284
     8
340
11
  0
ENDTAB
  0
TABLE
  2
BLOCK_RECORD
  5
1
330
0
100
AcDbSymbolTable
 70
     1
  0
BLOCK_RECORD
  5
1F
330
1
100
AcDbSymbolTableRecord
100
AcDbBlockTableRecord
  2
*Model_Space
340
22
 70
     0
280
     1
281
     0
  0
BLOCK_RECORD
  5
55
330
1
100
AcDbSymbolTableRecord
100
AcDbBlockTableRecord
  2
*Paper_Space
340
56
 70
     0
280
     1
281
     0
  0
BLOCK_RECORD
  5
50
330
1
100
AcDbSymbolTableRecord
100
AcDbBlockTableRecord
  2
*Paper_Space0
340
51
 70
     0
280
     1
281
     0
  0
ENDTAB
  0
ENDSEC
  0
SECTION
  2
BLOCKS
  0
BLOCK
  5
20
330
1F
100
AcDbEntity
  8
0
100
AcDbBlockBegin
  2
*Model_Space
 70
     0
 10
0.0
 20
0.0
 30
0.0
  3
*Model_Space
  1

  0
ENDBLK
  5
21
330
1F
100
AcDbEntity
  8
0
100
AcDbBlockEnd
  0
BLOCK
  5
57
330
55
100
AcDbEntity
 67
     1
  8
0
100
AcDbBlockBegin
  2
*Paper_Space
 70
     0
 10
0.0
 20
0.0
 30
0.0
  3
*Paper_Space
  1

  0
ENDBLK
  5
58
330
55
100
AcDbEntity
 67
     1
  8
0
100
AcDbBlockEnd
  0
BLOCK
  5
52
330
50
100
AcDbEntity
 67
     1
  8
0
100
AcDbBlockBegin
  2
*Paper_Space0
 70
     0
 10
0.0
 20
0.0
 30
0.0
  3
*Paper_Space0
  1

  0
VIEWPORT
  5
6B
330
50
100
AcDbEntity
 67
     1
  8
0
100
AcDbViewport
 10
133.3499908447266
 20
101.5999970436096
 30
0.0
 40
381.3957395593835
 41
218.2856291881582
 68
     0
 69
     0
 12
133.3499908447266
 22
101.5999970436096
 13
0.0
 23
0.0
 14
10.0
 24
10.0
 15
10.0
 25
10.0
 16
0.0
 26
0.0
 36
1.0
 17
0.0
 27
0.0
 37
0.0
 42
50.0
 43
0.0
 44
0.0
 45
218.2856291881582
 50
0.0
 51
0.0
 72
   100
 90
    32800
  1

281
     0
 71
     1
 74
     0
110
0.0
120
0.0
130
0.0
111
1.0
121
0.0
131
0.0
112
0.0
122
1.0
132
0.0
 79
     0
146
0.0
170
     0
 61
     5
348
47E
292
     1
282
     1
141
0.0
142
0.0
 63
   250
421
  3355443
  0
VIEWPORT
  5
6D
330
50
100
AcDbEntity
 67
     1
  8
0
100
AcDbViewport
 10
133.3499939441681
 20
101.5999939441681
 30
0.0
 40
213.3599903106689
 41
162.5599903106689
 68
     0
 69
     0
 12
210.0
 22
148.5
 13
0.0
 23
0.0
 14
10.0
 24
10.0
 15
10.0
 25
10.0
 16
0.0
 26
0.0
 36
1.0
 17
0.0
 27
0.0
 37
0.0
 42
50.0
 43
0.0
 44
0.0
 45
324.0677920111345
 50
0.0
 51
0.0
 72
   100
 90
    32864
  1

281
     0
 71
     1
 74
     0
110
0.0
120
0.0
130
0.0
111
1.0
121
0.0
131
0.0
112
0.0
122
1.0
132
0.0
 79
     0
146
0.0
170
     0
 61
     5
348
47E
292
     1
282
     1
141
0.0
142
0.0
 63
   250
421
  3355443
  0
ENDBLK
  5
53
330
50
100
AcDbEntity
 67
     1
  8
0
100
AcDbBlockEnd
  0
ENDSEC
  0
SECTION
  2
ENTITIES
  0
LINE
  5
278
330
1F
100
AcDbEntity
  8
0
100
AcDbLine
 10
-0.0001219999994646
 20
168.4801301538673
 30
0.0
 11
8.499633899718901
 21
168.4801992852162
 31
0.0
  0
LINE
  5
279
330
1F
100
AcDbEntity
  8
2
100
AcDbLine
 10
25.18736274541936
 20
183.6802641543645
 30
0.0
 11
52.00007600000026
 21
183.6802641543645
 31
0.0
  0
LINE
  5
27A
330
1F
100
AcDbEntity
  8
2
100
AcDbLine
 10
25.18736274541936
 20
167.6801921543638
 30
0.0
 11
52.00007600000026
 21
167.6801921543638
 31
0.0
  0
LINE
  5
27B
330
1F
100
AcDbEntity
  8
2
100
AcDbLine
 10
84.40010100000108
 20
159.9802407543639
 30
0.0
 11
84.40010100000108
 21
231.1803411543633
 31
0.0
  0
LINE
  5
27C
330
1F
100
AcDbEntity
  8
2
100
AcDbLine
 10
67.6000520000016
 20
231.1803411543633
 30
0.0
 11
84.40010100000108
 21
231.1803411543633
 31
0.0
  0
LINE
  5
27D
330
1F
100
AcDbEntity
  8
2
100
AcDbLine
 10
52.00007600000026
 20
159.9802407543639
 30
0.0
 11
84.40010100000108
 21
159.9802407543639
 31
0.0
  0
LINE
  5
27E
330
1F
100
AcDbEntity
  8
2
100
AcDbLine
 10
52.00007600000026
 20
205.3803221543631
 30
0.0
 11
84.40010100000108
 21
205.3803221543631
 31
0.0
  0
LINE
  5
27F
330
1F
100
AcDbEntity
  8
2
100
AcDbLine
 10
52.00007600000026
 20
159.9802407543639
 30
0.0
 11
52.00007600000026
 21
205.3803221543631
 31
0.0
  0
LINE
  5
280
330
1F
100
AcDbEntity
  8
0
100
AcDbLine
 10
-23.79974837934788
 20
122.174215582042
 30
0.0
 11
-30.29977890171904
 21
125.9269397152502
 31
0.0
  0
LINE
  5
281
330
1F
100
AcDbEntity
  8
0
100
AcDbLine
 10
-30.29977890171904
 20
125.9269397152502
 30
0.0
 11
-30.29983994689064
 21
133.4324937150022
 31
0.0
  0
LINE
  5
282
330
1F
100
AcDbEntity
  8
0
100
AcDbLine
 10
-30.29983994689064
 20
133.4324937150022
 30
0.0
 11
-27.9050471924511
 21
134.8151541926954
 31
0.0
  0
LINE
  5
283
330
1F
100
AcDbEntity
  8
0
100
AcDbLine
 10
-17.29977890214832
 20
125.927045448584
 30
0.0
 11
-17.29980486867862
 21
129.1196514484791
 31
0.0
  0
LINE
  5
284
330
1F
100
AcDbEntity
  8
0
100
AcDbLine
 10
-23.79974837934788
 20
122.174215582042
 30
0.0
 11
-17.29977890214832
 21
125.927045448584
 31
0.0
  0
LINE
  5
285
330
1F
100
AcDbEntity
  8
0
100
AcDbLine
 10
-23.80013552608034
 20
169.774223580468
 30
0.0
 11
-30.30016604843513
 21
173.5269457136773
 31
0.0
  0
LINE
  5
286
330
1F
100
AcDbEntity
  8
0
100
AcDbLine
 10
-30.30016604843513
 20
173.5269457136773
 30
0.0
 11
-30.30022709360674
 21
181.0324997134275
 31
0.0
  0
LINE
  5
287
330
1F
100
AcDbEntity
  8
0
100
AcDbLine
 10
-30.30022709362493
 20
181.0325017134282
 30
0.0
 11
-23.800257616409
 21
184.7853295799714
 31
0.0
  0
LINE
  5
288
330
1F
100
AcDbEntity
  8
0
100
AcDbLine
 10
-23.800257616409
 20
184.7853295799714
 30
0.0
 11
-17.30022709403602
 21
181.0326054467614
 31
0.0
  0
LINE
  5
289
330
1F
100
AcDbEntity
  8
0
100
AcDbLine
 10
-17.30016604886441
 20
173.5270514470094
 30
0.0
 11
-17.30022709403602
 21
181.0326054467614
 31
0.0
  0
LINE
  5
28A
330
1F
100
AcDbEntity
  8
0
100
AcDbLine
 10
-23.80013552606215
 20
169.7742215804673
 30
0.0
 11
-17.30016604886441
 21
173.5270514470094
 31
0.0
  0
LINE
  5
28B
330
1F
100
AcDbEntity
  8
0
100
AcDbLine
 10
18.04936938485844
 20
181.4656719568256
 30
0.0
 11
23.79974838201633
 21
184.7857167266857
 31
0.0
  0
LINE
  5
28C
330
1F
100
AcDbEntity
  8
0
100
AcDbLine
 10
23.79974838201633
 20
184.7857167266857
 30
0.0
 11
30.30016394399269
 21
181.0327707381066
 31
0.0
  0
LINE
  5
28D
330
1F
100
AcDbEntity
  8
0
100
AcDbLine
 10
25.2159848225183
 20
170.5922182449403
 30
0.0
 11
30.30016394399269
 21
173.5276246009684
 31
0.0
  0
LINE
  5
28E
330
1F
100
AcDbEntity
  8
0
100
AcDbLine
 10
23.80025761907746
 20
122.1746027287563
 30
0.0
 11
17.30022709670629
 21
125.9273268619663
 31
0.0
  0
LINE
  5
28F
330
1F
100
AcDbEntity
  8
0
100
AcDbLine
 10
17.30022709670629
 20
125.9273268619663
 30
0.0
 11
17.30016605153469
 21
133.4328808617183
 31
0.0
  0
LINE
  5
290
330
1F
100
AcDbEntity
  8
0
100
AcDbLine
 10
17.30016605153469
 20
133.4328808617183
 30
0.0
 11
23.80013552873243
 21
137.1857107282603
 31
0.0
  0
LINE
  5
291
330
1F
100
AcDbEntity
  8
0
100
AcDbLine
 10
23.80013552875062
 20
137.1857087282615
 30
0.0
 11
30.30016394399269
 21
133.4329886372477
 31
0.0
  0
LINE
  5
292
330
1F
100
AcDbEntity
  8
0
100
AcDbLine
 10
23.80025761907746
 20
122.1746027287563
 30
0.0
 11
30.30022498919061
 21
125.927431554259
 31
0.0
  0
LINE
  5
293
330
1F
100
AcDbEntity
  8
1
100
AcDbLine
 10
23.79977697496179
 20
181.270190726801
 30
0.0
 11
23.79974842718912
 21
184.7801627266863
 31
0.0
  0
LINE
  5
294
330
1F
100
AcDbEntity
  8
1
100
AcDbLine
 10
-32.08194257096148
 20
177.2797082220177
 30
0.0
 11
-15.62877657150602
 21
177.2798420411009
 31
0.0
  0
LINE
  5
295
330
1F
100
AcDbEntity
  8
1
100
AcDbLine
 10
-23.80012611090752
 20
168.6166205805048
 30
0.0
 11
-23.80026736437867
 21
185.9838505799316
 31
0.0
  0
LINE
  5
296
330
1F
100
AcDbEntity
  8
1
100
AcDbLine
 10
-31.99390142425
 20
129.6797029365107
 30
0.0
 11
-27.98339142438272
 21
129.6797355553271
 31
0.0
  0
LINE
  5
297
330
1F
100
AcDbEntity
  8
1
100
AcDbLine
 10
-23.7997353343435
 20
120.5703215820931
 30
0.0
 11
-23.79980625386997
 21
129.2899355818053
 31
0.0
  0
LINE
  5
298
330
1F
100
AcDbEntity
  8
0
100
AcDbLine
 10
42.00000000000182
 20
206.480286154364
 30
0.0
 11
42.00000000000182
 21
100.4802901543635
 31
0.0
  0
LINE
  5
299
330
1F
100
AcDbEntity
  8
0
100
AcDbLine
 10
37.5
 20
206.480286154364
 30
0.0
 11
37.50000000000023
 21
100.4802901543635
 31
0.0
  0
LINE
  5
29A
330
1F
100
AcDbEntity
  8
0
100
AcDbLine
 10
-27.49999199999911
 20
206.480286154364
 30
0.0
 11
81.99106373219143
 21
206.480286154364
 31
0.0
  0
LINE
  5
29B
330
1F
100
AcDbEntity
  8
0
100
AcDbLine
 10
-32.49998500000038
 20
201.4802941543631
 30
0.0
 11
-32.49998500000038
 21
105.4802831543647
 31
0.0
  0
LINE
  5
29C
330
1F
100
AcDbEntity
  8
0
100
AcDbLine
 10
87.00000000000182
 20
201.4802941543631
 30
0.0
 11
87.00000000000182
 21
105.4802831543647
 31
0.0
  0
LINE
  5
29D
330
1F
100
AcDbEntity
  8
0
100
AcDbLine
 10
-27.49999199999911
 20
100.4802901543635
 30
0.0
 11
81.99164140341981
 21
100.4802901543635
 31
0.0
  0
LINE
  5
29E
330
1F
100
AcDbEntity
  8
1
100
AcDbLine
 10
32.80259002006096
 20
129.6802299479745
 30
0.0
 11
14.79780102065524
 21
129.6800835090248
 31
0.0
  0
LINE
  5
29F
330
1F
100
AcDbEntity
  8
1
100
AcDbLine
 10
100.7835062749327
 20
153.4810980211523
 30
0.0
 11
-83.53700873838352
 21
153.4795526878179
 31
0.0
  0
LINE
  5
2A0
330
1F
100
AcDbEntity
  8
0
100
AcDbLine
 10
8.421981943982245
 20
165.8927896535597
 30
0.0
 11
14.96052615320877
 21
154.5679112333464
 31
0.0
  0
LINE
  5
2A1
330
1F
100
AcDbEntity
  8
0
100
AcDbLine
 10
-6.538683999782733
 20
166.9800769735148
 30
0.0
 11
6.537976099783918
 21
166.980183330349
 31
0.0
  0
LINE
  5
2A2
330
1F
100
AcDbEntity
  8
0
100
AcDbLine
 10
-8.422077052922759
 20
165.8923406552139
 30
0.0
 11
-14.96031584498996
 21
154.5675681771636
 31
0.0
  0
LINE
  5
2A3
330
1F
100
AcDbEntity
  8
0
100
AcDbLine
 10
-27.77362399908088
 20
138.479904261726
 30
0.0
 11
0.0001219999994646
 21
138.4801301548605
 31
0.0
  0
LINE
  5
2A4
330
1F
100
AcDbEntity
  8
0
100
AcDbLine
 10
-14.99999999950341
 20
153.4800081543626
 30
0.0
 11
-14.99993086616996
 21
144.9800081546445
 31
0.0
  0
LINE
  5
2A5
330
1F
100
AcDbEntity
  8
0
100
AcDbLine
 10
-14.9605801553007
 20
152.3926064749421
 30
0.0
 11
-8.422036346079039
 21
141.0677286547243
 31
0.0
  0
LINE
  5
2A6
330
1F
100
AcDbEntity
  8
0
100
AcDbLine
 10
6.538195699784409
 20
139.980183331244
 30
0.0
 11
-6.538464399782242
 21
139.9800769744079
 31
0.0
  0
LINE
  5
2A7
330
1F
100
AcDbEntity
  8
0
100
AcDbLine
 10
14.96050484529951
 20
152.3926542331001
 30
0.0
 11
8.42226685323294
 21
141.0678816550562
 31
0.0
  0
LINE
  5
2A8
330
1F
100
AcDbEntity
  8
0
100
AcDbLine
 10
-26.99992679910611
 20
144.4799105546617
 30
0.0
 11
-26.99987799910559
 21
138.4799105548581
 31
0.0
  0
LINE
  5
2A9
330
1F
100
AcDbEntity
  8
1
100
AcDbLine
 10
-22.00021935310906
 20
150.4496854191466
 30
0.0
 11
-22.00003413040577
 21
127.6764022198995
 31
0.0
  0
LINE
  5
2AA
330
1F
100
AcDbEntity
  8
0
100
AcDbLine
 10
-26.99992679910611
 20
144.4799105546617
 30
0.0
 11
-15.49992679948809
 21
144.4800040879936
 31
0.0
  0
LINE
  5
2AB
330
1F
100
AcDbEntity
  8
0
100
AcDbLine
 10
14.99977410630527
 20
181.2540061534446
 30
0.0
 11
14.99999999950523
 21
153.4802521543634
 31
0.0
  0
LINE
  5
2AC
330
1F
100
AcDbEntity
  8
0
100
AcDbLine
 10
8.999780399637529
 20
180.4802113534706
 30
0.0
 11
8.999873933034905
 21
168.9802033538499
 31
0.0
  0
LINE
  5
2AD
330
1F
100
AcDbEntity
  8
1
100
AcDbLine
 10
4.995957264452954
 20
175.4804227888771
 30
0.0
 11
25.18739706378438
 21
175.4805870125865
 31
0.0
  0
LINE
  5
2AE
330
1F
100
AcDbEntity
  8
0
100
AcDbLine
 10
14.99978039943926
 20
180.4802601534711
 30
0.0
 11
8.999780399637529
 21
180.4802113534706
 31
0.0
  0
LINE
  5
2AF
330
1F
100
AcDbEntity
  8
0
100
AcDbLine
 10
25.18743228215863
 20
171.1504590127306
 30
0.0
 11
25.18736184541922
 21
179.8107140124439
 31
0.0
  0
LINE
  5
2B0
330
1F
100
AcDbEntity
  8
0
100
AcDbLine
 10
24.68312802162655
 20
169.7070799110088
 30
0.0
 11
21.18744402174161
 21
169.7070514794459
 31
0.0
  0
LINE
  5
2B1
330
1F
100
AcDbEntity
  8
0
100
AcDbLine
 10
24.68303410598492
 20
181.2540849106271
 30
0.0
 11
21.18735010609999
 21
181.2540564790624
 31
0.0
  0
LINE
  5
2B2
330
1F
100
AcDbEntity
  8
0
100
AcDbLine
 10
24.68310454270977
 20
172.5938319109127
 30
0.0
 11
21.18742054282484
 21
172.5938034793498
 31
0.0
  0
LINE
  5
2B3
330
1F
100
AcDbEntity
  8
0
100
AcDbLine
 10
24.68305758489441
 20
178.3673339107217
 30
0.0
 11
21.18737358500948
 21
178.367305479157
 31
0.0
  0
LINE
  5
2B4
330
1F
100
AcDbEntity
  8
0
100
AcDbLine
 10
21.18744402174161
 20
169.7070514794459
 30
0.0
 11
21.18735010609999
 21
181.2540564790624
 31
0.0
  0
LINE
  5
2B5
330
1F
100
AcDbEntity
  8
0
100
AcDbLine
 10
-27.77358178707255
 20
133.2899032618961
 30
0.0
 11
-16.22657778745451
 21
133.2899971775286
 31
0.0
  0
LINE
  5
2B6
330
1F
100
AcDbEntity
  8
0
100
AcDbLine
 10
-19.11330035581886
 20
129.7942926987371
 30
0.0
 11
-19.11332878735811
 21
133.289973698621
 31
0.0
  0
LINE
  5
2B7
330
1F
100
AcDbEntity
  8
0
100
AcDbLine
 10
-24.8868023556297
 20
129.7942457409217
 30
0.0
 11
-24.88683078716895
 21
133.2899267408056
 31
0.0
  0
LINE
  5
2B8
330
1F
100
AcDbEntity
  8
0
100
AcDbLine
 10
-16.22654935591526
 20
129.7943161776447
 30
0.0
 11
-16.22657778745451
 21
133.2899971775286
 31
0.0
  0
LINE
  5
2B9
330
1F
100
AcDbEntity
  8
0
100
AcDbLine
 10
-27.7735533555333
 20
129.7942222620122
 30
0.0
 11
-27.77358178707255
 21
133.2899032618961
 31
0.0
  0
LINE
  5
2BA
330
1F
100
AcDbEntity
  8
0
100
AcDbLine
 10
-26.33017525378637
 20
129.28991500147
 30
0.0
 11
-17.66991925407274
 21
129.2899854382185
 31
0.0
  0
LINE
  5
2BB
330
1F
100
AcDbEntity
  8
0
100
AcDbLine
 10
6.187413631079834
 20
173.4804324793231
 30
0.0
 11
6.187381097746765
 21
177.4804324791903
 31
0.0
  0
LINE
  5
2BC
330
1F
100
AcDbEntity
  8
0
100
AcDbLine
 10
21.1874214639156
 20
172.4805544793516
 30
0.0
 11
18.99984546398991
 21
172.4805366870687
 31
0.0
  0
LINE
  5
2BD
330
1F
100
AcDbEntity
  8
0
100
AcDbLine
 10
21.1873726639169
 20
178.4805544791552
 30
0.0
 11
18.99979666398758
 21
178.4805366868704
 31
0.0
  0
LINE
  5
2BE
330
1F
100
AcDbEntity
  8
0
100
AcDbLine
 10
7.187421764379905
 20
172.4804406126886
 30
0.0
 11
7.187372964381211
 21
178.4804406124922
 31
0.0
  0
LINE
  5
2BF
330
1F
100
AcDbEntity
  8
0
100
AcDbLine
 10
7.187373464379561
 20
178.480440612494
 30
0.0
 11
6.187381597746934
 21
177.4804324791939
 31
0.0
  0
LINE
  5
2C0
330
1F
100
AcDbEntity
  8
0
100
AcDbLine
 10
7.187421264396107
 20
172.4804386126843
 30
0.0
 11
6.187412631079496
 21
173.480432479314
 31
0.0
  0
LINE
  5
2C1
330
1F
100
AcDbEntity
  8
0
100
AcDbLine
 10
21.18741658391627
 20
173.080554479332
 30
0.0
 11
18.99984058398877
 21
173.0805366870472
 31
0.0
  0
LINE
  5
2C2
330
1F
100
AcDbEntity
  8
0
100
AcDbLine
 10
21.18737754392532
 20
177.8805534791745
 30
0.0
 11
18.99980154399782
 21
177.8805356868897
 31
0.0
  0
LINE
  5
2C3
330
1F
100
AcDbEntity
  8
0
100
AcDbLine
 10
8.999845464320969
 20
172.4804553537351
 30
0.0
 11
7.187421764379905
 21
172.4804406126886
 31
0.0
  0
LINE
  5
2C4
330
1F
100
AcDbEntity
  8
0
100
AcDbLine
 10
8.999840584319827
 20
173.0804553537154
 30
0.0
 11
6.587415984400649
 21
173.0804357326606
 31
0.0
  0
LINE
  5
2C5
330
1F
100
AcDbEntity
  8
0
100
AcDbLine
 10
8.999801544328875
 20
177.8804543535561
 30
0.0
 11
6.587377444409867
 21
177.8804347325085
 31
0.0
  0
LINE
  5
2C6
330
1F
100
AcDbEntity
  8
0
100
AcDbLine
 10
8.999796664318637
 20
178.480455353535
 30
0.0
 11
7.187373464379561
 21
178.480440612494
 31
0.0
  0
LINE
  5
2C7
330
1F
100
AcDbEntity
  8
0
100
AcDbLine
 10
18.49548158509788
 20
178.3672835851021
 30
0.0
 11
14.99979758521294
 21
178.367255153541
 31
0.0
  0
LINE
  5
2C8
330
1F
100
AcDbEntity
  8
0
100
AcDbLine
 10
18.49552854291505
 20
172.5937815852949
 30
0.0
 11
14.99984454303012
 21
172.593753153732
 31
0.0
  0
LINE
  5
2C9
330
1F
100
AcDbEntity
  8
0
100
AcDbLine
 10
18.49545810618838
 20
181.2540345850075
 30
0.0
 11
14.99977410630527
 21
181.2540061534446
 31
0.0
  0
LINE
  5
2CA
330
1F
100
AcDbEntity
  8
0
100
AcDbLine
 10
18.49555202183001
 20
169.7070295853909
 30
0.0
 11
14.99986802194689
 21
169.7070011538262
 31
0.0
  0
LINE
  5
2CB
330
1F
100
AcDbEntity
  8
0
100
AcDbLine
 10
18.99985628236573
 20
171.1504086871127
 30
0.0
 11
18.99978584562268
 21
179.810663686826
 31
0.0
  0
LINE
  5
2CC
330
1F
100
AcDbEntity
  8
0
100
AcDbLine
 10
-26.33021746579653
 20
134.4799160012999
 30
0.0
 11
-17.66996146608107
 21
134.4799864380484
 31
0.0
  0
LINE
  5
2CD
330
1F
100
AcDbEntity
  8
0
100
AcDbLine
 10
-25.00017079917234
 20
144.4799268193428
 30
0.0
 11
-25.00019365383741
 21
147.2899267192506
 31
0.0
  0
LINE
  5
2CE
330
1F
100
AcDbEntity
  8
0
100
AcDbLine
 10
-24.40017079919198
 20
144.479931699344
 30
0.0
 11
-24.40019853386366
 21
147.8899324992299
 31
0.0
  0
LINE
  5
2CF
330
1F
100
AcDbEntity
  8
0
100
AcDbLine
 10
-19.11334256780356
 20
134.9842906985659
 30
0.0
 11
-19.11337099936827
 21
138.4799746984508
 31
0.0
  0
LINE
  5
2D0
330
1F
100
AcDbEntity
  8
0
100
AcDbLine
 10
-27.77359556751799
 20
134.984220261841
 30
0.0
 11
-27.77362399908088
 21
138.479904261726
 31
0.0
  0
LINE
  5
2D1
330
1F
100
AcDbEntity
  8
0
100
AcDbLine
 10
-16.22659156789996
 20
134.9843141774736
 30
0.0
 11
-16.22661999946285
 21
138.4799981773585
 31
0.0
  0
LINE
  5
2D2
330
1F
100
AcDbEntity
  8
0
100
AcDbLine
 10
-24.88684456761257
 20
134.9842437407487
 30
0.0
 11
-24.88687299917547
 21
138.4799277406337
 31
0.0
  0
LINE
  5
2D3
330
1F
100
AcDbEntity
  8
0
100
AcDbLine
 10
-19.6001717993513
 20
144.4799707393349
 30
0.0
 11
-19.60019953401934
 21
147.8899710392225
 31
0.0
  0
LINE
  5
2D4
330
1F
100
AcDbEntity
  8
0
100
AcDbLine
 10
-19.60008078734427
 20
133.2899697397051
 30
0.0
 11
-19.60009046601772
 21
134.479970739666
 31
0.0
  0
LINE
  5
2D5
330
1F
100
AcDbEntity
  8
0
100
AcDbLine
 10
-24.40007978718313
 20
133.2899306997142
 30
0.0
 11
-24.4000894658584
 21
134.479931699675
 31
0.0
  0
LINE
  5
2D6
330
1F
100
AcDbEntity
  8
0
100
AcDbLine
 10
-25.00019365384651
 20
147.2899277192509
 30
0.0
 11
-24.00020178721206
 21
148.289935852551
 31
0.0
  0
LINE
  5
2D7
330
1F
100
AcDbEntity
  8
0
100
AcDbLine
 10
-19.00019365403386
 20
147.2899751192517
 30
0.0
 11
-20.00020178733757
 21
148.2899673858837
 31
0.0
  0
LINE
  5
2D8
330
1F
100
AcDbEntity
  8
0
100
AcDbLine
 10
-25.00019365383741
 20
147.2899267192506
 30
0.0
 11
-19.00019365403568
 21
147.2899755192511
 31
0.0
  0
LINE
  5
2D9
330
1F
100
AcDbEntity
  8
0
100
AcDbLine
 10
-19.00007978736357
 20
133.2899746197135
 30
0.0
 11
-19.00008946603884
 21
134.4799756196744
 31
0.0
  0
LINE
  5
2DA
330
1F
100
AcDbEntity
  8
0
100
AcDbLine
 10
-25.00007978716349
 20
133.289925819713
 30
0.0
 11
-25.00008946583875
 21
134.4799268196739
 31
0.0
  0
LINE
  5
2DB
330
1F
100
AcDbEntity
  8
0
100
AcDbLine
 10
-24.00020178720479
 20
148.2899348525507
 30
0.0
 11
-20.00020178733757
 21
148.2899673858837
 31
0.0
  0
LINE
  5
2DC
330
1F
100
AcDbEntity
  8
0
100
AcDbLine
 10
-19.00017079937061
 20
144.4799756193433
 30
0.0
 11
-19.00019365403386
 21
147.2899751192517
 31
0.0
  0
ARC
  5
2DD
330
1F
100
AcDbEntity
  8
0
100
AcDbCircle
 10
0.0000000012423698
 20
153.4799775664733
 30
0.0
 40
17.5
100
AcDbArc
 50
240.2500220056587
 51
29.56495600567459
  0
ARC
  5
2DE
330
1F
100
AcDbEntity
  8
0
100
AcDbCircle
 10
-23.7998094245213
 20
129.679769581794
 30
0.0
 40
6.5
100
AcDbArc
 50
128.8636960056646
 51
353.1504360056765
  0
CIRCLE
  5
2DF
330
1F
100
AcDbEntity
  8
0
100
AcDbCircle
 10
-23.80019657123739
 20
177.2797755802194
 30
0.0
 40
6.5
  0
ARC
  5
2E0
330
1F
100
AcDbEntity
  8
0
100
AcDbCircle
 10
23.79980942718976
 20
177.2801627269337
 30
0.0
 40
6.5
100
AcDbArc
 50
282.718523339026
 51
141.4532760056693
  0
CIRCLE
  5
2E1
330
1F
100
AcDbEntity
  8
0
100
AcDbCircle
 10
23.80019657390403
 20
129.6801567285083
 30
0.0
 40
6.5
  0
ARC
  5
2E2
330
1F
100
AcDbEntity
  8
0
100
AcDbCircle
 10
-27.49999199999911
 20
105.4802831543647
 30
0.0
 40
5.0
100
AcDbArc
 50
180.0
 51
270.0
  0
ARC
  5
2E3
330
1F
100
AcDbEntity
  8
0
100
AcDbCircle
 10
82.00000800000088
 20
105.4802831543647
 30
0.0
 40
5.0
100
AcDbArc
 50
269.9041258206605
 51
0.0
  0
ARC
  5
2E4
330
1F
100
AcDbEntity
  8
0
100
AcDbCircle
 10
82.00000800000088
 20
201.4802941543631
 30
0.0
 40
5.0
100
AcDbArc
 50
0.0
 51
90.10249381392666
  0
ARC
  5
2E5
330
1F
100
AcDbEntity
  8
0
100
AcDbCircle
 10
-27.49999199999911
 20
201.4802941543631
 30
0.0
 40
5.0
100
AcDbArc
 50
90.0
 51
180.0
  0
ARC
  5
2E6
330
1F
100
AcDbEntity
  8
0
100
AcDbCircle
 10
0.0000000012423698
 20
153.4799775664733
 30
0.0
 40
17.5
100
AcDbArc
 50
59.73909600568862
 51
210.2624420056791
  0
CIRCLE
  5
2E7
330
1F
100
AcDbEntity
  8
0
100
AcDbCircle
 10
0.0
 20
153.4801301543639
 30
0.0
 40
15.0
  0
ARC
  5
2E8
330
1F
100
AcDbEntity
  8
0
100
AcDbCircle
 10
8.499629833053404
 20
168.9801992851999
 30
0.0
 40
0.5
100
AcDbArc
 50
270.0004660056826
 51
0.0004660056565686
  0
ARC
  5
2E9
330
1F
100
AcDbEntity
  8
0
100
AcDbCircle
 10
-15.49993086615359
 20
144.980004087979
 30
0.0
 40
0.5
100
AcDbArc
 50
270.0004660056826
 51
0.0004660056565686
  0
ARC
  5
2EA
330
1F
100
AcDbEntity
  8
0
100
AcDbCircle
 10
22.86970484549602
 20
179.8106951621676
 30
0.0
 40
2.317657899999999
100
AcDbArc
 50
321.4815460056756
 51
38.51938600566477
  0
ARC
  5
2EB
330
1F
100
AcDbEntity
  8
0
100
AcDbCircle
 10
16.67324106406704
 20
175.4805177641183
 30
0.0
 40
8.514156299999999
100
AcDbArc
 50
340.181276005686
 51
19.81965600566875
  0
ARC
  5
2EC
330
1F
100
AcDbEntity
  8
0
100
AcDbCircle
 10
22.86977528223542
 20
171.1504401624524
 30
0.0
 40
2.317657899999999
100
AcDbArc
 50
321.4815460056756
 51
38.51938600566477
  0
ARC
  5
2ED
330
1F
100
AcDbEntity
  8
0
100
AcDbCircle
 10
-26.33019410408815
 20
131.6075750013942
 30
0.0
 40
2.317657899999999
100
AcDbArc
 50
231.4815080056855
 51
308.5194260056624
  0
ARC
  5
2EE
330
1F
100
AcDbEntity
  8
0
100
AcDbCircle
 10
-22.00011650240595
 20
137.8041072195637
 30
0.0
 40
8.514156299999999
100
AcDbArc
 50
250.1812730056737
 51
289.8196560056728
  0
ARC
  5
2EF
330
1F
100
AcDbEntity
  8
0
100
AcDbCircle
 10
-17.66993810437452
 20
131.6076454381446
 30
0.0
 40
2.317657899999999
100
AcDbArc
 50
231.4815080056855
 51
308.5194260056624
  0
ARC
  5
2F0
330
1F
100
AcDbEntity
  8
0
100
AcDbCircle
 10
16.68219928243888
 20
171.1503898368346
 30
0.0
 40
2.317657899999999
100
AcDbArc
 50
321.4815460056756
 51
38.51938600566477
  0
ARC
  5
2F1
330
1F
100
AcDbEntity
  8
0
100
AcDbCircle
 10
10.4856650642705
 20
175.4804674385004
 30
0.0
 40
8.514156299999999
100
AcDbArc
 50
340.181276005686
 51
19.81965600566875
  0
ARC
  5
2F2
330
1F
100
AcDbEntity
  8
0
100
AcDbCircle
 10
16.6821288457013
 20
179.8106448365497
 30
0.0
 40
2.317657899999999
100
AcDbArc
 50
321.4815460056756
 51
38.51938600566477
  0
ARC
  5
2F3
330
1F
100
AcDbEntity
  8
0
100
AcDbCircle
 10
-26.33023631607102
 20
136.7975730012231
 30
0.0
 40
2.317657899999999
100
AcDbArc
 50
231.4815080056855
 51
308.5194260056624
  0
ARC
  5
2F4
330
1F
100
AcDbEntity
  8
0
100
AcDbCircle
 10
-22.00015871440701
 20
142.9941072193915
 30
0.0
 40
8.514156299999999
100
AcDbArc
 50
250.1812730056737
 51
289.8196560056728
  0
ARC
  5
2F5
330
1F
100
AcDbEntity
  8
0
100
AcDbCircle
 10
-17.66998031635921
 20
136.7976434379716
 30
0.0
 40
2.317657899999999
100
AcDbArc
 50
231.4815080056855
 51
308.5194260056624
  0
CIRCLE
  5
2F6
330
1F
100
AcDbEntity
  8
0
100
AcDbCircle
 10
0.0
 20
153.4801301543639
 30
0.0
 40
7.5
  0
LINE
  5
2F7
330
1F
100
AcDbEntity
  8
2
100
AcDbLine
 10
-64.49992998654306
 20
171.4801301543639
 30
0.0
 11
-32.49998500000038
 21
171.4801301543639
 31
0.0
  0
LINE
  5
2F8
330
1F
100
AcDbEntity
  8
2
100
AcDbLine
 10
-59.49999999999818
 20
192.4801301543639
 30
0.0
 11
-59.49999999999818
 21
114.4801301543639
 31
0.0
  0
LINE
  5
2F9
330
1F
100
AcDbEntity
  8
2
100
AcDbLine
 10
-64.49992998654306
 20
122.6801301543646
 30
0.0
 11
-32.49998500000038
 21
122.6801301543646
 31
0.0
  0
LINE
  5
2FA
330
1F
100
AcDbEntity
  8
2
100
AcDbLine
 10
-64.49992998654306
 20
184.280130154365
 30
0.0
 11
-32.49998500000038
 21
184.280130154365
 31
0.0
  0
LINE
  5
2FB
330
1F
100
AcDbEntity
  8
2
100
AcDbLine
 10
-63.49992998654489
 20
192.4801301543639
 30
0.0
 11
-32.49998500000038
 21
192.4801301543639
 31
0.0
  0
LINE
  5
2FC
330
1F
100
AcDbEntity
  8
2
100
AcDbLine
 10
-63.49992998654489
 20
114.4801301543639
 30
0.0
 11
-32.49998500000038
 21
114.4801301543639
 31
0.0
  0
LINE
  5
2FD
330
1F
100
AcDbEntity
  8
2
100
AcDbLine
 10
-64.49992998654306
 20
169.4801301543639
 30
0.0
 11
-32.49998500000038
 21
169.4801301543639
 31
0.0
  0
LINE
  5
2FE
330
1F
100
AcDbEntity
  8
2
100
AcDbLine
 10
-64.49992998654306
 20
137.4801301543621
 30
0.0
 11
-32.49998500000038
 21
137.4801301543621
 31
0.0
  0
ARC
  5
2FF
330
1F
100
AcDbEntity
  8
2
100
AcDbCircle
 10
-63.49992998654489
 20
115.4801301543639
 30
0.0
 40
1.0
100
AcDbArc
 50
180.0
 51
270.0
  0
LINE
  5
300
330
1F
100
AcDbEntity
  8
2
100
AcDbLine
 10
-64.49992998654306
 20
135.4801301543639
 30
0.0
 11
-32.49998500000038
 21
135.4801301543639
 31
0.0
  0
LINE
  5
301
330
1F
100
AcDbEntity
  8
2
100
AcDbLine
 10
-64.49992998654306
 20
115.4801301543639
 30
0.0
 11
-64.49992998654306
 21
191.4801301543639
 31
0.0
  0
ARC
  5
302
330
1F
100
AcDbEntity
  8
2
100
AcDbCircle
 10
-63.49992998654489
 20
191.4801301543639
 30
0.0
 40
1.0
100
AcDbArc
 50
90.0
 51
180.0
  0
LINE
  5
303
330
1F
100
AcDbEntity
  8
2
100
AcDbLine
 10
100.0000671760972
 20
137.2124305754741
 30
0.0
 11
100.0000671760972
 21
129.7204501172045
 31
0.0
  0
LINE
  5
304
330
1F
100
AcDbEntity
  8
2
100
AcDbLine
 10
91.10016766970693
 20
137.4801301543621
 30
0.0
 11
95.00055829470511
 21
137.4801301543621
 31
0.0
  0
LINE
  5
305
330
1F
100
AcDbEntity
  8
2
100
AcDbLine
 10
99.41988893949059
 20
133.4664403463402
 30
0.0
 11
95.00055829470511
 21
133.4801301543639
 31
0.0
  0
LINE
  5
306
330
1F
100
AcDbEntity
  8
2
100
AcDbLine
 10
91.10016474444638
 20
137.2260071802075
 30
0.0
 11
91.10016474444638
 21
136.2301301543639
 31
0.0
  0
LINE
  5
307
330
1F
100
AcDbEntity
  8
2
100
AcDbLine
 10
91.10016766970693
 20
136.6803254668639
 30
0.0
 11
95.00055829470511
 21
136.6803254668639
 31
0.0
  0
LINE
  5
308
330
1F
100
AcDbEntity
  8
2
100
AcDbLine
 10
91.60007001345547
 20
129.4800080840514
 30
0.0
 11
95.00055829470511
 21
129.4800080840514
 31
0.0
  0
LINE
  5
309
330
1F
100
AcDbEntity
  8
2
100
AcDbLine
 10
99.41999188845512
 20
140.9855775420592
 30
0.0
 11
95.00055829470511
 21
140.9855775420592
 31
0.0
  0
LINE
  5
30A
330
1F
100
AcDbEntity
  8
2
100
AcDbLine
 10
95.00055829470511
 20
125.9746827666686
 30
0.0
 11
99.41999188845512
 21
125.9746827666686
 31
0.0
  0
LINE
  5
30B
330
1F
100
AcDbEntity
  8
2
100
AcDbLine
 10
90.52008954470693
 20
140.9855012481121
 30
0.0
 11
87.00000000000182
 21
140.9855012481121
 31
0.0
  0
LINE
  5
30C
330
1F
100
AcDbEntity
  8
2
100
AcDbLine
 10
95.00055829470511
 20
125.9746827666686
 30
0.0
 11
95.00055829470511
 21
140.9855775420592
 31
0.0
  0
LINE
  5
30D
330
1F
100
AcDbEntity
  8
2
100
AcDbLine
 10
91.60007001345547
 20
130.2799348418639
 30
0.0
 11
95.00055829470511
 21
130.2799348418639
 31
0.0
  0
ARC
  5
30E
330
1F
100
AcDbEntity
  8
2
100
AcDbCircle
 10
87.61624611472507
 20
129.7203703854566
 30
0.0
 40
12.38382106163013
100
AcDbArc
 50
342.3930911287095
 51
17.60764665530418
  0
ARC
  5
30F
330
1F
100
AcDbEntity
  8
2
100
AcDbCircle
 10
78.7163436830724
 20
137.2260869119573
 30
0.0
 40
12.38382106163013
100
AcDbArc
 50
355.387060779385
 51
17.6069088712906
  0
ARC
  5
310
330
1F
100
AcDbEntity
  8
2
100
AcDbCircle
 10
87.61624611472507
 20
137.2125103072239
 30
0.0
 40
12.38382106163013
100
AcDbArc
 50
342.3923533446958
 51
17.6069088712906
  0
LINE
  5
311
330
1F
100
AcDbEntity
  8
2
100
AcDbLine
 10
91.60007001345547
 20
127.6051301543639
 30
0.0
 11
91.60007001345547
 21
133.3551301543639
 31
0.0
  0
LINE
  5
312
330
1F
100
AcDbEntity
  8
2
100
AcDbLine
 10
91.16705731156486
 20
130.4801301543634
 30
0.0
 11
87.60007001345547
 21
130.4801301543638
 31
0.0
  0
LINE
  5
313
330
1F
100
AcDbEntity
  8
2
100
AcDbLine
 10
87.60007001345547
 20
124.4801301543639
 30
0.0
 11
87.60007001345547
 21
136.4801301543639
 31
0.0
  0
LINE
  5
314
330
1F
100
AcDbEntity
  8
2
100
AcDbLine
 10
87.60007001345547
 20
182.2301301543639
 30
0.0
 11
91.16705731156434
 21
182.2301301543639
 31
0.0
  0
LINE
  5
315
330
1F
100
AcDbEntity
  8
2
100
AcDbLine
 10
87.00000000000182
 20
124.4801301543639
 30
0.0
 11
87.60007001345547
 21
124.4801301543639
 31
0.0
  0
LINE
  5
316
330
1F
100
AcDbEntity
  8
2
100
AcDbLine
 10
87.60007001345547
 20
124.7301301543639
 30
0.0
 11
91.16705731156434
 21
124.7301301543639
 31
0.0
  0
LINE
  5
317
330
1F
100
AcDbEntity
  8
2
100
AcDbLine
 10
87.60007001345547
 20
136.2301301543639
 30
0.0
 11
91.16705731156434
 21
136.2301301543639
 31
0.0
  0
ARC
  5
318
330
1F
100
AcDbEntity
  8
2
100
AcDbCircle
 10
81.839242024962
 20
133.3551301543639
 30
0.0
 40
9.76082798849484
100
AcDbArc
 50
342.8697633249811
 51
17.13023667501892
  0
LINE
  5
319
330
1F
100
AcDbEntity
  8
2
100
AcDbLine
 10
87.00000000000182
 20
136.4801301543639
 30
0.0
 11
87.60007001345547
 21
136.4801301543639
 31
0.0
  0
ARC
  5
31A
330
1F
100
AcDbEntity
  8
2
100
AcDbCircle
 10
81.839242024962
 20
127.6051301543639
 30
0.0
 40
9.76082798849484
100
AcDbArc
 50
342.8697633249811
 51
17.13023667501892
  0
LINE
  5
31B
330
1F
100
AcDbEntity
  8
2
100
AcDbLine
 10
91.16705731156486
 20
176.4801301543625
 30
0.0
 11
87.60007001345547
 21
176.4801301543639
 31
0.0
  0
LINE
  5
31C
330
1F
100
AcDbEntity
  8
2
100
AcDbLine
 10
87.60007001345547
 20
170.4801301543621
 30
0.0
 11
87.60007001345547
 21
182.4801301543621
 31
0.0
  0
LINE
  5
31D
330
1F
100
AcDbEntity
  8
2
100
AcDbLine
 10
91.60007001345547
 20
173.6051301543621
 30
0.0
 11
91.60007001345547
 21
179.3551301543639
 31
0.0
  0
LINE
  5
31E
330
1F
100
AcDbEntity
  8
2
100
AcDbLine
 10
87.60007001345547
 20
170.7301301543639
 30
0.0
 11
91.16705731156434
 21
170.7301301543639
 31
0.0
  0
ARC
  5
31F
330
1F
100
AcDbEntity
  8
2
100
AcDbCircle
 10
81.839242024962
 20
179.3551301543639
 30
0.0
 40
9.76082798849484
100
AcDbArc
 50
342.8697633249811
 51
17.13023667501892
  0
LINE
  5
320
330
1F
100
AcDbEntity
  8
2
100
AcDbLine
 10
87.00000000000182
 20
170.4801301543621
 30
0.0
 11
87.60007001345547
 21
170.4801301543621
 31
0.0
  0
LINE
  5
321
330
1F
100
AcDbEntity
  8
2
100
AcDbLine
 10
87.00000000000182
 20
182.4801301543621
 30
0.0
 11
87.60007001345547
 21
182.4801301543621
 31
0.0
  0
ARC
  5
322
330
1F
100
AcDbEntity
  8
2
100
AcDbCircle
 10
81.839242024962
 20
173.6051301543621
 30
0.0
 40
9.76082798849484
100
AcDbArc
 50
342.8697633249811
 51
17.13023667501892
  0
LINE
  5
323
330
1F
100
AcDbEntity
  8
2
100
AcDbLine
 10
-71.16691728465292
 20
176.4801301543639
 30
0.0
 11
-67.59992998654343
 21
176.4801301543639
 31
0.0
  0
LINE
  5
324
330
1F
100
AcDbEntity
  8
2
100
AcDbLine
 10
-67.59992998654343
 20
170.4801301543621
 30
0.0
 11
-67.59992998654343
 21
182.4801301543621
 31
0.0
  0
LINE
  5
325
330
1F
100
AcDbEntity
  8
2
100
AcDbLine
 10
-67.59992998654343
 20
170.7301301543639
 30
0.0
 11
-71.1669172846523
 21
170.7301301543639
 31
0.0
  0
LINE
  5
326
330
1F
100
AcDbEntity
  8
2
100
AcDbLine
 10
-71.59992998654525
 20
173.6051301543621
 30
0.0
 11
-71.59992998654525
 21
179.3551301543639
 31
0.0
  0
LINE
  5
327
330
1F
100
AcDbEntity
  8
2
100
AcDbLine
 10
-71.10002764279307
 20
136.6803254668639
 30
0.0
 11
-75.00041826779306
 21
136.6803254668639
 31
0.0
  0
LINE
  5
328
330
1F
100
AcDbEntity
  8
2
100
AcDbLine
 10
-64.49992998654306
 20
182.4801301543621
 30
0.0
 11
-67.59992998654343
 21
182.4801301543621
 31
0.0
  0
LINE
  5
329
330
1F
100
AcDbEntity
  8
2
100
AcDbLine
 10
-67.59992998654343
 20
182.2301301543639
 30
0.0
 11
-71.1669172846523
 21
182.2301301543639
 31
0.0
  0
LINE
  5
32A
330
1F
100
AcDbEntity
  8
2
100
AcDbLine
 10
-64.49992998654306
 20
170.4801301543621
 30
0.0
 11
-67.59992998654343
 21
170.4801301543621
 31
0.0
  0
ARC
  5
32B
330
1F
100
AcDbEntity
  8
2
100
AcDbCircle
 10
-61.83910199804995
 20
179.3551301543639
 30
0.0
 40
9.76082798849484
100
AcDbArc
 50
162.8697633249811
 51
197.1302366750189
  0
LINE
  5
32C
330
1F
100
AcDbEntity
  8
2
100
AcDbLine
 10
-66.09992998654343
 20
170.4801301543621
 30
0.0
 11
-66.09992998654343
 21
182.4801301543621
 31
0.0
  0
LINE
  5
32D
330
1F
100
AcDbEntity
  8
2
100
AcDbLine
 10
-79.41985186154306
 20
140.9992673500828
 30
0.0
 11
-75.00041826779306
 21
140.9992673500828
 31
0.0
  0
ARC
  5
32E
330
1F
100
AcDbEntity
  8
2
100
AcDbCircle
 10
-61.83910199804995
 20
173.6051301543621
 30
0.0
 40
9.76082798849484
100
AcDbArc
 50
162.8697633249811
 51
197.1302366750189
  0
LINE
  5
32F
330
1F
100
AcDbEntity
  8
2
100
AcDbLine
 10
-71.10002764279307
 20
137.4801301543621
 30
0.0
 11
-75.00041826779306
 21
137.4801301543621
 31
0.0
  0
LINE
  5
330
330
1F
100
AcDbEntity
  8
2
100
AcDbLine
 10
-79.42244772616897
 20
133.4886446032991
 30
0.0
 11
-75.00041826779306
 21
133.4938199623875
 31
0.0
  0
LINE
  5
331
330
1F
100
AcDbEntity
  8
2
100
AcDbLine
 10
-70.51994951779306
 20
140.9855012481121
 30
0.0
 11
-66.68059404904306
 21
140.9855012481121
 31
0.0
  0
LINE
  5
332
330
1F
100
AcDbEntity
  8
2
100
AcDbLine
 10
-64.49992998654306
 20
141.4801301543639
 30
0.0
 11
-66.10002764279307
 21
141.4801301543639
 31
0.0
  0
LINE
  5
333
330
1F
100
AcDbEntity
  8
2
100
AcDbLine
 10
-71.59992998654525
 20
129.4800080840514
 30
0.0
 11
-75.00041826779306
 21
129.4800080840514
 31
0.0
  0
LINE
  5
334
330
1F
100
AcDbEntity
  8
2
100
AcDbLine
 10
-75.00041826779306
 20
125.9883725746922
 30
0.0
 11
-79.41985186154306
 21
125.9883725746922
 31
0.0
  0
LINE
  5
335
330
1F
100
AcDbEntity
  8
2
100
AcDbLine
 10
-71.10002471753432
 20
137.2260071802075
 30
0.0
 11
-71.10002471753432
 21
136.2301301543639
 31
0.0
  0
LINE
  5
336
330
1F
100
AcDbEntity
  8
2
100
AcDbLine
 10
-75.00041826779306
 20
125.9883725746922
 30
0.0
 11
-75.00041826779306
 21
140.9992673500828
 31
0.0
  0
LINE
  5
337
330
1F
100
AcDbEntity
  8
2
100
AcDbLine
 10
-67.59992998654343
 20
136.2301301543639
 30
0.0
 11
-71.1669172846523
 21
136.2301301543639
 31
0.0
  0
LINE
  5
338
330
1F
100
AcDbEntity
  8
2
100
AcDbLine
 10
-79.99992714918517
 20
137.2261203834996
 30
0.0
 11
-79.99992714918517
 21
129.7341399252282
 31
0.0
  0
LINE
  5
339
330
1F
100
AcDbEntity
  8
2
100
AcDbLine
 10
-71.59992998654525
 20
130.2799348418639
 30
0.0
 11
-75.00041826779306
 21
130.2799348418639
 31
0.0
  0
ARC
  5
33A
330
1F
100
AcDbEntity
  8
2
100
AcDbCircle
 10
-67.61610608781302
 20
137.2262001152476
 30
0.0
 40
12.38382106163012
100
AcDbArc
 50
162.3930911287094
 51
197.6076466553042
  0
ARC
  5
33B
330
1F
100
AcDbEntity
  8
2
100
AcDbCircle
 10
-78.48385162942577
 20
137.2260869119573
 30
0.0
 40
12.38382106163012
100
AcDbArc
 50
356.5466181588856
 51
17.6069088712906
  0
ARC
  5
33C
330
1F
100
AcDbEntity
  8
2
100
AcDbCircle
 10
-67.61610608781302
 20
129.7340601934802
 30
0.0
 40
12.38382106163012
100
AcDbArc
 50
162.3923533446958
 51
197.6069088712906
  0
LINE
  5
33D
330
1F
100
AcDbEntity
  8
2
100
AcDbLine
 10
-71.16691728465281
 20
130.4801301543634
 30
0.0
 11
-67.59992998654343
 21
130.4801301543639
 31
0.0
  0
ARC
  5
33E
330
1F
100
AcDbEntity
  8
2
100
AcDbCircle
 10
-58.71620365616036
 20
137.2260869119573
 30
0.0
 40
12.38382106163012
100
AcDbArc
 50
162.3930911287094
 51
184.612939220615
  0
LINE
  5
33F
330
1F
100
AcDbEntity
  8
2
100
AcDbLine
 10
-67.59992998654343
 20
124.4801301543639
 30
0.0
 11
-67.59992998654343
 21
136.4801301543639
 31
0.0
  0
LINE
  5
340
330
1F
100
AcDbEntity
  8
2
100
AcDbLine
 10
-64.49992998654306
 20
124.4801301543639
 30
0.0
 11
-67.59992998654343
 21
124.4801301543639
 31
0.0
  0
LINE
  5
341
330
1F
100
AcDbEntity
  8
2
100
AcDbLine
 10
-71.59992998654525
 20
127.6051301543639
 30
0.0
 11
-71.59992998654525
 21
133.3551301543639
 31
0.0
  0
LINE
  5
342
330
1F
100
AcDbEntity
  8
2
100
AcDbLine
 10
-67.59992998654343
 20
124.7301301543639
 30
0.0
 11
-71.1669172846523
 21
124.7301301543639
 31
0.0
  0
ARC
  5
343
330
1F
100
AcDbEntity
  8
2
100
AcDbCircle
 10
-61.83910199804995
 20
133.3551301543639
 30
0.0
 40
9.760827988494838
100
AcDbArc
 50
162.8697633249811
 51
197.1302366750189
  0
LINE
  5
344
330
1F
100
AcDbEntity
  8
2
100
AcDbLine
 10
-64.49992998654306
 20
136.4801301543639
 30
0.0
 11
-67.59992998654343
 21
136.4801301543639
 31
0.0
  0
ARC
  5
345
330
1F
100
AcDbEntity
  8
2
100
AcDbCircle
 10
-61.83910199804995
 20
127.6051301543639
 30
0.0
 40
9.760827988494838
100
AcDbArc
 50
162.8697633249811
 51
197.1302366750189
  0
LINE
  5
346
330
1F
100
AcDbEntity
  8
2
100
AcDbLine
 10
-66.09992998654343
 20
124.4801301543639
 30
0.0
 11
-66.10051592404307
 21
141.4801301543639
 31
0.0
  0
LINE
  5
347
330
1F
100
AcDbEntity
  8
1
100
AcDbLine
 10
0.0
 20
212.4558064220773
 30
0.0
 11
0.0
 21
91.580820447095
 31
0.0
  0
LINE
  5
348
330
1F
100
AcDbEntity
  8
0
100
AcDbLine
 10
-7.000007200001164
 20
153.4802714490215
 30
0.0
 11
-3.999998800000867
 21
155.2123270576303
 31
0.0
  0
LINE
  5
349
330
1F
100
AcDbEntity
  8
0
100
AcDbLine
 10
4.000013799998669
 20
151.7482329576305
 30
0.0
 11
7.000022400000489
 21
153.4802885555546
 31
0.0
  0
LINE
  5
34A
330
1F
100
AcDbEntity
  8
0
100
AcDbLine
 10
3.99999999999909
 20
152.2302530576289
 30
0.0
 11
3.99999999999909
 21
151.7481973576287
 31
0.0
  0
LINE
  5
34B
330
1F
100
AcDbEntity
  8
0
100
AcDbLine
 10
-4.000000000000909
 20
152.2302530576289
 30
0.0
 11
-4.000000000000909
 21
151.7481973576287
 31
0.0
  0
LINE
  5
34C
330
1F
100
AcDbEntity
  8
0
100
AcDbLine
 10
-4.000000000000909
 20
155.2123087576292
 30
0.0
 11
-4.000000000000909
 21
154.7302530576307
 31
0.0
  0
LINE
  5
34D
330
1F
100
AcDbEntity
  8
0
100
AcDbLine
 10
3.99999999999909
 20
155.2123087576292
 30
0.0
 11
3.99999999999909
 21
154.7302530576307
 31
0.0
  0
LINE
  5
34E
330
1F
100
AcDbEntity
  8
0
100
AcDbLine
 10
3.999995899998793
 20
155.2122865576311
 30
0.0
 11
6.999997599999005
 21
153.4802348513185
 31
0.0
  0
LINE
  5
34F
330
1F
100
AcDbEntity
  8
0
100
AcDbLine
 10
-7.000001900000825
 20
153.4802347917139
 30
0.0
 11
-4.000003300000571
 21
151.7481847576309
 31
0.0
  0
LINE
  5
350
330
1F
100
AcDbEntity
  8
0
100
AcDbLine
 10
3.99999999999909
 20
154.7302530576307
 30
0.0
 11
-4.000000000000909
 21
154.7302530576307
 31
0.0
  0
LINE
  5
351
330
1F
100
AcDbEntity
  8
0
100
AcDbLine
 10
3.99999999999909
 20
152.2302530576289
 30
0.0
 11
-4.000000000000909
 21
152.2302530576289
 31
0.0
  0
ARC
  5
352
330
1F
100
AcDbEntity
  8
0
100
AcDbCircle
 10
12.55133971537225
 20
13.49981000000002
 30
0.0
 40
6.448657334627798
100
AcDbArc
 50
337.1899301247558
 51
22.81006987524417
  0
ARC
  5
353
330
1F
100
AcDbEntity
  8
0
100
AcDbCircle
 10
-26.00000003009109
 20
19.99987003009096
 30
0.0
 40
0.9999999699089133
100
AcDbArc
 50
89.99999827590771
 51
180.0000017240922
  0
ARC
  5
354
330
1F
100
AcDbEntity
  8
0
100
AcDbCircle
 10
-25.99999996180668
 20
11.99987003819319
 30
0.0
 40
1.000000038193264
100
AcDbArc
 50
180.0000021883161
 51
269.999997811684
  0
ARC
  5
355
330
1F
100
AcDbEntity
  8
0
100
AcDbCircle
 10
12.55133971537225
 20
18.49981000000002
 30
0.0
 40
6.448657334627798
100
AcDbArc
 50
337.1899301247558
 51
22.81006987524417
  0
ARC
  5
356
330
1F
100
AcDbEntity
  8
0
100
AcDbCircle
 10
18.7389597153724
 20
18.49981000000002
 30
0.0
 40
6.448657334627798
100
AcDbArc
 50
337.1899301247558
 51
22.81006987524417
  0
ARC
  5
357
330
1F
100
AcDbEntity
  8
0
100
AcDbCircle
 10
18.7389597153724
 20
13.49981000000002
 30
0.0
 40
6.448657334627798
100
AcDbArc
 50
337.1899301247558
 51
22.81006987524417
  0
ARC
  5
358
330
1F
100
AcDbEntity
  8
0
100
AcDbCircle
 10
12.99999999189777
 20
5.499870008102107
 30
0.0
 40
2.000000008102233
100
AcDbArc
 50
270.0000002321119
 51
359.9999997678881
  0
ARC
  5
359
330
1F
100
AcDbEntity
  8
0
100
AcDbCircle
 10
-12.99999992361336
 20
5.499870076386514
 30
0.0
 40
2.000000076386529
100
AcDbArc
 50
180.0000021883161
 51
269.999997811684
  0
ARC
  5
35A
330
1F
100
AcDbEntity
  8
0
100
AcDbCircle
 10
-14.00000003009109
 20
28.99981003009111
 30
0.0
 40
0.9999999699089133
100
AcDbArc
 50
89.99999827590771
 51
180.0000017240922
  0
ARC
  5
35B
330
1F
100
AcDbEntity
  8
0
100
AcDbCircle
 10
13.99999997887789
 20
28.99980997887792
 30
0.0
 40
1.000000021122218
100
AcDbArc
 50
0.0000012102074683
 51
89.99999878978602
  0
ARC
  5
35C
330
1F
100
AcDbEntity
  8
0
100
AcDbCircle
 10
43.65686161057101
 20
3.500006370919663
 30
0.0
 40
3.99999362908066
100
AcDbArc
 50
90.00002306976874
 51
134.9999795553822
  0
ARC
  5
35D
330
1F
100
AcDbEntity
  8
0
100
AcDbCircle
 10
37.08581854333943
 20
3.999993257508322
 30
0.0
 40
3.999993257508587
100
AcDbArc
 50
270.0000208651553
 51
314.9999817599705
  0
ARC
  5
35E
330
1F
100
AcDbEntity
  8
0
100
AcDbCircle
 10
27.05004823970785
 20
2.851986722911988
 30
0.0
 40
7.64799705708788
100
AcDbArc
 50
64.85263669116277
 51
115.1473633088372
  0
ARC
  5
35F
330
1F
100
AcDbEntity
  8
0
100
AcDbCircle
 10
37.08582549989933
 20
4.000002263874193
 30
0.0
 40
1.000002263889318
100
AcDbArc
 50
269.9996848796849
 51
314.9996854573599
  0
ARC
  5
360
330
1F
100
AcDbEntity
  8
0
100
AcDbCircle
 10
43.65687159040771
 20
3.500004760747515
 30
0.0
 40
0.9999952393196538
100
AcDbArc
 50
90.00066408460133
 51
135.0006624576796
  0
ARC
  5
361
330
1F
100
AcDbEntity
  8
0
100
AcDbCircle
 10
-27.04998676029231
 20
2.851997373840049
 30
0.0
 40
7.647985290938619
100
AcDbArc
 50
64.85263669116277
 51
115.1473633088372
  0
ARC
  5
362
330
1F
100
AcDbEntity
  8
0
100
AcDbCircle
 10
20.55004823970785
 20
2.851986722911988
 30
0.0
 40
7.64799705708788
100
AcDbArc
 50
64.85263669116277
 51
115.1473633088372
  0
ARC
  5
363
330
1F
100
AcDbEntity
  8
0
100
AcDbCircle
 10
-20.54998676029232
 20
2.851997373840049
 30
0.0
 40
7.647985290938619
100
AcDbArc
 50
64.85263669116277
 51
115.1473633088372
  0
LINE
  5
364
330
1F
100
AcDbEntity
  8
1
100
AcDbLine
 10
0.0
 20
46.37432999999987
 30
0.0
 11
0.0
 21
-117.1277499999999
 31
0.0
  0
LINE
  5
365
330
1F
100
AcDbEntity
  8
0
100
AcDbLine
 10
-27.0
 20
14.13188999999988
 30
0.0
 11
-27.0
 21
11.99986999999987
 31
0.0
  0
LINE
  5
366
330
1F
100
AcDbEntity
  8
0
100
AcDbLine
 10
-32.4999499999999
 20
0.0
 30
0.0
 11
37.08582000000002
 21
0.0
 31
0.0
  0
LINE
  5
367
330
1F
100
AcDbEntity
  8
1
100
AcDbLine
 10
-22.00024000000007
 20
23.29137999999989
 30
0.0
 11
-22.00024000000007
 21
8.572689999999965
 31
0.0
  0
LINE
  5
368
330
1F
100
AcDbEntity
  8
0
100
AcDbLine
 10
-27.0
 20
19.99986999999987
 30
0.0
 11
-27.0
 21
17.86786000000006
 31
0.0
  0
LINE
  5
369
330
1F
100
AcDbEntity
  8
1
100
AcDbLine
 10
-28.66887999999994
 20
15.99986999999987
 30
0.0
 11
-15.38182999999981
 21
15.99986999999987
 31
0.0
  0
LINE
  5
36A
330
1F
100
AcDbEntity
  8
0
100
AcDbLine
 10
-26.0
 20
20.99986999999988
 30
0.0
 11
6.538390000000163
 21
20.99986999999988
 31
0.0
  0
LINE
  5
36B
330
1F
100
AcDbEntity
  8
0
100
AcDbLine
 10
-26.0
 20
10.99986999999987
 30
0.0
 11
0.0
 21
10.99986999999987
 31
0.0
  0
LINE
  5
36C
330
1F
100
AcDbEntity
  8
0
100
AcDbLine
 10
11.49999000000002
 20
3.499869999999873
 30
0.0
 11
11.49999000000002
 21
2.999990000000025
 31
0.0
  0
LINE
  5
36D
330
1F
100
AcDbEntity
  8
0
100
AcDbLine
 10
-11.50000999999997
 20
3.499859999999898
 30
0.0
 11
-11.50000999999997
 21
2.999990000000025
 31
0.0
  0
LINE
  5
36E
330
1F
100
AcDbEntity
  8
0
100
AcDbLine
 10
18.49571999999989
 20
10.99986999999987
 30
0.0
 11
14.99999000000002
 21
10.99986999999987
 31
0.0
  0
LINE
  5
36F
330
1F
100
AcDbEntity
  8
0
100
AcDbLine
 10
12.99999000000002
 20
3.499869999999873
 30
0.0
 11
-13.00000999999997
 21
3.499859999999898
 31
0.0
  0
LINE
  5
370
330
1F
100
AcDbEntity
  8
0
100
AcDbLine
 10
18.49571999999989
 20
15.99986999999987
 30
0.0
 11
14.99999000000002
 21
15.99986999999987
 31
0.0
  0
LINE
  5
371
330
1F
100
AcDbEntity
  8
0
100
AcDbLine
 10
18.99999000000002
 20
13.49986999999987
 30
0.0
 11
18.99999000000002
 21
18.49986999999987
 31
0.0
  0
LINE
  5
372
330
1F
100
AcDbEntity
  8
0
100
AcDbLine
 10
21.18760999999995
 20
10.99986999999987
 30
0.0
 11
21.18760999999995
 21
20.99986999999988
 31
0.0
  0
LINE
  5
373
330
1F
100
AcDbEntity
  8
0
100
AcDbLine
 10
24.68327999999997
 20
20.99986999999988
 30
0.0
 11
21.18760999999995
 21
20.99986999999988
 31
0.0
  0
LINE
  5
374
330
1F
100
AcDbEntity
  8
0
100
AcDbLine
 10
24.68327999999997
 20
15.99986999999987
 30
0.0
 11
21.18760999999995
 21
15.99986999999987
 31
0.0
  0
LINE
  5
375
330
1F
100
AcDbEntity
  8
0
100
AcDbLine
 10
24.68327999999997
 20
10.99986999999987
 30
0.0
 11
21.18760999999995
 21
10.99986999999987
 31
0.0
  0
LINE
  5
376
330
1F
100
AcDbEntity
  8
0
100
AcDbLine
 10
21.18760999999995
 20
18.99986999999987
 30
0.0
 11
18.99999000000002
 21
18.99986999999987
 31
0.0
  0
LINE
  5
377
330
1F
100
AcDbEntity
  8
0
100
AcDbLine
 10
21.18760999999995
 20
12.99986999999987
 30
0.0
 11
18.99999000000002
 21
12.99986999999987
 31
0.0
  0
LINE
  5
378
330
1F
100
AcDbEntity
  8
0
100
AcDbLine
 10
21.18760999999995
 20
18.39983000000006
 30
0.0
 11
18.99999000000002
 21
18.39983000000006
 31
0.0
  0
LINE
  5
379
330
1F
100
AcDbEntity
  8
0
100
AcDbLine
 10
21.18760999999995
 20
13.59984000000008
 30
0.0
 11
18.99999000000002
 21
13.59984000000008
 31
0.0
  0
LINE
  5
37A
330
1F
100
AcDbEntity
  8
0
100
AcDbLine
 10
8.421809999999823
 20
20.99986999999988
 30
0.0
 11
18.49571999999989
 21
20.99986999999988
 31
0.0
  0
LINE
  5
37B
330
1F
100
AcDbEntity
  8
0
100
AcDbLine
 10
6.538379999999961
 20
29.99986999999988
 30
0.0
 11
6.538379999999961
 21
20.99986999999988
 31
0.0
  0
LINE
  5
37C
330
1F
100
AcDbEntity
  8
0
100
AcDbLine
 10
8.421809999999823
 20
29.99986999999988
 30
0.0
 11
8.421809999999823
 21
20.99986999999988
 31
0.0
  0
LINE
  5
37D
330
1F
100
AcDbEntity
  8
0
100
AcDbLine
 10
-6.538340000000061
 20
29.9998599999999
 30
0.0
 11
-6.538340000000061
 21
20.9998599999999
 31
0.0
  0
LINE
  5
37E
330
1F
100
AcDbEntity
  8
0
100
AcDbLine
 10
-8.421759999999949
 20
29.9998599999999
 30
0.0
 11
-8.421759999999949
 21
20.9998599999999
 31
0.0
  0
LINE
  5
37F
330
1F
100
AcDbEntity
  8
0
100
AcDbLine
 10
-15.00000999999997
 20
10.9998599999999
 30
0.0
 11
-15.00000999999997
 21
5.499859999999898
 31
0.0
  0
LINE
  5
380
330
1F
100
AcDbEntity
  8
0
100
AcDbLine
 10
-15.00000999999997
 20
28.9998599999999
 30
0.0
 11
-15.00000999999997
 21
20.9998599999999
 31
0.0
  0
LINE
  5
381
330
1F
100
AcDbEntity
  8
0
100
AcDbLine
 10
14.99999000000002
 20
28.99986999999987
 30
0.0
 11
14.99999000000002
 21
5.499869999999873
 31
0.0
  0
LINE
  5
382
330
1F
100
AcDbEntity
  8
0
100
AcDbLine
 10
-14.00000999999997
 20
29.9998599999999
 30
0.0
 11
13.99999000000002
 21
29.99986999999988
 31
0.0
  0
LINE
  5
383
330
1F
100
AcDbEntity
  8
0
100
AcDbLine
 10
43.65684999999984
 20
7.499990000000025
 30
0.0
 11
86.99999000000003
 21
7.499990000000025
 31
0.0
  0
LINE
  5
384
330
1F
100
AcDbEntity
  8
0
100
AcDbLine
 10
-32.4999499999999
 20
2.99998000000005
 30
0.0
 11
37.08581000000004
 21
2.999990000000025
 31
0.0
  0
LINE
  5
385
330
1F
100
AcDbEntity
  8
0
100
AcDbLine
 10
43.65684999999984
 20
4.499990000000025
 30
0.0
 11
86.99999000000003
 21
4.499990000000025
 31
0.0
  0
LINE
  5
386
330
1F
100
AcDbEntity
  8
0
100
AcDbLine
 10
-32.4999499999999
 20
2.99998000000005
 30
0.0
 11
-32.4999499999999
 21
0.0
 31
0.0
  0
LINE
  5
387
330
1F
100
AcDbEntity
  8
0
100
AcDbLine
 10
86.99999000000003
 20
7.499990000000025
 30
0.0
 11
86.99999000000003
 21
4.499990000000025
 31
0.0
  0
LINE
  5
388
330
1F
100
AcDbEntity
  8
0
100
AcDbLine
 10
37.79295000000002
 20
3.292889999999943
 30
0.0
 11
40.82844999999998
 21
6.328389999999899
 31
0.0
  0
LINE
  5
389
330
1F
100
AcDbEntity
  8
0
100
AcDbLine
 10
39.91425000000004
 20
1.171559999999999
 30
0.0
 11
42.94974999999999
 21
4.207059999999955
 31
0.0
  0
LINE
  5
38A
330
1F
100
AcDbEntity
  8
1
100
AcDbLine
 10
-23.79999999999995
 20
11.36174000000005
 30
0.0
 11
-23.79998999999998
 21
-0.0000099999999748
 31
0.0
  0
LINE
  5
38B
330
1F
100
AcDbEntity
  8
1
100
AcDbLine
 10
23.80004000000008
 20
10.49986999999987
 30
0.0
 11
23.80004000000008
 21
-0.0000099999999748
 31
0.0
  0
LINE
  5
38C
330
1F
100
AcDbEntity
  8
0
100
AcDbLine
 10
27.05003823970788
 20
10.49999000000002
 30
0.0
 11
20.55003823970787
 21
10.49999000000002
 31
0.0
  0
LINE
  5
38D
330
1F
100
AcDbEntity
  8
0
100
AcDbLine
 10
30.30003823970787
 20
9.775139999999964
 30
0.0
 11
30.30003823970787
 21
4.999990000000025
 31
0.0
  0
LINE
  5
38E
330
1F
100
AcDbEntity
  8
0
100
AcDbLine
 10
17.30003823970787
 20
9.775139999999964
 30
0.0
 11
17.30003823970787
 21
4.999990000000025
 31
0.0
  0
LINE
  5
38F
330
1F
100
AcDbEntity
  8
0
100
AcDbLine
 10
-23.79999176029219
 20
9.77512999999999
 30
0.0
 11
-23.79999176029219
 21
4.999990000000025
 31
0.0
  0
LINE
  5
390
330
1F
100
AcDbEntity
  8
0
100
AcDbLine
 10
-20.54999176029219
 20
10.49999000000002
 30
0.0
 11
-27.04999176029219
 21
10.49999000000002
 31
0.0
  0
LINE
  5
391
330
1F
100
AcDbEntity
  8
0
100
AcDbLine
 10
-17.29999176029219
 20
9.77512999999999
 30
0.0
 11
-17.29999176029219
 21
4.999990000000025
 31
0.0
  0
LINE
  5
392
330
1F
100
AcDbEntity
  8
0
100
AcDbLine
 10
-30.29999176029219
 20
9.77512999999999
 30
0.0
 11
-30.29999176029219
 21
4.99998000000005
 31
0.0
  0
LINE
  5
393
330
1F
100
AcDbEntity
  8
2
100
AcDbLine
 10
52.0000500000001
 20
30.49999000000003
 30
0.0
 11
52.0000500000001
 21
7.499990000000025
 31
0.0
  0
LINE
  5
394
330
1F
100
AcDbEntity
  8
2
100
AcDbLine
 10
25.18760999999995
 20
8.499990000000025
 30
0.0
 11
52.0000500000001
 21
8.499990000000025
 31
0.0
  0
LINE
  5
395
330
1F
100
AcDbEntity
  8
2
100
AcDbLine
 10
25.18760999999995
 20
24.49999000000003
 30
0.0
 11
52.0000500000001
 21
24.49999000000003
 31
0.0
  0
LINE
  5
396
330
1F
100
AcDbEntity
  8
2
100
AcDbLine
 10
84.40007999999989
 20
30.49999000000003
 30
0.0
 11
84.40007999999989
 21
7.499990000000025
 31
0.0
  0
LINE
  5
397
330
1F
100
AcDbEntity
  8
2
100
AcDbLine
 10
52.0000500000001
 20
30.49999000000003
 30
0.0
 11
84.40007999999989
 21
30.49999000000003
 31
0.0
  0
LINE
  5
398
330
1F
100
AcDbEntity
  8
2
100
AcDbLine
 10
-64.49993008798401
 20
-0.9999999999990905
 30
0.0
 11
-64.49993008798401
 21
-85.99997699999951
 31
0.0
  0
LINE
  5
399
330
1F
100
AcDbEntity
  8
2
100
AcDbLine
 10
84.50006991201508
 20
-0.9999999999990905
 30
0.0
 11
84.50006991201508
 21
-85.99997699999951
 31
0.0
  0
ARC
  5
39A
330
1F
100
AcDbEntity
  8
2
100
AcDbCircle
 10
83.5000699120169
 20
-0.9999999999990905
 30
0.0
 40
1.0
100
AcDbArc
 50
0.0
 51
90.0
  0
LINE
  5
39B
330
1F
100
AcDbEntity
  8
2
100
AcDbLine
 10
-63.4999300879831
 20
0.0
 30
0.0
 11
83.5000699120169
 21
0.0
 31
0.0
  0
ARC
  5
39C
330
1F
100
AcDbEntity
  8
2
100
AcDbCircle
 10
50.26770009387337
 20
-78.27919777922037
 30
0.0
 40
2.0
100
AcDbArc
 50
180.0
 51
270.0
  0
ARC
  5
39D
330
1F
100
AcDbEntity
  8
2
100
AcDbCircle
 10
-63.4999300879831
 20
-0.9999999999990905
 30
0.0
 40
1.0
100
AcDbArc
 50
90.0
 51
180.0
  0
LINE
  5
39E
330
1F
100
AcDbEntity
  8
2
100
AcDbLine
 10
-63.4999300879831
 20
-86.99997699999952
 30
0.0
 11
83.5000699120169
 21
-86.99997699999952
 31
0.0
  0
ARC
  5
39F
330
1F
100
AcDbEntity
  8
2
100
AcDbCircle
 10
-63.4999300879831
 20
-85.99997699999951
 30
0.0
 40
1.0
100
AcDbArc
 50
180.0
 51
270.0
  0
ARC
  5
3A0
330
1F
100
AcDbEntity
  8
2
100
AcDbCircle
 10
83.5000699120169
 20
-85.99997699999951
 30
0.0
 40
1.0
100
AcDbArc
 50
270.0
 51
0.0
  0
LINE
  5
3A1
330
1F
100
AcDbEntity
  8
2
100
AcDbLine
 10
-64.49993008798401
 20
-67.42394999999945
 30
0.0
 11
84.50006991201508
 21
-67.42394999999945
 31
0.0
  0
LINE
  5
3A2
330
1F
100
AcDbEntity
  8
2
100
AcDbLine
 10
91.10016756826599
 20
-39.50006099999885
 30
0.0
 11
95.00055819326508
 21
-39.50006099999885
 31
0.0
  0
LINE
  5
3A3
330
1F
100
AcDbEntity
  8
2
100
AcDbLine
 10
-64.49993008798401
 20
-19.57598899999905
 30
0.0
 11
84.50006991201508
 21
-19.57598899999905
 31
0.0
  0
LINE
  5
3A4
330
1F
100
AcDbEntity
  8
2
100
AcDbLine
 10
-59.50000010143913
 20
0.0
 30
0.0
 11
-59.50000010143913
 21
-86.99997699999952
 31
0.0
  0
LINE
  5
3A5
330
1F
100
AcDbEntity
  8
2
100
AcDbLine
 10
79.49999989856178
 20
0.0
 30
0.0
 11
79.49999989856178
 21
-86.99997699999952
 31
0.0
  0
LINE
  5
3A6
330
1F
100
AcDbEntity
  8
2
100
AcDbLine
 10
50.26770009387337
 20
-80.27919777921946
 30
0.0
 11
63.39495839465553
 21
-80.27919777921946
 31
0.0
  0
LINE
  5
3A7
330
1F
100
AcDbEntity
  8
2
100
AcDbLine
 10
50.26770009387337
 20
-70.27919777921946
 30
0.0
 11
63.39495839465553
 21
-70.27919777921946
 31
0.0
  0
LINE
  5
3A8
330
1F
100
AcDbEntity
  8
2
100
AcDbLine
 10
65.39495839465462
 20
-72.27919777922036
 30
0.0
 11
65.39495839465462
 21
-78.27919777922037
 31
0.0
  0
LINE
  5
3A9
330
1F
100
AcDbEntity
  8
2
100
AcDbLine
 10
48.26770009387428
 20
-72.27919777922036
 30
0.0
 11
48.26770009387428
 21
-78.27919777922037
 31
0.0
  0
ARC
  5
3AA
330
1F
100
AcDbEntity
  8
2
100
AcDbCircle
 10
78.6807339745169
 20
-43.50006099999885
 30
0.0
 40
12.41944122314453
100
AcDbArc
 50
342.4120272456765
 51
17.58793860336018
  0
ARC
  5
3AB
330
1F
100
AcDbEntity
  8
2
100
AcDbCircle
 10
50.26770009387337
 20
-72.27919777922036
 30
0.0
 40
2.0
100
AcDbArc
 50
90.0
 51
180.0
  0
ARC
  5
3AC
330
1F
100
AcDbEntity
  8
2
100
AcDbCircle
 10
63.39495839465553
 20
-72.27919777922036
 30
0.0
 40
2.0
100
AcDbArc
 50
0.0
 51
90.0
  0
ARC
  5
3AD
330
1F
100
AcDbEntity
  8
2
100
AcDbCircle
 10
63.39495839465553
 20
-78.27919777922037
 30
0.0
 40
2.0
100
AcDbArc
 50
270.0
 51
0.0
  0
LINE
  5
3AE
330
1F
100
AcDbEntity
  8
2
100
AcDbLine
 10
86.10022130939205
 20
-50.00009793053326
 30
0.0
 11
86.6807724568539
 21
-51.00564199628028
 31
0.0
  0
LWPOLYLINE
  5
3AF
330
1F
100
AcDbEntity
  8
2
100
AcDbPolyline
 90
        2
 70
     0
 43
0.6
 10
61.21931142199855
 20
-77.59372699999952
 42
1.0
 10
60.61931142199819
 20
-77.59372699999952
 42
1.0
  0
LINE
  5
3B0
330
1F
100
AcDbEntity
  8
2
100
AcDbLine
 10
91.10016756826599
 20
-40.29986568749885
 30
0.0
 11
95.00055819326508
 21
-40.29986568749885
 31
0.0
  0
LINE
  5
3B1
330
1F
100
AcDbEntity
  8
2
100
AcDbLine
 10
86.10022130939205
 20
-37.00002406946444
 30
0.0
 11
86.6807724568539
 21
-35.99448000371834
 31
0.0
  0
LINE
  5
3B2
330
1F
100
AcDbEntity
  8
2
100
AcDbLine
 10
91.10060113681857
 20
-50.00024453599966
 30
0.0
 11
90.52003473056766
 21
-51.00581503074412
 31
0.0
  0
LINE
  5
3B3
330
1F
100
AcDbEntity
  8
2
100
AcDbLine
 10
91.10016756826599
 20
-47.50018307031135
 30
0.0
 11
95.00055819326508
 21
-47.50018307031135
 31
0.0
  0
ARC
  5
3B4
330
1F
100
AcDbEntity
  8
2
100
AcDbCircle
 10
87.7774136620169
 20
-37.87066646874885
 30
0.0
 40
3.322566986083983
100
AcDbArc
 50
325.615697321843
 51
0.0
  0
LINE
  5
3B5
330
1F
100
AcDbEntity
  8
2
100
AcDbLine
 10
84.50006991201689
 20
-35.50006099999885
 30
0.0
 11
86.1001675682669
 21
-35.50006099999885
 31
0.0
  0
LINE
  5
3B6
330
1F
100
AcDbEntity
  8
2
100
AcDbLine
 10
91.10016756826599
 20
-37.00006099999885
 30
0.0
 11
91.10016756826599
 21
-50.00021358788948
 31
0.0
  0
LINE
  5
3B7
330
1F
100
AcDbEntity
  8
2
100
AcDbLine
 10
86.68073936622977
 20
-51.00558468163947
 30
0.0
 11
90.52008944326599
 21
-51.00558468163947
 31
0.0
  0
LINE
  5
3B8
330
1F
100
AcDbEntity
  8
2
100
AcDbLine
 10
95.00055819326508
 20
-50.99181857967053
 30
0.0
 11
99.4199917870169
 21
-50.99181857967053
 31
0.0
  0
LINE
  5
3B9
330
1F
100
AcDbEntity
  8
2
100
AcDbLine
 10
100.0005034805676
 20
-49.98647843403071
 30
0.0
 11
99.41993707431857
 21
-50.99204892877427
 31
0.0
  0
ARC
  5
3BA
330
1F
100
AcDbEntity
  8
2
100
AcDbCircle
 10
96.67731600576509
 20
-49.1155673589665
 30
0.0
 40
3.322566986083983
100
AcDbArc
 50
0.0
 51
34.38430267815702
  0
LINE
  5
3BB
330
1F
100
AcDbEntity
  8
2
100
AcDbLine
 10
99.4199917870169
 20
-35.98092380427991
 30
0.0
 11
95.00055819326508
 21
-35.98092380427991
 31
0.0
  0
LINE
  5
3BC
330
1F
100
AcDbEntity
  8
2
100
AcDbLine
 10
95.00055819326508
 20
-47.23913303279553
 30
0.0
 11
99.41950350576508
 21
-47.23913303279553
 31
0.0
  0
LINE
  5
3BD
330
1F
100
AcDbEntity
  8
2
100
AcDbLine
 10
99.41950350576508
 20
-39.73336521052991
 30
0.0
 11
95.00055819326508
 21
-39.73336521052991
 31
0.0
  0
LINE
  5
3BE
330
1F
100
AcDbEntity
  8
2
100
AcDbLine
 10
86.10065584951598
 20
-35.50006099999885
 30
0.0
 11
86.10065584951598
 21
-51.50018307031135
 31
0.0
  0
LINE
  5
3BF
330
1F
100
AcDbEntity
  8
2
100
AcDbLine
 10
90.51960116201689
 20
-39.74713131249885
 30
0.0
 11
86.6812222557669
 21
-39.74713131249885
 31
0.0
  0
LINE
  5
3C0
330
1F
100
AcDbEntity
  8
2
100
AcDbLine
 10
90.52008944326599
 20
-35.99468990624885
 30
0.0
 11
86.68073397451598
 21
-35.99468990624885
 31
0.0
  0
LINE
  5
3C1
330
1F
100
AcDbEntity
  8
2
100
AcDbLine
 10
91.10050448847914
 20
-37.00010387058231
 30
0.0
 11
90.51993808222823
 21
-35.99453337583785
 31
0.0
  0
ARC
  5
3C2
330
1F
100
AcDbEntity
  8
2
100
AcDbCircle
 10
87.7774136620169
 20
-49.12933346093635
 30
0.0
 40
3.322566986083983
100
AcDbArc
 50
0.0
 51
34.38430267815702
  0
LINE
  5
3C3
330
1F
100
AcDbEntity
  8
2
100
AcDbLine
 10
86.68071532190106
 20
-47.25283362299163
 30
0.0
 11
90.51960116201689
 21
-47.25289913476447
 31
0.0
  0
ARC
  5
3C4
330
1F
100
AcDbEntity
  8
2
100
AcDbCircle
 10
98.51960116201599
 20
-43.50006099999885
 30
0.0
 40
12.41944122314453
100
AcDbArc
 50
162.4120629904973
 51
197.6131435406209
  0
ARC
  5
3C5
330
1F
100
AcDbEntity
  8
2
100
AcDbCircle
 10
89.42292147451599
 20
-37.87066646874885
 30
0.0
 40
3.322566986083983
100
AcDbArc
 50
179.9999640278024
 51
214.3842837814672
  0
LINE
  5
3C6
330
1F
100
AcDbEntity
  8
2
100
AcDbLine
 10
95.00055819326508
 20
-50.99181857967053
 30
0.0
 11
95.00055819326508
 21
-35.98092380427991
 31
0.0
  0
LINE
  5
3C7
330
1F
100
AcDbEntity
  8
2
100
AcDbLine
 10
87.60006991201544
 20
-76.62498839999901
 30
0.0
 11
91.16705721012341
 21
-76.62498839999901
 31
0.0
  0
ARC
  5
3C8
330
1F
100
AcDbEntity
  8
2
100
AcDbCircle
 10
81.83924192353016
 20
-79.49998839999901
 30
0.0
 40
9.760827988486084
100
AcDbArc
 50
342.8697633249664
 51
17.13023667503359
  0
ARC
  5
3C9
330
1F
100
AcDbEntity
  8
2
100
AcDbCircle
 10
87.58063631826507
 20
-43.4862948980299
 30
0.0
 40
12.41944122314453
100
AcDbArc
 50
342.4120272456765
 51
17.58793860336018
  0
LINE
  5
3CA
330
1F
100
AcDbEntity
  8
2
100
AcDbLine
 10
100.0004068322282
 20
-36.98633776861246
 30
0.0
 11
99.41984042597733
 21
-35.98076727386891
 31
0.0
  0
ARC
  5
3CB
330
1F
100
AcDbEntity
  8
2
100
AcDbCircle
 10
96.67731600576509
 20
-37.85690036677991
 30
0.0
 40
3.322566986083983
100
AcDbArc
 50
325.615697321843
 51
0.0
  0
LINE
  5
3CC
330
1F
100
AcDbEntity
  8
2
100
AcDbLine
 10
100.0000699120169
 20
-36.98629489802991
 30
0.0
 11
100.0000699120169
 21
-49.98644748592053
 31
0.0
  0
ARC
  5
3CD
330
1F
100
AcDbEntity
  8
2
100
AcDbCircle
 10
89.42292147451599
 20
-49.12945553124885
 30
0.0
 40
3.322566986083983
100
AcDbArc
 50
145.6157162185327
 51
180.0000359721715
  0
LINE
  5
3CE
330
1F
100
AcDbEntity
  8
2
100
AcDbLine
 10
84.50006991201689
 20
-51.50006099999885
 30
0.0
 11
86.1001675682669
 21
-51.50006099999885
 31
0.0
  0
LINE
  5
3CF
330
1F
100
AcDbEntity
  8
2
100
AcDbLine
 10
91.10016756826599
 20
-46.70025631249976
 30
0.0
 11
95.00055819326508
 21
-46.70025631249976
 31
0.0
  0
LINE
  5
3D0
330
1F
100
AcDbEntity
  8
2
100
AcDbLine
 10
87.60006991201544
 20
-85.49998839999901
 30
0.0
 11
87.60006991201544
 21
-73.49998839999901
 31
0.0
  0
LINE
  5
3D1
330
1F
100
AcDbEntity
  8
2
100
AcDbLine
 10
91.60006991201544
 20
-84.49998839999901
 30
0.0
 11
91.60006991201544
 21
-74.49998839999901
 31
0.0
  0
LINE
  5
3D2
330
1F
100
AcDbEntity
  8
2
100
AcDbLine
 10
87.60006991201544
 20
-85.249988399999
 30
0.0
 11
91.16705721012341
 21
-85.249988399999
 31
0.0
  0
LINE
  5
3D3
330
1F
100
AcDbEntity
  8
2
100
AcDbLine
 10
87.60006991201544
 20
-73.74998839999901
 30
0.0
 11
91.16705721012341
 21
-73.74998839999901
 31
0.0
  0
LINE
  5
3D4
330
1F
100
AcDbEntity
  8
2
100
AcDbLine
 10
91.16705721012341
 20
-73.74998839999901
 30
0.0
 11
91.60006991201544
 21
-74.49998839999901
 31
0.0
  0
LINE
  5
3D5
330
1F
100
AcDbEntity
  8
2
100
AcDbLine
 10
87.60006991201544
 20
-4.624999999999118
 30
0.0
 11
91.16705721012341
 21
-4.624999999999118
 31
0.0
  0
LINE
  5
3D6
330
1F
100
AcDbEntity
  8
2
100
AcDbLine
 10
91.16705721012341
 20
-85.249988399999
 30
0.0
 11
91.60006991201544
 21
-84.49998839999901
 31
0.0
  0
LINE
  5
3D7
330
1F
100
AcDbEntity
  8
2
100
AcDbLine
 10
87.60006991201544
 20
-82.37498839999901
 30
0.0
 11
91.16705721012341
 21
-82.37498839999901
 31
0.0
  0
ARC
  5
3D8
330
1F
100
AcDbEntity
  8
2
100
AcDbCircle
 10
88.99748315168608
 20
-11.81250000000003
 30
0.0
 40
2.602586760331064
100
AcDbArc
 50
326.4726419507261
 51
33.52735804927386
  0
ARC
  5
3D9
330
1F
100
AcDbEntity
  8
2
100
AcDbCircle
 10
88.99748315168608
 20
-83.81248839999901
 30
0.0
 40
2.602586760331064
100
AcDbArc
 50
326.4726419507261
 51
33.52735804927386
  0
ARC
  5
3DA
330
1F
100
AcDbEntity
  8
2
100
AcDbCircle
 10
88.99748315168608
 20
-75.18748839999901
 30
0.0
 40
2.602586760331064
100
AcDbArc
 50
326.4726419507261
 51
33.52735804927386
  0
LINE
  5
3DB
330
1F
100
AcDbEntity
  8
2
100
AcDbLine
 10
84.50006991201508
 20
-85.49998839999901
 30
0.0
 11
87.60006991201544
 21
-85.49998839999901
 31
0.0
  0
LINE
  5
3DC
330
1F
100
AcDbEntity
  8
2
100
AcDbLine
 10
84.50006991201508
 20
-73.49998839999901
 30
0.0
 11
87.60006991201544
 21
-73.49998839999901
 31
0.0
  0
LINE
  5
3DD
330
1F
100
AcDbEntity
  8
2
100
AcDbLine
 10
86.10006991201544
 20
-85.49998839999901
 30
0.0
 11
86.10006991201544
 21
-73.49998839999901
 31
0.0
  0
LINE
  5
3DE
330
1F
100
AcDbEntity
  8
2
100
AcDbLine
 10
91.60006991201544
 20
-12.49999999999912
 30
0.0
 11
91.60006991201544
 21
-2.49999999999909
 31
0.0
  0
LINE
  5
3DF
330
1F
100
AcDbEntity
  8
2
100
AcDbLine
 10
87.60006991201544
 20
-13.50000000000003
 30
0.0
 11
87.60006991201544
 21
-1.5
 31
0.0
  0
LINE
  5
3E0
330
1F
100
AcDbEntity
  8
2
100
AcDbLine
 10
-70.51946133798492
 20
-39.74713131249885
 30
0.0
 11
-66.68108243173401
 21
-39.74713131249885
 31
0.0
  0
LINE
  5
3E1
330
1F
100
AcDbEntity
  8
2
100
AcDbLine
 10
87.60006991201544
 20
-13.24999999999912
 30
0.0
 11
91.16705721012341
 21
-13.24999999999912
 31
0.0
  0
LINE
  5
3E2
330
1F
100
AcDbEntity
  8
2
100
AcDbLine
 10
87.60006991201544
 20
-1.74999999999909
 30
0.0
 11
91.16705721012341
 21
-1.74999999999909
 31
0.0
  0
LINE
  5
3E3
330
1F
100
AcDbEntity
  8
2
100
AcDbLine
 10
91.16705721012341
 20
-1.74999999999909
 30
0.0
 11
91.60006991201544
 21
-2.49999999999909
 31
0.0
  0
LINE
  5
3E4
330
1F
100
AcDbEntity
  8
2
100
AcDbLine
 10
-71.10002774423492
 20
-40.29986568749885
 30
0.0
 11
-75.0004183692331
 21
-40.29986568749885
 31
0.0
  0
LINE
  5
3E5
330
1F
100
AcDbEntity
  8
2
100
AcDbLine
 10
91.16705721012341
 20
-13.24999999999912
 30
0.0
 11
91.60006991201544
 21
-12.49999999999912
 31
0.0
  0
LINE
  5
3E6
330
1F
100
AcDbEntity
  8
2
100
AcDbLine
 10
87.60006991201544
 20
-10.37499999999912
 30
0.0
 11
91.16705721012341
 21
-10.37499999999912
 31
0.0
  0
LINE
  5
3E7
330
1F
100
AcDbEntity
  8
2
100
AcDbLine
 10
-71.10002774423492
 20
-37.00006099999885
 30
0.0
 11
-71.10002774423492
 21
-50.00021358788948
 31
0.0
  0
ARC
  5
3E8
330
1F
100
AcDbEntity
  8
2
100
AcDbCircle
 10
81.83924192353016
 20
-7.500000000000028
 30
0.0
 40
9.760827988486084
100
AcDbArc
 50
342.8697633249664
 51
17.13023667503359
  0
ARC
  5
3E9
330
1F
100
AcDbEntity
  8
2
100
AcDbCircle
 10
88.99748315168608
 20
-3.1875
 30
0.0
 40
2.602586760331064
100
AcDbArc
 50
326.4726419507261
 51
33.52735804927386
  0
LINE
  5
3EA
330
1F
100
AcDbEntity
  8
2
100
AcDbLine
 10
84.50006991201508
 20
-1.5
 30
0.0
 11
87.60006991201544
 21
-1.5
 31
0.0
  0
LINE
  5
3EB
330
1F
100
AcDbEntity
  8
2
100
AcDbLine
 10
84.50006991201508
 20
-13.50000000000003
 30
0.0
 11
87.60006991201544
 21
-13.50000000000003
 31
0.0
  0
LINE
  5
3EC
330
1F
100
AcDbEntity
  8
2
100
AcDbLine
 10
-66.68057549787
 20
-47.25283362299163
 30
0.0
 11
-70.51946133798492
 21
-47.25289913476447
 31
0.0
  0
LINE
  5
3ED
330
1F
100
AcDbEntity
  8
2
100
AcDbLine
 10
-71.10036466444626
 20
-37.00010387058231
 30
0.0
 11
-70.51979825819626
 21
-35.99453337583785
 31
0.0
  0
LINE
  5
3EE
330
1F
100
AcDbEntity
  8
2
100
AcDbLine
 10
86.10006991201544
 20
-13.50000000000003
 30
0.0
 11
86.10006991201544
 21
-1.5
 31
0.0
  0
LINE
  5
3EF
330
1F
100
AcDbEntity
  8
2
100
AcDbLine
 10
-71.10002774423492
 20
-39.50006099999885
 30
0.0
 11
-75.0004183692331
 21
-39.50006099999885
 31
0.0
  0
LINE
  5
3F0
330
1F
100
AcDbEntity
  8
2
100
AcDbLine
 10
-64.49993008798401
 20
-35.50006099999885
 30
0.0
 11
-66.10002774423492
 21
-35.50006099999885
 31
0.0
  0
LINE
  5
3F1
330
1F
100
AcDbEntity
  8
2
100
AcDbLine
 10
-75.0004183692331
 20
-47.23913303279553
 30
0.0
 11
-79.41936368173401
 21
-47.23913303279553
 31
0.0
  0
ARC
  5
3F2
330
1F
100
AcDbEntity
  8
2
100
AcDbCircle
 10
-67.58049649423401
 20
-43.4862948980299
 30
0.0
 40
12.41944122314453
100
AcDbArc
 50
162.4120613966398
 51
197.5879727543235
  0
ARC
  5
3F3
330
1F
100
AcDbEntity
  8
2
100
AcDbCircle
 10
-67.77727383798492
 20
-37.87066646874885
 30
0.0
 40
3.322566986083983
100
AcDbArc
 50
180.0
 51
214.384302678157
  0
LINE
  5
3F4
330
1F
100
AcDbEntity
  8
2
100
AcDbLine
 10
-71.10002774423492
 20
-47.50018307031135
 30
0.0
 11
-75.0004183692331
 21
-47.50018307031135
 31
0.0
  0
ARC
  5
3F5
330
1F
100
AcDbEntity
  8
2
100
AcDbCircle
 10
-76.67717618173401
 20
-49.1155673589665
 30
0.0
 40
3.322566986083983
100
AcDbArc
 50
145.615697321843
 51
180.0
  0
LINE
  5
3F6
330
1F
100
AcDbEntity
  8
2
100
AcDbLine
 10
-66.68059954219689
 20
-51.00558468163947
 30
0.0
 11
-70.51994961923492
 21
-51.00558468163947
 31
0.0
  0
LINE
  5
3F7
330
1F
100
AcDbEntity
  8
2
100
AcDbLine
 10
-80.00026700819626
 20
-36.98633776861246
 30
0.0
 11
-79.41970060194626
 21
-35.98076727386891
 31
0.0
  0
ARC
  5
3F8
330
1F
100
AcDbEntity
  8
2
100
AcDbCircle
 10
-76.67717618173401
 20
-37.85690036677991
 30
0.0
 40
3.322566986083983
100
AcDbArc
 50
180.0
 51
214.384302678157
  0
ARC
  5
3F9
330
1F
100
AcDbEntity
  8
2
100
AcDbCircle
 10
-69.42278165048492
 20
-49.12945553124885
 30
0.0
 40
3.322566986083983
100
AcDbArc
 50
359.9999640278284
 51
34.38428378146722
  0
LINE
  5
3FA
330
1F
100
AcDbEntity
  8
2
100
AcDbLine
 10
-66.10008148536099
 20
-50.00009793053326
 30
0.0
 11
-66.68063263282101
 21
-51.00564199628028
 31
0.0
  0
LINE
  5
3FB
330
1F
100
AcDbEntity
  8
2
100
AcDbLine
 10
-70.51994961923492
 20
-35.99468990624885
 30
0.0
 11
-66.68059415048492
 21
-35.99468990624885
 31
0.0
  0
LINE
  5
3FC
330
1F
100
AcDbEntity
  8
2
100
AcDbLine
 10
-71.10046131278568
 20
-50.00024453599966
 30
0.0
 11
-70.51989490653659
 21
-51.00581503074412
 31
0.0
  0
ARC
  5
3FD
330
1F
100
AcDbEntity
  8
2
100
AcDbCircle
 10
-58.68059415048492
 20
-43.50006099999885
 30
0.0
 40
12.41944122314453
100
AcDbArc
 50
162.4120613966398
 51
197.5879727543235
  0
ARC
  5
3FE
330
1F
100
AcDbEntity
  8
2
100
AcDbCircle
 10
-67.77727383798492
 20
-49.12933346093635
 30
0.0
 40
3.322566986083983
100
AcDbArc
 50
145.615697321843
 51
180.0
  0
LINE
  5
3FF
330
1F
100
AcDbEntity
  8
2
100
AcDbLine
 10
-66.10008148536099
 20
-37.00002406946444
 30
0.0
 11
-66.68063263282101
 21
-35.99448000371834
 31
0.0
  0
LINE
  5
400
330
1F
100
AcDbEntity
  8
2
100
AcDbLine
 10
-66.10051602548492
 20
-35.50006099999885
 30
0.0
 11
-66.10051602548492
 21
-51.50018307031135
 31
0.0
  0
LINE
  5
401
330
1F
100
AcDbEntity
  8
2
100
AcDbLine
 10
-75.0004183692331
 20
-50.99181857967053
 30
0.0
 11
-75.0004183692331
 21
-35.98092380427991
 31
0.0
  0
ARC
  5
402
330
1F
100
AcDbEntity
  8
2
100
AcDbCircle
 10
-69.42278165048492
 20
-37.87066646874885
 30
0.0
 40
3.322566986083983
100
AcDbArc
 50
325.6157162185328
 51
0.0000359721976162
  0
LINE
  5
403
330
1F
100
AcDbEntity
  8
2
100
AcDbLine
 10
-80.00036365653476
 20
-49.98647843403071
 30
0.0
 11
-79.41979725028659
 21
-50.99204892877427
 31
0.0
  0
LINE
  5
404
330
1F
100
AcDbEntity
  8
2
100
AcDbLine
 10
-75.0004183692331
 20
-50.99181857967053
 30
0.0
 11
-79.41985196298492
 21
-50.99181857967053
 31
0.0
  0
LINE
  5
405
330
1F
100
AcDbEntity
  8
2
100
AcDbLine
 10
-79.41985196298492
 20
-35.98092380427991
 30
0.0
 11
-75.0004183692331
 21
-35.98092380427991
 31
0.0
  0
LINE
  5
406
330
1F
100
AcDbEntity
  8
2
100
AcDbLine
 10
-79.41936368173401
 20
-39.73336521052991
 30
0.0
 11
-75.0004183692331
 21
-39.73336521052991
 31
0.0
  0
LINE
  5
407
330
1F
100
AcDbEntity
  8
2
100
AcDbLine
 10
-79.99993008798492
 20
-36.98629489802991
 30
0.0
 11
-79.99993008798492
 21
-49.98644748592053
 31
0.0
  0
ARC
  5
408
330
1F
100
AcDbEntity
  8
2
100
AcDbCircle
 10
-78.51946133798492
 20
-43.50006099999885
 30
0.0
 40
12.41944122314453
100
AcDbArc
 50
342.4120629904974
 51
17.57918699121209
  0
LINE
  5
409
330
1F
100
AcDbEntity
  8
2
100
AcDbLine
 10
-64.49993008798401
 20
-51.50006099999885
 30
0.0
 11
-66.10002774423492
 21
-51.50006099999885
 31
0.0
  0
LINE
  5
40A
330
1F
100
AcDbEntity
  8
2
100
AcDbLine
 10
-71.10002774423492
 20
-46.70025631249976
 30
0.0
 11
-75.0004183692331
 21
-46.70025631249976
 31
0.0
  0
LINE
  5
40B
330
1F
100
AcDbEntity
  8
2
100
AcDbLine
 10
-67.59993008798346
 20
-85.49998839999901
 30
0.0
 11
-67.59993008798346
 21
-73.49998839999901
 31
0.0
  0
LINE
  5
40C
330
1F
100
AcDbEntity
  8
2
100
AcDbLine
 10
-71.59993008798437
 20
-84.49998839999901
 30
0.0
 11
-71.59993008798437
 21
-74.49998839999901
 31
0.0
  0
LINE
  5
40D
330
1F
100
AcDbEntity
  8
2
100
AcDbLine
 10
-67.59993008798346
 20
-85.249988399999
 30
0.0
 11
-71.16691738609233
 21
-85.249988399999
 31
0.0
  0
LINE
  5
40E
330
1F
100
AcDbEntity
  8
2
100
AcDbLine
 10
-67.59993008798346
 20
-73.74998839999901
 30
0.0
 11
-71.16691738609233
 21
-73.74998839999901
 31
0.0
  0
LINE
  5
40F
330
1F
100
AcDbEntity
  8
2
100
AcDbLine
 10
-71.16691738609233
 20
-73.74998839999901
 30
0.0
 11
-71.59993008798437
 21
-74.49998839999901
 31
0.0
  0
LINE
  5
410
330
1F
100
AcDbEntity
  8
2
100
AcDbLine
 10
-71.16691738609233
 20
-85.249988399999
 30
0.0
 11
-71.59993008798437
 21
-84.49998839999901
 31
0.0
  0
LINE
  5
411
330
1F
100
AcDbEntity
  8
2
100
AcDbLine
 10
-67.59993008798346
 20
-82.37498839999901
 30
0.0
 11
-71.16691738609233
 21
-82.37498839999901
 31
0.0
  0
LINE
  5
412
330
1F
100
AcDbEntity
  8
2
100
AcDbLine
 10
-67.59993008798346
 20
-76.62498839999901
 30
0.0
 11
-71.16691738609233
 21
-76.62498839999901
 31
0.0
  0
ARC
  5
413
330
1F
100
AcDbEntity
  8
2
100
AcDbCircle
 10
-61.83910209949726
 20
-79.49998839999901
 30
0.0
 40
9.760827988486084
100
AcDbArc
 50
162.8697633249664
 51
197.1302366750336
  0
ARC
  5
414
330
1F
100
AcDbEntity
  8
2
100
AcDbCircle
 10
-68.99734332765229
 20
-83.81248839999901
 30
0.0
 40
2.602586760331064
100
AcDbArc
 50
146.4726419507261
 51
213.5273580492738
  0
ARC
  5
415
330
1F
100
AcDbEntity
  8
2
100
AcDbCircle
 10
-68.99734332765229
 20
-75.18748839999901
 30
0.0
 40
2.602586760331064
100
AcDbArc
 50
146.4726419507261
 51
213.5273580492738
  0
LINE
  5
416
330
1F
100
AcDbEntity
  8
2
100
AcDbLine
 10
-64.49993008798401
 20
-85.49998839999901
 30
0.0
 11
-67.59993008798346
 21
-85.49998839999901
 31
0.0
  0
LINE
  5
417
330
1F
100
AcDbEntity
  8
2
100
AcDbLine
 10
-64.49993008798401
 20
-73.49998839999901
 30
0.0
 11
-67.59993008798346
 21
-73.49998839999901
 31
0.0
  0
LINE
  5
418
330
1F
100
AcDbEntity
  8
2
100
AcDbLine
 10
-66.09993008798347
 20
-85.49998839999901
 30
0.0
 11
-66.09993008798347
 21
-73.49998839999901
 31
0.0
  0
LINE
  5
419
330
1F
100
AcDbEntity
  8
2
100
AcDbLine
 10
-67.59993008798346
 20
-13.50000000000003
 30
0.0
 11
-67.59993008798346
 21
-1.5
 31
0.0
  0
LINE
  5
41A
330
1F
100
AcDbEntity
  8
2
100
AcDbLine
 10
-71.59993008798437
 20
-12.49999999999912
 30
0.0
 11
-71.59993008798437
 21
-2.49999999999909
 31
0.0
  0
LINE
  5
41B
330
1F
100
AcDbEntity
  8
2
100
AcDbLine
 10
-67.59993008798346
 20
-13.24999999999912
 30
0.0
 11
-71.16691738609233
 21
-13.24999999999912
 31
0.0
  0
LINE
  5
41C
330
1F
100
AcDbEntity
  8
2
100
AcDbLine
 10
-67.59993008798346
 20
-1.74999999999909
 30
0.0
 11
-71.16691738609233
 21
-1.74999999999909
 31
0.0
  0
LINE
  5
41D
330
1F
100
AcDbEntity
  8
2
100
AcDbLine
 10
-71.16691738609233
 20
-1.74999999999909
 30
0.0
 11
-71.59993008798437
 21
-2.49999999999909
 31
0.0
  0
LINE
  5
41E
330
1F
100
AcDbEntity
  8
2
100
AcDbLine
 10
-71.16691738609233
 20
-13.24999999999912
 30
0.0
 11
-71.59993008798437
 21
-12.49999999999912
 31
0.0
  0
LINE
  5
41F
330
1F
100
AcDbEntity
  8
2
100
AcDbLine
 10
-67.59993008798346
 20
-10.37499999999912
 30
0.0
 11
-71.16691738609233
 21
-10.37499999999912
 31
0.0
  0
LINE
  5
420
330
1F
100
AcDbEntity
  8
2
100
AcDbLine
 10
-67.59993008798346
 20
-4.624999999999118
 30
0.0
 11
-71.16691738609233
 21
-4.624999999999118
 31
0.0
  0
ARC
  5
421
330
1F
100
AcDbEntity
  8
2
100
AcDbCircle
 10
-61.83910209949726
 20
-7.500000000000028
 30
0.0
 40
9.760827988486084
100
AcDbArc
 50
162.8697633249664
 51
197.1302366750336
  0
ARC
  5
422
330
1F
100
AcDbEntity
  8
2
100
AcDbCircle
 10
-68.99734332765229
 20
-11.81250000000003
 30
0.0
 40
2.602586760331064
100
AcDbArc
 50
146.4726419507261
 51
213.5273580492738
  0
ARC
  5
423
330
1F
100
AcDbEntity
  8
2
100
AcDbCircle
 10
-68.99734332765229
 20
-3.1875
 30
0.0
 40
2.602586760331064
100
AcDbArc
 50
146.4726419507261
 51
213.5273580492738
  0
LINE
  5
424
330
1F
100
AcDbEntity
  8
2
100
AcDbLine
 10
-64.49993008798401
 20
-13.50000000000003
 30
0.0
 11
-67.59993008798346
 21
-13.50000000000003
 31
0.0
  0
LINE
  5
425
330
1F
100
AcDbEntity
  8
2
100
AcDbLine
 10
-64.49993008798401
 20
-1.5
 30
0.0
 11
-67.59993008798346
 21
-1.5
 31
0.0
  0
LINE
  5
426
330
1F
100
AcDbEntity
  8
2
100
AcDbLine
 10
-66.09993008798347
 20
-13.50000000000003
 30
0.0
 11
-66.09993008798347
 21
-1.5
 31
0.0
  0
CIRCLE
  5
427
330
1F
100
AcDbEntity
  8
0
100
AcDbCircle
 10
-22.13210195010288
 20
15.99987344827559
 30
0.0
 40
4.899999999999998
  0
LINE
  5
428
330
1F
100
AcDbEntity
  8
0
100
AcDbLine
 10
-25.018851950103
 20
20.99987111702512
 30
0.0
 11
-27.90560195010289
 21
15.99987344827559
 31
0.0
  0
LINE
  5
429
330
1F
100
AcDbEntity
  8
0
100
AcDbLine
 10
-27.90560195010289
 20
15.99987344827559
 30
0.0
 11
-25.018851950103
 21
10.99987577952629
 31
0.0
  0
LINE
  5
42A
330
1F
100
AcDbEntity
  8
0
100
AcDbLine
 10
-16.35860195010286
 20
15.99987344827559
 30
0.0
 11
-19.24535195010298
 21
20.99987111702512
 31
0.0
  0
LINE
  5
42B
330
1F
100
AcDbEntity
  8
0
100
AcDbLine
 10
-19.24535195010298
 20
10.99987577952629
 30
0.0
 11
-16.35860195010286
 21
15.99987344827559
 31
0.0
  0
CIRCLE
  5
42C
330
1F
100
AcDbEntity
  8
2
100
AcDbCircle
 10
76.00005999999985
 20
16.5
 30
0.0
 40
8.0
  0
LINE
  5
42D
330
1F
100
AcDbEntity
  8
2
100
AcDbLine
 10
25.18736274541936
 20
183.6802641543645
 30
0.0
 11
25.18736274541936
 21
167.6801921543638
 31
0.0
  0
LINE
  5
42E
330
1F
100
AcDbEntity
  8
2
100
AcDbLine
 10
67.6000520000016
 20
205.3803221543631
 30
0.0
 11
67.6000520000016
 21
231.1803411543633
 31
0.0
  0
LINE
  5
42F
330
1F
100
AcDbEntity
  8
1
100
AcDbLine
 10
23.80012230088323
 20
138.6825512282025
 30
0.0
 11
23.80026873983297
 21
120.6777622287968
 31
0.0
  0
LINE
  5
430
330
1F
100
AcDbEntity
  8
0
100
AcDbLine
 10
30.30022498919061
 20
125.927431554259
 30
0.0
 11
30.30016394399269
 21
133.4329886372477
 31
0.0
  0
LINE
  5
431
330
1F
100
AcDbEntity
  8
0
100
AcDbLine
 10
30.30016394399269
 20
181.0327707381066
 30
0.0
 11
30.30016394399269
 21
173.5276246009684
 31
0.0
  0
LINE
  5
432
330
1F
100
AcDbEntity
  8
2
100
AcDbLine
 10
25.18786913243236
 20
123.2806643041415
 30
0.0
 11
52.00058238324391
 21
123.2811138968477
 31
0.0
  0
LINE
  5
433
330
1F
100
AcDbEntity
  8
2
100
AcDbLine
 10
25.18760084493749
 20
139.2807363018929
 30
0.0
 11
52.00031409574904
 21
139.2811858945991
 31
0.0
  0
LINE
  5
434
330
1F
100
AcDbEntity
  8
2
100
AcDbLine
 10
84.4002099792341
 20
146.9816805736682
 30
0.0
 11
84.4014038548973
 21
75.7815801836781
 31
0.0
  0
LINE
  5
435
330
1F
100
AcDbEntity
  8
2
100
AcDbLine
 10
67.60135485725953
 20
75.78129848225455
 30
0.0
 11
84.4014038548973
 21
75.7815801836781
 31
0.0
  0
LINE
  5
436
330
1F
100
AcDbEntity
  8
2
100
AcDbLine
 10
52.00018498378807
 20
146.9811372935166
 30
0.0
 11
84.4002099792341
 21
146.9816805736682
 31
0.0
  0
LINE
  5
437
330
1F
100
AcDbEntity
  8
2
100
AcDbLine
 10
52.00094624749397
 20
101.5810558998998
 30
0.0
 11
84.40097124293998
 21
101.5815991800514
 31
0.0
  0
LINE
  5
438
330
1F
100
AcDbEntity
  8
2
100
AcDbLine
 10
52.00018498378807
 20
146.9811372935166
 30
0.0
 11
52.00094624749397
 21
101.5810558998998
 31
0.0
  0
LINE
  5
439
330
1F
100
AcDbEntity
  8
2
100
AcDbLine
 10
25.18786913243236
 20
123.2806643041415
 30
0.0
 11
25.18760084493749
 21
139.2807363018929
 31
0.0
  0
LINE
  5
43A
330
1F
100
AcDbEntity
  8
2
100
AcDbLine
 10
67.60092224530223
 20
101.5813174786278
 30
0.0
 11
67.60135485725953
 21
75.78129848225455
 31
0.0
  0
LINE
  5
43B
330
1F
100
AcDbEntity
  8
0
100
AcDbLine
 10
25.18761704748806
 20
18.49999000000002
 30
0.0
 11
25.18761704748806
 21
13.49963000038883
 31
0.0
  0
LINE
  5
43C
330
1F
100
AcDbEntity
  8
2
100
AcDbLine
 10
25.18760999999995
 20
8.499990000000025
 30
0.0
 11
25.18760999999995
 21
24.49999000000003
 31
0.0
  0
LINE
  5
43D
330
1F
100
AcDbEntity
  8
2
100
AcDbLine
 10
52.0000500000001
 20
7.499990000000025
 30
0.0
 11
84.40007999999989
 21
7.499990000000025
 31
0.0
  0
CIRCLE
  5
43E
330
1F
100
AcDbEntity
  8
0
100
AcDbCircle
 10
56.00001499999962
 20
165.980409057629
 30
0.0
 40
2.0
  0
CIRCLE
  5
43F
330
1F
100
AcDbEntity
  8
0
100
AcDbCircle
 10
56.00001499999962
 20
165.980409057629
 30
0.0
 40
1.5
  0
CIRCLE
  5
440
330
1F
100
AcDbEntity
  8
0
100
AcDbCircle
 10
56.00001499999962
 20
199.3803540576282
 30
0.0
 40
2.0
  0
CIRCLE
  5
441
330
1F
100
AcDbEntity
  8
0
100
AcDbCircle
 10
56.00001499999962
 20
199.3803540576282
 30
0.0
 40
1.5
  0
CIRCLE
  5
442
330
1F
100
AcDbEntity
  8
0
100
AcDbCircle
 10
56.00001499999962
 20
140.9817869846756
 30
0.0
 40
2.0
  0
CIRCLE
  5
443
330
1F
100
AcDbEntity
  8
0
100
AcDbCircle
 10
56.00001499999962
 20
140.9817869846756
 30
0.0
 40
1.5
  0
CIRCLE
  5
444
330
1F
100
AcDbEntity
  8
0
100
AcDbCircle
 10
56.00001499999962
 20
107.5818419846764
 30
0.0
 40
2.0
  0
CIRCLE
  5
445
330
1F
100
AcDbEntity
  8
0
100
AcDbCircle
 10
56.00001499999962
 20
107.5818419846764
 30
0.0
 40
1.5
  0
LINE
  5
446
330
1F
100
AcDbEntity
  8
0
100
AcDbLine
 10
-16.09999264043057
 20
4.999981250249675
 30
0.0
 11
-31.4999926404306
 21
4.999981250249675
 31
0.0
  0
LINE
  5
447
330
1F
100
AcDbEntity
  8
0
100
AcDbLine
 10
-16.09999264043057
 20
2.999981250249675
 30
0.0
 11
-31.4999926404306
 21
2.999981250249675
 31
0.0
  0
LINE
  5
448
330
1F
100
AcDbEntity
  8
0
100
AcDbLine
 10
-31.4999926404306
 20
2.999981250249675
 30
0.0
 11
-31.4999926404306
 21
4.999981250249675
 31
0.0
  0
LINE
  5
449
330
1F
100
AcDbEntity
  8
0
100
AcDbLine
 10
-16.09999264043057
 20
2.999981250249675
 30
0.0
 11
-16.09999264043057
 21
4.999981250249675
 31
0.0
  0
LINE
  5
44A
330
1F
100
AcDbEntity
  8
0
100
AcDbLine
 10
31.50004000000007
 20
4.999988090734404
 30
0.0
 11
16.10004000000003
 21
4.999988090734404
 31
0.0
  0
LINE
  5
44B
330
1F
100
AcDbEntity
  8
0
100
AcDbLine
 10
31.50004000000007
 20
2.999988090734404
 30
0.0
 11
16.10004000000003
 21
2.999988090734404
 31
0.0
  0
LINE
  5
44C
330
1F
100
AcDbEntity
  8
0
100
AcDbLine
 10
16.10004000000003
 20
2.999988090734404
 30
0.0
 11
16.10004000000003
 21
4.999988090734404
 31
0.0
  0
LINE
  5
44D
330
1F
100
AcDbEntity
  8
0
100
AcDbLine
 10
31.50004000000007
 20
2.999988090734404
 30
0.0
 11
31.50004000000007
 21
4.999988090734404
 31
0.0
  0
ARC
  5
44E
330
1F
100
AcDbEntity
  8
0
100
AcDbCircle
 10
-23.7998094245213
 20
129.679769581794
 30
0.0
 40
7.700000000000045
100
AcDbArc
 50
27.96031632735472
 51
38.56519011942785
  0
CIRCLE
  5
44F
330
1F
100
AcDbEntity
  8
0
100
AcDbCircle
 10
23.80019657390403
 20
129.6801567285083
 30
0.0
 40
7.700000000000045
  0
ARC
  5
450
330
1F
100
AcDbEntity
  8
0
100
AcDbCircle
 10
23.79980942718976
 20
177.2801627269337
 30
0.0
 40
7.700000000000045
100
AcDbArc
 50
231.4373025844967
 51
250.1676815416631
  0
CIRCLE
  5
451
330
1F
100
AcDbEntity
  8
0
100
AcDbCircle
 10
-23.85535957123375
 20
177.2797751315593
 30
0.0
 40
7.700000000000045
  0
ARC
  5
454
330
1F
100
AcDbEntity
  8
0
100
AcDbCircle
 10
-23.7998094245213
 20
129.679769581794
 30
0.0
 40
7.700000000000045
100
AcDbArc
 50
121.0695028811918
 51
10.41032638489034
  0
ARC
  5
455
330
1F
100
AcDbEntity
  8
0
100
AcDbCircle
 10
23.79980942718976
 20
177.2801627269337
 30
0.0
 40
7.700000000000045
100
AcDbArc
 50
259.5835659528654
 51
148.9299349153825
  0
LINE
  5
456
330
1F
100
AcDbEntity
  8
0
100
AcDbLine
 10
23.80004000000008
 20
9.775128090734369
 30
0.0
 11
23.80004000000008
 21
4.999988090734404
 31
0.0
  0
VIEWPORT
  5
71
330
55
100
AcDbEntity
 67
     1
  8
0
100
AcDbViewport
 10
133.3499908447266
 20
101.5999970436096
 30
0.0
 40
381.3957395593835
 41
218.2856291881582
 68
     1
 69
     1
 12
133.3499908447266
 22
101.5999970436096
 13
0.0
 23
0.0
 14
10.0
 24
10.0
 15
10.0
 25
10.0
 16
0.0
 26
0.0
 36
1.0
 17
0.0
 27
0.0
 37
0.0
 42
50.0
 43
0.0
 44
0.0
 45
218.2856291881582
 50
0.0
 51
0.0
 72
   100
 90
    32800
  1

281
     0
 71
     1
 74
     0
110
0.0
120
0.0
130
0.0
111
1.0
121
0.0
131
0.0
112
0.0
122
1.0
132
0.0
 79
     0
146
0.0
170
     0
 61
     5
348
47E
292
     1
282
     1
141
0.0
142
0.0
 63
   250
421
  3355443
  0
VIEWPORT
  5
73
330
55
100
AcDbEntity
 67
     1
  8
0
100
AcDbViewport
 10
133.3499939441681
 20
101.5999939441681
 30
0.0
 40
213.3599903106689
 41
162.5599903106689
 68
     2
 69
     2
 12
210.0
 22
148.5
 13
0.0
 23
0.0
 14
10.0
 24
10.0
 15
10.0
 25
10.0
 16
0.0
 26
0.0
 36
1.0
 17
0.0
 27
0.0
 37
0.0
 42
50.0
 43
0.0
 44
0.0
 45
324.0677920111345
 50
0.0
 51
0.0
 72
   100
 90
    32864
  1

281
     0
 71
     1
 74
     0
110
0.0
120
0.0
130
0.0
111
1.0
121
0.0
131
0.0
112
0.0
122
1.0
132
0.0
 79
     0
146
0.0
170
     0
 61
     5
348
47E
292
     1
282
     1
141
0.0
142
0.0
 63
   250
421
  3355443
  0
ENDSEC
  0
SECTION
  2
OBJECTS
  0
DICTIONARY
  5
C
330
0
100
AcDbDictionary
281
     1
  3
ACAD_COLOR
350
48C
  3
ACAD_GROUP
350
D
  3
ACAD_LAYOUT
350
1A
  3
ACAD_MATERIAL
350
45F
  3
ACAD_MLEADERSTYLE
350
4A1
  3
ACAD_MLINESTYLE
350
17
  3
ACAD_PLOTSETTINGS
350
19
  3
ACAD_PLOTSTYLENAME
350
E
  3
ACAD_SCALELIST
350
48F
  3
ACAD_TABLESTYLE
350
48D
  3
ACAD_VISUALSTYLE
350
478
  3
ACDB_RECOMPOSE_DATA
350
4B0
  3
AcDbVariableDictionary
350
5E
  0
DICTIONARY
  5
97
330
2
100
AcDbDictionary
280
     1
281
     1
  3
ACAD_LAYERSTATES
360
98
  0
DICTIONARY
  5
4A5
330
10
100
AcDbDictionary
280
     1
281
     1
  3
ADSK_XREC_LAYER_RECONCILED
360
4A6
  0
DICTIONARY
  5
90
330
8F
100
AcDbDictionary
280
     1
281
     1
  3
ADSK_XREC_LAYER_RECONCILED
360
91
  0
DICTIONARY
  5
93
330
92
100
AcDbDictionary
280
     1
281
     1
  3
ADSK_XREC_LAYER_RECONCILED
360
94
  0
DICTIONARY
  5
48C
102
{ACAD_REACTORS
330
C
102
}
330
C
100
AcDbDictionary
281
     1
  0
DICTIONARY
  5
D
102
{ACAD_REACTORS
330
C
102
}
330
C
100
AcDbDictionary
281
     1
  0
DICTIONARY
  5
1A
102
{ACAD_REACTORS
330
C
102
}
330
C
100
AcDbDictionary
281
     1
  3
Model
350
22
  3
ﾚｲｱｳﾄ1
350
51
  3
ﾚｲｱｳﾄ2
350
56
  0
DICTIONARY
  5
45F
102
{ACAD_REACTORS
330
C
102
}
330
C
100
AcDbDictionary
281
     1
  3
ByBlock
350
468
  3
ByLayer
350
460
  3
Global
350
470
  0
DICTIONARY
  5
4A1
102
{ACAD_REACTORS
330
C
102
}
330
C
100
AcDbDictionary
281
     1
  3
Standard
350
4A2
  0
DICTIONARY
  5
17
102
{ACAD_REACTORS
330
C
102
}
330
C
100
AcDbDictionary
281
     1
  3
Standard
350
18
  0
DICTIONARY
  5
19
102
{ACAD_REACTORS
330
C
102
}
330
C
100
AcDbDictionary
281
     1
  0
ACDBDICTIONARYWDFLT
  5
E
102
{ACAD_REACTORS
330
C
102
}
330
C
100
AcDbDictionary
281
     1
  3
Normal
350
F
100
AcDbDictionaryWithDefault
340
F
  0
DICTIONARY
  5
48F
102
{ACAD_REACTORS
330
C
102
}
330
C
100
AcDbDictionary
281
     1
  3
A0
350
490
  3
A1
350
491
  3
A2
350
492
  3
A3
350
493
  3
A4
350
494
  3
A5
350
495
  3
A6
350
496
  3
A7
350
497
  3
A8
350
498
  3
A9
350
499
  3
B0
350
49A
  3
B1
350
49B
  3
B2
350
49C
  3
B3
350
49D
  3
B4
350
49E
  3
B5
350
49F
  3
B6
350
4A0
  0
DICTIONARY
  5
48D
102
{ACAD_REACTORS
330
C
102
}
330
C
100
AcDbDictionary
281
     1
  3
Standard
350
48E
  0
DICTIONARY
  5
478
102
{ACAD_REACTORS
330
C
102
}
330
C
100
AcDbDictionary
281
     1
  3
2dWireframe
350
47E
  3
3D Hidden
350
480
  3
3dWireframe
350
47F
  3
Basic
350
47D
  3
Brighten
350
484
  3
ColorChange
350
488
  3
Conceptual
350
481
  3
Dim
350
483
  3
EdgeColorOff
350
48B
  3
Facepattern
350
487
  3
Flat
350
479
  3
FlatWithEdges
350
47A
  3
Gouraud
350
47B
  3
GouraudWithEdges
350
47C
  3
JitterOff
350
489
  3
Linepattern
350
486
  3
OverhangOff
350
48A
  3
Realistic
350
482
  3
Thicken
350
485
  0
XRECORD
  5
4B0
102
{ACAD_REACTORS
330
C
102
}
330
C
100
AcDbXrecord
280
     1
 90
        1
330
48E
  0
DICTIONARY
  5
5E
102
{ACAD_REACTORS
330
C
102
}
330
C
100
AcDbDictionary
281
     1
  3
CANNOSCALE
350
4AA
  3
CMLEADERSTYLE
350
4A8
  3
CTABLESTYLE
350
4A7
  3
DIMASSOC
350
5F
  3
HIDETEXT
350
63
  3
LAYEREVAL
350
4AC
  3
LAYERNOTIFY
350
4AD
  3
LIGHTINGUNITS
350
4AB
  3
MSLTSCALE
350
4A9
  0
DICTIONARY
  5
98
102
{ACAD_REACTORS
330
97
102
}
330
97
100
AcDbDictionary
281
     1
  0
XRECORD
  5
4A6
102
{ACAD_REACTORS
330
4A5
102
}
330
4A5
100
AcDbXrecord
280
     1
290
     1
  0
XRECORD
  5
91
102
{ACAD_REACTORS
330
90
102
}
330
90
100
AcDbXrecord
280
     1
290
     1
  0
XRECORD
  5
94
102
{ACAD_REACTORS
330
93
102
}
330
93
100
AcDbXrecord
280
     1
290
     1
  0
LAYOUT
  5
22
102
{ACAD_REACTORS
330
1A
102
}
330
1A
100
AcDbPlotSettings
  1

  2
none_device
  4
ANSI_A_(8.50_x_11.00_Inches)
  6

 40
6.349999904632568
 41
19.04999923706055
 42
6.350006103515625
 43
19.04998779296875
 44
215.8999938964844
 45
279.3999938964844
 46
0.0
 47
0.0
 48
0.0
 49
0.0
140
0.0
141
0.0
142
1.0
143
78.436453180766
 70
 11952
 72
     0
 73
     1
 74
     0
  7

 75
     0
147
0.0127491741332998
 76
     0
 77
     2
 78
   300
148
0.0
149
0.0
100
AcDbLayout
  1
Model
 70
     1
 71
     0
 10
0.0
 20
0.0
 11
12.0
 21
9.0
 12
0.0
 22
0.0
 32
0.0
 14
0.0
 24
0.0
 34
0.0
 15
0.0
 25
0.0
 35
0.0
146
0.0
 13
0.0
 23
0.0
 33
0.0
 16
1.0
 26
0.0
 36
0.0
 17
0.0
 27
1.0
 37
0.0
 76
     0
330
1F
331
45D
  0
LAYOUT
  5
51
102
{ACAD_REACTORS
330
1A
102
}
330
1A
100
AcDbPlotSettings
  1

  2
none_device
  4
Letter_(8.50_x_11.00_Inches)
  6

 40
6.349999904632568
 41
6.349999904632568
 42
6.350006103515625
 43
6.350006103515625
 44
215.8999938964844
 45
279.3999938964844
 46
0.0
 47
0.0
 48
0.0
 49
0.0
140
0.0
141
0.0
142
1.0
143
1.0
 70
   688
 72
     1
 73
     1
 74
     5
  7

 75
    16
147
1.0
 76
     0
 77
     2
 78
   300
148
0.0
149
0.0
100
AcDbLayout
  1
ﾚｲｱｳﾄ1
 70
     1
 71
     1
 10
-6.350006103515625
 20
-6.349999904632568
 11
273.0499877929688
 21
209.5499939918518
 12
0.0
 22
0.0
 32
0.0
 14
26.66076962115563
 24
20.31135699206658
 34
-0.0015258207003583
 15
240.039213369355
 25
182.8886381005154
 35
0.0000000349246037
146
0.0
 13
0.0
 23
0.0
 33
0.0
 16
1.0
 26
0.0
 36
0.0
 17
0.0
 27
1.0
 37
0.0
 76
     0
330
50
331
6B
  0
LAYOUT
  5
56
102
{ACAD_REACTORS
330
1A
102
}
330
1A
100
AcDbPlotSettings
  1

  2
none_device
  4
Letter_(8.50_x_11.00_Inches)
  6

 40
6.349999904632568
 41
6.349999904632568
 42
6.350006103515625
 43
6.350006103515625
 44
215.8999938964844
 45
279.3999938964844
 46
0.0
 47
0.0
 48
0.0
 49
0.0
140
0.0
141
0.0
142
1.0
143
1.0
 70
   688
 72
     1
 73
     1
 74
     5
  7

 75
    16
147
1.0
 76
     0
 77
     2
 78
   300
148
0.0
149
0.0
100
AcDbLayout
  1
ﾚｲｱｳﾄ2
 70
     1
 71
     2
 10
-6.350006103515625
 20
-6.349999904632568
 11
273.0499877929688
 21
209.5499939918518
 12
0.0
 22
0.0
 32
0.0
 14
26.66076962115563
 24
20.31135699206658
 34
-0.0015258207003583
 15
240.039213369355
 25
182.8886381005154
 35
0.0000000349246037
146
0.0
 13
0.0
 23
0.0
 33
0.0
 16
1.0
 26
0.0
 36
0.0
 17
0.0
 27
1.0
 37
0.0
 76
     0
330
55
331
71
  0
MATERIAL
  5
468
102
{ACAD_XDICTIONARY
360
469
102
}
102
{ACAD_REACTORS
330
45F
102
}
330
45F
100
AcDbMaterial
  1
ByBlock
 72
     0
 43
0.0008202099737533
 43
0.0
 43
0.0
 43
0.0
 43
0.0
 43
0.0008202099737533
 43
0.0
 43
0.0
 43
0.0
 43
0.0
 43
1.0
 43
0.0
 43
0.0
 43
0.0
 43
0.0
 43
1.0
 77
     0
 47
0.0008202099737533
 47
0.0
 47
0.0
 47
0.0
 47
0.0
 47
0.0008202099737533
 47
0.0
 47
0.0
 47
0.0
 47
0.0
 47
1.0
 47
0.0
 47
0.0
 47
0.0
 47
0.0
 47
1.0
171
     0
 49
0.0008202099737533
 49
0.0
 49
0.0
 49
0.0
 49
0.0
 49
0.0008202099737533
 49
0.0
 49
0.0
 49
0.0
 49
0.0
 49
1.0
 49
0.0
 49
0.0
 49
0.0
 49
0.0
 49
1.0
175
     0
142
0.0008202099737533
142
0.0
142
0.0
142
0.0
142
0.0
142
0.0008202099737533
142
0.0
142
0.0
142
0.0
142
0.0
142
1.0
142
0.0
142
0.0
142
0.0
142
0.0
142
1.0
179
     0
144
0.0008202099737533
144
0.0
144
0.0
144
0.0
144
0.0
144
0.0008202099737533
144
0.0
144
0.0
144
0.0
144
0.0
144
1.0
144
0.0
144
0.0
144
0.0
144
0.0
144
1.0
147
0.0008202099737533
147
0.0
147
0.0
147
0.0
147
0.0
147
0.0008202099737533
147
0.0
147
0.0
147
0.0
147
0.0
147
1.0
147
0.0
147
0.0
147
0.0
147
0.0
147
1.0
  0
MATERIAL
  5
460
102
{ACAD_XDICTIONARY
360
461
102
}
102
{ACAD_REACTORS
330
45F
102
}
330
45F
100
AcDbMaterial
  1
ByLayer
 72
     0
 43
0.0008202099737533
 43
0.0
 43
0.0
 43
0.0
 43
0.0
 43
0.0008202099737533
 43
0.0
 43
0.0
 43
0.0
 43
0.0
 43
1.0
 43
0.0
 43
0.0
 43
0.0
 43
0.0
 43
1.0
 77
     0
 47
0.0008202099737533
 47
0.0
 47
0.0
 47
0.0
 47
0.0
 47
0.0008202099737533
 47
0.0
 47
0.0
 47
0.0
 47
0.0
 47
1.0
 47
0.0
 47
0.0
 47
0.0
 47
0.0
 47
1.0
171
     0
 49
0.0008202099737533
 49
0.0
 49
0.0
 49
0.0
 49
0.0
 49
0.0008202099737533
 49
0.0
 49
0.0
 49
0.0
 49
0.0
 49
1.0
 49
0.0
 49
0.0
 49
0.0
 49
0.0
 49
1.0
175
     0
142
0.0008202099737533
142
0.0
142
0.0
142
0.0
142
0.0
142
0.0008202099737533
142
0.0
142
0.0
142
0.0
142
0.0
142
1.0
142
0.0
142
0.0
142
0.0
142
0.0
142
1.0
179
     0
144
0.0008202099737533
144
0.0
144
0.0
144
0.0
144
0.0
144
0.0008202099737533
144
0.0
144
0.0
144
0.0
144
0.0
144
1.0
144
0.0
144
0.0
144
0.0
144
0.0
144
1.0
147
0.0008202099737533
147
0.0
147
0.0
147
0.0
147
0.0
147
0.0008202099737533
147
0.0
147
0.0
147
0.0
147
0.0
147
1.0
147
0.0
147
0.0
147
0.0
147
0.0
147
1.0
  0
MATERIAL
  5
470
102
{ACAD_XDICTIONARY
360
471
102
}
102
{ACAD_REACTORS
330
45F
102
}
330
45F
100
AcDbMaterial
  1
Global
 72
     0
 43
0.0008202099737533
 43
0.0
 43
0.0
 43
0.0
 43
0.0
 43
0.0008202099737533
 43
0.0
 43
0.0
 43
0.0
 43
0.0
 43
1.0
 43
0.0
 43
0.0
 43
0.0
 43
0.0
 43
1.0
 77
     0
 47
0.0008202099737533
 47
0.0
 47
0.0
 47
0.0
 47
0.0
 47
0.0008202099737533
 47
0.0
 47
0.0
 47
0.0
 47
0.0
 47
1.0
 47
0.0
 47
0.0
 47
0.0
 47
0.0
 47
1.0
171
     0
 49
0.0008202099737533
 49
0.0
 49
0.0
 49
0.0
 49
0.0
 49
0.0008202099737533
 49
0.0
 49
0.0
 49
0.0
 49
0.0
 49
1.0
 49
0.0
 49
0.0
 49
0.0
 49
0.0
 49
1.0
175
     0
142
0.0008202099737533
142
0.0
142
0.0
142
0.0
142
0.0
142
0.0008202099737533
142
0.0
142
0.0
142
0.0
142
0.0
142
1.0
142
0.0
142
0.0
142
0.0
142
0.0
142
1.0
179
     0
144
0.0008202099737533
144
0.0
144
0.0
144
0.0
144
0.0
144
0.0008202099737533
144
0.0
144
0.0
144
0.0
144
0.0
144
1.0
144
0.0
144
0.0
144
0.0
144
0.0
144
1.0
147
0.0008202099737533
147
0.0
147
0.0
147
0.0
147
0.0
147
0.0008202099737533
147
0.0
147
0.0
147
0.0
147
0.0
147
1.0
147
0.0
147
0.0
147
0.0
147
0.0
147
1.0
  0
MLEADERSTYLE
  5
4A2
102
{ACAD_REACTORS
330
4A1
102
}
330
4A1
100
AcDbMLeaderStyle
179
     2
170
     2
171
     1
172
     0
 90
        2
 40
0.0
 41
0.0
173
     1
 91
-1056964608
340
14
 92
       -2
290
     1
 42
2.0
291
     1
 43
0.36
  3
Standard
 44
4.0
300

342
11
174
     1
178
     6
175
     1
176
     0
 93
-1056964608
 45
4.0
292
     0
297
     0
 46
4.0
 94
-1056964608
 47
1.0
 49
1.0
140
1.0
293
     1
141
0.0
294
     1
177
     0
142
1.0
295
     1
296
     0
143
0.125
271
     0
272
     9
273
     9
  0
MLINESTYLE
  5
18
102
{ACAD_REACTORS
330
17
102
}
330
17
100
AcDbMlineStyle
  2
STANDARD
 70
     0
  3

 62
   256
 51
90.0
 52
90.0
 71
     2
 49
0.5
 62
   256
  6
BYLAYER
 49
-0.5
 62
   256
  6
BYLAYER
  0
ACDBPLACEHOLDER
  5
F
102
{ACAD_REACTORS
330
E
102
}
330
E
  0
SCALE
  5
490
102
{ACAD_REACTORS
330
48F
102
}
330
48F
100
AcDbScale
 70
     0
300
1:1
140
1.0
141
1.0
290
     1
  0
SCALE
  5
491
102
{ACAD_REACTORS
330
48F
102
}
330
48F
100
AcDbScale
 70
     0
300
1:2
140
1.0
141
2.0
290
     0
  0
SCALE
  5
492
102
{ACAD_REACTORS
330
48F
102
}
330
48F
100
AcDbScale
 70
     0
300
1:4
140
1.0
141
4.0
290
     0
  0
SCALE
  5
493
102
{ACAD_REACTORS
330
48F
102
}
330
48F
100
AcDbScale
 70
     0
300
1:5
140
1.0
141
5.0
290
     0
  0
SCALE
  5
494
102
{ACAD_REACTORS
330
48F
102
}
330
48F
100
AcDbScale
 70
     0
300
1:8
140
1.0
141
8.0
290
     0
  0
SCALE
  5
495
102
{ACAD_REACTORS
330
48F
102
}
330
48F
100
AcDbScale
 70
     0
300
1:10
140
1.0
141
10.0
290
     0
  0
SCALE
  5
496
102
{ACAD_REACTORS
330
48F
102
}
330
48F
100
AcDbScale
 70
     0
300
1:16
140
1.0
141
16.0
290
     0
  0
SCALE
  5
497
102
{ACAD_REACTORS
330
48F
102
}
330
48F
100
AcDbScale
 70
     0
300
1:20
140
1.0
141
20.0
290
     0
  0
SCALE
  5
498
102
{ACAD_REACTORS
330
48F
102
}
330
48F
100
AcDbScale
 70
     0
300
1:30
140
1.0
141
30.0
290
     0
  0
SCALE
  5
499
102
{ACAD_REACTORS
330
48F
102
}
330
48F
100
AcDbScale
 70
     0
300
1:40
140
1.0
141
40.0
290
     0
  0
SCALE
  5
49A
102
{ACAD_REACTORS
330
48F
102
}
330
48F
100
AcDbScale
 70
     0
300
1:50
140
1.0
141
50.0
290
     0
  0
SCALE
  5
49B
102
{ACAD_REACTORS
330
48F
102
}
330
48F
100
AcDbScale
 70
     0
300
1:100
140
1.0
141
100.0
290
     0
  0
SCALE
  5
49C
102
{ACAD_REACTORS
330
48F
102
}
330
48F
100
AcDbScale
 70
     0
300
2:1
140
2.0
141
1.0
290
     0
  0
SCALE
  5
49D
102
{ACAD_REACTORS
330
48F
102
}
330
48F
100
AcDbScale
 70
     0
300
4:1
140
4.0
141
1.0
290
     0
  0
SCALE
  5
49E
102
{ACAD_REACTORS
330
48F
102
}
330
48F
100
AcDbScale
 70
     0
300
8:1
140
8.0
141
1.0
290
     0
  0
SCALE
  5
49F
102
{ACAD_REACTORS
330
48F
102
}
330
48F
100
AcDbScale
 70
     0
300
10:1
140
10.0
141
1.0
290
     0
  0
SCALE
  5
4A0
102
{ACAD_REACTORS
330
48F
102
}
330
48F
100
AcDbScale
 70
     0
300
100:1
140
100.0
141
1.0
290
     0
  0
TABLESTYLE
  5
48E
102
{ACAD_XDICTIONARY
360
4AE
102
}
102
{ACAD_REACTORS
330
48D
102
}
330
48D
100
AcDbTableStyle
280
     0
  3
Standard
 70
     0
 71
     0
 40
1.5
 41
1.5
280
     0
281
     0
  7
Standard
140
4.5
170
     2
 62
     0
 63
     7
283
     0
 90
      512
 91
        0
  1

274
    -2
284
     1
 64
     0
275
    -2
285
     1
 65
     0
276
    -2
286
     1
 66
     0
277
    -2
287
     1
 67
     0
278
    -2
288
     1
 68
     0
279
    -2
289
     1
 69
     0
  7
Standard
140
6.0
170
     5
 62
     0
 63
     7
283
     0
 90
      512
 91
        0
  1

274
    -2
284
     1
 64
     0
275
    -2
285
     1
 65
     0
276
    -2
286
     1
 66
     0
277
    -2
287
     1
 67
     0
278
    -2
288
     1
 68
     0
279
    -2
289
     1
 69
     0
  7
Standard
140
4.5
170
     5
 62
     0
 63
     7
283
     0
 90
      512
 91
        0
  1

274
    -2
284
     1
 64
     0
275
    -2
285
     1
 65
     0
276
    -2
286
     1
 66
     0
277
    -2
287
     1
 67
     0
278
    -2
288
     1
 68
     0
279
    -2
289
     1
 69
     0
  0
VISUALSTYLE
  5
47E
102
{ACAD_REACTORS
330
478
102
}
330
478
100
AcDbVisualStyle
  2
2dWireframe
 70
     4
177
     2
291
     0
 71
     0
176
     1
 72
     2
176
     1
 73
     0
176
     1
 90
        0
176
     1
 40
0.6
176
     1
 41
30.0
176
     1
 63
     7
421
 16777215
176
     1
 74
     1
176
     1
 91
        4
176
     1
 64
     7
176
     1
 65
   257
176
     1
 75
     1
176
     1
175
     1
176
     1
 42
1.0
176
     1
 92
        0
176
     1
 66
   257
176
     1
 43
1.0
176
     1
 76
     1
176
     1
 77
     6
176
     1
 78
     2
176
     1
 67
     7
176
     1
 79
     5
176
     1
170
     0
176
     1
171
     0
176
     1
290
     0
176
     1
 93
        1
176
     1
 44
0.0
176
     1
173
     0
176
     1
  0
VISUALSTYLE
  5
480
102
{ACAD_REACTORS
330
478
102
}
330
478
100
AcDbVisualStyle
  2
3D Hidden
 70
     6
177
     2
291
     0
 71
     1
176
     1
 72
     2
176
     1
 73
     2
176
     1
 90
        0
176
     1
 40
0.6
176
     1
 41
30.0
176
     1
 63
     7
421
 16777215
176
     1
 74
     2
176
     1
 91
        2
176
     1
 64
     7
176
     1
 65
   257
176
     1
 75
     2
176
     1
175
     1
176
     1
 42
179.0
176
     1
 92
        0
176
     1
 66
   257
176
     1
 43
1.0
176
     1
 76
     1
176
     1
 77
     6
176
     1
 78
     2
176
     1
 67
     7
176
     1
 79
     3
176
     1
170
     0
176
     1
171
     0
176
     1
290
     0
176
     1
 93
        1
176
     1
 44
0.0
176
     1
173
     0
176
     1
  0
VISUALSTYLE
  5
47F
102
{ACAD_REACTORS
330
478
102
}
330
478
100
AcDbVisualStyle
  2
3dWireframe
 70
     5
177
     2
291
     0
 71
     0
176
     1
 72
     2
176
     1
 73
     0
176
     1
 90
        0
176
     1
 40
0.6
176
     1
 41
30.0
176
     1
 63
     7
421
 16777215
176
     1
 74
     1
176
     1
 91
        4
176
     1
 64
     7
176
     1
 65
   257
176
     1
 75
     1
176
     1
175
     1
176
     1
 42
1.0
176
     1
 92
        0
176
     1
 66
   257
176
     1
 43
1.0
176
     1
 76
     1
176
     1
 77
     6
176
     1
 78
     2
176
     1
 67
     7
176
     1
 79
     5
176
     1
170
     0
176
     1
171
     0
176
     1
290
     0
176
     1
 93
        1
176
     1
 44
0.0
176
     1
173
     0
176
     1
  0
VISUALSTYLE
  5
47D
102
{ACAD_REACTORS
330
478
102
}
330
478
100
AcDbVisualStyle
  2
Basic
 70
     7
177
     2
291
     1
 71
     1
176
     1
 72
     0
176
     1
 73
     1
176
     1
 90
        0
176
     1
 40
0.6
176
     1
 41
30.0
176
     1
 63
     7
421
 16777215
176
     1
 74
     0
176
     1
 91
        4
176
     1
 64
     7
176
     1
 65
   257
176
     1
 75
     1
176
     1
175
     1
176
     1
 42
1.0
176
     1
 92
        8
176
     1
 66
     7
176
     1
 43
1.0
176
     1
 76
     1
176
     1
 77
     6
176
     1
 78
     2
176
     1
 67
     7
176
     1
 79
     5
176
     1
170
     0
176
     1
171
     0
176
     1
290
     0
176
     1
 93
        1
176
     1
 44
0.0
176
     1
173
     0
176
     1
  0
VISUALSTYLE
  5
484
102
{ACAD_REACTORS
330
478
102
}
330
478
100
AcDbVisualStyle
  2
Brighten
 70
    12
177
     2
291
     1
 71
     2
176
     1
 72
     2
176
     1
 73
     0
176
     1
 90
        0
176
     1
 40
0.6
176
     1
 41
30.0
176
     1
 63
     7
421
 16777215
176
     1
 74
     1
176
     1
 91
        4
176
     1
 64
     7
176
     1
 65
   257
176
     1
 75
     1
176
     1
175
     1
176
     1
 42
1.0
176
     1
 92
        8
176
     1
 66
     7
176
     1
 43
1.0
176
     1
 76
     1
176
     1
 77
     6
176
     1
 78
     2
176
     1
 67
     7
176
     1
 79
     5
176
     1
170
     0
176
     1
171
     0
176
     1
290
     0
176
     1
 93
        1
176
     1
 44
50.0
176
     1
173
     0
176
     1
  0
VISUALSTYLE
  5
488
102
{ACAD_REACTORS
330
478
102
}
330
478
100
AcDbVisualStyle
  2
ColorChange
 70
    16
177
     2
291
     1
 71
     2
176
     1
 72
     2
176
     1
 73
     3
176
     1
 90
        0
176
     1
 40
0.6
176
     1
 41
30.0
176
     1
 63
     8
421
  8421504
176
     1
 74
     1
176
     1
 91
        4
176
     1
 64
     7
176
     1
 65
   257
176
     1
 75
     1
176
     1
175
     1
176
     1
 42
1.0
176
     1
 92
        8
176
     1
 66
     8
424
  8421504
176
     1
 43
1.0
176
     1
 76
     1
176
     1
 77
     6
176
     1
 78
     2
176
     1
 67
     7
176
     1
 79
     5
176
     1
170
     0
176
     1
171
     0
176
     1
290
     0
176
     1
 93
        1
176
     1
 44
0.0
176
     1
173
     0
176
     1
  0
VISUALSTYLE
  5
481
102
{ACAD_REACTORS
330
478
102
}
330
478
100
AcDbVisualStyle
  2
Conceptual
 70
     9
177
     2
291
     0
 71
     3
176
     1
 72
     2
176
     1
 73
     0
176
     1
 90
        0
176
     1
 40
0.6
176
     1
 41
30.0
176
     1
 63
     7
421
 16777215
176
     1
 74
     2
176
     1
 91
        2
176
     1
 64
     7
176
     1
 65
   257
176
     1
 75
     1
176
     1
175
     1
176
     1
 42
179.0
176
     1
 92
        8
176
     1
 66
     7
176
     1
 43
1.0
176
     1
 76
     1
176
     1
 77
     6
176
     1
 78
     2
176
     1
 67
     7
176
     1
 79
     3
176
     1
170
     0
176
     1
171
     0
176
     1
290
     0
176
     1
 93
        1
176
     1
 44
0.0
176
     1
173
     0
176
     1
  0
VISUALSTYLE
  5
483
102
{ACAD_REACTORS
330
478
102
}
330
478
100
AcDbVisualStyle
  2
Dim
 70
    11
177
     2
291
     1
 71
     2
176
     1
 72
     2
176
     1
 73
     0
176
     1
 90
        0
176
     1
 40
0.6
176
     1
 41
30.0
176
     1
 63
     7
421
 16777215
176
     1
 74
     1
176
     1
 91
        4
176
     1
 64
     7
176
     1
 65
   257
176
     1
 75
     1
176
     1
175
     1
176
     1
 42
1.0
176
     1
 92
        8
176
     1
 66
     7
176
     1
 43
1.0
176
     1
 76
     1
176
     1
 77
     6
176
     1
 78
     2
176
     1
 67
     7
176
     1
 79
     5
176
     1
170
     0
176
     1
171
     0
176
     1
290
     0
176
     1
 93
        1
176
     1
 44
-50.0
176
     1
173
     0
176
     1
  0
VISUALSTYLE
  5
48B
102
{ACAD_REACTORS
330
478
102
}
330
478
100
AcDbVisualStyle
  2
EdgeColorOff
 70
    22
177
     2
291
     1
 71
     2
176
     0
 72
     2
176
     0
 73
     0
176
     0
 90
        0
176
     0
 40
0.6
176
     0
 41
30.0
176
     0
 63
     7
421
 16777215
176
     0
 74
     1
176
     0
 91
        4
176
     0
 64
     7
176
     0
 65
   257
176
     0
 75
     1
176
     0
175
     1
176
     0
 42
1.0
176
     0
 92
        8
176
     2
 66
     7
176
     0
 43
1.0
176
     0
 76
     1
176
     0
 77
     6
176
     0
 78
     2
176
     0
 67
     7
176
     0
 79
     5
176
     0
170
     0
176
     0
171
     0
176
     0
290
     0
176
     0
 93
        1
176
     0
 44
0.0
176
     0
173
     0
176
     0
  0
VISUALSTYLE
  5
487
102
{ACAD_REACTORS
330
478
102
}
330
478
100
AcDbVisualStyle
  2
Facepattern
 70
    15
177
     2
291
     1
 71
     2
176
     1
 72
     2
176
     1
 73
     0
176
     1
 90
        0
176
     1
 40
0.6
176
     1
 41
30.0
176
     1
 63
     7
421
 16777215
176
     1
 74
     1
176
     1
 91
        4
176
     1
 64
     7
176
     1
 65
   257
176
     1
 75
     1
176
     1
175
     1
176
     1
 42
1.0
176
     1
 92
        8
176
     1
 66
     7
176
     1
 43
1.0
176
     1
 76
     1
176
     1
 77
     6
176
     1
 78
     2
176
     1
 67
     7
176
     1
 79
     5
176
     1
170
     0
176
     1
171
     0
176
     1
290
     0
176
     1
 93
        1
176
     1
 44
0.0
176
     1
173
     0
176
     1
  0
VISUALSTYLE
  5
479
102
{ACAD_REACTORS
330
478
102
}
330
478
100
AcDbVisualStyle
  2
Flat
 70
     0
177
     2
291
     1
 71
     2
176
     1
 72
     1
176
     1
 73
     1
176
     1
 90
        2
176
     1
 40
0.6
176
     1
 41
30.0
176
     1
 63
     7
421
 16777215
176
     1
 74
     0
176
     1
 91
        4
176
     1
 64
     7
176
     1
 65
   257
176
     1
 75
     1
176
     1
175
     1
176
     1
 42
1.0
176
     1
 92
        8
176
     1
 66
     7
176
     1
 43
1.0
176
     1
 76
     1
176
     1
 77
     6
176
     1
 78
     2
176
     1
 67
     7
176
     1
 79
     5
176
     1
170
     0
176
     1
171
     0
176
     1
290
     0
176
     1
 93
       13
176
     1
 44
0.0
176
     1
173
     0
176
     1
  0
VISUALSTYLE
  5
47A
102
{ACAD_REACTORS
330
478
102
}
330
478
100
AcDbVisualStyle
  2
FlatWithEdges
 70
     1
177
     2
291
     1
 71
     2
176
     1
 72
     1
176
     1
 73
     1
176
     1
 90
        2
176
     1
 40
0.6
176
     1
 41
30.0
176
     1
 63
     7
421
 16777215
176
     1
 74
     1
176
     1
 91
        4
176
     1
 64
     7
176
     1
 65
   257
176
     1
 75
     1
176
     1
175
     1
176
     1
 42
1.0
176
     1
 92
        0
176
     1
 66
   257
176
     1
 43
1.0
176
     1
 76
     1
176
     1
 77
     6
176
     1
 78
     2
176
     1
 67
     7
176
     1
 79
     5
176
     1
170
     0
176
     1
171
     0
176
     1
290
     0
176
     1
 93
       13
176
     1
 44
0.0
176
     1
173
     0
176
     1
  0
VISUALSTYLE
  5
47B
102
{ACAD_REACTORS
330
478
102
}
330
478
100
AcDbVisualStyle
  2
Gouraud
 70
     2
177
     2
291
     1
 71
     2
176
     1
 72
     2
176
     1
 73
     1
176
     1
 90
        2
176
     1
 40
0.6
176
     1
 41
30.0
176
     1
 63
     7
421
 16777215
176
     1
 74
     0
176
     1
 91
        4
176
     1
 64
     7
176
     1
 65
   257
176
     1
 75
     1
176
     1
175
     1
176
     1
 42
1.0
176
     1
 92
        0
176
     1
 66
     7
176
     1
 43
1.0
176
     1
 76
     1
176
     1
 77
     6
176
     1
 78
     2
176
     1
 67
     7
176
     1
 79
     5
176
     1
170
     0
176
     1
171
     0
176
     1
290
     0
176
     1
 93
       13
176
     1
 44
0.0
176
     1
173
     0
176
     1
  0
VISUALSTYLE
  5
47C
102
{ACAD_REACTORS
330
478
102
}
330
478
100
AcDbVisualStyle
  2
GouraudWithEdges
 70
     3
177
     2
291
     1
 71
     2
176
     1
 72
     2
176
     1
 73
     1
176
     1
 90
        2
176
     1
 40
0.6
176
     1
 41
30.0
176
     1
 63
     7
421
 16777215
176
     1
 74
     1
176
     1
 91
        4
176
     1
 64
     7
176
     1
 65
   257
176
     1
 75
     1
176
     1
175
     1
176
     1
 42
1.0
176
     1
 92
        0
176
     1
 66
   257
176
     1
 43
1.0
176
     1
 76
     1
176
     1
 77
     6
176
     1
 78
     2
176
     1
 67
     7
176
     1
 79
     5
176
     1
170
     0
176
     1
171
     0
176
     1
290
     0
176
     1
 93
       13
176
     1
 44
0.0
176
     1
173
     0
176
     1
  0
VISUALSTYLE
  5
489
102
{ACAD_REACTORS
330
478
102
}
330
478
100
AcDbVisualStyle
  2
JitterOff
 70
    20
177
     2
291
     1
 71
     2
176
     0
 72
     2
176
     0
 73
     0
176
     0
 90
        0
176
     0
 40
0.6
176
     0
 41
30.0
176
     0
 63
     7
421
 16777215
176
     0
 74
     1
176
     0
 91
        4
176
     0
 64
     7
176
     0
 65
   257
176
     0
 75
     1
176
     0
175
     1
176
     0
 42
1.0
176
     0
 92
       10
176
     2
 66
     7
176
     0
 43
1.0
176
     0
 76
     1
176
     0
 77
     6
176
     0
 78
     2
176
     0
 67
     7
176
     0
 79
     5
176
     0
170
     0
176
     0
171
     0
176
     0
290
     0
176
     0
 93
        1
176
     0
 44
0.0
176
     0
173
     0
176
     0
  0
VISUALSTYLE
  5
486
102
{ACAD_REACTORS
330
478
102
}
330
478
100
AcDbVisualStyle
  2
Linepattern
 70
    14
177
     2
291
     1
 71
     2
176
     1
 72
     2
176
     1
 73
     0
176
     1
 90
        0
176
     1
 40
0.6
176
     1
 41
30.0
176
     1
 63
     7
421
 16777215
176
     1
 74
     1
176
     1
 91
        4
176
     1
 64
     7
176
     1
 65
   257
176
     1
 75
     7
176
     1
175
     7
176
     1
 42
1.0
176
     1
 92
        8
176
     1
 66
     7
176
     1
 43
1.0
176
     1
 76
     1
176
     1
 77
     6
176
     1
 78
     2
176
     1
 67
     7
176
     1
 79
     5
176
     1
170
     0
176
     1
171
     0
176
     1
290
     0
176
     1
 93
        1
176
     1
 44
0.0
176
     1
173
     0
176
     1
  0
VISUALSTYLE
  5
48A
102
{ACAD_REACTORS
330
478
102
}
330
478
100
AcDbVisualStyle
  2
OverhangOff
 70
    21
177
     2
291
     1
 71
     2
176
     0
 72
     2
176
     0
 73
     0
176
     0
 90
        0
176
     0
 40
0.6
176
     0
 41
30.0
176
     0
 63
     7
421
 16777215
176
     0
 74
     1
176
     0
 91
        4
176
     0
 64
     7
176
     0
 65
   257
176
     0
 75
     1
176
     0
175
     1
176
     0
 42
1.0
176
     0
 92
        9
176
     2
 66
     7
176
     0
 43
1.0
176
     0
 76
     1
176
     0
 77
     6
176
     0
 78
     2
176
     0
 67
     7
176
     0
 79
     5
176
     0
170
     0
176
     0
171
     0
176
     0
290
     0
176
     0
 93
        1
176
     0
 44
0.0
176
     0
173
     0
176
     0
  0
VISUALSTYLE
  5
482
102
{ACAD_REACTORS
330
478
102
}
330
478
100
AcDbVisualStyle
  2
Realistic
 70
     8
177
     2
291
     0
 71
     2
176
     1
 72
     2
176
     1
 73
     0
176
     1
 90
        0
176
     1
 40
0.6
176
     1
 41
30.0
176
     1
 63
     7
421
 16777215
176
     1
 74
     1
176
     1
 91
        0
176
     1
 64
     7
176
     1
 65
   257
176
     1
 75
     1
176
     1
175
     1
176
     1
 42
1.0
176
     1
 92
        8
176
     1
 66
     8
424
  7895160
176
     1
 43
1.0
176
     1
 76
     1
176
     1
 77
     6
176
     1
 78
     2
176
     1
 67
     7
176
     1
 79
     5
176
     1
170
     0
176
     1
171
     0
176
     1
290
     0
176
     1
 93
       13
176
     1
 44
0.0
176
     1
173
     0
176
     1
  0
VISUALSTYLE
  5
485
102
{ACAD_REACTORS
330
478
102
}
330
478
100
AcDbVisualStyle
  2
Thicken
 70
    13
177
     2
291
     1
 71
     2
176
     1
 72
     2
176
     1
 73
     0
176
     1
 90
        0
176
     1
 40
0.6
176
     1
 41
30.0
176
     1
 63
     7
421
 16777215
176
     1
 74
     1
176
     1
 91
        4
176
     1
 64
     7
176
     1
 65
   257
176
     1
 75
     1
176
     1
175
     1
176
     1
 42
1.0
176
     1
 92
       12
176
     1
 66
     7
176
     1
 43
1.0
176
     1
 76
     1
176
     1
 77
     6
176
     1
 78
     2
176
     1
 67
     7
176
     1
 79
     5
176
     1
170
     0
176
     1
171
     0
176
     1
290
     0
176
     1
 93
        1
176
     1
 44
0.0
176
     1
173
     0
176
     1
  0
DICTIONARYVAR
  5
4AA
102
{ACAD_REACTORS
330
5E
102
}
330
5E
100
DictionaryVariables
280
     0
  1
1:1
  0
DICTIONARYVAR
  5
4A8
102
{ACAD_REACTORS
330
5E
102
}
330
5E
100
DictionaryVariables
280
     0
  1
STANDARD
  0
DICTIONARYVAR
  5
4A7
102
{ACAD_REACTORS
330
5E
102
}
330
5E
100
DictionaryVariables
280
     0
  1
STANDARD
  0
DICTIONARYVAR
  5
5F
102
{ACAD_REACTORS
330
5E
102
}
330
5E
100
DictionaryVariables
280
     0
  1
2
  0
DICTIONARYVAR
  5
63
102
{ACAD_REACTORS
330
5E
102
}
330
5E
100
DictionaryVariables
280
     0
  1
1
  0
DICTIONARYVAR
  5
4AC
102
{ACAD_REACTORS
330
5E
102
}
330
5E
100
DictionaryVariables
280
     0
  1
1
  0
DICTIONARYVAR
  5
4AD
102
{ACAD_REACTORS
330
5E
102
}
330
5E
100
DictionaryVariables
280
     0
  1
15
  0
DICTIONARYVAR
  5
4AB
102
{ACAD_REACTORS
330
5E
102
}
330
5E
100
DictionaryVariables
280
     0
  1
0
  0
DICTIONARYVAR
  5
4A9
102
{ACAD_REACTORS
330
5E
102
}
330
5E
100
DictionaryVariables
280
     0
  1
0
  0
DICTIONARY
  5
469
330
468
100
AcDbDictionary
280
     1
281
     1
  3
BUMPTILE
360
46B
  3
DIFFUSETILE
360
46A
  3
OPACITYTILE
360
46E
  3
REFLECTIONTILE
360
46D
  3
REFRACTIONTILE
360
46F
  3
SPECULARTILE
360
46C
  0
DICTIONARY
  5
461
330
460
100
AcDbDictionary
280
     1
281
     1
  3
BUMPTILE
360
463
  3
DIFFUSETILE
360
462
  3
OPACITYTILE
360
466
  3
REFLECTIONTILE
360
465
  3
REFRACTIONTILE
360
467
  3
SPECULARTILE
360
464
  0
DICTIONARY
  5
471
330
470
100
AcDbDictionary
280
     1
281
     1
  3
BUMPTILE
360
473
  3
DIFFUSETILE
360
472
  3
OPACITYTILE
360
476
  3
REFLECTIONTILE
360
475
  3
REFRACTIONTILE
360
477
  3
SPECULARTILE
360
474
  0
DICTIONARY
  5
4AE
330
48E
100
AcDbDictionary
280
     1
281
     1
  3
ACAD_ROUNDTRIP_2008_TABLESTYLE_CELLSTYLEMAP
360
4AF
  0
XRECORD
  5
46B
102
{ACAD_REACTORS
330
469
102
}
330
469
100
AcDbXrecord
280
     1
270
     1
271
     1
  0
XRECORD
  5
46A
102
{ACAD_REACTORS
330
469
102
}
330
469
100
AcDbXrecord
280
     1
270
     1
271
     1
  0
XRECORD
  5
46E
102
{ACAD_REACTORS
330
469
102
}
330
469
100
AcDbXrecord
280
     1
270
     1
271
     1
  0
XRECORD
  5
46D
102
{ACAD_REACTORS
330
469
102
}
330
469
100
AcDbXrecord
280
     1
270
     1
271
     1
  0
XRECORD
  5
46F
102
{ACAD_REACTORS
330
469
102
}
330
469
100
AcDbXrecord
280
     1
270
     1
271
     1
  0
XRECORD
  5
46C
102
{ACAD_REACTORS
330
469
102
}
330
469
100
AcDbXrecord
280
     1
270
     1
271
     1
  0
XRECORD
  5
463
102
{ACAD_REACTORS
330
461
102
}
330
461
100
AcDbXrecord
280
     1
270
     1
271
     1
  0
XRECORD
  5
462
102
{ACAD_REACTORS
330
461
102
}
330
461
100
AcDbXrecord
280
     1
270
     1
271
     1
  0
XRECORD
  5
466
102
{ACAD_REACTORS
330
461
102
}
330
461
100
AcDbXrecord
280
     1
270
     1
271
     1
  0
XRECORD
  5
465
102
{ACAD_REACTORS
330
461
102
}
330
461
100
AcDbXrecord
280
     1
270
     1
271
     1
  0
XRECORD
  5
467
102
{ACAD_REACTORS
330
461
102
}
330
461
100
AcDbXrecord
280
     1
270
     1
271
     1
  0
XRECORD
  5
464
102
{ACAD_REACTORS
330
461
102
}
330
461
100
AcDbXrecord
280
     1
270
     1
271
     1
  0
XRECORD
  5
473
102
{ACAD_REACTORS
330
471
102
}
330
471
100
AcDbXrecord
280
     1
270
     1
271
     1
  0
XRECORD
  5
472
102
{ACAD_REACTORS
330
471
102
}
330
471
100
AcDbXrecord
280
     1
270
     1
271
     1
  0
XRECORD
  5
476
102
{ACAD_REACTORS
330
471
102
}
330
471
100
AcDbXrecord
280
     1
270
     1
271
     1
  0
XRECORD
  5
475
102
{ACAD_REACTORS
330
471
102
}
330
471
100
AcDbXrecord
280
     1
270
     1
271
     1
  0
XRECORD
  5
477
102
{ACAD_REACTORS
330
471
102
}
330
471
100
AcDbXrecord
280
     1
270
     1
271
     1
  0
XRECORD
  5
474
102
{ACAD_REACTORS
330
471
102
}
330
471
100
AcDbXrecord
280
     1
270
     1
271
     1
  0
CELLSTYLEMAP
  5
4AF
102
{ACAD_REACTORS
330
4AE
102
}
330
4AE
100
AcDbCellStyleMap
 90
        3
300
CELLSTYLE
  1
TABLEFORMAT_BEGIN
 90
        5
170
     1
 91
        0
 92
    32768
 62
   257
 93
        1
300
CONTENTFORMAT
  1
CONTENTFORMAT_BEGIN
 90
        0
 91
        0
 92
      512
 93
        0
300

 40
0.0
140
1.0
 94
        5
 62
     0
340
11
144
6.0
309
CONTENTFORMAT_END
171
     1
301
MARGIN
  1
CELLMARGIN_BEGIN
 40
1.5
 40
1.5
 40
1.5
 40
1.5
 40
4.5
 40
4.5
309
CELLMARGIN_END
 94
        6
 95
        1
302
GRIDFORMAT
  1
GRIDFORMAT_BEGIN
 90
        0
 91
        1
 62
     0
 92
       -2
340
0
 93
        0
 40
1.125
309
GRIDFORMAT_END
 95
        2
302
GRIDFORMAT
  1
GRIDFORMAT_BEGIN
 90
        0
 91
        1
 62
     0
 92
       -2
340
0
 93
        0
 40
1.125
309
GRIDFORMAT_END
 95
        4
302
GRIDFORMAT
  1
GRIDFORMAT_BEGIN
 90
        0
 91
        1
 62
     0
 92
       -2
340
0
 93
        0
 40
1.125
309
GRIDFORMAT_END
 95
        8
302
GRIDFORMAT
  1
GRIDFORMAT_BEGIN
 90
        0
 91
        1
 62
     0
 92
       -2
340
0
 93
        0
 40
1.125
309
GRIDFORMAT_END
 95
       16
302
GRIDFORMAT
  1
GRIDFORMAT_BEGIN
 90
        0
 91
        1
 62
     0
 92
       -2
340
0
 93
        0
 40
1.125
309
GRIDFORMAT_END
 95
       32
302
GRIDFORMAT
  1
GRIDFORMAT_BEGIN
 90
        0
 91
        1
 62
     0
 92
       -2
340
0
 93
        0
 40
1.125
309
GRIDFORMAT_END
309
TABLEFORMAT_END
  1
CELLSTYLE_BEGIN
 90
        1
 91
        1
300
_TITLE
309
CELLSTYLE_END
300
CELLSTYLE
  1
TABLEFORMAT_BEGIN
 90
        5
170
     1
 91
        0
 92
        0
 62
   257
 93
        1
300
CONTENTFORMAT
  1
CONTENTFORMAT_BEGIN
 90
        0
 91
        0
 92
      512
 93
        0
300

 40
0.0
140
1.0
 94
        5
 62
     0
340
11
144
4.5
309
CONTENTFORMAT_END
171
     1
301
MARGIN
  1
CELLMARGIN_BEGIN
 40
1.5
 40
1.5
 40
1.5
 40
1.5
 40
4.5
 40
4.5
309
CELLMARGIN_END
 94
        6
 95
        1
302
GRIDFORMAT
  1
GRIDFORMAT_BEGIN
 90
        0
 91
        1
 62
     0
 92
       -2
340
0
 93
        0
 40
1.125
309
GRIDFORMAT_END
 95
        2
302
GRIDFORMAT
  1
GRIDFORMAT_BEGIN
 90
        0
 91
        1
 62
     0
 92
       -2
340
0
 93
        0
 40
1.125
309
GRIDFORMAT_END
 95
        4
302
GRIDFORMAT
  1
GRIDFORMAT_BEGIN
 90
        0
 91
        1
 62
     0
 92
       -2
340
0
 93
        0
 40
1.125
309
GRIDFORMAT_END
 95
        8
302
GRIDFORMAT
  1
GRIDFORMAT_BEGIN
 90
        0
 91
        1
 62
     0
 92
       -2
340
0
 93
        0
 40
1.125
309
GRIDFORMAT_END
 95
       16
302
GRIDFORMAT
  1
GRIDFORMAT_BEGIN
 90
        0
 91
        1
 62
     0
 92
       -2
340
0
 93
        0
 40
1.125
309
GRIDFORMAT_END
 95
       32
302
GRIDFORMAT
  1
GRIDFORMAT_BEGIN
 90
        0
 91
        1
 62
     0
 92
       -2
340
0
 93
        0
 40
1.125
309
GRIDFORMAT_END
309
TABLEFORMAT_END
  1
CELLSTYLE_BEGIN
 90
        2
 91
        1
300
_HEADER
309
CELLSTYLE_END
300
CELLSTYLE
  1
TABLEFORMAT_BEGIN
 90
        5
170
     1
 91
        0
 92
        0
 62
   257
 93
        1
300
CONTENTFORMAT
  1
CONTENTFORMAT_BEGIN
 90
        0
 91
        0
 92
      512
 93
        0
300

 40
0.0
140
1.0
 94
        2
 62
     0
340
11
144
4.5
309
CONTENTFORMAT_END
171
     1
301
MARGIN
  1
CELLMARGIN_BEGIN
 40
1.5
 40
1.5
 40
1.5
 40
1.5
 40
4.5
 40
4.5
309
CELLMARGIN_END
 94
        6
 95
        1
302
GRIDFORMAT
  1
GRIDFORMAT_BEGIN
 90
        0
 91
        1
 62
     0
 92
       -2
340
0
 93
        0
 40
1.125
309
GRIDFORMAT_END
 95
        2
302
GRIDFORMAT
  1
GRIDFORMAT_BEGIN
 90
        0
 91
        1
 62
     0
 92
       -2
340
0
 93
        0
 40
1.125
309
GRIDFORMAT_END
 95
        4
302
GRIDFORMAT
  1
GRIDFORMAT_BEGIN
 90
        0
 91
        1
 62
     0
 92
       -2
340
0
 93
        0
 40
1.125
309
GRIDFORMAT_END
 95
        8
302
GRIDFORMAT
  1
GRIDFORMAT_BEGIN
 90
        0
 91
        1
 62
     0
 92
       -2
340
0
 93
        0
 40
1.125
309
GRIDFORMAT_END
 95
       16
302
GRIDFORMAT
  1
GRIDFORMAT_BEGIN
 90
        0
 91
        1
 62
     0
 92
       -2
340
0
 93
        0
 40
1.125
309
GRIDFORMAT_END
 95
       32
302
GRIDFORMAT
  1
GRIDFORMAT_BEGIN
 90
        0
 91
        1
 62
     0
 92
       -2
340
0
 93
        0
 40
1.125
309
GRIDFORMAT_END
309
TABLEFORMAT_END
  1
CELLSTYLE_BEGIN
 90
        3
 91
        2
300
_DATA
309
CELLSTYLE_END
  0
ENDSEC
  0
EOF
