  0
SECTION
  2
HEADER
  9
$ACADVER
  1
AC1024
  9
$ACADMAINTVER
 70
     6
  9
$DWGCODEPAGE
  3
ANSI_932
  9
$LASTSAVEDBY
  1
kanatani
  9
$INSBASE
 10
0.0
 20
0.0
 30
0.0
  9
$EXTMIN
 10
-43.9799176300557
 20
-30.0
 30
0.0
  9
$EXTMAX
 10
43.97971654984206
 20
196.7285890688767
 30
0.0
  9
$LIMMIN
 10
0.0
 20
0.0
  9
$LIMMAX
 10
420.0
 20
297.0
  9
$ORTHOMODE
 70
     0
  9
$REGENMODE
 70
     1
  9
$FILLMODE
 70
     1
  9
$QTEXTMODE
 70
     0
  9
$MIRRTEXT
 70
     1
  9
$LTSCALE
 40
0.2
  9
$ATTMODE
 70
     1
  9
$TEXTSIZE
 40
2.5
  9
$TRACEWID
 40
1.0
  9
$TEXTSTYLE
  7
Standard
  9
$CLAYER
  8
0
  9
$CELTYPE
  6
ByLayer
  9
$CECOLOR
 62
   256
  9
$CELTSCALE
 40
1.0
  9
$DISPSILH
 70
     0
  9
$DIMSCALE
 40
1.0
  9
$DIMASZ
 40
2.5
  9
$DIMEXO
 40
0.625
  9
$DIMDLI
 40
3.75
  9
$DIMRND
 40
0.0
  9
$DIMDLE
 40
0.0
  9
$DIMEXE
 40
1.25
  9
$DIMTP
 40
0.0
  9
$DIMTM
 40
0.0
  9
$DIMTXT
 40
2.5
  9
$DIMCEN
 40
2.5
  9
$DIMTSZ
 40
0.0
  9
$DIMTOL
 70
     0
  9
$DIMLIM
 70
     0
  9
$DIMTIH
 70
     0
  9
$DIMTOH
 70
     0
  9
$DIMSE1
 70
     0
  9
$DIMSE2
 70
     0
  9
$DIMTAD
 70
     1
  9
$DIMZIN
 70
     8
  9
$DIMBLK
  1

  9
$DIMASO
 70
     1
  9
$DIMSHO
 70
     1
  9
$DIMPOST
  1

  9
$DIMAPOST
  1

  9
$DIMALT
 70
     0
  9
$DIMALTD
 70
     3
  9
$DIMALTF
 40
0.03937007874016
  9
$DIMLFAC
 40
1.0
  9
$DIMTOFL
 70
     1
  9
$DIMTVP
 40
0.0
  9
$DIMTIX
 70
     0
  9
$DIMSOXD
 70
     0
  9
$DIMSAH
 70
     0
  9
$DIMBLK1
  1

  9
$DIMBLK2
  1

  9
$DIMSTYLE
  2
ISO-25
  9
$DIMCLRD
 70
     0
  9
$DIMCLRE
 70
     0
  9
$DIMCLRT
 70
     0
  9
$DIMTFAC
 40
1.0
  9
$DIMGAP
 40
0.625
  9
$DIMJUST
 70
     0
  9
$DIMSD1
 70
     0
  9
$DIMSD2
 70
     0
  9
$DIMTOLJ
 70
     0
  9
$DIMTZIN
 70
     8
  9
$DIMALTZ
 70
     0
  9
$DIMALTTZ
 70
     0
  9
$DIMUPT
 70
     0
  9
$DIMDEC
 70
     2
  9
$DIMTDEC
 70
     2
  9
$DIMALTU
 70
     2
  9
$DIMALTTD
 70
     3
  9
$DIMTXSTY
  7
Standard
  9
$DIMAUNIT
 70
     0
  9
$DIMADEC
 70
     0
  9
$DIMALTRND
 40
0.0
  9
$DIMAZIN
 70
     0
  9
$DIMDSEP
 70
    44
  9
$DIMATFIT
 70
     3
  9
$DIMFRAC
 70
     0
  9
$DIMLDRBLK
  1

  9
$DIMLUNIT
 70
     2
  9
$DIMLWD
 70
    -2
  9
$DIMLWE
 70
    -2
  9
$DIMTMOVE
 70
     0
  9
$DIMFXL
 40
1.0
  9
$DIMFXLON
 70
     0
  9
$DIMJOGANG
 40
0.7853981633974483
  9
$DIMTFILL
 70
     0
  9
$DIMTFILLCLR
 70
     0
  9
$DIMARCSYM
 70
     0
  9
$DIMLTYPE
  6

  9
$DIMLTEX1
  6

  9
$DIMLTEX2
  6

  9
$DIMTXTDIRECTION
 70
     0
  9
$LUNITS
 70
     2
  9
$LUPREC
 70
     4
  9
$SKETCHINC
 40
1.0
  9
$FILLETRAD
 40
10.0
  9
$AUNITS
 70
     0
  9
$AUPREC
 70
     0
  9
$MENU
  1
.
  9
$ELEVATION
 40
0.0
  9
$PELEVATION
 40
0.0
  9
$THICKNESS
 40
0.0
  9
$LIMCHECK
 70
     0
  9
$CHAMFERA
 40
10.0
  9
$CHAMFERB
 40
10.0
  9
$CHAMFERC
 40
20.0
  9
$CHAMFERD
 40
0.0
  9
$SKPOLY
 70
     0
  9
$TDCREATE
 40
2456874.593217083
  9
$TDUCREATE
 40
2456874.218217083
  9
$TDUPDATE
 40
2456910.416406030
  9
$TDUUPDATE
 40
2456910.041406030
  9
$TDINDWG
 40
0.0098229167
  9
$TDUSRTIMER
 40
0.0098229051
  9
$USRTIMER
 70
     1
  9
$ANGBASE
 50
0.0
  9
$ANGDIR
 70
     0
  9
$PDMODE
 70
     0
  9
$PDSIZE
 40
0.0
  9
$PLINEWID
 40
0.0
  9
$SPLFRAME
 70
     0
  9
$SPLINETYPE
 70
     6
  9
$SPLINESEGS
 70
     8
  9
$HANDSEED
  5
2AC
  9
$SURFTAB1
 70
     6
  9
$SURFTAB2
 70
     6
  9
$SURFTYPE
 70
     6
  9
$SURFU
 70
     6
  9
$SURFV
 70
     6
  9
$UCSBASE
  2

  9
$UCSNAME
  2

  9
$UCSORG
 10
0.0
 20
0.0
 30
0.0
  9
$UCSXDIR
 10
1.0
 20
0.0
 30
0.0
  9
$UCSYDIR
 10
0.0
 20
1.0
 30
0.0
  9
$UCSORTHOREF
  2

  9
$UCSORTHOVIEW
 70
     0
  9
$UCSORGTOP
 10
0.0
 20
0.0
 30
0.0
  9
$UCSORGBOTTOM
 10
0.0
 20
0.0
 30
0.0
  9
$UCSORGLEFT
 10
0.0
 20
0.0
 30
0.0
  9
$UCSORGRIGHT
 10
0.0
 20
0.0
 30
0.0
  9
$UCSORGFRONT
 10
0.0
 20
0.0
 30
0.0
  9
$UCSORGBACK
 10
0.0
 20
0.0
 30
0.0
  9
$PUCSBASE
  2

  9
$PUCSNAME
  2

  9
$PUCSORG
 10
0.0
 20
0.0
 30
0.0
  9
$PUCSXDIR
 10
1.0
 20
0.0
 30
0.0
  9
$PUCSYDIR
 10
0.0
 20
1.0
 30
0.0
  9
$PUCSORTHOREF
  2

  9
$PUCSORTHOVIEW
 70
     0
  9
$PUCSORGTOP
 10
0.0
 20
0.0
 30
0.0
  9
$PUCSORGBOTTOM
 10
0.0
 20
0.0
 30
0.0
  9
$PUCSORGLEFT
 10
0.0
 20
0.0
 30
0.0
  9
$PUCSORGRIGHT
 10
0.0
 20
0.0
 30
0.0
  9
$PUCSORGFRONT
 10
0.0
 20
0.0
 30
0.0
  9
$PUCSORGBACK
 10
0.0
 20
0.0
 30
0.0
  9
$USERI1
 70
     0
  9
$USERI2
 70
     0
  9
$USERI3
 70
     0
  9
$USERI4
 70
     0
  9
$USERI5
 70
     0
  9
$USERR1
 40
0.0
  9
$USERR2
 40
0.0
  9
$USERR3
 40
0.0
  9
$USERR4
 40
0.0
  9
$USERR5
 40
0.0
  9
$WORLDVIEW
 70
     1
  9
$SHADEDGE
 70
     3
  9
$SHADEDIF
 70
    70
  9
$TILEMODE
 70
     1
  9
$MAXACTVP
 70
    64
  9
$PINSBASE
 10
0.0
 20
0.0
 30
0.0
  9
$PLIMCHECK
 70
     0
  9
$PEXTMIN
 10
26.66076962115563
 20
20.31135699206658
 30
-0.0015258207003583
  9
$PEXTMAX
 10
240.039213369355
 20
182.8886381005154
 30
0.0000000349246037
  9
$PLIMMIN
 10
-6.350006103515625
 20
-6.349999904632568
  9
$PLIMMAX
 10
273.0499877929688
 20
209.5499939918518
  9
$UNITMODE
 70
     0
  9
$VISRETAIN
 70
     1
  9
$PLINEGEN
 70
     0
  9
$PSLTSCALE
 70
     1
  9
$TREEDEPTH
 70
  3020
  9
$CMLSTYLE
  2
Standard
  9
$CMLJUST
 70
     0
  9
$CMLSCALE
 40
20.0
  9
$PROXYGRAPHICS
 70
     1
  9
$MEASUREMENT
 70
     1
  9
$CELWEIGHT
370
    -1
  9
$ENDCAPS
280
     0
  9
$JOINSTYLE
280
     0
  9
$LWDISPLAY
290
     0
  9
$INSUNITS
 70
     4
  9
$HYPERLINKBASE
  1

  9
$STYLESHEET
  1

  9
$XEDIT
290
     1
  9
$CEPSNTYPE
380
     0
  9
$PSTYLEMODE
290
     1
  9
$FINGERPRINTGUID
  2
{FDEAD578-A652-11D2-9A35-0060089B3A3F}
  9
$VERSIONGUID
  2
{76A615A8-1613-48EA-A95B-AB8F6269CE72}
  9
$EXTNAMES
290
     1
  9
$PSVPSCALE
 40
0.0
  9
$OLESTARTUP
290
     0
  9
$SORTENTS
280
   127
  9
$INDEXCTL
280
     0
  9
$HIDETEXT
280
     1
  9
$XCLIPFRAME
280
     2
  9
$HALOGAP
280
     0
  9
$OBSCOLOR
 70
   257
  9
$OBSLTYPE
280
     0
  9
$INTERSECTIONDISPLAY
280
     0
  9
$INTERSECTIONCOLOR
 70
   257
  9
$DIMASSOC
280
     2
  9
$PROJECTNAME
  1

  9
$CAMERADISPLAY
290
     0
  9
$LENSLENGTH
 40
50.0
  9
$CAMERAHEIGHT
 40
0.0
  9
$STEPSPERSEC
 40
2.0
  9
$STEPSIZE
 40
6.0
  9
$3DDWFPREC
 40
2.0
  9
$PSOLWIDTH
 40
0.25
  9
$PSOLHEIGHT
 40
4.0
  9
$LOFTANG1
 40
1.570796326794896
  9
$LOFTANG2
 40
1.570796326794896
  9
$LOFTMAG1
 40
0.0
  9
$LOFTMAG2
 40
0.0
  9
$LOFTPARAM
 70
     7
  9
$LOFTNORMALS
280
     1
  9
$LATITUDE
 40
37.795
  9
$LONGITUDE
 40
-122.394
  9
$NORTHDIRECTION
 40
0.0
  9
$TIMEZONE
 70
 -8000
  9
$LIGHTGLYPHDISPLAY
280
     1
  9
$TILEMODELIGHTSYNCH
280
     1
  9
$CMATERIAL
347
25B
  9
$SOLIDHIST
280
     1
  9
$SHOWHIST
280
     1
  9
$DWFFRAME
280
     2
  9
$DGNFRAME
280
     0
  9
$REALWORLDSCALE
290
     1
  9
$INTERFERECOLOR
 62
     1
  9
$INTERFEREOBJVS
345
27D
  9
$INTERFEREVPVS
346
27A
  9
$CSHADOW
280
     0
  9
$SHADOWPLANELOCATION
 40
0.0
  0
ENDSEC
  0
SECTION
  2
CLASSES
  0
CLASS
  1
ACDBDICTIONARYWDFLT
  2
AcDbDictionaryWithDefault
  3
ObjectDBX Classes
 90
        0
 91
        1
280
     0
281
     0
  0
CLASS
  1
DICTIONARYVAR
  2
AcDbDictionaryVar
  3
ObjectDBX Classes
 90
        0
 91
        9
280
     0
281
     0
  0
CLASS
  1
MATERIAL
  2
AcDbMaterial
  3
ObjectDBX Classes
 90
     1153
 91
        3
280
     0
281
     0
  0
CLASS
  1
VISUALSTYLE
  2
AcDbVisualStyle
  3
ObjectDBX Classes
 90
     4095
 91
       19
280
     0
281
     0
  0
CLASS
  1
TABLESTYLE
  2
AcDbTableStyle
  3
ObjectDBX Classes
 90
     4095
 91
        1
280
     0
281
     0
  0
CLASS
  1
SCALE
  2
AcDbScale
  3
ObjectDBX Classes
 90
     1153
 91
       17
280
     0
281
     0
  0
CLASS
  1
MLEADERSTYLE
  2
AcDbMLeaderStyle
  3
ACDB_MLEADERSTYLE_CLASS
 90
     4095
 91
        1
280
     0
281
     0
  0
CLASS
  1
CELLSTYLEMAP
  2
AcDbCellStyleMap
  3
ObjectDBX Classes
 90
     1152
 91
        1
280
     0
281
     0
  0
ENDSEC
  0
SECTION
  2
TABLES
  0
TABLE
  2
VPORT
  5
8
330
0
100
AcDbSymbolTable
 70
     1
  0
VPORT
  5
258
330
8
100
AcDbSymbolTableRecord
100
AcDbViewportTableRecord
  2
*Active
 70
     0
 10
0.0
 20
0.0
 11
1.0
 21
1.0
 12
0.0000754297895469
 22
89.2789889480173
 13
0.0
 23
0.0
 14
10.0
 24
10.0
 15
10.0
 25
10.0
 16
0.0
 26
0.0
 36
1.0
 17
0.0
 27
0.0
 37
0.0
 40
240.0075855554884
 41
1.857142857142857
 42
50.0
 43
0.0
 44
0.0
 50
0.0
 51
0.0
 71
     0
 72
   100
 73
     1
 74
     3
 75
     0
 76
     0
 77
     0
 78
     0
281
     0
 65
     1
110
0.0
120
0.0
130
0.0
111
1.0
121
0.0
131
0.0
112
0.0
122
1.0
132
0.0
 79
     0
146
0.0
348
279
 60
     3
 61
     5
292
     1
282
     1
141
0.0
142
0.0
 63
   250
421
  3355443
  0
ENDTAB
  0
TABLE
  2
LTYPE
  5
5
330
0
100
AcDbSymbolTable
 70
     3
  0
LTYPE
  5
14
330
5
100
AcDbSymbolTableRecord
100
AcDbLinetypeTableRecord
  2
ByBlock
 70
     0
  3

 72
    65
 73
     0
 40
0.0
  0
LTYPE
  5
15
330
5
100
AcDbSymbolTableRecord
100
AcDbLinetypeTableRecord
  2
ByLayer
 70
     0
  3

 72
    65
 73
     0
 40
0.0
  0
LTYPE
  5
16
330
5
100
AcDbSymbolTableRecord
100
AcDbLinetypeTableRecord
  2
Continuous
 70
     0
  3
Solid line
 72
    65
 73
     0
 40
0.0
  0
LTYPE
  5
8D
330
5
100
AcDbSymbolTableRecord
100
AcDbLinetypeTableRecord
  2
CENTER
 70
     0
  3
Center ____ _ ____ _ ____ _ ____ _ ____ _ ____
 72
    65
 73
     4
 40
50.8
 49
31.75
 74
     0
 49
-6.349999999999999
 74
     0
 49
6.349999999999999
 74
     0
 49
-6.349999999999999
 74
     0
  0
LTYPE
  5
8E
330
5
100
AcDbSymbolTableRecord
100
AcDbLinetypeTableRecord
  2
PHANTOM
 70
     0
  3
Phantom ______  __  __  ______  __  __  ______
 72
    65
 73
     6
 40
63.5
 49
31.75
 74
     0
 49
-6.349999999999999
 74
     0
 49
6.349999999999999
 74
     0
 49
-6.349999999999999
 74
     0
 49
6.349999999999999
 74
     0
 49
-6.349999999999999
 74
     0
  0
ENDTAB
  0
TABLE
  2
LAYER
  5
2
102
{ACAD_XDICTIONARY
360
97
102
}
330
0
100
AcDbSymbolTable
 70
     3
  0
LAYER
  5
10
102
{ACAD_XDICTIONARY
360
2A0
102
}
330
2
100
AcDbSymbolTableRecord
100
AcDbLayerTableRecord
  2
0
 70
     0
 62
     7
  6
Continuous
370
    -3
390
F
347
26B
  0
LAYER
  5
8F
102
{ACAD_XDICTIONARY
360
90
102
}
330
2
100
AcDbSymbolTableRecord
100
AcDbLayerTableRecord
  2
2
 70
     0
 62
     2
  6
PHANTOM
370
    -3
390
F
347
26B
1001
AcAecLayerStandard
1000

1000

1001
ACCMTRANSPARENCY
1071
        0
  0
LAYER
  5
92
102
{ACAD_XDICTIONARY
360
93
102
}
330
2
100
AcDbSymbolTableRecord
100
AcDbLayerTableRecord
  2
1
 70
     0
 62
     5
  6
CENTER
370
    -3
390
F
347
26B
1001
AcAecLayerStandard
1000

1000

1001
ACCMTRANSPARENCY
1071
        0
  0
ENDTAB
  0
TABLE
  2
STYLE
  5
3
330
0
100
AcDbSymbolTable
 70
     1
  0
STYLE
  5
11
330
3
100
AcDbSymbolTableRecord
100
AcDbTextStyleTableRecord
  2
Standard
 70
     0
 40
0.0
 41
1.0
 50
0.0
 71
     0
 42
2.5
  3
txt
  4

  0
ENDTAB
  0
TABLE
  2
VIEW
  5
6
330
0
100
AcDbSymbolTable
 70
     0
  0
ENDTAB
  0
TABLE
  2
UCS
  5
7
330
0
100
AcDbSymbolTable
 70
     0
  0
ENDTAB
  0
TABLE
  2
APPID
  5
9
330
0
100
AcDbSymbolTable
 70
     3
  0
APPID
  5
12
330
9
100
AcDbSymbolTableRecord
100
AcDbRegAppTableRecord
  2
ACAD
 70
     0
  0
APPID
  5
95
330
9
100
AcDbSymbolTableRecord
100
AcDbRegAppTableRecord
  2
AcAecLayerStandard
 70
     0
  0
APPID
  5
96
330
9
100
AcDbSymbolTableRecord
100
AcDbRegAppTableRecord
  2
ACCMTRANSPARENCY
 70
     0
  0
ENDTAB
  0
TABLE
  2
DIMSTYLE
  5
A
330
0
100
AcDbSymbolTable
 70
     1
100
AcDbDimStyleTable
 71
     0
  0
DIMSTYLE
105
27
330
A
100
AcDbSymbolTableRecord
100
AcDbDimStyleTableRecord
  2
ISO-25
 70
     0
 41
2.5
 42
0.625
 43
3.75
 44
1.25
 73
     0
 74
     0
 77
     1
 78
     8
140
2.5
141
2.5
143
0.03937007874016
147
0.625
171
     3
172
     1
271
     2
272
     2
274
     3
278
    44
283
     0
284
     8
340
11
  0
ENDTAB
  0
TABLE
  2
BLOCK_RECORD
  5
1
330
0
100
AcDbSymbolTable
 70
     1
  0
BLOCK_RECORD
  5
1F
330
1
100
AcDbSymbolTableRecord
100
AcDbBlockTableRecord
  2
*Model_Space
340
22
 70
     0
280
     1
281
     0
  0
BLOCK_RECORD
  5
55
330
1
100
AcDbSymbolTableRecord
100
AcDbBlockTableRecord
  2
*Paper_Space
340
56
 70
     0
280
     1
281
     0
  0
BLOCK_RECORD
  5
50
330
1
100
AcDbSymbolTableRecord
100
AcDbBlockTableRecord
  2
*Paper_Space0
340
51
 70
     0
280
     1
281
     0
  0
ENDTAB
  0
ENDSEC
  0
SECTION
  2
BLOCKS
  0
BLOCK
  5
20
330
1F
100
AcDbEntity
  8
0
100
AcDbBlockBegin
  2
*Model_Space
 70
     0
 10
0.0
 20
0.0
 30
0.0
  3
*Model_Space
  1

  0
ENDBLK
  5
21
330
1F
100
AcDbEntity
  8
0
100
AcDbBlockEnd
  0
BLOCK
  5
57
330
55
100
AcDbEntity
 67
     1
  8
0
100
AcDbBlockBegin
  2
*Paper_Space
 70
     0
 10
0.0
 20
0.0
 30
0.0
  3
*Paper_Space
  1

  0
ENDBLK
  5
58
330
55
100
AcDbEntity
 67
     1
  8
0
100
AcDbBlockEnd
  0
BLOCK
  5
52
330
50
100
AcDbEntity
 67
     1
  8
0
100
AcDbBlockBegin
  2
*Paper_Space0
 70
     0
 10
0.0
 20
0.0
 30
0.0
  3
*Paper_Space0
  1

  0
VIEWPORT
  5
6B
330
50
100
AcDbEntity
 67
     1
  8
0
100
AcDbViewport
 10
133.3499908447266
 20
101.5999970436096
 30
0.0
 40
381.3957395593835
 41
218.2856291881582
 68
     0
 69
     0
 12
133.3499908447266
 22
101.5999970436096
 13
0.0
 23
0.0
 14
10.0
 24
10.0
 15
10.0
 25
10.0
 16
0.0
 26
0.0
 36
1.0
 17
0.0
 27
0.0
 37
0.0
 42
50.0
 43
0.0
 44
0.0
 45
218.2856291881582
 50
0.0
 51
0.0
 72
   100
 90
    32800
  1

281
     0
 71
     1
 74
     0
110
0.0
120
0.0
130
0.0
111
1.0
121
0.0
131
0.0
112
0.0
122
1.0
132
0.0
 79
     0
146
0.0
170
     0
 61
     5
348
279
292
     1
282
     1
141
0.0
142
0.0
 63
   250
421
  3355443
  0
VIEWPORT
  5
6D
330
50
100
AcDbEntity
 67
     1
  8
0
100
AcDbViewport
 10
133.3499939441681
 20
101.5999939441681
 30
0.0
 40
213.3599903106689
 41
162.5599903106689
 68
     0
 69
     0
 12
210.0
 22
148.5
 13
0.0
 23
0.0
 14
10.0
 24
10.0
 15
10.0
 25
10.0
 16
0.0
 26
0.0
 36
1.0
 17
0.0
 27
0.0
 37
0.0
 42
50.0
 43
0.0
 44
0.0
 45
324.0677920111345
 50
0.0
 51
0.0
 72
   100
 90
    32864
  1

281
     0
 71
     1
 74
     0
110
0.0
120
0.0
130
0.0
111
1.0
121
0.0
131
0.0
112
0.0
122
1.0
132
0.0
 79
     0
146
0.0
170
     0
 61
     5
348
279
292
     1
282
     1
141
0.0
142
0.0
 63
   250
421
  3355443
  0
ENDBLK
  5
53
330
50
100
AcDbEntity
 67
     1
  8
0
100
AcDbBlockEnd
  0
ENDSEC
  0
SECTION
  2
ENTITIES
  0
LINE
  5
173
330
1F
100
AcDbEntity
  8
1
100
AcDbLine
 10
0.0
 20
29.5
 30
0.0
 11
0.0
 21
-30.0
 31
0.0
  0
LINE
  5
174
330
1F
100
AcDbEntity
  8
1
100
AcDbLine
 10
-43.9799176300557
 20
157.3427095522752
 30
0.0
 11
43.97971654984206
 21
157.3427095522752
 31
0.0
  0
LINE
  5
175
330
1F
100
AcDbEntity
  8
1
100
AcDbLine
 10
-0.0001005401068142
 20
117.9568300356736
 30
0.0
 11
-0.0001005401068142
 21
196.7285890688767
 31
0.0
  0
LINE
  5
176
330
1F
100
AcDbEntity
  8
0
100
AcDbLine
 10
30.99988420110412
 20
145.3427095522752
 30
0.0
 11
-0.0001005401068142
 21
145.3427095522752
 31
0.0
  0
LINE
  5
177
330
1F
100
AcDbEntity
  8
0
100
AcDbLine
 10
-12.00010054010675
 20
188.3427095522752
 30
0.0
 11
-12.00010054010678
 21
157.3427095522752
 31
0.0
  0
LINE
  5
178
330
1F
100
AcDbEntity
  8
0
100
AcDbLine
 10
-10.00010054010675
 20
189.3427095522752
 30
0.0
 11
-11.00010054010676
 21
189.3427095522752
 31
0.0
  0
LINE
  5
179
330
1F
100
AcDbEntity
  8
0
100
AcDbLine
 10
-0.0001005401067573
 20
169.3427095522752
 30
0.0
 11
-8.000100540106785
 21
169.3427095522752
 31
0.0
  0
LINE
  5
17A
330
1F
100
AcDbEntity
  8
0
100
AcDbLine
 10
-10.00010054010675
 20
189.3427095522752
 30
0.0
 11
-10.00010054010678
 21
171.3427095522752
 31
0.0
  0
LINE
  5
17B
330
1F
100
AcDbEntity
  8
0
100
AcDbLine
 10
11.99988420110412
 20
157.3427095522752
 30
0.0
 11
11.99988420110412
 21
149.3427095522752
 31
0.0
  0
LINE
  5
17C
330
1F
100
AcDbEntity
  8
0
100
AcDbLine
 10
31.99988420110412
 20
147.3427095522752
 30
0.0
 11
31.99988420110412
 21
146.3427095522752
 31
0.0
  0
LINE
  5
17D
330
1F
100
AcDbEntity
  8
0
100
AcDbLine
 10
31.99988420110412
 20
147.3427095522752
 30
0.0
 11
13.99988420110412
 21
147.3427095522752
 31
0.0
  0
LINE
  5
17E
330
1F
100
AcDbEntity
  8
0
100
AcDbLine
 10
1.250006891846169
 20
153.3427902496245
 30
0.0
 11
1.249941825176392
 21
161.3427902493598
 31
0.0
  0
LINE
  5
17F
330
1F
100
AcDbEntity
  8
0
100
AcDbLine
 10
1.732020562616526
 20
153.3427619874854
 30
0.0
 11
-0.0000106049515125
 21
150.3427394328674
 31
0.0
  0
LINE
  5
180
330
1F
100
AcDbEntity
  8
0
100
AcDbLine
 10
1.732001520736503
 20
153.3427941698476
 30
0.0
 11
1.250006891846169
 21
153.3427902496245
 31
0.0
  0
LINE
  5
181
330
1F
100
AcDbEntity
  8
0
100
AcDbLine
 10
-1.250023625649191
 20
153.342769916042
 30
0.0
 11
-1.250088692318968
 21
161.3427699157773
 31
0.0
  0
LINE
  5
182
330
1F
100
AcDbEntity
  8
0
100
AcDbLine
 10
-0.0001127308107698
 20
164.342743170757
 30
0.0
 11
1.731980661054876
 21
161.3427257075218
 31
0.0
  0
LINE
  5
183
330
1F
100
AcDbEntity
  8
0
100
AcDbLine
 10
-1.732050573397827
 20
153.3426882467444
 30
0.0
 11
0.0000313742150411
 21
150.3426906051645
 31
0.0
  0
LINE
  5
184
330
1F
100
AcDbEntity
  8
0
100
AcDbLine
 10
-1.250023625649191
 20
153.342769916042
 30
0.0
 11
-1.732079289695775
 21
153.3427659953224
 31
0.0
  0
LINE
  5
185
330
1F
100
AcDbEntity
  8
0
100
AcDbLine
 10
-1.250088692318968
 20
161.3427699157773
 30
0.0
 11
-1.732144356365552
 21
161.3427659950578
 31
0.0
  0
LINE
  5
186
330
1F
100
AcDbEntity
  8
0
100
AcDbLine
 10
-0.0001411651694525
 20
164.3426940855967
 30
0.0
 11
-1.732172499573607
 21
161.3426716272997
 31
0.0
  0
LINE
  5
187
330
1F
100
AcDbEntity
  8
0
100
AcDbLine
 10
1.731936454066726
 20
161.342794169583
 30
0.0
 11
1.249941825176392
 21
161.3427902493598
 31
0.0
  0
LINE
  5
188
330
1F
100
AcDbEntity
  8
0
100
AcDbLine
 10
-10.00010054010678
 20
173.3427095522752
 30
0.0
 11
-12.00010054010678
 21
173.3427095522752
 31
0.0
  0
LINE
  5
189
330
1F
100
AcDbEntity
  8
0
100
AcDbLine
 10
15.99988420110412
 20
147.3427095522752
 30
0.0
 11
15.99988420110412
 21
145.3427095522752
 31
0.0
  0
ARC
  5
18A
330
1F
100
AcDbEntity
  8
0
100
AcDbCircle
 10
13.99988420110412
 20
149.3427095522752
 30
0.0
 40
2.0
100
AcDbArc
 50
179.999991348572
 51
270.0000006832495
  0
CIRCLE
  5
18B
330
1F
100
AcDbEntity
  8
0
100
AcDbCircle
 10
-0.0001005401068142
 20
157.3427095522752
 30
0.0
 40
8.0
  0
CIRCLE
  5
18C
330
1F
100
AcDbEntity
  8
0
100
AcDbCircle
 10
-0.0001005401068142
 20
157.3427095522752
 30
0.0
 40
7.0
  0
ARC
  5
18D
330
1F
100
AcDbEntity
  8
0
100
AcDbCircle
 10
30.99988420110412
 20
146.3427095522752
 30
0.0
 40
1.0
100
AcDbArc
 50
269.9999974955248
 51
0.0000025044817295
  0
ARC
  5
18E
330
1F
100
AcDbEntity
  8
0
100
AcDbCircle
 10
-11.00010054010676
 20
188.3427095522752
 30
0.0
 40
1.0
100
AcDbArc
 50
89.99999567429256
 51
179.999991348572
  0
ARC
  5
18F
330
1F
100
AcDbEntity
  8
0
100
AcDbCircle
 10
-8.000100540106785
 20
171.3427095522752
 30
0.0
 40
2.0
100
AcDbArc
 50
179.999991348572
 51
270.0000006832495
  0
CIRCLE
  5
190
330
1F
100
AcDbEntity
  8
0
100
AcDbCircle
 10
-0.0001005401068142
 20
157.3427095522752
 30
0.0
 40
12.0
  0
LINE
  5
191
330
1F
100
AcDbEntity
  8
0
100
AcDbLine
 10
19.54315701799612
 20
147.3427054123808
 30
0.0
 11
14.61473192524772
 21
149.1365055121848
 31
0.0
  0
LINE
  5
192
330
1F
100
AcDbEntity
  8
0
100
AcDbLine
 10
-14.53577371094093
 20
125.3380403628221
 30
0.0
 11
-8.206363916453227
 21
142.7279502289482
 31
0.0
  0
LINE
  5
193
330
1F
100
AcDbEntity
  8
0
100
AcDbLine
 10
-35.02616525543894
 20
141.7074350569937
 30
0.0
 11
-14.61492878301109
 21
149.1365178435492
 31
0.0
  0
LINE
  5
194
330
1F
100
AcDbEntity
  8
1
100
AcDbLine
 10
-23.00010054010678
 20
153.6807228470247
 30
0.0
 11
-23.00010054010682
 21
97.91031627383246
 31
0.0
  0
LINE
  5
195
330
1F
100
AcDbEntity
  8
0
100
AcDbLine
 10
-37.00010054010681
 20
122.3380403628221
 30
0.0
 11
36.99989945989319
 21
122.3380403628221
 31
0.0
  0
LINE
  5
196
330
1F
100
AcDbEntity
  8
0
100
AcDbLine
 10
35.02596078030945
 20
141.7074254981239
 30
0.0
 11
25.03809906771062
 21
145.3427099956504
 31
0.0
  0
LINE
  5
197
330
1F
100
AcDbEntity
  8
0
100
AcDbLine
 10
14.53556662568167
 20
125.3380403628221
 30
0.0
 11
8.206159283172837
 21
142.7279434921913
 31
0.0
  0
LINE
  5
198
330
1F
100
AcDbEntity
  8
0
100
AcDbLine
 10
-37.00010054010679
 20
138.8883638491502
 30
0.0
 11
-37.00010054010681
 21
122.3380403628221
 31
0.0
  0
LINE
  5
199
330
1F
100
AcDbEntity
  8
0
100
AcDbLine
 10
36.99989945989319
 20
125.3380403628221
 30
0.0
 11
-37.00010054010679
 21
125.3380403628221
 31
0.0
  0
LINE
  5
19A
330
1F
100
AcDbEntity
  8
0
100
AcDbLine
 10
36.99989945989319
 20
138.8883638491502
 30
0.0
 11
36.99989945989319
 21
122.3380403628221
 31
0.0
  0
ARC
  5
19B
330
1F
100
AcDbEntity
  8
0
100
AcDbCircle
 10
12.90462358098693
 20
144.4380464663377
 30
0.0
 40
5.0
100
AcDbArc
 50
169.5759069014612
 51
200.0000010120484
  0
ARC
  5
19C
330
1F
100
AcDbEntity
  8
0
100
AcDbCircle
 10
12.90462358098693
 20
144.4380464663377
 30
0.0
 40
5.0
100
AcDbArc
 50
69.99999967119784
 51
100.4247972912599
  0
ARC
  5
19D
330
1F
100
AcDbEntity
  8
0
100
AcDbCircle
 10
-34.00010054010679
 20
138.8883638491502
 30
0.0
 40
3.0
100
AcDbArc
 50
110.0000003288021
 51
180.0
  0
ARC
  5
19E
330
1F
100
AcDbEntity
  8
0
100
AcDbCircle
 10
33.99989945989319
 20
138.8883638491502
 30
0.0
 40
3.0
100
AcDbArc
 50
359.9999949910495
 51
70.0000014924285
  0
ARC
  5
19F
330
1F
100
AcDbEntity
  8
0
100
AcDbCircle
 10
-12.90482466120053
 20
144.4380464663377
 30
0.0
 40
5.0
100
AcDbArc
 50
340.0000005818114
 51
110.0000189981357
  0
LINE
  5
1A2
330
1F
100
AcDbEntity
  8
1
100
AcDbLine
 10
22.99989945989318
 20
153.6807228470247
 30
0.0
 11
22.99989945989318
 21
97.91031627383246
 31
0.0
  0
LINE
  5
1A3
330
1F
100
AcDbEntity
  8
0
100
AcDbLine
 10
35.99990327459045
 20
125.3427095522752
 30
0.0
 11
33.7100473175592
 21
125.3427095522752
 31
0.0
  0
LINE
  5
1A4
330
1F
100
AcDbEntity
  8
0
100
AcDbLine
 10
12.0
 20
10.00000000000023
 30
0.0
 11
12.0
 21
7.799987308585741
 31
0.0
  0
LINE
  5
1A5
330
1F
100
AcDbEntity
  8
0
100
AcDbLine
 10
36.99999999999994
 20
37.00000000000023
 30
0.0
 11
36.99999999999994
 21
0.0
 31
0.0
  0
LINE
  5
1A6
330
1F
100
AcDbEntity
  8
0
100
AcDbLine
 10
-7.904768961433205
 20
2.0
 30
0.0
 11
7.904768961433148
 21
2.000000000000227
 31
0.0
  0
LINE
  5
1A7
330
1F
100
AcDbEntity
  8
0
100
AcDbLine
 10
-12.0
 20
9.958038330078352
 30
0.0
 11
-12.0
 21
7.799987308585741
 31
0.0
  0
LINE
  5
1A8
330
1F
100
AcDbEntity
  8
0
100
AcDbLine
 10
14.49999999999994
 20
7.000000000000227
 30
0.0
 11
14.49999999999994
 21
0.0
 31
0.0
  0
LINE
  5
1A9
330
1F
100
AcDbEntity
  8
0
100
AcDbLine
 10
7.0
 20
0.0
 30
0.0
 11
7.0
 21
2.0
 31
0.0
  0
LINE
  5
1AA
330
1F
100
AcDbEntity
  8
0
100
AcDbLine
 10
-37.0
 20
0.0
 30
0.0
 11
36.99999999999994
 21
0.0
 31
0.0
  0
LINE
  5
1AB
330
1F
100
AcDbEntity
  8
0
100
AcDbLine
 10
-7.0
 20
0.0
 30
0.0
 11
-7.0
 21
2.0
 31
0.0
  0
LINE
  5
1AC
330
1F
100
AcDbEntity
  8
0
100
AcDbLine
 10
-14.5
 20
3.0
 30
0.0
 11
-7.904768961433092
 21
3.0
 31
0.0
  0
LINE
  5
1AD
330
1F
100
AcDbEntity
  8
0
100
AcDbLine
 10
-34.0
 20
40.00000000000023
 30
0.0
 11
33.99999999999995
 21
40.00000000000023
 31
0.0
  0
LINE
  5
1AE
330
1F
100
AcDbEntity
  8
0
100
AcDbLine
 10
-37.0
 20
37.00000000000023
 30
0.0
 11
-37.0
 21
0.0
 31
0.0
  0
LINE
  5
1AF
330
1F
100
AcDbEntity
  8
0
100
AcDbLine
 10
-11.5
 20
10.00000000000023
 30
0.0
 11
11.5
 21
10.00000000000023
 31
0.0
  0
LINE
  5
1B0
330
1F
100
AcDbEntity
  8
0
100
AcDbLine
 10
-14.5
 20
7.000000000000227
 30
0.0
 11
-14.5
 21
0.0
 31
0.0
  0
LINE
  5
1B1
330
1F
100
AcDbEntity
  8
1
100
AcDbLine
 10
22.99998474121094
 20
38.66459281504353
 30
0.0
 11
22.99998474121094
 21
13.33540718495715
 31
0.0
  0
ARC
  5
1B2
330
1F
100
AcDbEntity
  8
0
100
AcDbCircle
 10
11.5
 20
7.000000000000227
 30
0.0
 40
3.0
100
AcDbArc
 50
0.0
 51
90.0000025044752
  0
ARC
  5
1B3
330
1F
100
AcDbEntity
  8
0
100
AcDbCircle
 10
33.99999999999995
 20
37.00000000000023
 30
0.0
 40
3.0
100
AcDbArc
 50
0.0
 51
90.0000025044752
  0
ARC
  5
1B4
330
1F
100
AcDbEntity
  8
0
100
AcDbCircle
 10
-34.0
 20
37.00000000000023
 30
0.0
 40
3.0
100
AcDbArc
 50
90.0000025044752
 51
180.0000050089504
  0
ARC
  5
1B5
330
1F
100
AcDbEntity
  8
0
100
AcDbCircle
 10
-11.5
 20
7.000000000000227
 30
0.0
 40
3.0
100
AcDbArc
 50
90.0000025044752
 51
180.0000050089504
  0
LINE
  5
1B6
330
1F
100
AcDbEntity
  8
0
100
AcDbLine
 10
-7.904768961433205
 20
3.0
 30
0.0
 11
-7.904768961433205
 21
0.0
 31
0.0
  0
LINE
  5
1B7
330
1F
100
AcDbEntity
  8
0
100
AcDbLine
 10
-8.285982235743745
 20
2.999982925447056
 30
0.0
 11
-14.5
 21
3.0
 31
0.0
  0
LINE
  5
1B8
330
1F
100
AcDbEntity
  8
0
100
AcDbLine
 10
7.904768961433148
 20
2.999981877969275
 30
0.0
 11
7.904768961433148
 21
0.0
 31
0.0
  0
LINE
  5
1B9
330
1F
100
AcDbEntity
  8
0
100
AcDbLine
 10
7.904768961433148
 20
2.999981877969275
 30
0.0
 11
14.49999999999994
 21
3.0
 31
0.0
  0
CIRCLE
  5
1BA
330
1F
100
AcDbEntity
  8
0
100
AcDbCircle
 10
-21.21332853956167
 20
136.1295306805657
 30
0.0
 40
3.5
  0
CIRCLE
  5
1BB
330
1F
100
AcDbEntity
  8
0
100
AcDbCircle
 10
21.21305262537646
 20
136.1294558466848
 30
0.0
 40
3.5
  0
CIRCLE
  5
1BC
330
1F
100
AcDbEntity
  8
0
100
AcDbCircle
 10
22.99998474121094
 20
26.00000000000023
 30
0.0
 40
9.25
  0
CIRCLE
  5
1BD
330
1F
100
AcDbEntity
  8
0
100
AcDbCircle
 10
-23.0
 20
26.00000000000023
 30
0.0
 40
9.25
  0
LINE
  5
1BE
330
1F
100
AcDbEntity
  8
1
100
AcDbLine
 10
10.33539192616774
 20
26.00000000000023
 30
0.0
 11
35.66457755625402
 21
26.00000000000023
 31
0.0
  0
LINE
  5
1BF
330
1F
100
AcDbEntity
  8
1
100
AcDbLine
 10
-23.0
 20
38.66459281504353
 30
0.0
 11
-23.0
 21
13.33540718495715
 31
0.0
  0
LINE
  5
1C0
330
1F
100
AcDbEntity
  8
1
100
AcDbLine
 10
-35.66459281504319
 20
26.00000000000023
 30
0.0
 11
-10.33540718495692
 21
26.00000000000023
 31
0.0
  0
LINE
  5
1C1
330
1F
100
AcDbEntity
  8
2
100
AcDbLine
 10
-32.00006800357949
 20
118.3380403628221
 30
0.0
 11
-32.00006800357949
 21
100.3380403628221
 31
0.0
  0
LINE
  5
1C2
330
1F
100
AcDbEntity
  8
2
100
AcDbLine
 10
-14.00006800357948
 20
118.3380403628221
 30
0.0
 11
-14.00006800357948
 21
100.3380403628221
 31
0.0
  0
LINE
  5
1C3
330
1F
100
AcDbEntity
  8
2
100
AcDbLine
 10
-14.00006800357946
 20
142.3379488100877
 30
0.0
 11
-32.00006800357946
 21
142.3379488100877
 31
0.0
  0
LINE
  5
1C4
330
1F
100
AcDbEntity
  8
2
100
AcDbLine
 10
-14.00006800357946
 20
142.3379488100877
 30
0.0
 11
-14.00006800357946
 21
129.3380403628221
 31
0.0
  0
LINE
  5
1C5
330
1F
100
AcDbEntity
  8
2
100
AcDbLine
 10
-32.00006800357946
 20
142.3379488100877
 30
0.0
 11
-32.00006800357946
 21
129.3380403628221
 31
0.0
  0
LINE
  5
1C6
330
1F
100
AcDbEntity
  8
2
100
AcDbLine
 10
-14.00006800357948
 20
100.3380403628221
 30
0.0
 11
-32.00006800357949
 21
100.3380403628221
 31
0.0
  0
LINE
  5
1C7
330
1F
100
AcDbEntity
  8
2
100
AcDbLine
 10
-11.50009393642594
 20
129.3380403628221
 30
0.0
 11
-34.50009393642594
 21
129.3380403628221
 31
0.0
  0
ARC
  5
1C8
330
1F
100
AcDbEntity
  8
2
100
AcDbCircle
 10
-17.00009393642597
 20
111.719085058867
 30
0.0
 40
17.33028030395508
100
AcDbArc
 50
69.74444580078311
 51
110.2555541992169
  0
ARC
  5
1C9
330
1F
100
AcDbEntity
  8
2
100
AcDbCircle
 10
-29.00009393642597
 20
111.719085058867
 30
0.0
 40
17.33028030395508
100
AcDbArc
 50
69.74444580078311
 51
110.2555541992169
  0
LINE
  5
1CA
330
1F
100
AcDbEntity
  8
2
100
AcDbLine
 10
-35.00009393642594
 20
125.3380403628221
 30
0.0
 11
-35.00009393642594
 21
129.049365362822
 31
0.0
  0
LINE
  5
1CB
330
1F
100
AcDbEntity
  8
2
100
AcDbLine
 10
-35.00009393642594
 20
129.049365362822
 30
0.0
 11
-34.50009393642594
 21
129.3380403628221
 31
0.0
  0
LINE
  5
1CC
330
1F
100
AcDbEntity
  8
2
100
AcDbLine
 10
-23.00009393642594
 20
125.3380403628221
 30
0.0
 11
-23.00009393642594
 21
127.9775728228221
 31
0.0
  0
LINE
  5
1CD
330
1F
100
AcDbEntity
  8
2
100
AcDbLine
 10
-11.00009393642597
 20
125.3380403628221
 30
0.0
 11
-11.00009393642594
 21
129.049365362822
 31
0.0
  0
LINE
  5
1CE
330
1F
100
AcDbEntity
  8
2
100
AcDbLine
 10
-11.00009393642594
 20
129.049365362822
 30
0.0
 11
-11.50009393642594
 21
129.3380403628221
 31
0.0
  0
LINE
  5
1CF
330
1F
100
AcDbEntity
  8
2
100
AcDbLine
 10
-11.50010054010675
 20
118.3380403628221
 30
0.0
 11
-34.50010054010676
 21
118.3380403628221
 31
0.0
  0
ARC
  5
1D0
330
1F
100
AcDbEntity
  8
2
100
AcDbCircle
 10
-17.00010054010678
 20
135.9569956667771
 30
0.0
 40
17.33028030395508
100
AcDbArc
 50
249.7440290212143
 51
290.2555541992169
  0
ARC
  5
1D1
330
1F
100
AcDbEntity
  8
2
100
AcDbCircle
 10
-29.00010054010678
 20
135.9569956667771
 30
0.0
 40
17.33028030395508
100
AcDbArc
 50
249.7444458007831
 51
290.2559709787857
  0
LINE
  5
1D2
330
1F
100
AcDbEntity
  8
2
100
AcDbLine
 10
-35.00010054010682
 20
118.6267153628221
 30
0.0
 11
-35.00010054010682
 21
122.3380403628221
 31
0.0
  0
LINE
  5
1D3
330
1F
100
AcDbEntity
  8
2
100
AcDbLine
 10
-35.00010054010676
 20
118.6267153628221
 30
0.0
 11
-34.50010054010676
 21
118.3380403628221
 31
0.0
  0
LINE
  5
1D4
330
1F
100
AcDbEntity
  8
2
100
AcDbLine
 10
-23.00010054010682
 20
119.6985020276465
 30
0.0
 11
-23.00010054010682
 21
122.3380403628221
 31
0.0
  0
LINE
  5
1D5
330
1F
100
AcDbEntity
  8
2
100
AcDbLine
 10
-11.00010054010681
 20
118.6267153628221
 30
0.0
 11
-11.00010054010681
 21
122.3380403628221
 31
0.0
  0
LINE
  5
1D6
330
1F
100
AcDbEntity
  8
2
100
AcDbLine
 10
-11.00010054010676
 20
118.6267153628221
 30
0.0
 11
-11.50010054010675
 21
118.3380403628221
 31
0.0
  0
LINE
  5
1D7
330
1F
100
AcDbEntity
  8
2
100
AcDbLine
 10
-19.99998593944633
 20
100.3380728993495
 30
0.0
 11
-19.99998593944633
 21
94.59061109629942
 31
0.0
  0
LINE
  5
1D8
330
1F
100
AcDbEntity
  8
2
100
AcDbLine
 10
-25.99998593944633
 20
100.3380728993495
 30
0.0
 11
-25.99998593944633
 21
94.59061109629942
 31
0.0
  0
LINE
  5
1D9
330
1F
100
AcDbEntity
  8
2
100
AcDbLine
 10
13.99993199642051
 20
118.3380403628221
 30
0.0
 11
13.99993199642051
 21
100.3380403628221
 31
0.0
  0
LINE
  5
1DA
330
1F
100
AcDbEntity
  8
2
100
AcDbLine
 10
31.99993199642051
 20
118.3380403628221
 30
0.0
 11
31.99993199642051
 21
100.3380403628221
 31
0.0
  0
LINE
  5
1DB
330
1F
100
AcDbEntity
  8
2
100
AcDbLine
 10
31.99993199642051
 20
142.3379488100877
 30
0.0
 11
13.99993199642051
 21
142.3379488100877
 31
0.0
  0
LINE
  5
1DC
330
1F
100
AcDbEntity
  8
2
100
AcDbLine
 10
31.99993199642051
 20
142.3379488100877
 30
0.0
 11
31.99993199642051
 21
129.3380403628221
 31
0.0
  0
LINE
  5
1DD
330
1F
100
AcDbEntity
  8
2
100
AcDbLine
 10
13.99993199642051
 20
142.3379488100877
 30
0.0
 11
13.99993199642051
 21
129.3380403628221
 31
0.0
  0
LINE
  5
1DE
330
1F
100
AcDbEntity
  8
2
100
AcDbLine
 10
31.99993199642051
 20
100.3380403628221
 30
0.0
 11
13.99993199642051
 21
100.3380403628221
 31
0.0
  0
LINE
  5
1DF
330
1F
100
AcDbEntity
  8
2
100
AcDbLine
 10
34.49990606357403
 20
129.3380403628221
 30
0.0
 11
11.49990606357403
 21
129.3380403628221
 31
0.0
  0
ARC
  5
1E0
330
1F
100
AcDbEntity
  8
2
100
AcDbCircle
 10
28.99990606357403
 20
111.719085058867
 30
0.0
 40
17.33028030395508
100
AcDbArc
 50
69.74444580078311
 51
110.2555541992169
  0
ARC
  5
1E1
330
1F
100
AcDbEntity
  8
2
100
AcDbCircle
 10
16.99990606357403
 20
111.719085058867
 30
0.0
 40
17.33028030395508
100
AcDbArc
 50
69.74444580078311
 51
110.2555541992169
  0
LINE
  5
1E2
330
1F
100
AcDbEntity
  8
2
100
AcDbLine
 10
10.99990606357403
 20
125.3380403628221
 30
0.0
 11
10.99990606357403
 21
129.049365362822
 31
0.0
  0
LINE
  5
1E3
330
1F
100
AcDbEntity
  8
2
100
AcDbLine
 10
10.99990606357403
 20
129.049365362822
 30
0.0
 11
11.49990606357403
 21
129.3380403628221
 31
0.0
  0
LINE
  5
1E4
330
1F
100
AcDbEntity
  8
2
100
AcDbLine
 10
22.99990606357403
 20
125.3380403628221
 30
0.0
 11
22.99990606357403
 21
127.9775728228221
 31
0.0
  0
LINE
  5
1E5
330
1F
100
AcDbEntity
  8
2
100
AcDbLine
 10
34.99990606357403
 20
125.3380403628221
 30
0.0
 11
34.99990606357403
 21
129.049365362822
 31
0.0
  0
LINE
  5
1E6
330
1F
100
AcDbEntity
  8
2
100
AcDbLine
 10
34.99990606357403
 20
129.049365362822
 30
0.0
 11
34.49990606357403
 21
129.3380403628221
 31
0.0
  0
LINE
  5
1E7
330
1F
100
AcDbEntity
  8
2
100
AcDbLine
 10
34.49989945989319
 20
118.3380403628221
 30
0.0
 11
11.49989945989318
 21
118.3380403628221
 31
0.0
  0
ARC
  5
1E8
330
1F
100
AcDbEntity
  8
2
100
AcDbCircle
 10
28.99989945989318
 20
135.9569956667771
 30
0.0
 40
17.33028030395508
100
AcDbArc
 50
249.7440290212143
 51
290.2555541992169
  0
ARC
  5
1E9
330
1F
100
AcDbEntity
  8
2
100
AcDbCircle
 10
16.99989945989318
 20
135.9569956667771
 30
0.0
 40
17.33028030395508
100
AcDbArc
 50
249.7444458007831
 51
290.2559709787857
  0
LINE
  5
1EA
330
1F
100
AcDbEntity
  8
2
100
AcDbLine
 10
10.99989945989318
 20
118.6267153628221
 30
0.0
 11
10.99989945989318
 21
122.3380403628221
 31
0.0
  0
LINE
  5
1EB
330
1F
100
AcDbEntity
  8
2
100
AcDbLine
 10
10.99989945989318
 20
118.6267153628221
 30
0.0
 11
11.49989945989318
 21
118.3380403628221
 31
0.0
  0
LINE
  5
1EC
330
1F
100
AcDbEntity
  8
2
100
AcDbLine
 10
22.99989945989318
 20
119.6985020276465
 30
0.0
 11
22.99989945989318
 21
122.3380403628221
 31
0.0
  0
LINE
  5
1ED
330
1F
100
AcDbEntity
  8
2
100
AcDbLine
 10
34.99989945989319
 20
118.6267153628221
 30
0.0
 11
34.99989945989319
 21
122.3380403628221
 31
0.0
  0
LINE
  5
1EE
330
1F
100
AcDbEntity
  8
2
100
AcDbLine
 10
34.99989945989319
 20
118.6267153628221
 30
0.0
 11
34.49989945989319
 21
118.3380403628221
 31
0.0
  0
LINE
  5
1EF
330
1F
100
AcDbEntity
  8
2
100
AcDbLine
 10
26.00001406055367
 20
100.3380728993495
 30
0.0
 11
26.00001406055367
 21
94.59061109629942
 31
0.0
  0
LINE
  5
1F0
330
1F
100
AcDbEntity
  8
2
100
AcDbLine
 10
20.00001406055367
 20
100.3380728993495
 30
0.0
 11
20.00001406055367
 21
94.59061109629942
 31
0.0
  0
LINE
  5
1F1
330
1F
100
AcDbEntity
  8
2
100
AcDbLine
 10
-33.50001456545704
 20
19.93783326642301
 30
0.0
 11
-22.99996913082941
 21
13.87566000003971
 31
0.0
  0
LINE
  5
1F2
330
1F
100
AcDbEntity
  8
2
100
AcDbLine
 10
-23.00003086929792
 20
38.12438999996084
 30
0.0
 11
-33.50001543465305
 21
32.06218326646035
 31
0.0
  0
LINE
  5
1F3
330
1F
100
AcDbEntity
  8
2
100
AcDbLine
 10
-12.49998456547428
 20
19.9378667335402
 30
0.0
 11
-12.50001543461928
 21
32.06219673350074
 31
0.0
  0
LINE
  5
1F4
330
1F
100
AcDbEntity
  8
2
100
AcDbLine
 10
-22.99996913088035
 20
13.87568000003944
 30
0.0
 11
-12.49997456552512
 21
19.93788673356562
 31
0.0
  0
LINE
  5
1F5
330
1F
100
AcDbEntity
  8
2
100
AcDbLine
 10
-33.5000154345513
 20
32.06214326646
 30
0.0
 11
-33.49998456540618
 21
19.93781326649946
 31
0.0
  0
LINE
  5
1F6
330
1F
100
AcDbEntity
  8
2
100
AcDbLine
 10
-12.5000354346954
 20
32.06222673345019
 30
0.0
 11
-22.99998086914525
 21
38.12433000008809
 31
0.0
  0
CIRCLE
  5
1F7
330
1F
100
AcDbEntity
  8
2
100
AcDbCircle
 10
-22.9999999999236
 20
25.99997000000008
 30
0.0
 40
8.0
  0
CIRCLE
  5
1F8
330
1F
100
AcDbEntity
  8
2
100
AcDbCircle
 10
-22.9999999999236
 20
25.99997000000008
 30
0.0
 40
10.5
  0
LINE
  5
1F9
330
1F
100
AcDbEntity
  8
2
100
AcDbLine
 10
12.4999701757539
 20
19.93783326642301
 30
0.0
 11
23.00001561038141
 21
13.87566000003971
 31
0.0
  0
LINE
  5
1FA
330
1F
100
AcDbEntity
  8
2
100
AcDbLine
 10
22.99995387191302
 20
38.12438999996084
 30
0.0
 11
12.49996930655777
 21
32.06218326646035
 31
0.0
  0
LINE
  5
1FB
330
1F
100
AcDbEntity
  8
2
100
AcDbLine
 10
33.50000017573666
 20
19.9378667335402
 30
0.0
 11
33.49996930659159
 21
32.06219673350074
 31
0.0
  0
LINE
  5
1FC
330
1F
100
AcDbEntity
  8
2
100
AcDbLine
 10
23.00001561033054
 20
13.87568000003944
 30
0.0
 11
33.5000101756857
 21
19.93788673356562
 31
0.0
  0
LINE
  5
1FD
330
1F
100
AcDbEntity
  8
2
100
AcDbLine
 10
12.49996930665963
 20
32.06214326646
 30
0.0
 11
12.50000017580475
 21
19.93781326649946
 31
0.0
  0
LINE
  5
1FE
330
1F
100
AcDbEntity
  8
2
100
AcDbLine
 10
33.49994930651547
 20
32.06222673345019
 30
0.0
 11
23.00000387206569
 21
38.12433000008809
 31
0.0
  0
CIRCLE
  5
1FF
330
1F
100
AcDbEntity
  8
2
100
AcDbCircle
 10
22.99998474128728
 20
25.99997000000008
 30
0.0
 40
8.0
  0
CIRCLE
  5
200
330
1F
100
AcDbEntity
  8
2
100
AcDbCircle
 10
22.99998474128728
 20
25.99997000000008
 30
0.0
 40
10.5
  0
CIRCLE
  5
201
330
1F
100
AcDbEntity
  8
2
100
AcDbCircle
 10
-23.00010054010682
 20
26.00000000000023
 30
0.0
 40
3.000114600836915
  0
CIRCLE
  5
202
330
1F
100
AcDbEntity
  8
2
100
AcDbCircle
 10
22.99988420110407
 20
26.00000000000023
 30
0.0
 40
3.000114600836915
  0
LINE
  5
203
330
1F
100
AcDbEntity
  8
1
100
AcDbLine
 10
-18.25954312212269
 20
175.6021879366853
 30
0.0
 11
25.91329088622251
 21
131.4292673159908
 31
0.0
  0
LINE
  5
204
330
1F
100
AcDbEntity
  8
1
100
AcDbLine
 10
-25.12387891509118
 20
132.2189311772906
 30
0.0
 11
18.73330371203229
 21
176.0761138044145
 31
0.0
  0
CIRCLE
  5
205
330
1F
100
AcDbEntity
  8
1
100
AcDbCircle
 10
-0.0001005401068142
 20
157.3427095522752
 30
0.0
 40
18.25003623962402
  0
CIRCLE
  5
206
330
1F
100
AcDbEntity
  8
2
100
AcDbCircle
 10
-12.90482466120053
 20
170.2474947085252
 30
0.0
 40
2.099999904632568
  0
CIRCLE
  5
207
330
1F
100
AcDbEntity
  8
2
100
AcDbCircle
 10
18.24989945989318
 20
157.3427095522752
 30
0.0
 40
2.099999904632568
  0
CIRCLE
  5
208
330
1F
100
AcDbEntity
  8
2
100
AcDbCircle
 10
-18.25010054010678
 20
157.3427095522752
 30
0.0
 40
2.099999904632568
  0
CIRCLE
  5
209
330
1F
100
AcDbEntity
  8
2
100
AcDbCircle
 10
-0.0001005401068142
 20
157.3427095522752
 30
0.0
 40
31.75
  0
CIRCLE
  5
20A
330
1F
100
AcDbEntity
  8
2
100
AcDbCircle
 10
-12.90482466120053
 20
170.2474947085252
 30
0.0
 40
2.5
  0
CIRCLE
  5
20B
330
1F
100
AcDbEntity
  8
2
100
AcDbCircle
 10
12.90462358098693
 20
170.2474947085252
 30
0.0
 40
2.5
  0
CIRCLE
  5
20C
330
1F
100
AcDbEntity
  8
2
100
AcDbCircle
 10
12.90462358098693
 20
170.2474947085252
 30
0.0
 40
2.099999904632568
  0
CIRCLE
  5
20D
330
1F
100
AcDbEntity
  8
2
100
AcDbCircle
 10
-18.25010054010678
 20
157.3427095522752
 30
0.0
 40
4.999969482421875
  0
CIRCLE
  5
20E
330
1F
100
AcDbEntity
  8
2
100
AcDbCircle
 10
18.24989945989318
 20
157.3427095522752
 30
0.0
 40
4.999969482421875
  0
LINE
  5
20F
330
1F
100
AcDbEntity
  8
2
100
AcDbLine
 10
13.63111593080202
 20
157.3426862335472
 30
0.0
 11
15.94053368649884
 21
161.3427150505222
 31
0.0
  0
LINE
  5
210
330
1F
100
AcDbEntity
  8
2
100
AcDbLine
 10
15.94052560430236
 20
161.3427400698533
 30
0.0
 11
20.55933053594299
 21
161.3427400698533
 31
0.0
  0
LINE
  5
211
330
1F
100
AcDbEntity
  8
2
100
AcDbLine
 10
22.86873999250975
 20
157.3427053788055
 30
0.0
 11
20.55933749560211
 21
161.3427077667829
 31
0.0
  0
LINE
  5
212
330
1F
100
AcDbEntity
  8
2
100
AcDbLine
 10
20.55931912999028
 20
153.3426861797025
 30
0.0
 11
22.8687368856871
 21
157.3427149966773
 31
0.0
  0
LINE
  5
213
330
1F
100
AcDbEntity
  8
2
100
AcDbLine
 10
15.94052560430236
 20
153.3427095522752
 30
0.0
 11
20.55933053594299
 21
153.3427095522752
 31
0.0
  0
LINE
  5
214
330
1F
100
AcDbEntity
  8
2
100
AcDbLine
 10
13.63113429641385
 20
157.3427077129381
 30
0.0
 11
15.94053679332148
 21
153.3427053249606
 31
0.0
  0
CIRCLE
  5
215
330
1F
100
AcDbEntity
  8
2
100
AcDbCircle
 10
18.24993569951721
 20
157.3427095522752
 30
0.0
 40
4.0
  0
CIRCLE
  5
216
330
1F
100
AcDbEntity
  8
2
100
AcDbCircle
 10
18.24993569951721
 20
157.3427095522752
 30
0.0
 40
2.5
  0
LINE
  5
217
330
1F
100
AcDbEntity
  8
2
100
AcDbLine
 10
-22.86895654844599
 20
157.3426862335472
 30
0.0
 11
-20.55953879274918
 21
161.3427150505222
 31
0.0
  0
LINE
  5
218
330
1F
100
AcDbEntity
  8
2
100
AcDbLine
 10
-20.55954687494566
 20
161.3427400698533
 30
0.0
 11
-15.94074194330502
 21
161.3427400698533
 31
0.0
  0
LINE
  5
219
330
1F
100
AcDbEntity
  8
2
100
AcDbLine
 10
-13.63133248673827
 20
157.3427053788055
 30
0.0
 11
-15.94073498364591
 21
161.3427077667829
 31
0.0
  0
LINE
  5
21A
330
1F
100
AcDbEntity
  8
2
100
AcDbLine
 10
-15.94075334925773
 20
153.3426861797025
 30
0.0
 11
-13.63133559356092
 21
157.3427149966773
 31
0.0
  0
LINE
  5
21B
330
1F
100
AcDbEntity
  8
2
100
AcDbLine
 10
-20.55954687494566
 20
153.3427095522752
 30
0.0
 11
-15.94074194330502
 21
153.3427095522752
 31
0.0
  0
LINE
  5
21C
330
1F
100
AcDbEntity
  8
2
100
AcDbLine
 10
-22.86893818283417
 20
157.3427077129381
 30
0.0
 11
-20.55953568592653
 21
153.3427053249606
 31
0.0
  0
CIRCLE
  5
21D
330
1F
100
AcDbEntity
  8
2
100
AcDbCircle
 10
-18.25013677973081
 20
157.3427095522752
 30
0.0
 40
4.0
  0
CIRCLE
  5
21E
330
1F
100
AcDbEntity
  8
2
100
AcDbCircle
 10
-18.25013677973081
 20
157.3427095522752
 30
0.0
 40
2.5
  0
LINE
  5
21F
330
1F
100
AcDbEntity
  8
0
100
AcDbLine
 10
-10.59542466120052
 20
148.4380446013373
 30
0.0
 11
-8.286024661200542
 21
144.4380464663377
 31
0.0
  0
LINE
  5
220
330
1F
100
AcDbEntity
  8
0
100
AcDbLine
 10
-8.286024661200542
 20
144.4380464663377
 30
0.0
 11
-10.59542466120052
 21
140.4380483313381
 31
0.0
  0
CIRCLE
  5
221
330
1F
100
AcDbEntity
  8
0
100
AcDbCircle
 10
-12.90482466120053
 20
144.4380464663377
 30
0.0
 40
3.9
  0
LINE
  5
222
330
1F
100
AcDbEntity
  8
0
100
AcDbLine
 10
-15.21422466120052
 20
140.4380483313381
 30
0.0
 11
-17.52362466120053
 21
144.4380464663377
 31
0.0
  0
LINE
  5
223
330
1F
100
AcDbEntity
  8
0
100
AcDbLine
 10
-10.59542466120052
 20
140.4380483313381
 30
0.0
 11
-15.21422466120052
 21
140.4380483313381
 31
0.0
  0
LINE
  5
224
330
1F
100
AcDbEntity
  8
0
100
AcDbLine
 10
-17.52362466120053
 20
144.4380464663377
 30
0.0
 11
-15.21422466120052
 21
148.4380446013373
 31
0.0
  0
LINE
  5
225
330
1F
100
AcDbEntity
  8
0
100
AcDbLine
 10
-15.21422466120052
 20
148.4380446013373
 30
0.0
 11
-10.59542466120052
 21
148.4380446013373
 31
0.0
  0
CIRCLE
  5
226
330
1F
100
AcDbEntity
  8
0
100
AcDbCircle
 10
-12.90482466120053
 20
144.4380464663377
 30
0.0
 40
4.599999999999999
  0
LINE
  5
227
330
1F
100
AcDbEntity
  8
0
100
AcDbLine
 10
15.21402358098697
 20
148.4380446013373
 30
0.0
 11
15.8464155664158
 21
147.3427095522752
 31
0.0
  0
LINE
  5
228
330
1F
100
AcDbEntity
  8
0
100
AcDbLine
 10
17.52342358098696
 20
144.4380464663377
 30
0.0
 11
15.21402358098697
 21
140.4380483313381
 31
0.0
  0
ARC
  5
229
330
1F
100
AcDbEntity
  8
0
100
AcDbCircle
 10
12.90462358098693
 20
144.4380464663377
 30
0.0
 40
3.9
100
AcDbArc
 50
166.5872190900419
 51
13.41278090995811
  0
LINE
  5
22A
330
1F
100
AcDbEntity
  8
0
100
AcDbLine
 10
10.59522358098695
 20
140.4380483313381
 30
0.0
 11
8.285823580986971
 21
144.4380464663377
 31
0.0
  0
LINE
  5
22B
330
1F
100
AcDbEntity
  8
0
100
AcDbLine
 10
15.21402358098697
 20
140.4380483313381
 30
0.0
 11
10.59522358098695
 21
140.4380483313381
 31
0.0
  0
LINE
  5
22C
330
1F
100
AcDbEntity
  8
0
100
AcDbLine
 10
8.285823580986971
 20
144.4380464663377
 30
0.0
 11
8.808131057178895
 21
145.3427095522752
 31
0.0
  0
LINE
  5
22D
330
1F
100
AcDbEntity
  8
0
100
AcDbLine
 10
12.21618542425178
 20
148.4380446013373
 30
0.0
 11
15.21402358098697
 21
148.4380446013373
 31
0.0
  0
ARC
  5
22E
330
1F
100
AcDbEntity
  8
0
100
AcDbCircle
 10
12.90462358098693
 20
144.4380464663377
 30
0.0
 40
4.599999999999999
100
AcDbArc
 50
168.6579433963799
 51
11.34205660362005
  0
LINE
  5
22F
330
1F
100
AcDbEntity
  8
2
100
AcDbLine
 10
-31.75
 20
-1.0
 30
0.0
 11
-31.75
 21
-30.0
 31
0.0
  0
LINE
  5
230
330
1F
100
AcDbEntity
  8
2
100
AcDbLine
 10
31.75
 20
-1.0
 30
0.0
 11
31.75
 21
-30.0
 31
0.0
  0
LINE
  5
231
330
1F
100
AcDbEntity
  8
2
100
AcDbLine
 10
-30.75000004371134
 20
0.0
 30
0.0
 11
30.75
 21
0.0
 31
0.0
  0
CIRCLE
  5
232
330
1F
100
AcDbEntity
  8
2
100
AcDbCircle
 10
0.0
 20
-7.0
 30
0.0
 40
4.738999843597412
  0
CIRCLE
  5
233
330
1F
100
AcDbEntity
  8
2
100
AcDbCircle
 10
0.0
 20
-7.0
 30
0.0
 40
4.158030033111572
  0
ARC
  5
234
330
1F
100
AcDbEntity
  8
2
100
AcDbCircle
 10
-30.75
 20
-1.0
 30
0.0
 40
1.0
100
AcDbArc
 50
90.0000025044752
 51
180.0000050089373
  0
ARC
  5
235
330
1F
100
AcDbEntity
  8
2
100
AcDbCircle
 10
30.75
 20
-1.0
 30
0.0
 40
1.0
100
AcDbArc
 50
0.0
 51
90.0000025044752
  0
LINE
  5
236
330
1F
100
AcDbEntity
  8
0
100
AcDbLine
 10
-10.5953822357435
 20
4.299987308585741
 30
0.0
 11
-10.5953822357435
 21
7.384988128585291
 31
0.0
  0
ARC
  5
237
330
1F
100
AcDbEntity
  8
0
100
AcDbCircle
 10
-9.440682235743565
 20
5.38498830040703
 30
0.0
 40
2.309400796890259
100
AcDbArc
 50
60.00000943614779
 51
119.9999905638522
  0
ARC
  5
238
330
1F
100
AcDbEntity
  8
0
100
AcDbCircle
 10
-12.90478223574359
 20
1.166778318488695
 30
0.0
 40
6.633208990097045
100
AcDbArc
 50
69.62535254253811
 51
103.3377957996075
  0
LINE
  5
239
330
1F
100
AcDbEntity
  8
0
100
AcDbLine
 10
-9.004782235743618
 20
7.799987308585741
 30
0.0
 11
-14.39136997046421
 21
7.799987308585741
 31
0.0
  0
LINE
  5
23A
330
1F
100
AcDbEntity
  8
0
100
AcDbLine
 10
-8.285982235743631
 20
7.384988128585291
 30
0.0
 11
-9.004782235743618
 21
7.799987308585741
 31
0.0
  0
LINE
  5
23B
330
1F
100
AcDbEntity
  8
0
100
AcDbLine
 10
-8.28598216668206
 20
4.299999999999954
 30
0.0
 11
-8.28598216668206
 21
7.384988248203626
 31
0.0
  0
LINE
  5
23C
330
1F
100
AcDbEntity
  8
0
100
AcDbLine
 10
-8.304824922045042
 20
3.0
 30
0.0
 11
-14.5
 21
3.0
 31
0.0
  0
LINE
  5
23D
330
1F
100
AcDbEntity
  8
0
100
AcDbLine
 10
-8.28598216668206
 20
4.299999999999954
 30
0.0
 11
-14.5
 21
4.299999999999727
 31
0.0
  0
LINE
  5
23E
330
1F
100
AcDbEntity
  8
0
100
AcDbLine
 10
-8.304824922045042
 20
3.0
 30
0.0
 11
-8.304824922045042
 21
4.299999999999954
 31
0.0
  0
LINE
  5
23F
330
1F
100
AcDbEntity
  8
0
100
AcDbLine
 10
10.5953822357435
 20
4.299987308585741
 30
0.0
 11
10.5953822357435
 21
7.384988128585291
 31
0.0
  0
ARC
  5
240
330
1F
100
AcDbEntity
  8
0
100
AcDbCircle
 10
9.440682235743565
 20
5.38498830040703
 30
0.0
 40
2.309400796890259
100
AcDbArc
 50
60.00000943614779
 51
119.9999905638522
  0
ARC
  5
241
330
1F
100
AcDbEntity
  8
0
100
AcDbCircle
 10
12.90478223574359
 20
1.166778318488695
 30
0.0
 40
6.633208990097045
100
AcDbArc
 50
76.66220420039245
 51
110.3746474574619
  0
LINE
  5
242
330
1F
100
AcDbEntity
  8
0
100
AcDbLine
 10
9.004782235743618
 20
7.799987308585741
 30
0.0
 11
14.39136997046421
 21
7.799987308585741
 31
0.0
  0
LINE
  5
243
330
1F
100
AcDbEntity
  8
0
100
AcDbLine
 10
8.285982235743631
 20
7.384988128585291
 30
0.0
 11
9.004782235743618
 21
7.799987308585741
 31
0.0
  0
LINE
  5
244
330
1F
100
AcDbEntity
  8
0
100
AcDbLine
 10
8.28598216668206
 20
4.299999999999954
 30
0.0
 11
8.28598216668206
 21
7.384988248203626
 31
0.0
  0
LINE
  5
245
330
1F
100
AcDbEntity
  8
0
100
AcDbLine
 10
8.304824922045042
 20
3.0
 30
0.0
 11
14.5
 21
3.0
 31
0.0
  0
LINE
  5
246
330
1F
100
AcDbEntity
  8
0
100
AcDbLine
 10
8.28598216668206
 20
4.299999999999954
 30
0.0
 11
14.5
 21
4.299999999999727
 31
0.0
  0
LINE
  5
247
330
1F
100
AcDbEntity
  8
0
100
AcDbLine
 10
8.304824922045042
 20
3.0
 30
0.0
 11
8.304824922045042
 21
4.299999999999954
 31
0.0
  0
ARC
  5
24E
330
1F
100
AcDbEntity
  8
0
100
AcDbCircle
 10
12.90462358098693
 20
144.4380464663377
 30
0.0
 40
4.599999999999999
100
AcDbArc
 50
39.15707104740956
 51
100.8629980278414
  0
LINE
  5
24F
330
1F
100
AcDbEntity
  8
0
100
AcDbLine
 10
17.00111610479503
 20
145.3427095522752
 30
0.0
 11
17.52342358098696
 21
144.4380464663377
 31
0.0
  0
ARC
  5
250
330
1F
100
AcDbEntity
  8
0
100
AcDbCircle
 10
12.90462358098693
 20
144.4380464663377
 30
0.0
 40
3.9
100
AcDbArc
 50
48.14067029668657
 51
98.9348819773235
  0
VIEWPORT
  5
71
330
55
100
AcDbEntity
 67
     1
  8
0
100
AcDbViewport
 10
133.3499908447266
 20
101.5999970436096
 30
0.0
 40
381.3957395593835
 41
218.2856291881582
 68
     1
 69
     1
 12
133.3499908447266
 22
101.5999970436096
 13
0.0
 23
0.0
 14
10.0
 24
10.0
 15
10.0
 25
10.0
 16
0.0
 26
0.0
 36
1.0
 17
0.0
 27
0.0
 37
0.0
 42
50.0
 43
0.0
 44
0.0
 45
218.2856291881582
 50
0.0
 51
0.0
 72
   100
 90
    32800
  1

281
     0
 71
     1
 74
     0
110
0.0
120
0.0
130
0.0
111
1.0
121
0.0
131
0.0
112
0.0
122
1.0
132
0.0
 79
     0
146
0.0
170
     0
 61
     5
348
279
292
     1
282
     1
141
0.0
142
0.0
 63
   250
421
  3355443
  0
VIEWPORT
  5
73
330
55
100
AcDbEntity
 67
     1
  8
0
100
AcDbViewport
 10
133.3499939441681
 20
101.5999939441681
 30
0.0
 40
213.3599903106689
 41
162.5599903106689
 68
     2
 69
     2
 12
210.0
 22
148.5
 13
0.0
 23
0.0
 14
10.0
 24
10.0
 15
10.0
 25
10.0
 16
0.0
 26
0.0
 36
1.0
 17
0.0
 27
0.0
 37
0.0
 42
50.0
 43
0.0
 44
0.0
 45
324.0677920111345
 50
0.0
 51
0.0
 72
   100
 90
    32864
  1

281
     0
 71
     1
 74
     0
110
0.0
120
0.0
130
0.0
111
1.0
121
0.0
131
0.0
112
0.0
122
1.0
132
0.0
 79
     0
146
0.0
170
     0
 61
     5
348
279
292
     1
282
     1
141
0.0
142
0.0
 63
   250
421
  3355443
  0
ENDSEC
  0
SECTION
  2
OBJECTS
  0
DICTIONARY
  5
C
330
0
100
AcDbDictionary
281
     1
  3
ACAD_COLOR
350
287
  3
ACAD_GROUP
350
D
  3
ACAD_LAYOUT
350
1A
  3
ACAD_MATERIAL
350
25A
  3
ACAD_MLEADERSTYLE
350
29C
  3
ACAD_MLINESTYLE
350
17
  3
ACAD_PLOTSETTINGS
350
19
  3
ACAD_PLOTSTYLENAME
350
E
  3
ACAD_SCALELIST
350
28A
  3
ACAD_TABLESTYLE
350
288
  3
ACAD_VISUALSTYLE
350
273
  3
ACDB_RECOMPOSE_DATA
350
2AB
  3
AcDbVariableDictionary
350
5E
  0
DICTIONARY
  5
97
330
2
100
AcDbDictionary
280
     1
281
     1
  3
ACAD_LAYERSTATES
360
98
  0
DICTIONARY
  5
2A0
330
10
100
AcDbDictionary
280
     1
281
     1
  3
ADSK_XREC_LAYER_RECONCILED
360
2A1
  0
DICTIONARY
  5
90
330
8F
100
AcDbDictionary
280
     1
281
     1
  3
ADSK_XREC_LAYER_RECONCILED
360
91
  0
DICTIONARY
  5
93
330
92
100
AcDbDictionary
280
     1
281
     1
  3
ADSK_XREC_LAYER_RECONCILED
360
94
  0
DICTIONARY
  5
287
102
{ACAD_REACTORS
330
C
102
}
330
C
100
AcDbDictionary
281
     1
  0
DICTIONARY
  5
D
102
{ACAD_REACTORS
330
C
102
}
330
C
100
AcDbDictionary
281
     1
  0
DICTIONARY
  5
1A
102
{ACAD_REACTORS
330
C
102
}
330
C
100
AcDbDictionary
281
     1
  3
Model
350
22
  3
ﾚｲｱｳﾄ1
350
51
  3
ﾚｲｱｳﾄ2
350
56
  0
DICTIONARY
  5
25A
102
{ACAD_REACTORS
330
C
102
}
330
C
100
AcDbDictionary
281
     1
  3
ByBlock
350
263
  3
ByLayer
350
25B
  3
Global
350
26B
  0
DICTIONARY
  5
29C
102
{ACAD_REACTORS
330
C
102
}
330
C
100
AcDbDictionary
281
     1
  3
Standard
350
29D
  0
DICTIONARY
  5
17
102
{ACAD_REACTORS
330
C
102
}
330
C
100
AcDbDictionary
281
     1
  3
Standard
350
18
  0
DICTIONARY
  5
19
102
{ACAD_REACTORS
330
C
102
}
330
C
100
AcDbDictionary
281
     1
  0
ACDBDICTIONARYWDFLT
  5
E
102
{ACAD_REACTORS
330
C
102
}
330
C
100
AcDbDictionary
281
     1
  3
Normal
350
F
100
AcDbDictionaryWithDefault
340
F
  0
DICTIONARY
  5
28A
102
{ACAD_REACTORS
330
C
102
}
330
C
100
AcDbDictionary
281
     1
  3
A0
350
28B
  3
A1
350
28C
  3
A2
350
28D
  3
A3
350
28E
  3
A4
350
28F
  3
A5
350
290
  3
A6
350
291
  3
A7
350
292
  3
A8
350
293
  3
A9
350
294
  3
B0
350
295
  3
B1
350
296
  3
B2
350
297
  3
B3
350
298
  3
B4
350
299
  3
B5
350
29A
  3
B6
350
29B
  0
DICTIONARY
  5
288
102
{ACAD_REACTORS
330
C
102
}
330
C
100
AcDbDictionary
281
     1
  3
Standard
350
289
  0
DICTIONARY
  5
273
102
{ACAD_REACTORS
330
C
102
}
330
C
100
AcDbDictionary
281
     1
  3
2dWireframe
350
279
  3
3D Hidden
350
27B
  3
3dWireframe
350
27A
  3
Basic
350
278
  3
Brighten
350
27F
  3
ColorChange
350
283
  3
Conceptual
350
27C
  3
Dim
350
27E
  3
EdgeColorOff
350
286
  3
Facepattern
350
282
  3
Flat
350
274
  3
FlatWithEdges
350
275
  3
Gouraud
350
276
  3
GouraudWithEdges
350
277
  3
JitterOff
350
284
  3
Linepattern
350
281
  3
OverhangOff
350
285
  3
Realistic
350
27D
  3
Thicken
350
280
  0
XRECORD
  5
2AB
102
{ACAD_REACTORS
330
C
102
}
330
C
100
AcDbXrecord
280
     1
 90
        1
330
289
  0
DICTIONARY
  5
5E
102
{ACAD_REACTORS
330
C
102
}
330
C
100
AcDbDictionary
281
     1
  3
CANNOSCALE
350
2A5
  3
CMLEADERSTYLE
350
2A3
  3
CTABLESTYLE
350
2A2
  3
DIMASSOC
350
5F
  3
HIDETEXT
350
63
  3
LAYEREVAL
350
2A7
  3
LAYERNOTIFY
350
2A8
  3
LIGHTINGUNITS
350
2A6
  3
MSLTSCALE
350
2A4
  0
DICTIONARY
  5
98
102
{ACAD_REACTORS
330
97
102
}
330
97
100
AcDbDictionary
281
     1
  0
XRECORD
  5
2A1
102
{ACAD_REACTORS
330
2A0
102
}
330
2A0
100
AcDbXrecord
280
     1
290
     1
  0
XRECORD
  5
91
102
{ACAD_REACTORS
330
90
102
}
330
90
100
AcDbXrecord
280
     1
290
     1
  0
XRECORD
  5
94
102
{ACAD_REACTORS
330
93
102
}
330
93
100
AcDbXrecord
280
     1
290
     1
  0
LAYOUT
  5
22
102
{ACAD_REACTORS
330
1A
102
}
330
1A
100
AcDbPlotSettings
  1

  2
none_device
  4
ANSI_A_(8.50_x_11.00_Inches)
  6

 40
6.349999904632568
 41
19.04999923706055
 42
6.350006103515625
 43
19.04998779296875
 44
215.8999938964844
 45
279.3999938964844
 46
0.0
 47
0.0
 48
0.0
 49
0.0
140
0.0
141
0.0
142
1.0
143
78.436453180766
 70
 11952
 72
     0
 73
     1
 74
     0
  7

 75
     0
147
0.0127491741332998
 76
     0
 77
     2
 78
   300
148
0.0
149
0.0
100
AcDbLayout
  1
Model
 70
     1
 71
     0
 10
0.0
 20
0.0
 11
12.0
 21
9.0
 12
0.0
 22
0.0
 32
0.0
 14
0.0
 24
0.0
 34
0.0
 15
0.0
 25
0.0
 35
0.0
146
0.0
 13
0.0
 23
0.0
 33
0.0
 16
1.0
 26
0.0
 36
0.0
 17
0.0
 27
1.0
 37
0.0
 76
     0
330
1F
331
258
  0
LAYOUT
  5
51
102
{ACAD_REACTORS
330
1A
102
}
330
1A
100
AcDbPlotSettings
  1

  2
none_device
  4
Letter_(8.50_x_11.00_Inches)
  6

 40
6.349999904632568
 41
6.349999904632568
 42
6.350006103515625
 43
6.350006103515625
 44
215.8999938964844
 45
279.3999938964844
 46
0.0
 47
0.0
 48
0.0
 49
0.0
140
0.0
141
0.0
142
1.0
143
1.0
 70
   688
 72
     1
 73
     1
 74
     5
  7

 75
    16
147
1.0
 76
     0
 77
     2
 78
   300
148
0.0
149
0.0
100
AcDbLayout
  1
ﾚｲｱｳﾄ1
 70
     1
 71
     1
 10
-6.350006103515625
 20
-6.349999904632568
 11
273.0499877929688
 21
209.5499939918518
 12
0.0
 22
0.0
 32
0.0
 14
26.66076962115563
 24
20.31135699206658
 34
-0.0015258207003583
 15
240.039213369355
 25
182.8886381005154
 35
0.0000000349246037
146
0.0
 13
0.0
 23
0.0
 33
0.0
 16
1.0
 26
0.0
 36
0.0
 17
0.0
 27
1.0
 37
0.0
 76
     0
330
50
331
6B
  0
LAYOUT
  5
56
102
{ACAD_REACTORS
330
1A
102
}
330
1A
100
AcDbPlotSettings
  1

  2
none_device
  4
Letter_(8.50_x_11.00_Inches)
  6

 40
6.349999904632568
 41
6.349999904632568
 42
6.350006103515625
 43
6.350006103515625
 44
215.8999938964844
 45
279.3999938964844
 46
0.0
 47
0.0
 48
0.0
 49
0.0
140
0.0
141
0.0
142
1.0
143
1.0
 70
   688
 72
     1
 73
     1
 74
     5
  7

 75
    16
147
1.0
 76
     0
 77
     2
 78
   300
148
0.0
149
0.0
100
AcDbLayout
  1
ﾚｲｱｳﾄ2
 70
     1
 71
     2
 10
-6.350006103515625
 20
-6.349999904632568
 11
273.0499877929688
 21
209.5499939918518
 12
0.0
 22
0.0
 32
0.0
 14
26.66076962115563
 24
20.31135699206658
 34
-0.0015258207003583
 15
240.039213369355
 25
182.8886381005154
 35
0.0000000349246037
146
0.0
 13
0.0
 23
0.0
 33
0.0
 16
1.0
 26
0.0
 36
0.0
 17
0.0
 27
1.0
 37
0.0
 76
     0
330
55
331
71
  0
MATERIAL
  5
263
102
{ACAD_XDICTIONARY
360
264
102
}
102
{ACAD_REACTORS
330
25A
102
}
330
25A
100
AcDbMaterial
  1
ByBlock
 72
     0
 43
0.0008202099737533
 43
0.0
 43
0.0
 43
0.0
 43
0.0
 43
0.0008202099737533
 43
0.0
 43
0.0
 43
0.0
 43
0.0
 43
1.0
 43
0.0
 43
0.0
 43
0.0
 43
0.0
 43
1.0
 77
     0
 47
0.0008202099737533
 47
0.0
 47
0.0
 47
0.0
 47
0.0
 47
0.0008202099737533
 47
0.0
 47
0.0
 47
0.0
 47
0.0
 47
1.0
 47
0.0
 47
0.0
 47
0.0
 47
0.0
 47
1.0
171
     0
 49
0.0008202099737533
 49
0.0
 49
0.0
 49
0.0
 49
0.0
 49
0.0008202099737533
 49
0.0
 49
0.0
 49
0.0
 49
0.0
 49
1.0
 49
0.0
 49
0.0
 49
0.0
 49
0.0
 49
1.0
175
     0
142
0.0008202099737533
142
0.0
142
0.0
142
0.0
142
0.0
142
0.0008202099737533
142
0.0
142
0.0
142
0.0
142
0.0
142
1.0
142
0.0
142
0.0
142
0.0
142
0.0
142
1.0
179
     0
144
0.0008202099737533
144
0.0
144
0.0
144
0.0
144
0.0
144
0.0008202099737533
144
0.0
144
0.0
144
0.0
144
0.0
144
1.0
144
0.0
144
0.0
144
0.0
144
0.0
144
1.0
147
0.0008202099737533
147
0.0
147
0.0
147
0.0
147
0.0
147
0.0008202099737533
147
0.0
147
0.0
147
0.0
147
0.0
147
1.0
147
0.0
147
0.0
147
0.0
147
0.0
147
1.0
  0
MATERIAL
  5
25B
102
{ACAD_XDICTIONARY
360
25C
102
}
102
{ACAD_REACTORS
330
25A
102
}
330
25A
100
AcDbMaterial
  1
ByLayer
 72
     0
 43
0.0008202099737533
 43
0.0
 43
0.0
 43
0.0
 43
0.0
 43
0.0008202099737533
 43
0.0
 43
0.0
 43
0.0
 43
0.0
 43
1.0
 43
0.0
 43
0.0
 43
0.0
 43
0.0
 43
1.0
 77
     0
 47
0.0008202099737533
 47
0.0
 47
0.0
 47
0.0
 47
0.0
 47
0.0008202099737533
 47
0.0
 47
0.0
 47
0.0
 47
0.0
 47
1.0
 47
0.0
 47
0.0
 47
0.0
 47
0.0
 47
1.0
171
     0
 49
0.0008202099737533
 49
0.0
 49
0.0
 49
0.0
 49
0.0
 49
0.0008202099737533
 49
0.0
 49
0.0
 49
0.0
 49
0.0
 49
1.0
 49
0.0
 49
0.0
 49
0.0
 49
0.0
 49
1.0
175
     0
142
0.0008202099737533
142
0.0
142
0.0
142
0.0
142
0.0
142
0.0008202099737533
142
0.0
142
0.0
142
0.0
142
0.0
142
1.0
142
0.0
142
0.0
142
0.0
142
0.0
142
1.0
179
     0
144
0.0008202099737533
144
0.0
144
0.0
144
0.0
144
0.0
144
0.0008202099737533
144
0.0
144
0.0
144
0.0
144
0.0
144
1.0
144
0.0
144
0.0
144
0.0
144
0.0
144
1.0
147
0.0008202099737533
147
0.0
147
0.0
147
0.0
147
0.0
147
0.0008202099737533
147
0.0
147
0.0
147
0.0
147
0.0
147
1.0
147
0.0
147
0.0
147
0.0
147
0.0
147
1.0
  0
MATERIAL
  5
26B
102
{ACAD_XDICTIONARY
360
26C
102
}
102
{ACAD_REACTORS
330
25A
102
}
330
25A
100
AcDbMaterial
  1
Global
 72
     0
 43
0.0008202099737533
 43
0.0
 43
0.0
 43
0.0
 43
0.0
 43
0.0008202099737533
 43
0.0
 43
0.0
 43
0.0
 43
0.0
 43
1.0
 43
0.0
 43
0.0
 43
0.0
 43
0.0
 43
1.0
 77
     0
 47
0.0008202099737533
 47
0.0
 47
0.0
 47
0.0
 47
0.0
 47
0.0008202099737533
 47
0.0
 47
0.0
 47
0.0
 47
0.0
 47
1.0
 47
0.0
 47
0.0
 47
0.0
 47
0.0
 47
1.0
171
     0
 49
0.0008202099737533
 49
0.0
 49
0.0
 49
0.0
 49
0.0
 49
0.0008202099737533
 49
0.0
 49
0.0
 49
0.0
 49
0.0
 49
1.0
 49
0.0
 49
0.0
 49
0.0
 49
0.0
 49
1.0
175
     0
142
0.0008202099737533
142
0.0
142
0.0
142
0.0
142
0.0
142
0.0008202099737533
142
0.0
142
0.0
142
0.0
142
0.0
142
1.0
142
0.0
142
0.0
142
0.0
142
0.0
142
1.0
179
     0
144
0.0008202099737533
144
0.0
144
0.0
144
0.0
144
0.0
144
0.0008202099737533
144
0.0
144
0.0
144
0.0
144
0.0
144
1.0
144
0.0
144
0.0
144
0.0
144
0.0
144
1.0
147
0.0008202099737533
147
0.0
147
0.0
147
0.0
147
0.0
147
0.0008202099737533
147
0.0
147
0.0
147
0.0
147
0.0
147
1.0
147
0.0
147
0.0
147
0.0
147
0.0
147
1.0
  0
MLEADERSTYLE
  5
29D
102
{ACAD_REACTORS
330
29C
102
}
330
29C
100
AcDbMLeaderStyle
179
     2
170
     2
171
     1
172
     0
 90
        2
 40
0.0
 41
0.0
173
     1
 91
-1056964608
340
14
 92
       -2
290
     1
 42
2.0
291
     1
 43
0.36
  3
Standard
 44
4.0
300

342
11
174
     1
178
     6
175
     1
176
     0
 93
-1056964608
 45
4.0
292
     0
297
     0
 46
4.0
 94
-1056964608
 47
1.0
 49
1.0
140
1.0
293
     1
141
0.0
294
     1
177
     0
142
1.0
295
     1
296
     0
143
0.125
271
     0
272
     9
273
     9
  0
MLINESTYLE
  5
18
102
{ACAD_REACTORS
330
17
102
}
330
17
100
AcDbMlineStyle
  2
STANDARD
 70
     0
  3

 62
   256
 51
90.0
 52
90.0
 71
     2
 49
0.5
 62
   256
  6
BYLAYER
 49
-0.5
 62
   256
  6
BYLAYER
  0
ACDBPLACEHOLDER
  5
F
102
{ACAD_REACTORS
330
E
102
}
330
E
  0
SCALE
  5
28B
102
{ACAD_REACTORS
330
28A
102
}
330
28A
100
AcDbScale
 70
     0
300
1:1
140
1.0
141
1.0
290
     1
  0
SCALE
  5
28C
102
{ACAD_REACTORS
330
28A
102
}
330
28A
100
AcDbScale
 70
     0
300
1:2
140
1.0
141
2.0
290
     0
  0
SCALE
  5
28D
102
{ACAD_REACTORS
330
28A
102
}
330
28A
100
AcDbScale
 70
     0
300
1:4
140
1.0
141
4.0
290
     0
  0
SCALE
  5
28E
102
{ACAD_REACTORS
330
28A
102
}
330
28A
100
AcDbScale
 70
     0
300
1:5
140
1.0
141
5.0
290
     0
  0
SCALE
  5
28F
102
{ACAD_REACTORS
330
28A
102
}
330
28A
100
AcDbScale
 70
     0
300
1:8
140
1.0
141
8.0
290
     0
  0
SCALE
  5
290
102
{ACAD_REACTORS
330
28A
102
}
330
28A
100
AcDbScale
 70
     0
300
1:10
140
1.0
141
10.0
290
     0
  0
SCALE
  5
291
102
{ACAD_REACTORS
330
28A
102
}
330
28A
100
AcDbScale
 70
     0
300
1:16
140
1.0
141
16.0
290
     0
  0
SCALE
  5
292
102
{ACAD_REACTORS
330
28A
102
}
330
28A
100
AcDbScale
 70
     0
300
1:20
140
1.0
141
20.0
290
     0
  0
SCALE
  5
293
102
{ACAD_REACTORS
330
28A
102
}
330
28A
100
AcDbScale
 70
     0
300
1:30
140
1.0
141
30.0
290
     0
  0
SCALE
  5
294
102
{ACAD_REACTORS
330
28A
102
}
330
28A
100
AcDbScale
 70
     0
300
1:40
140
1.0
141
40.0
290
     0
  0
SCALE
  5
295
102
{ACAD_REACTORS
330
28A
102
}
330
28A
100
AcDbScale
 70
     0
300
1:50
140
1.0
141
50.0
290
     0
  0
SCALE
  5
296
102
{ACAD_REACTORS
330
28A
102
}
330
28A
100
AcDbScale
 70
     0
300
1:100
140
1.0
141
100.0
290
     0
  0
SCALE
  5
297
102
{ACAD_REACTORS
330
28A
102
}
330
28A
100
AcDbScale
 70
     0
300
2:1
140
2.0
141
1.0
290
     0
  0
SCALE
  5
298
102
{ACAD_REACTORS
330
28A
102
}
330
28A
100
AcDbScale
 70
     0
300
4:1
140
4.0
141
1.0
290
     0
  0
SCALE
  5
299
102
{ACAD_REACTORS
330
28A
102
}
330
28A
100
AcDbScale
 70
     0
300
8:1
140
8.0
141
1.0
290
     0
  0
SCALE
  5
29A
102
{ACAD_REACTORS
330
28A
102
}
330
28A
100
AcDbScale
 70
     0
300
10:1
140
10.0
141
1.0
290
     0
  0
SCALE
  5
29B
102
{ACAD_REACTORS
330
28A
102
}
330
28A
100
AcDbScale
 70
     0
300
100:1
140
100.0
141
1.0
290
     0
  0
TABLESTYLE
  5
289
102
{ACAD_XDICTIONARY
360
2A9
102
}
102
{ACAD_REACTORS
330
288
102
}
330
288
100
AcDbTableStyle
280
     0
  3
Standard
 70
     0
 71
     0
 40
1.5
 41
1.5
280
     0
281
     0
  7
Standard
140
4.5
170
     2
 62
     0
 63
     7
283
     0
 90
      512
 91
        0
  1

274
    -2
284
     1
 64
     0
275
    -2
285
     1
 65
     0
276
    -2
286
     1
 66
     0
277
    -2
287
     1
 67
     0
278
    -2
288
     1
 68
     0
279
    -2
289
     1
 69
     0
  7
Standard
140
6.0
170
     5
 62
     0
 63
     7
283
     0
 90
      512
 91
        0
  1

274
    -2
284
     1
 64
     0
275
    -2
285
     1
 65
     0
276
    -2
286
     1
 66
     0
277
    -2
287
     1
 67
     0
278
    -2
288
     1
 68
     0
279
    -2
289
     1
 69
     0
  7
Standard
140
4.5
170
     5
 62
     0
 63
     7
283
     0
 90
      512
 91
        0
  1

274
    -2
284
     1
 64
     0
275
    -2
285
     1
 65
     0
276
    -2
286
     1
 66
     0
277
    -2
287
     1
 67
     0
278
    -2
288
     1
 68
     0
279
    -2
289
     1
 69
     0
  0
VISUALSTYLE
  5
279
102
{ACAD_REACTORS
330
273
102
}
330
273
100
AcDbVisualStyle
  2
2dWireframe
 70
     4
177
     2
291
     0
 71
     0
176
     1
 72
     2
176
     1
 73
     0
176
     1
 90
        0
176
     1
 40
0.6
176
     1
 41
30.0
176
     1
 63
     7
421
 16777215
176
     1
 74
     1
176
     1
 91
        4
176
     1
 64
     7
176
     1
 65
   257
176
     1
 75
     1
176
     1
175
     1
176
     1
 42
1.0
176
     1
 92
        0
176
     1
 66
   257
176
     1
 43
1.0
176
     1
 76
     1
176
     1
 77
     6
176
     1
 78
     2
176
     1
 67
     7
176
     1
 79
     5
176
     1
170
     0
176
     1
171
     0
176
     1
290
     0
176
     1
 93
        1
176
     1
 44
0.0
176
     1
173
     0
176
     1
  0
VISUALSTYLE
  5
27B
102
{ACAD_REACTORS
330
273
102
}
330
273
100
AcDbVisualStyle
  2
3D Hidden
 70
     6
177
     2
291
     0
 71
     1
176
     1
 72
     2
176
     1
 73
     2
176
     1
 90
        0
176
     1
 40
0.6
176
     1
 41
30.0
176
     1
 63
     7
421
 16777215
176
     1
 74
     2
176
     1
 91
        2
176
     1
 64
     7
176
     1
 65
   257
176
     1
 75
     2
176
     1
175
     1
176
     1
 42
179.0
176
     1
 92
        0
176
     1
 66
   257
176
     1
 43
1.0
176
     1
 76
     1
176
     1
 77
     6
176
     1
 78
     2
176
     1
 67
     7
176
     1
 79
     3
176
     1
170
     0
176
     1
171
     0
176
     1
290
     0
176
     1
 93
        1
176
     1
 44
0.0
176
     1
173
     0
176
     1
  0
VISUALSTYLE
  5
27A
102
{ACAD_REACTORS
330
273
102
}
330
273
100
AcDbVisualStyle
  2
3dWireframe
 70
     5
177
     2
291
     0
 71
     0
176
     1
 72
     2
176
     1
 73
     0
176
     1
 90
        0
176
     1
 40
0.6
176
     1
 41
30.0
176
     1
 63
     7
421
 16777215
176
     1
 74
     1
176
     1
 91
        4
176
     1
 64
     7
176
     1
 65
   257
176
     1
 75
     1
176
     1
175
     1
176
     1
 42
1.0
176
     1
 92
        0
176
     1
 66
   257
176
     1
 43
1.0
176
     1
 76
     1
176
     1
 77
     6
176
     1
 78
     2
176
     1
 67
     7
176
     1
 79
     5
176
     1
170
     0
176
     1
171
     0
176
     1
290
     0
176
     1
 93
        1
176
     1
 44
0.0
176
     1
173
     0
176
     1
  0
VISUALSTYLE
  5
278
102
{ACAD_REACTORS
330
273
102
}
330
273
100
AcDbVisualStyle
  2
Basic
 70
     7
177
     2
291
     1
 71
     1
176
     1
 72
     0
176
     1
 73
     1
176
     1
 90
        0
176
     1
 40
0.6
176
     1
 41
30.0
176
     1
 63
     7
421
 16777215
176
     1
 74
     0
176
     1
 91
        4
176
     1
 64
     7
176
     1
 65
   257
176
     1
 75
     1
176
     1
175
     1
176
     1
 42
1.0
176
     1
 92
        8
176
     1
 66
     7
176
     1
 43
1.0
176
     1
 76
     1
176
     1
 77
     6
176
     1
 78
     2
176
     1
 67
     7
176
     1
 79
     5
176
     1
170
     0
176
     1
171
     0
176
     1
290
     0
176
     1
 93
        1
176
     1
 44
0.0
176
     1
173
     0
176
     1
  0
VISUALSTYLE
  5
27F
102
{ACAD_REACTORS
330
273
102
}
330
273
100
AcDbVisualStyle
  2
Brighten
 70
    12
177
     2
291
     1
 71
     2
176
     1
 72
     2
176
     1
 73
     0
176
     1
 90
        0
176
     1
 40
0.6
176
     1
 41
30.0
176
     1
 63
     7
421
 16777215
176
     1
 74
     1
176
     1
 91
        4
176
     1
 64
     7
176
     1
 65
   257
176
     1
 75
     1
176
     1
175
     1
176
     1
 42
1.0
176
     1
 92
        8
176
     1
 66
     7
176
     1
 43
1.0
176
     1
 76
     1
176
     1
 77
     6
176
     1
 78
     2
176
     1
 67
     7
176
     1
 79
     5
176
     1
170
     0
176
     1
171
     0
176
     1
290
     0
176
     1
 93
        1
176
     1
 44
50.0
176
     1
173
     0
176
     1
  0
VISUALSTYLE
  5
283
102
{ACAD_REACTORS
330
273
102
}
330
273
100
AcDbVisualStyle
  2
ColorChange
 70
    16
177
     2
291
     1
 71
     2
176
     1
 72
     2
176
     1
 73
     3
176
     1
 90
        0
176
     1
 40
0.6
176
     1
 41
30.0
176
     1
 63
     8
421
  8421504
176
     1
 74
     1
176
     1
 91
        4
176
     1
 64
     7
176
     1
 65
   257
176
     1
 75
     1
176
     1
175
     1
176
     1
 42
1.0
176
     1
 92
        8
176
     1
 66
     8
424
  8421504
176
     1
 43
1.0
176
     1
 76
     1
176
     1
 77
     6
176
     1
 78
     2
176
     1
 67
     7
176
     1
 79
     5
176
     1
170
     0
176
     1
171
     0
176
     1
290
     0
176
     1
 93
        1
176
     1
 44
0.0
176
     1
173
     0
176
     1
  0
VISUALSTYLE
  5
27C
102
{ACAD_REACTORS
330
273
102
}
330
273
100
AcDbVisualStyle
  2
Conceptual
 70
     9
177
     2
291
     0
 71
     3
176
     1
 72
     2
176
     1
 73
     0
176
     1
 90
        0
176
     1
 40
0.6
176
     1
 41
30.0
176
     1
 63
     7
421
 16777215
176
     1
 74
     2
176
     1
 91
        2
176
     1
 64
     7
176
     1
 65
   257
176
     1
 75
     1
176
     1
175
     1
176
     1
 42
179.0
176
     1
 92
        8
176
     1
 66
     7
176
     1
 43
1.0
176
     1
 76
     1
176
     1
 77
     6
176
     1
 78
     2
176
     1
 67
     7
176
     1
 79
     3
176
     1
170
     0
176
     1
171
     0
176
     1
290
     0
176
     1
 93
        1
176
     1
 44
0.0
176
     1
173
     0
176
     1
  0
VISUALSTYLE
  5
27E
102
{ACAD_REACTORS
330
273
102
}
330
273
100
AcDbVisualStyle
  2
Dim
 70
    11
177
     2
291
     1
 71
     2
176
     1
 72
     2
176
     1
 73
     0
176
     1
 90
        0
176
     1
 40
0.6
176
     1
 41
30.0
176
     1
 63
     7
421
 16777215
176
     1
 74
     1
176
     1
 91
        4
176
     1
 64
     7
176
     1
 65
   257
176
     1
 75
     1
176
     1
175
     1
176
     1
 42
1.0
176
     1
 92
        8
176
     1
 66
     7
176
     1
 43
1.0
176
     1
 76
     1
176
     1
 77
     6
176
     1
 78
     2
176
     1
 67
     7
176
     1
 79
     5
176
     1
170
     0
176
     1
171
     0
176
     1
290
     0
176
     1
 93
        1
176
     1
 44
-50.0
176
     1
173
     0
176
     1
  0
VISUALSTYLE
  5
286
102
{ACAD_REACTORS
330
273
102
}
330
273
100
AcDbVisualStyle
  2
EdgeColorOff
 70
    22
177
     2
291
     1
 71
     2
176
     0
 72
     2
176
     0
 73
     0
176
     0
 90
        0
176
     0
 40
0.6
176
     0
 41
30.0
176
     0
 63
     7
421
 16777215
176
     0
 74
     1
176
     0
 91
        4
176
     0
 64
     7
176
     0
 65
   257
176
     0
 75
     1
176
     0
175
     1
176
     0
 42
1.0
176
     0
 92
        8
176
     2
 66
     7
176
     0
 43
1.0
176
     0
 76
     1
176
     0
 77
     6
176
     0
 78
     2
176
     0
 67
     7
176
     0
 79
     5
176
     0
170
     0
176
     0
171
     0
176
     0
290
     0
176
     0
 93
        1
176
     0
 44
0.0
176
     0
173
     0
176
     0
  0
VISUALSTYLE
  5
282
102
{ACAD_REACTORS
330
273
102
}
330
273
100
AcDbVisualStyle
  2
Facepattern
 70
    15
177
     2
291
     1
 71
     2
176
     1
 72
     2
176
     1
 73
     0
176
     1
 90
        0
176
     1
 40
0.6
176
     1
 41
30.0
176
     1
 63
     7
421
 16777215
176
     1
 74
     1
176
     1
 91
        4
176
     1
 64
     7
176
     1
 65
   257
176
     1
 75
     1
176
     1
175
     1
176
     1
 42
1.0
176
     1
 92
        8
176
     1
 66
     7
176
     1
 43
1.0
176
     1
 76
     1
176
     1
 77
     6
176
     1
 78
     2
176
     1
 67
     7
176
     1
 79
     5
176
     1
170
     0
176
     1
171
     0
176
     1
290
     0
176
     1
 93
        1
176
     1
 44
0.0
176
     1
173
     0
176
     1
  0
VISUALSTYLE
  5
274
102
{ACAD_REACTORS
330
273
102
}
330
273
100
AcDbVisualStyle
  2
Flat
 70
     0
177
     2
291
     1
 71
     2
176
     1
 72
     1
176
     1
 73
     1
176
     1
 90
        2
176
     1
 40
0.6
176
     1
 41
30.0
176
     1
 63
     7
421
 16777215
176
     1
 74
     0
176
     1
 91
        4
176
     1
 64
     7
176
     1
 65
   257
176
     1
 75
     1
176
     1
175
     1
176
     1
 42
1.0
176
     1
 92
        8
176
     1
 66
     7
176
     1
 43
1.0
176
     1
 76
     1
176
     1
 77
     6
176
     1
 78
     2
176
     1
 67
     7
176
     1
 79
     5
176
     1
170
     0
176
     1
171
     0
176
     1
290
     0
176
     1
 93
       13
176
     1
 44
0.0
176
     1
173
     0
176
     1
  0
VISUALSTYLE
  5
275
102
{ACAD_REACTORS
330
273
102
}
330
273
100
AcDbVisualStyle
  2
FlatWithEdges
 70
     1
177
     2
291
     1
 71
     2
176
     1
 72
     1
176
     1
 73
     1
176
     1
 90
        2
176
     1
 40
0.6
176
     1
 41
30.0
176
     1
 63
     7
421
 16777215
176
     1
 74
     1
176
     1
 91
        4
176
     1
 64
     7
176
     1
 65
   257
176
     1
 75
     1
176
     1
175
     1
176
     1
 42
1.0
176
     1
 92
        0
176
     1
 66
   257
176
     1
 43
1.0
176
     1
 76
     1
176
     1
 77
     6
176
     1
 78
     2
176
     1
 67
     7
176
     1
 79
     5
176
     1
170
     0
176
     1
171
     0
176
     1
290
     0
176
     1
 93
       13
176
     1
 44
0.0
176
     1
173
     0
176
     1
  0
VISUALSTYLE
  5
276
102
{ACAD_REACTORS
330
273
102
}
330
273
100
AcDbVisualStyle
  2
Gouraud
 70
     2
177
     2
291
     1
 71
     2
176
     1
 72
     2
176
     1
 73
     1
176
     1
 90
        2
176
     1
 40
0.6
176
     1
 41
30.0
176
     1
 63
     7
421
 16777215
176
     1
 74
     0
176
     1
 91
        4
176
     1
 64
     7
176
     1
 65
   257
176
     1
 75
     1
176
     1
175
     1
176
     1
 42
1.0
176
     1
 92
        0
176
     1
 66
     7
176
     1
 43
1.0
176
     1
 76
     1
176
     1
 77
     6
176
     1
 78
     2
176
     1
 67
     7
176
     1
 79
     5
176
     1
170
     0
176
     1
171
     0
176
     1
290
     0
176
     1
 93
       13
176
     1
 44
0.0
176
     1
173
     0
176
     1
  0
VISUALSTYLE
  5
277
102
{ACAD_REACTORS
330
273
102
}
330
273
100
AcDbVisualStyle
  2
GouraudWithEdges
 70
     3
177
     2
291
     1
 71
     2
176
     1
 72
     2
176
     1
 73
     1
176
     1
 90
        2
176
     1
 40
0.6
176
     1
 41
30.0
176
     1
 63
     7
421
 16777215
176
     1
 74
     1
176
     1
 91
        4
176
     1
 64
     7
176
     1
 65
   257
176
     1
 75
     1
176
     1
175
     1
176
     1
 42
1.0
176
     1
 92
        0
176
     1
 66
   257
176
     1
 43
1.0
176
     1
 76
     1
176
     1
 77
     6
176
     1
 78
     2
176
     1
 67
     7
176
     1
 79
     5
176
     1
170
     0
176
     1
171
     0
176
     1
290
     0
176
     1
 93
       13
176
     1
 44
0.0
176
     1
173
     0
176
     1
  0
VISUALSTYLE
  5
284
102
{ACAD_REACTORS
330
273
102
}
330
273
100
AcDbVisualStyle
  2
JitterOff
 70
    20
177
     2
291
     1
 71
     2
176
     0
 72
     2
176
     0
 73
     0
176
     0
 90
        0
176
     0
 40
0.6
176
     0
 41
30.0
176
     0
 63
     7
421
 16777215
176
     0
 74
     1
176
     0
 91
        4
176
     0
 64
     7
176
     0
 65
   257
176
     0
 75
     1
176
     0
175
     1
176
     0
 42
1.0
176
     0
 92
       10
176
     2
 66
     7
176
     0
 43
1.0
176
     0
 76
     1
176
     0
 77
     6
176
     0
 78
     2
176
     0
 67
     7
176
     0
 79
     5
176
     0
170
     0
176
     0
171
     0
176
     0
290
     0
176
     0
 93
        1
176
     0
 44
0.0
176
     0
173
     0
176
     0
  0
VISUALSTYLE
  5
281
102
{ACAD_REACTORS
330
273
102
}
330
273
100
AcDbVisualStyle
  2
Linepattern
 70
    14
177
     2
291
     1
 71
     2
176
     1
 72
     2
176
     1
 73
     0
176
     1
 90
        0
176
     1
 40
0.6
176
     1
 41
30.0
176
     1
 63
     7
421
 16777215
176
     1
 74
     1
176
     1
 91
        4
176
     1
 64
     7
176
     1
 65
   257
176
     1
 75
     7
176
     1
175
     7
176
     1
 42
1.0
176
     1
 92
        8
176
     1
 66
     7
176
     1
 43
1.0
176
     1
 76
     1
176
     1
 77
     6
176
     1
 78
     2
176
     1
 67
     7
176
     1
 79
     5
176
     1
170
     0
176
     1
171
     0
176
     1
290
     0
176
     1
 93
        1
176
     1
 44
0.0
176
     1
173
     0
176
     1
  0
VISUALSTYLE
  5
285
102
{ACAD_REACTORS
330
273
102
}
330
273
100
AcDbVisualStyle
  2
OverhangOff
 70
    21
177
     2
291
     1
 71
     2
176
     0
 72
     2
176
     0
 73
     0
176
     0
 90
        0
176
     0
 40
0.6
176
     0
 41
30.0
176
     0
 63
     7
421
 16777215
176
     0
 74
     1
176
     0
 91
        4
176
     0
 64
     7
176
     0
 65
   257
176
     0
 75
     1
176
     0
175
     1
176
     0
 42
1.0
176
     0
 92
        9
176
     2
 66
     7
176
     0
 43
1.0
176
     0
 76
     1
176
     0
 77
     6
176
     0
 78
     2
176
     0
 67
     7
176
     0
 79
     5
176
     0
170
     0
176
     0
171
     0
176
     0
290
     0
176
     0
 93
        1
176
     0
 44
0.0
176
     0
173
     0
176
     0
  0
VISUALSTYLE
  5
27D
102
{ACAD_REACTORS
330
273
102
}
330
273
100
AcDbVisualStyle
  2
Realistic
 70
     8
177
     2
291
     0
 71
     2
176
     1
 72
     2
176
     1
 73
     0
176
     1
 90
        0
176
     1
 40
0.6
176
     1
 41
30.0
176
     1
 63
     7
421
 16777215
176
     1
 74
     1
176
     1
 91
        0
176
     1
 64
     7
176
     1
 65
   257
176
     1
 75
     1
176
     1
175
     1
176
     1
 42
1.0
176
     1
 92
        8
176
     1
 66
     8
424
  7895160
176
     1
 43
1.0
176
     1
 76
     1
176
     1
 77
     6
176
     1
 78
     2
176
     1
 67
     7
176
     1
 79
     5
176
     1
170
     0
176
     1
171
     0
176
     1
290
     0
176
     1
 93
       13
176
     1
 44
0.0
176
     1
173
     0
176
     1
  0
VISUALSTYLE
  5
280
102
{ACAD_REACTORS
330
273
102
}
330
273
100
AcDbVisualStyle
  2
Thicken
 70
    13
177
     2
291
     1
 71
     2
176
     1
 72
     2
176
     1
 73
     0
176
     1
 90
        0
176
     1
 40
0.6
176
     1
 41
30.0
176
     1
 63
     7
421
 16777215
176
     1
 74
     1
176
     1
 91
        4
176
     1
 64
     7
176
     1
 65
   257
176
     1
 75
     1
176
     1
175
     1
176
     1
 42
1.0
176
     1
 92
       12
176
     1
 66
     7
176
     1
 43
1.0
176
     1
 76
     1
176
     1
 77
     6
176
     1
 78
     2
176
     1
 67
     7
176
     1
 79
     5
176
     1
170
     0
176
     1
171
     0
176
     1
290
     0
176
     1
 93
        1
176
     1
 44
0.0
176
     1
173
     0
176
     1
  0
DICTIONARYVAR
  5
2A5
102
{ACAD_REACTORS
330
5E
102
}
330
5E
100
DictionaryVariables
280
     0
  1
1:1
  0
DICTIONARYVAR
  5
2A3
102
{ACAD_REACTORS
330
5E
102
}
330
5E
100
DictionaryVariables
280
     0
  1
STANDARD
  0
DICTIONARYVAR
  5
2A2
102
{ACAD_REACTORS
330
5E
102
}
330
5E
100
DictionaryVariables
280
     0
  1
STANDARD
  0
DICTIONARYVAR
  5
5F
102
{ACAD_REACTORS
330
5E
102
}
330
5E
100
DictionaryVariables
280
     0
  1
2
  0
DICTIONARYVAR
  5
63
102
{ACAD_REACTORS
330
5E
102
}
330
5E
100
DictionaryVariables
280
     0
  1
1
  0
DICTIONARYVAR
  5
2A7
102
{ACAD_REACTORS
330
5E
102
}
330
5E
100
DictionaryVariables
280
     0
  1
1
  0
DICTIONARYVAR
  5
2A8
102
{ACAD_REACTORS
330
5E
102
}
330
5E
100
DictionaryVariables
280
     0
  1
15
  0
DICTIONARYVAR
  5
2A6
102
{ACAD_REACTORS
330
5E
102
}
330
5E
100
DictionaryVariables
280
     0
  1
0
  0
DICTIONARYVAR
  5
2A4
102
{ACAD_REACTORS
330
5E
102
}
330
5E
100
DictionaryVariables
280
     0
  1
0
  0
DICTIONARY
  5
264
330
263
100
AcDbDictionary
280
     1
281
     1
  3
BUMPTILE
360
266
  3
DIFFUSETILE
360
265
  3
OPACITYTILE
360
269
  3
REFLECTIONTILE
360
268
  3
REFRACTIONTILE
360
26A
  3
SPECULARTILE
360
267
  0
DICTIONARY
  5
25C
330
25B
100
AcDbDictionary
280
     1
281
     1
  3
BUMPTILE
360
25E
  3
DIFFUSETILE
360
25D
  3
OPACITYTILE
360
261
  3
REFLECTIONTILE
360
260
  3
REFRACTIONTILE
360
262
  3
SPECULARTILE
360
25F
  0
DICTIONARY
  5
26C
330
26B
100
AcDbDictionary
280
     1
281
     1
  3
BUMPTILE
360
26E
  3
DIFFUSETILE
360
26D
  3
OPACITYTILE
360
271
  3
REFLECTIONTILE
360
270
  3
REFRACTIONTILE
360
272
  3
SPECULARTILE
360
26F
  0
DICTIONARY
  5
2A9
330
289
100
AcDbDictionary
280
     1
281
     1
  3
ACAD_ROUNDTRIP_2008_TABLESTYLE_CELLSTYLEMAP
360
2AA
  0
XRECORD
  5
266
102
{ACAD_REACTORS
330
264
102
}
330
264
100
AcDbXrecord
280
     1
270
     1
271
     1
  0
XRECORD
  5
265
102
{ACAD_REACTORS
330
264
102
}
330
264
100
AcDbXrecord
280
     1
270
     1
271
     1
  0
XRECORD
  5
269
102
{ACAD_REACTORS
330
264
102
}
330
264
100
AcDbXrecord
280
     1
270
     1
271
     1
  0
XRECORD
  5
268
102
{ACAD_REACTORS
330
264
102
}
330
264
100
AcDbXrecord
280
     1
270
     1
271
     1
  0
XRECORD
  5
26A
102
{ACAD_REACTORS
330
264
102
}
330
264
100
AcDbXrecord
280
     1
270
     1
271
     1
  0
XRECORD
  5
267
102
{ACAD_REACTORS
330
264
102
}
330
264
100
AcDbXrecord
280
     1
270
     1
271
     1
  0
XRECORD
  5
25E
102
{ACAD_REACTORS
330
25C
102
}
330
25C
100
AcDbXrecord
280
     1
270
     1
271
     1
  0
XRECORD
  5
25D
102
{ACAD_REACTORS
330
25C
102
}
330
25C
100
AcDbXrecord
280
     1
270
     1
271
     1
  0
XRECORD
  5
261
102
{ACAD_REACTORS
330
25C
102
}
330
25C
100
AcDbXrecord
280
     1
270
     1
271
     1
  0
XRECORD
  5
260
102
{ACAD_REACTORS
330
25C
102
}
330
25C
100
AcDbXrecord
280
     1
270
     1
271
     1
  0
XRECORD
  5
262
102
{ACAD_REACTORS
330
25C
102
}
330
25C
100
AcDbXrecord
280
     1
270
     1
271
     1
  0
XRECORD
  5
25F
102
{ACAD_REACTORS
330
25C
102
}
330
25C
100
AcDbXrecord
280
     1
270
     1
271
     1
  0
XRECORD
  5
26E
102
{ACAD_REACTORS
330
26C
102
}
330
26C
100
AcDbXrecord
280
     1
270
     1
271
     1
  0
XRECORD
  5
26D
102
{ACAD_REACTORS
330
26C
102
}
330
26C
100
AcDbXrecord
280
     1
270
     1
271
     1
  0
XRECORD
  5
271
102
{ACAD_REACTORS
330
26C
102
}
330
26C
100
AcDbXrecord
280
     1
270
     1
271
     1
  0
XRECORD
  5
270
102
{ACAD_REACTORS
330
26C
102
}
330
26C
100
AcDbXrecord
280
     1
270
     1
271
     1
  0
XRECORD
  5
272
102
{ACAD_REACTORS
330
26C
102
}
330
26C
100
AcDbXrecord
280
     1
270
     1
271
     1
  0
XRECORD
  5
26F
102
{ACAD_REACTORS
330
26C
102
}
330
26C
100
AcDbXrecord
280
     1
270
     1
271
     1
  0
CELLSTYLEMAP
  5
2AA
102
{ACAD_REACTORS
330
2A9
102
}
330
2A9
100
AcDbCellStyleMap
 90
        3
300
CELLSTYLE
  1
TABLEFORMAT_BEGIN
 90
        5
170
     1
 91
        0
 92
    32768
 62
   257
 93
        1
300
CONTENTFORMAT
  1
CONTENTFORMAT_BEGIN
 90
        0
 91
        0
 92
      512
 93
        0
300

 40
0.0
140
1.0
 94
        5
 62
     0
340
11
144
6.0
309
CONTENTFORMAT_END
171
     1
301
MARGIN
  1
CELLMARGIN_BEGIN
 40
1.5
 40
1.5
 40
1.5
 40
1.5
 40
4.5
 40
4.5
309
CELLMARGIN_END
 94
        6
 95
        1
302
GRIDFORMAT
  1
GRIDFORMAT_BEGIN
 90
        0
 91
        1
 62
     0
 92
       -2
340
0
 93
        0
 40
1.125
309
GRIDFORMAT_END
 95
        2
302
GRIDFORMAT
  1
GRIDFORMAT_BEGIN
 90
        0
 91
        1
 62
     0
 92
       -2
340
0
 93
        0
 40
1.125
309
GRIDFORMAT_END
 95
        4
302
GRIDFORMAT
  1
GRIDFORMAT_BEGIN
 90
        0
 91
        1
 62
     0
 92
       -2
340
0
 93
        0
 40
1.125
309
GRIDFORMAT_END
 95
        8
302
GRIDFORMAT
  1
GRIDFORMAT_BEGIN
 90
        0
 91
        1
 62
     0
 92
       -2
340
0
 93
        0
 40
1.125
309
GRIDFORMAT_END
 95
       16
302
GRIDFORMAT
  1
GRIDFORMAT_BEGIN
 90
        0
 91
        1
 62
     0
 92
       -2
340
0
 93
        0
 40
1.125
309
GRIDFORMAT_END
 95
       32
302
GRIDFORMAT
  1
GRIDFORMAT_BEGIN
 90
        0
 91
        1
 62
     0
 92
       -2
340
0
 93
        0
 40
1.125
309
GRIDFORMAT_END
309
TABLEFORMAT_END
  1
CELLSTYLE_BEGIN
 90
        1
 91
        1
300
_TITLE
309
CELLSTYLE_END
300
CELLSTYLE
  1
TABLEFORMAT_BEGIN
 90
        5
170
     1
 91
        0
 92
        0
 62
   257
 93
        1
300
CONTENTFORMAT
  1
CONTENTFORMAT_BEGIN
 90
        0
 91
        0
 92
      512
 93
        0
300

 40
0.0
140
1.0
 94
        5
 62
     0
340
11
144
4.5
309
CONTENTFORMAT_END
171
     1
301
MARGIN
  1
CELLMARGIN_BEGIN
 40
1.5
 40
1.5
 40
1.5
 40
1.5
 40
4.5
 40
4.5
309
CELLMARGIN_END
 94
        6
 95
        1
302
GRIDFORMAT
  1
GRIDFORMAT_BEGIN
 90
        0
 91
        1
 62
     0
 92
       -2
340
0
 93
        0
 40
1.125
309
GRIDFORMAT_END
 95
        2
302
GRIDFORMAT
  1
GRIDFORMAT_BEGIN
 90
        0
 91
        1
 62
     0
 92
       -2
340
0
 93
        0
 40
1.125
309
GRIDFORMAT_END
 95
        4
302
GRIDFORMAT
  1
GRIDFORMAT_BEGIN
 90
        0
 91
        1
 62
     0
 92
       -2
340
0
 93
        0
 40
1.125
309
GRIDFORMAT_END
 95
        8
302
GRIDFORMAT
  1
GRIDFORMAT_BEGIN
 90
        0
 91
        1
 62
     0
 92
       -2
340
0
 93
        0
 40
1.125
309
GRIDFORMAT_END
 95
       16
302
GRIDFORMAT
  1
GRIDFORMAT_BEGIN
 90
        0
 91
        1
 62
     0
 92
       -2
340
0
 93
        0
 40
1.125
309
GRIDFORMAT_END
 95
       32
302
GRIDFORMAT
  1
GRIDFORMAT_BEGIN
 90
        0
 91
        1
 62
     0
 92
       -2
340
0
 93
        0
 40
1.125
309
GRIDFORMAT_END
309
TABLEFORMAT_END
  1
CELLSTYLE_BEGIN
 90
        2
 91
        1
300
_HEADER
309
CELLSTYLE_END
300
CELLSTYLE
  1
TABLEFORMAT_BEGIN
 90
        5
170
     1
 91
        0
 92
        0
 62
   257
 93
        1
300
CONTENTFORMAT
  1
CONTENTFORMAT_BEGIN
 90
        0
 91
        0
 92
      512
 93
        0
300

 40
0.0
140
1.0
 94
        2
 62
     0
340
11
144
4.5
309
CONTENTFORMAT_END
171
     1
301
MARGIN
  1
CELLMARGIN_BEGIN
 40
1.5
 40
1.5
 40
1.5
 40
1.5
 40
4.5
 40
4.5
309
CELLMARGIN_END
 94
        6
 95
        1
302
GRIDFORMAT
  1
GRIDFORMAT_BEGIN
 90
        0
 91
        1
 62
     0
 92
       -2
340
0
 93
        0
 40
1.125
309
GRIDFORMAT_END
 95
        2
302
GRIDFORMAT
  1
GRIDFORMAT_BEGIN
 90
        0
 91
        1
 62
     0
 92
       -2
340
0
 93
        0
 40
1.125
309
GRIDFORMAT_END
 95
        4
302
GRIDFORMAT
  1
GRIDFORMAT_BEGIN
 90
        0
 91
        1
 62
     0
 92
       -2
340
0
 93
        0
 40
1.125
309
GRIDFORMAT_END
 95
        8
302
GRIDFORMAT
  1
GRIDFORMAT_BEGIN
 90
        0
 91
        1
 62
     0
 92
       -2
340
0
 93
        0
 40
1.125
309
GRIDFORMAT_END
 95
       16
302
GRIDFORMAT
  1
GRIDFORMAT_BEGIN
 90
        0
 91
        1
 62
     0
 92
       -2
340
0
 93
        0
 40
1.125
309
GRIDFORMAT_END
 95
       32
302
GRIDFORMAT
  1
GRIDFORMAT_BEGIN
 90
        0
 91
        1
 62
     0
 92
       -2
340
0
 93
        0
 40
1.125
309
GRIDFORMAT_END
309
TABLEFORMAT_END
  1
CELLSTYLE_BEGIN
 90
        3
 91
        2
300
_DATA
309
CELLSTYLE_END
  0
ENDSEC
  0
EOF
