  0
SECTION
  2
HEADER
  9
$ACADVER
  1
AC1024
  9
$ACADMAINTVER
 70
     6
  9
$DWGCODEPAGE
  3
ANSI_932
  9
$LASTSAVEDBY
  1
kanatani
  9
$INSBASE
 10
0.0
 20
0.0
 30
0.0
  9
$EXTMIN
 10
-174.1900661038494
 20
-150.686168480657
 30
0.0
  9
$EXTMAX
 10
146.8454895019531
 20
283.3279281411204
 30
0.0
  9
$LIMMIN
 10
0.0
 20
0.0
  9
$LIMMAX
 10
420.0
 20
297.0
  9
$ORTHOMODE
 70
     0
  9
$REGENMODE
 70
     1
  9
$FILLMODE
 70
     1
  9
$QTEXTMODE
 70
     0
  9
$MIRRTEXT
 70
     1
  9
$LTSCALE
 40
0.2
  9
$ATTMODE
 70
     1
  9
$TEXTSIZE
 40
2.5
  9
$TRACEWID
 40
1.0
  9
$TEXTSTYLE
  7
Standard
  9
$CLAYER
  8
0
  9
$CELTYPE
  6
ByLayer
  9
$CECOLOR
 62
   256
  9
$CELTSCALE
 40
1.0
  9
$DISPSILH
 70
     0
  9
$DIMSCALE
 40
1.0
  9
$DIMASZ
 40
2.5
  9
$DIMEXO
 40
0.625
  9
$DIMDLI
 40
3.75
  9
$DIMRND
 40
0.0
  9
$DIMDLE
 40
0.0
  9
$DIMEXE
 40
1.25
  9
$DIMTP
 40
0.0
  9
$DIMTM
 40
0.0
  9
$DIMTXT
 40
2.5
  9
$DIMCEN
 40
2.5
  9
$DIMTSZ
 40
0.0
  9
$DIMTOL
 70
     0
  9
$DIMLIM
 70
     0
  9
$DIMTIH
 70
     0
  9
$DIMTOH
 70
     0
  9
$DIMSE1
 70
     0
  9
$DIMSE2
 70
     0
  9
$DIMTAD
 70
     1
  9
$DIMZIN
 70
     8
  9
$DIMBLK
  1

  9
$DIMASO
 70
     1
  9
$DIMSHO
 70
     1
  9
$DIMPOST
  1

  9
$DIMAPOST
  1

  9
$DIMALT
 70
     0
  9
$DIMALTD
 70
     3
  9
$DIMALTF
 40
0.03937007874016
  9
$DIMLFAC
 40
1.0
  9
$DIMTOFL
 70
     1
  9
$DIMTVP
 40
0.0
  9
$DIMTIX
 70
     0
  9
$DIMSOXD
 70
     0
  9
$DIMSAH
 70
     0
  9
$DIMBLK1
  1

  9
$DIMBLK2
  1

  9
$DIMSTYLE
  2
ISO-25
  9
$DIMCLRD
 70
     0
  9
$DIMCLRE
 70
     0
  9
$DIMCLRT
 70
     0
  9
$DIMTFAC
 40
1.0
  9
$DIMGAP
 40
0.625
  9
$DIMJUST
 70
     0
  9
$DIMSD1
 70
     0
  9
$DIMSD2
 70
     0
  9
$DIMTOLJ
 70
     0
  9
$DIMTZIN
 70
     8
  9
$DIMALTZ
 70
     0
  9
$DIMALTTZ
 70
     0
  9
$DIMUPT
 70
     0
  9
$DIMDEC
 70
     2
  9
$DIMTDEC
 70
     2
  9
$DIMALTU
 70
     2
  9
$DIMALTTD
 70
     3
  9
$DIMTXSTY
  7
Standard
  9
$DIMAUNIT
 70
     0
  9
$DIMADEC
 70
     0
  9
$DIMALTRND
 40
0.0
  9
$DIMAZIN
 70
     0
  9
$DIMDSEP
 70
    44
  9
$DIMATFIT
 70
     3
  9
$DIMFRAC
 70
     0
  9
$DIMLDRBLK
  1

  9
$DIMLUNIT
 70
     2
  9
$DIMLWD
 70
    -2
  9
$DIMLWE
 70
    -2
  9
$DIMTMOVE
 70
     0
  9
$DIMFXL
 40
1.0
  9
$DIMFXLON
 70
     0
  9
$DIMJOGANG
 40
0.7853981633974483
  9
$DIMTFILL
 70
     0
  9
$DIMTFILLCLR
 70
     0
  9
$DIMARCSYM
 70
     0
  9
$DIMLTYPE
  6

  9
$DIMLTEX1
  6

  9
$DIMLTEX2
  6

  9
$DIMTXTDIRECTION
 70
     0
  9
$LUNITS
 70
     2
  9
$LUPREC
 70
     4
  9
$SKETCHINC
 40
1.0
  9
$FILLETRAD
 40
10.0
  9
$AUNITS
 70
     0
  9
$AUPREC
 70
     0
  9
$MENU
  1
.
  9
$ELEVATION
 40
0.0
  9
$PELEVATION
 40
0.0
  9
$THICKNESS
 40
0.0
  9
$LIMCHECK
 70
     0
  9
$CHAMFERA
 40
10.0
  9
$CHAMFERB
 40
10.0
  9
$CHAMFERC
 40
20.0
  9
$CHAMFERD
 40
0.0
  9
$SKPOLY
 70
     0
  9
$TDCREATE
 40
2456874.593217083
  9
$TDUCREATE
 40
2456874.218217083
  9
$TDUPDATE
 40
2456910.415297859
  9
$TDUUPDATE
 40
2456910.040297859
  9
$TDINDWG
 40
0.0019482870
  9
$TDUSRTIMER
 40
0.0019482755
  9
$USRTIMER
 70
     1
  9
$ANGBASE
 50
0.0
  9
$ANGDIR
 70
     0
  9
$PDMODE
 70
     0
  9
$PDSIZE
 40
0.0
  9
$PLINEWID
 40
0.0
  9
$SPLFRAME
 70
     0
  9
$SPLINETYPE
 70
     6
  9
$SPLINESEGS
 70
     8
  9
$HANDSEED
  5
40E
  9
$SURFTAB1
 70
     6
  9
$SURFTAB2
 70
     6
  9
$SURFTYPE
 70
     6
  9
$SURFU
 70
     6
  9
$SURFV
 70
     6
  9
$UCSBASE
  2

  9
$UCSNAME
  2

  9
$UCSORG
 10
0.0
 20
0.0
 30
0.0
  9
$UCSXDIR
 10
1.0
 20
0.0
 30
0.0
  9
$UCSYDIR
 10
0.0
 20
1.0
 30
0.0
  9
$UCSORTHOREF
  2

  9
$UCSORTHOVIEW
 70
     0
  9
$UCSORGTOP
 10
0.0
 20
0.0
 30
0.0
  9
$UCSORGBOTTOM
 10
0.0
 20
0.0
 30
0.0
  9
$UCSORGLEFT
 10
0.0
 20
0.0
 30
0.0
  9
$UCSORGRIGHT
 10
0.0
 20
0.0
 30
0.0
  9
$UCSORGFRONT
 10
0.0
 20
0.0
 30
0.0
  9
$UCSORGBACK
 10
0.0
 20
0.0
 30
0.0
  9
$PUCSBASE
  2

  9
$PUCSNAME
  2

  9
$PUCSORG
 10
0.0
 20
0.0
 30
0.0
  9
$PUCSXDIR
 10
1.0
 20
0.0
 30
0.0
  9
$PUCSYDIR
 10
0.0
 20
1.0
 30
0.0
  9
$PUCSORTHOREF
  2

  9
$PUCSORTHOVIEW
 70
     0
  9
$PUCSORGTOP
 10
0.0
 20
0.0
 30
0.0
  9
$PUCSORGBOTTOM
 10
0.0
 20
0.0
 30
0.0
  9
$PUCSORGLEFT
 10
0.0
 20
0.0
 30
0.0
  9
$PUCSORGRIGHT
 10
0.0
 20
0.0
 30
0.0
  9
$PUCSORGFRONT
 10
0.0
 20
0.0
 30
0.0
  9
$PUCSORGBACK
 10
0.0
 20
0.0
 30
0.0
  9
$USERI1
 70
     0
  9
$USERI2
 70
     0
  9
$USERI3
 70
     0
  9
$USERI4
 70
     0
  9
$USERI5
 70
     0
  9
$USERR1
 40
0.0
  9
$USERR2
 40
0.0
  9
$USERR3
 40
0.0
  9
$USERR4
 40
0.0
  9
$USERR5
 40
0.0
  9
$WORLDVIEW
 70
     1
  9
$SHADEDGE
 70
     3
  9
$SHADEDIF
 70
    70
  9
$TILEMODE
 70
     1
  9
$MAXACTVP
 70
    64
  9
$PINSBASE
 10
0.0
 20
0.0
 30
0.0
  9
$PLIMCHECK
 70
     0
  9
$PEXTMIN
 10
26.66076962115563
 20
20.31135699206658
 30
-0.0015258207003583
  9
$PEXTMAX
 10
240.039213369355
 20
182.8886381005154
 30
0.0000000349246037
  9
$PLIMMIN
 10
-6.350006103515625
 20
-6.349999904632568
  9
$PLIMMAX
 10
273.0499877929688
 20
209.5499939918518
  9
$UNITMODE
 70
     0
  9
$VISRETAIN
 70
     1
  9
$PLINEGEN
 70
     0
  9
$PSLTSCALE
 70
     1
  9
$TREEDEPTH
 70
  3020
  9
$CMLSTYLE
  2
Standard
  9
$CMLJUST
 70
     0
  9
$CMLSCALE
 40
20.0
  9
$PROXYGRAPHICS
 70
     1
  9
$MEASUREMENT
 70
     1
  9
$CELWEIGHT
370
    -1
  9
$ENDCAPS
280
     0
  9
$JOINSTYLE
280
     0
  9
$LWDISPLAY
290
     0
  9
$INSUNITS
 70
     4
  9
$HYPERLINKBASE
  1

  9
$STYLESHEET
  1

  9
$XEDIT
290
     1
  9
$CEPSNTYPE
380
     0
  9
$PSTYLEMODE
290
     1
  9
$FINGERPRINTGUID
  2
{FDEAD578-A652-11D2-9A35-0060089B3A3F}
  9
$VERSIONGUID
  2
{AA82C0D9-4A70-4E93-92F1-7F0D2AE04B37}
  9
$EXTNAMES
290
     1
  9
$PSVPSCALE
 40
0.0
  9
$OLESTARTUP
290
     0
  9
$SORTENTS
280
   127
  9
$INDEXCTL
280
     0
  9
$HIDETEXT
280
     1
  9
$XCLIPFRAME
280
     2
  9
$HALOGAP
280
     0
  9
$OBSCOLOR
 70
   257
  9
$OBSLTYPE
280
     0
  9
$INTERSECTIONDISPLAY
280
     0
  9
$INTERSECTIONCOLOR
 70
   257
  9
$DIMASSOC
280
     2
  9
$PROJECTNAME
  1

  9
$CAMERADISPLAY
290
     0
  9
$LENSLENGTH
 40
50.0
  9
$CAMERAHEIGHT
 40
0.0
  9
$STEPSPERSEC
 40
2.0
  9
$STEPSIZE
 40
6.0
  9
$3DDWFPREC
 40
2.0
  9
$PSOLWIDTH
 40
0.25
  9
$PSOLHEIGHT
 40
4.0
  9
$LOFTANG1
 40
1.570796326794896
  9
$LOFTANG2
 40
1.570796326794896
  9
$LOFTMAG1
 40
0.0
  9
$LOFTMAG2
 40
0.0
  9
$LOFTPARAM
 70
     7
  9
$LOFTNORMALS
280
     1
  9
$LATITUDE
 40
37.795
  9
$LONGITUDE
 40
-122.394
  9
$NORTHDIRECTION
 40
0.0
  9
$TIMEZONE
 70
 -8000
  9
$LIGHTGLYPHDISPLAY
280
     1
  9
$TILEMODELIGHTSYNCH
280
     1
  9
$CMATERIAL
347
3BD
  9
$SOLIDHIST
280
     1
  9
$SHOWHIST
280
     1
  9
$DWFFRAME
280
     2
  9
$DGNFRAME
280
     0
  9
$REALWORLDSCALE
290
     1
  9
$INTERFERECOLOR
 62
     1
  9
$INTERFEREOBJVS
345
3DF
  9
$INTERFEREVPVS
346
3DC
  9
$CSHADOW
280
     0
  9
$SHADOWPLANELOCATION
 40
0.0
  0
ENDSEC
  0
SECTION
  2
CLASSES
  0
CLASS
  1
ACDBDICTIONARYWDFLT
  2
AcDbDictionaryWithDefault
  3
ObjectDBX Classes
 90
        0
 91
        1
280
     0
281
     0
  0
CLASS
  1
DICTIONARYVAR
  2
AcDbDictionaryVar
  3
ObjectDBX Classes
 90
        0
 91
        9
280
     0
281
     0
  0
CLASS
  1
MATERIAL
  2
AcDbMaterial
  3
ObjectDBX Classes
 90
     1153
 91
        3
280
     0
281
     0
  0
CLASS
  1
VISUALSTYLE
  2
AcDbVisualStyle
  3
ObjectDBX Classes
 90
     4095
 91
       19
280
     0
281
     0
  0
CLASS
  1
TABLESTYLE
  2
AcDbTableStyle
  3
ObjectDBX Classes
 90
     4095
 91
        1
280
     0
281
     0
  0
CLASS
  1
SCALE
  2
AcDbScale
  3
ObjectDBX Classes
 90
     1153
 91
       17
280
     0
281
     0
  0
CLASS
  1
MLEADERSTYLE
  2
AcDbMLeaderStyle
  3
ACDB_MLEADERSTYLE_CLASS
 90
     4095
 91
        1
280
     0
281
     0
  0
CLASS
  1
CELLSTYLEMAP
  2
AcDbCellStyleMap
  3
ObjectDBX Classes
 90
     1152
 91
        1
280
     0
281
     0
  0
ENDSEC
  0
SECTION
  2
TABLES
  0
TABLE
  2
VPORT
  5
8
330
0
100
AcDbSymbolTable
 70
     1
  0
VPORT
  5
3BA
330
8
100
AcDbSymbolTableRecord
100
AcDbViewportTableRecord
  2
*Active
 70
     0
 10
0.0
 20
0.0
 11
1.0
 21
1.0
 12
-13.66902458742567
 22
77.64104239249371
 13
0.0
 23
0.0
 14
10.0
 24
10.0
 15
10.0
 25
10.0
 16
0.0
 26
0.0
 36
1.0
 17
0.0
 27
0.0
 37
0.0
 40
459.4521727707125
 41
1.857142857142857
 42
50.0
 43
0.0
 44
0.0
 50
0.0
 51
0.0
 71
     0
 72
   100
 73
     1
 74
     3
 75
     0
 76
     0
 77
     0
 78
     0
281
     0
 65
     1
110
0.0
120
0.0
130
0.0
111
1.0
121
0.0
131
0.0
112
0.0
122
1.0
132
0.0
 79
     0
146
0.0
348
3DB
 60
     3
 61
     5
292
     1
282
     1
141
0.0
142
0.0
 63
   250
421
  3355443
  0
ENDTAB
  0
TABLE
  2
LTYPE
  5
5
330
0
100
AcDbSymbolTable
 70
     4
  0
LTYPE
  5
14
330
5
100
AcDbSymbolTableRecord
100
AcDbLinetypeTableRecord
  2
ByBlock
 70
     0
  3

 72
    65
 73
     0
 40
0.0
  0
LTYPE
  5
15
330
5
100
AcDbSymbolTableRecord
100
AcDbLinetypeTableRecord
  2
ByLayer
 70
     0
  3

 72
    65
 73
     0
 40
0.0
  0
LTYPE
  5
16
330
5
100
AcDbSymbolTableRecord
100
AcDbLinetypeTableRecord
  2
Continuous
 70
     0
  3
Solid line
 72
    65
 73
     0
 40
0.0
  0
LTYPE
  5
8D
330
5
100
AcDbSymbolTableRecord
100
AcDbLinetypeTableRecord
  2
CENTER
 70
     0
  3
Center ____ _ ____ _ ____ _ ____ _ ____ _ ____
 72
    65
 73
     4
 40
50.8
 49
31.75
 74
     0
 49
-6.349999999999999
 74
     0
 49
6.349999999999999
 74
     0
 49
-6.349999999999999
 74
     0
  0
LTYPE
  5
8E
330
5
100
AcDbSymbolTableRecord
100
AcDbLinetypeTableRecord
  2
PHANTOM
 70
     0
  3
Phantom ______  __  __  ______  __  __  ______
 72
    65
 73
     6
 40
63.5
 49
31.75
 74
     0
 49
-6.349999999999999
 74
     0
 49
6.349999999999999
 74
     0
 49
-6.349999999999999
 74
     0
 49
6.349999999999999
 74
     0
 49
-6.349999999999999
 74
     0
  0
LTYPE
  5
3AE
330
5
100
AcDbSymbolTableRecord
100
AcDbLinetypeTableRecord
  2
DASHED
 70
     0
  3
Dashed __ __ __ __ __ __ __ __ __ __ __ __ __ _
 72
    65
 73
     2
 40
19.05
 49
12.7
 74
     0
 49
-6.349999999999999
 74
     0
  0
ENDTAB
  0
TABLE
  2
LAYER
  5
2
102
{ACAD_XDICTIONARY
360
97
102
}
330
0
100
AcDbSymbolTable
 70
     3
  0
LAYER
  5
10
102
{ACAD_XDICTIONARY
360
402
102
}
330
2
100
AcDbSymbolTableRecord
100
AcDbLayerTableRecord
  2
0
 70
     0
 62
     7
  6
Continuous
370
    -3
390
F
347
3CD
  0
LAYER
  5
8F
102
{ACAD_XDICTIONARY
360
90
102
}
330
2
100
AcDbSymbolTableRecord
100
AcDbLayerTableRecord
  2
2
 70
     0
 62
     2
  6
PHANTOM
370
    -3
390
F
347
3CD
1001
AcAecLayerStandard
1000

1000

1001
ACCMTRANSPARENCY
1071
        0
  0
LAYER
  5
92
102
{ACAD_XDICTIONARY
360
93
102
}
330
2
100
AcDbSymbolTableRecord
100
AcDbLayerTableRecord
  2
1
 70
     0
 62
     5
  6
CENTER
370
    -3
390
F
347
3CD
1001
AcAecLayerStandard
1000

1000

1001
ACCMTRANSPARENCY
1071
        0
  0
ENDTAB
  0
TABLE
  2
STYLE
  5
3
330
0
100
AcDbSymbolTable
 70
     1
  0
STYLE
  5
11
330
3
100
AcDbSymbolTableRecord
100
AcDbTextStyleTableRecord
  2
Standard
 70
     0
 40
0.0
 41
1.0
 50
0.0
 71
     0
 42
2.5
  3
txt
  4

  0
ENDTAB
  0
TABLE
  2
VIEW
  5
6
330
0
100
AcDbSymbolTable
 70
     0
  0
ENDTAB
  0
TABLE
  2
UCS
  5
7
330
0
100
AcDbSymbolTable
 70
     0
  0
ENDTAB
  0
TABLE
  2
APPID
  5
9
330
0
100
AcDbSymbolTable
 70
     3
  0
APPID
  5
12
330
9
100
AcDbSymbolTableRecord
100
AcDbRegAppTableRecord
  2
ACAD
 70
     0
  0
APPID
  5
95
330
9
100
AcDbSymbolTableRecord
100
AcDbRegAppTableRecord
  2
AcAecLayerStandard
 70
     0
  0
APPID
  5
96
330
9
100
AcDbSymbolTableRecord
100
AcDbRegAppTableRecord
  2
ACCMTRANSPARENCY
 70
     0
  0
ENDTAB
  0
TABLE
  2
DIMSTYLE
  5
A
330
0
100
AcDbSymbolTable
 70
     1
100
AcDbDimStyleTable
 71
     0
  0
DIMSTYLE
105
27
330
A
100
AcDbSymbolTableRecord
100
AcDbDimStyleTableRecord
  2
ISO-25
 70
     0
 41
2.5
 42
0.625
 43
3.75
 44
1.25
 73
     0
 74
     0
 77
     1
 78
     8
140
2.5
141
2.5
143
0.03937007874016
147
0.625
171
     3
172
     1
271
     2
272
     2
274
     3
278
    44
283
     0
284
     8
340
11
  0
ENDTAB
  0
TABLE
  2
BLOCK_RECORD
  5
1
330
0
100
AcDbSymbolTable
 70
     1
  0
BLOCK_RECORD
  5
1F
330
1
100
AcDbSymbolTableRecord
100
AcDbBlockTableRecord
  2
*Model_Space
340
22
 70
     0
280
     1
281
     0
  0
BLOCK_RECORD
  5
55
330
1
100
AcDbSymbolTableRecord
100
AcDbBlockTableRecord
  2
*Paper_Space
340
56
 70
     0
280
     1
281
     0
  0
BLOCK_RECORD
  5
50
330
1
100
AcDbSymbolTableRecord
100
AcDbBlockTableRecord
  2
*Paper_Space0
340
51
 70
     0
280
     1
281
     0
  0
ENDTAB
  0
ENDSEC
  0
SECTION
  2
BLOCKS
  0
BLOCK
  5
20
330
1F
100
AcDbEntity
  8
0
100
AcDbBlockBegin
  2
*Model_Space
 70
     0
 10
0.0
 20
0.0
 30
0.0
  3
*Model_Space
  1

  0
ENDBLK
  5
21
330
1F
100
AcDbEntity
  8
0
100
AcDbBlockEnd
  0
BLOCK
  5
57
330
55
100
AcDbEntity
 67
     1
  8
0
100
AcDbBlockBegin
  2
*Paper_Space
 70
     0
 10
0.0
 20
0.0
 30
0.0
  3
*Paper_Space
  1

  0
ENDBLK
  5
58
330
55
100
AcDbEntity
 67
     1
  8
0
100
AcDbBlockEnd
  0
BLOCK
  5
52
330
50
100
AcDbEntity
 67
     1
  8
0
100
AcDbBlockBegin
  2
*Paper_Space0
 70
     0
 10
0.0
 20
0.0
 30
0.0
  3
*Paper_Space0
  1

  0
VIEWPORT
  5
6B
330
50
100
AcDbEntity
 67
     1
  8
0
100
AcDbViewport
 10
133.3499908447266
 20
101.5999970436096
 30
0.0
 40
381.3957395593835
 41
218.2856291881582
 68
     0
 69
     0
 12
133.3499908447266
 22
101.5999970436096
 13
0.0
 23
0.0
 14
10.0
 24
10.0
 15
10.0
 25
10.0
 16
0.0
 26
0.0
 36
1.0
 17
0.0
 27
0.0
 37
0.0
 42
50.0
 43
0.0
 44
0.0
 45
218.2856291881582
 50
0.0
 51
0.0
 72
   100
 90
    32800
  1

281
     0
 71
     1
 74
     0
110
0.0
120
0.0
130
0.0
111
1.0
121
0.0
131
0.0
112
0.0
122
1.0
132
0.0
 79
     0
146
0.0
170
     0
 61
     5
348
3DB
292
     1
282
     1
141
0.0
142
0.0
 63
   250
421
  3355443
  0
VIEWPORT
  5
6D
330
50
100
AcDbEntity
 67
     1
  8
0
100
AcDbViewport
 10
133.3499939441681
 20
101.5999939441681
 30
0.0
 40
213.3599903106689
 41
162.5599903106689
 68
     0
 69
     0
 12
210.0
 22
148.5
 13
0.0
 23
0.0
 14
10.0
 24
10.0
 15
10.0
 25
10.0
 16
0.0
 26
0.0
 36
1.0
 17
0.0
 27
0.0
 37
0.0
 42
50.0
 43
0.0
 44
0.0
 45
324.0677920111345
 50
0.0
 51
0.0
 72
   100
 90
    32864
  1

281
     0
 71
     1
 74
     0
110
0.0
120
0.0
130
0.0
111
1.0
121
0.0
131
0.0
112
0.0
122
1.0
132
0.0
 79
     0
146
0.0
170
     0
 61
     5
348
3DB
292
     1
282
     1
141
0.0
142
0.0
 63
   250
421
  3355443
  0
ENDBLK
  5
53
330
50
100
AcDbEntity
 67
     1
  8
0
100
AcDbBlockEnd
  0
ENDSEC
  0
SECTION
  2
ENTITIES
  0
LINE
  5
225
330
1F
100
AcDbEntity
  8
1
100
AcDbLine
 10
0.0
 20
60.0
 30
0.0
 11
0.0
 21
-150.686168480657
 31
0.0
  0
LINE
  5
226
330
1F
100
AcDbEntity
  8
2
100
AcDbLine
 10
-145.4999389648437
 20
0.0
 30
0.0
 11
113.5000305175781
 21
0.0
 31
0.0
  0
ARC
  5
227
330
1F
100
AcDbEntity
  8
2
100
AcDbCircle
 10
-138.678955078125
 20
-3.772766113281022
 30
0.0
 40
4.821000576019287
100
AcDbArc
 50
145.3301150461372
 51
214.6698949717846
  0
LINE
  5
228
330
1F
100
AcDbEntity
  8
2
100
AcDbLine
 10
-142.6439208984638
 20
-6.515136718788653
 30
0.0
 11
-135.4999389648701
 21
-6.515136718788426
 31
0.0
  0
LINE
  5
229
330
1F
100
AcDbEntity
  8
2
100
AcDbLine
 10
-135.4999389648437
 20
-1.0
 30
0.0
 11
-133.4999389648437
 21
-1.0
 31
0.0
  0
LINE
  5
22A
330
1F
100
AcDbEntity
  8
2
100
AcDbLine
 10
-142.6439208984638
 20
-1.030334472694903
 30
0.0
 11
-135.4999389648701
 21
-1.030334472694448
 31
0.0
  0
LINE
  5
22B
330
1F
100
AcDbEntity
  8
2
100
AcDbLine
 10
-146.5000161939888
 20
-0.9999517353178362
 30
0.0
 11
-145.5000042835445
 21
0.0000600908319939
 31
0.0
  0
LINE
  5
22C
330
1F
100
AcDbEntity
  8
2
100
AcDbLine
 10
-142.6439208984629
 20
-17.48480224613263
 30
0.0
 11
-135.4999389648692
 21
-17.48480224613217
 31
0.0
  0
LINE
  5
22D
330
1F
100
AcDbEntity
  8
2
100
AcDbLine
 10
-135.4999389648437
 20
-23.0
 30
0.0
 11
-133.4999389648437
 21
-23.0
 31
0.0
  0
LINE
  5
22E
330
1F
100
AcDbEntity
  8
2
100
AcDbLine
 10
-142.6439208984629
 20
-22.96966552738263
 30
0.0
 11
-135.4999389648687
 21
-22.96966552738218
 31
0.0
  0
LINE
  5
22F
330
1F
100
AcDbEntity
  8
2
100
AcDbLine
 10
-145.5000641574042
 20
-23.9998724430277
 30
0.0
 11
-146.5000544043687
 21
-24.9998627742848
 31
0.0
  0
LINE
  5
230
330
1F
100
AcDbEntity
  8
2
100
AcDbLine
 10
-145.4999389648437
 20
-24.0
 30
0.0
 11
-133.4999389648437
 21
-24.0
 31
0.0
  0
ARC
  5
231
330
1F
100
AcDbEntity
  8
2
100
AcDbCircle
 10
-138.678955078125
 20
-20.22723388671875
 30
0.0
 40
4.821000576019287
100
AcDbArc
 50
145.3301150461372
 51
214.6698949717846
  0
LINE
  5
232
330
1F
100
AcDbEntity
  8
2
100
AcDbLine
 10
-145.4999389648437
 20
-22.61013793945313
 30
0.0
 11
-145.4999389648437
 21
0.0
 31
0.0
  0
LINE
  5
233
330
1F
100
AcDbEntity
  8
2
100
AcDbLine
 10
-133.4999389648437
 20
0.0
 30
0.0
 11
-133.4999389648437
 21
-24.0
 31
0.0
  0
LINE
  5
234
330
1F
100
AcDbEntity
  8
2
100
AcDbLine
 10
-135.4999389648437
 20
-23.0
 30
0.0
 11
-135.4999389648437
 21
-1.0
 31
0.0
  0
LINE
  5
235
330
1F
100
AcDbEntity
  8
2
100
AcDbLine
 10
-146.5
 20
-23.58578491210938
 30
0.0
 11
-146.5
 21
-1.0
 31
0.0
  0
ARC
  5
236
330
1F
100
AcDbEntity
  8
2
100
AcDbCircle
 10
-125.4999389648437
 20
-12.0
 30
0.0
 40
18.0
100
AcDbArc
 50
162.2591213946092
 51
197.7408749629328
  0
LINE
  5
237
330
1F
100
AcDbEntity
  8
2
100
AcDbLine
 10
-143.4999389648701
 20
-3.77276611332013
 30
0.0
 11
-143.4999389648692
 21
-20.22723388675763
 31
0.0
  0
ARC
  5
238
330
1F
100
AcDbEntity
  8
2
100
AcDbCircle
 10
106.6789855957031
 20
-3.772766113281022
 30
0.0
 40
4.821000576019287
100
AcDbArc
 50
325.3301100371763
 51
34.66988654771935
  0
LINE
  5
239
330
1F
100
AcDbEntity
  8
2
100
AcDbLine
 10
110.6440124511719
 20
-6.51513671875
 30
0.0
 11
103.5000305175781
 21
-6.51513671875
 31
0.0
  0
LINE
  5
23A
330
1F
100
AcDbEntity
  8
2
100
AcDbLine
 10
113.5001104011289
 20
0.0000129832931179
 30
0.0
 11
114.5000898585003
 21
-0.9999665583704882
 31
0.0
  0
LINE
  5
23B
330
1F
100
AcDbEntity
  8
2
100
AcDbLine
 10
103.5000305175781
 20
-1.0
 30
0.0
 11
101.5000305175781
 21
-1.0
 31
0.0
  0
LINE
  5
23C
330
1F
100
AcDbEntity
  8
2
100
AcDbLine
 10
110.6440124511719
 20
-1.030334472656022
 30
0.0
 11
103.5000305175781
 21
-1.030334472656022
 31
0.0
  0
LINE
  5
23D
330
1F
100
AcDbEntity
  8
2
100
AcDbLine
 10
110.6440124511719
 20
-17.48480224609375
 30
0.0
 11
103.5000305175781
 21
-17.48480224609375
 31
0.0
  0
LINE
  5
23E
330
1F
100
AcDbEntity
  8
2
100
AcDbLine
 10
113.5001181561483
 20
-24.00000413905377
 30
0.0
 11
114.5000976135197
 21
-24.99998368071715
 31
0.0
  0
LINE
  5
23F
330
1F
100
AcDbEntity
  8
2
100
AcDbLine
 10
103.5000305175781
 20
-23.0
 30
0.0
 11
101.5000305175781
 21
-23.0
 31
0.0
  0
LINE
  5
240
330
1F
100
AcDbEntity
  8
2
100
AcDbLine
 10
101.5000305175781
 20
-24.0
 30
0.0
 11
113.5000305175781
 21
-24.0
 31
0.0
  0
LINE
  5
241
330
1F
100
AcDbEntity
  8
2
100
AcDbLine
 10
110.6440124511719
 20
-22.96966552734375
 30
0.0
 11
103.5000305175781
 21
-22.96966552734375
 31
0.0
  0
ARC
  5
242
330
1F
100
AcDbEntity
  8
2
100
AcDbCircle
 10
106.6789855957031
 20
-20.22723388671875
 30
0.0
 40
4.821000576019287
100
AcDbArc
 50
325.3301100371763
 51
34.66988654771935
  0
LINE
  5
243
330
1F
100
AcDbEntity
  8
2
100
AcDbLine
 10
113.5000305175781
 20
-22.61013793945313
 30
0.0
 11
113.5000305175781
 21
0.0
 31
0.0
  0
LINE
  5
244
330
1F
100
AcDbEntity
  8
2
100
AcDbLine
 10
101.5000305175781
 20
0.0
 30
0.0
 11
101.5000305175781
 21
-24.0
 31
0.0
  0
LINE
  5
245
330
1F
100
AcDbEntity
  8
2
100
AcDbLine
 10
114.5
 20
-23.58578491210938
 30
0.0
 11
114.5
 21
-1.0
 31
0.0
  0
LINE
  5
246
330
1F
100
AcDbEntity
  8
2
100
AcDbLine
 10
103.5000305175781
 20
-23.0
 30
0.0
 11
103.5000305175781
 21
-1.0
 31
0.0
  0
ARC
  5
247
330
1F
100
AcDbEntity
  8
2
100
AcDbCircle
 10
93.50006103515625
 20
-12.0
 30
0.0
 40
18.0
100
AcDbArc
 50
342.2591249233908
 51
17.74087849171284
  0
LINE
  5
248
330
1F
100
AcDbEntity
  8
2
100
AcDbLine
 10
111.5000305175781
 20
-3.772766113281022
 30
0.0
 11
111.5000305175781
 21
-20.22723388671875
 31
0.0
  0
LINE
  5
249
330
1F
100
AcDbEntity
  8
2
100
AcDbLine
 10
-132.4998195218181
 20
154.5802423243158
 30
0.0
 11
100.5
 21
154.5802423243158
 31
0.0
  0
LINE
  5
24A
330
1F
100
AcDbEntity
  8
2
100
AcDbLine
 10
-132.4998195218181
 20
262.5312310938469
 30
0.0
 11
100.5
 21
262.5312310938469
 31
0.0
  0
LINE
  5
24B
330
1F
100
AcDbEntity
  8
2
100
AcDbLine
 10
-132.4998195218181
 20
266.5557672266594
 30
0.0
 11
100.5
 21
266.5557672266594
 31
0.0
  0
LINE
  5
24C
330
1F
100
AcDbEntity
  8
2
100
AcDbLine
 10
-145.4998195218181
 20
238.5557061915031
 30
0.0
 11
-145.4998195218181
 21
178.5557672266596
 31
0.0
  0
LINE
  5
24D
330
1F
100
AcDbEntity
  8
2
100
AcDbLine
 10
-146.4998195218181
 20
237.5557672266594
 30
0.0
 11
-146.4998195218181
 21
179.5557061915033
 31
0.0
  0
LINE
  5
24E
330
1F
100
AcDbEntity
  8
2
100
AcDbLine
 10
-149.9998195218181
 20
200.0557672266594
 30
0.0
 11
-149.9998195218181
 21
217.0557061915031
 31
0.0
  0
LINE
  5
24F
330
1F
100
AcDbEntity
  8
2
100
AcDbLine
 10
-126.4998195218181
 20
266.5557672266594
 30
0.0
 11
-126.4998195218181
 21
150.5557061915033
 31
0.0
  0
LINE
  5
250
330
1F
100
AcDbEntity
  8
2
100
AcDbLine
 10
-161.4998195218181
 20
213.5557061915031
 30
0.0
 11
-161.4998195218181
 21
203.5557672266594
 31
0.0
  0
ARC
  5
251
330
1F
100
AcDbEntity
  8
2
100
AcDbCircle
 10
-145.5524318265056
 20
204.3057061915031
 30
0.0
 40
10.44731616973877
100
AcDbArc
 50
155.9958379257051
 51
204.004158431824
  0
LINE
  5
252
330
1F
100
AcDbEntity
  8
2
100
AcDbLine
 10
-155.9997584866619
 20
204.3057061915031
 30
0.0
 11
-155.9997584866619
 21
212.8057672266594
 31
0.0
  0
ARC
  5
253
330
1F
100
AcDbEntity
  8
2
100
AcDbCircle
 10
-160.4470851468181
 20
204.3057061915031
 30
0.0
 40
10.44731616973877
100
AcDbArc
 50
335.9958380393912
 51
24.00416537570913
  0
LINE
  5
254
330
1F
100
AcDbEntity
  8
2
100
AcDbLine
 10
-161.4998195218181
 20
203.5557672266594
 30
0.0
 11
-155.9997584866619
 21
203.5557672266594
 31
0.0
  0
LINE
  5
255
330
1F
100
AcDbEntity
  8
2
100
AcDbLine
 10
-142.6437404202556
 20
166.5557672266596
 30
0.0
 11
-135.4998195218181
 21
166.5557672266596
 31
0.0
  0
LINE
  5
256
330
1F
100
AcDbEntity
  8
2
100
AcDbLine
 10
-142.6437404202556
 20
157.0557672266596
 30
0.0
 11
-135.4998195218181
 21
157.0557672266596
 31
0.0
  0
LINE
  5
257
330
1F
100
AcDbEntity
  8
2
100
AcDbLine
 10
-145.4998195218181
 20
152.480449843847
 30
0.0
 11
-134.4997584866619
 21
152.480449843847
 31
0.0
  0
LINE
  5
258
330
1F
100
AcDbEntity
  8
2
100
AcDbLine
 10
-145.4998195218181
 20
150.5557061915033
 30
0.0
 11
-133.4997584866619
 21
150.5557061915033
 31
0.0
  0
ARC
  5
259
330
1F
100
AcDbEntity
  8
2
100
AcDbCircle
 10
-129.8928248929119
 20
161.8057061915033
 30
0.0
 40
13.60700035095215
100
AcDbArc
 50
159.5686415786404
 51
200.4313547788948
  0
LINE
  5
25A
330
1F
100
AcDbEntity
  8
2
100
AcDbLine
 10
-143.4997584866619
 20
161.8057061915033
 30
0.0
 11
-143.4997584866619
 21
171.3057672266596
 31
0.0
  0
LINE
  5
25B
330
1F
100
AcDbEntity
  8
2
100
AcDbLine
 10
-146.4996950591717
 20
151.5557626966738
 30
0.0
 11
-145.4997155175083
 21
150.5557832393024
 31
0.0
  0
LINE
  5
25C
330
1F
100
AcDbEntity
  8
2
100
AcDbLine
 10
-133.4997322865924
 20
151.5558198899457
 30
0.0
 11
-132.4997095865547
 21
150.5557972742035
 31
0.0
  0
LINE
  5
25D
330
1F
100
AcDbEntity
  8
2
100
AcDbLine
 10
-135.4998195218181
 20
155.5557061915033
 30
0.0
 11
-133.4997584866619
 21
155.5557061915033
 31
0.0
  0
LINE
  5
25E
330
1F
100
AcDbEntity
  8
2
100
AcDbLine
 10
-142.6437404202556
 20
176.0557672266596
 30
0.0
 11
-135.4998195218181
 21
176.0557672266596
 31
0.0
  0
LINE
  5
25F
330
1F
100
AcDbEntity
  8
2
100
AcDbLine
 10
-145.4998195218181
 20
178.5557672266596
 30
0.0
 11
-132.4998195218181
 21
178.5557672266596
 31
0.0
  0
LINE
  5
260
330
1F
100
AcDbEntity
  8
2
100
AcDbLine
 10
-145.4998195218181
 20
177.1415826563471
 30
0.0
 11
-145.4998195218181
 21
150.5557061915033
 31
0.0
  0
LINE
  5
261
330
1F
100
AcDbEntity
  8
2
100
AcDbLine
 10
-146.4998195218181
 20
178.1415216211908
 30
0.0
 11
-146.4998195218181
 21
151.5557672266595
 31
0.0
  0
ARC
  5
262
330
1F
100
AcDbEntity
  8
2
100
AcDbCircle
 10
-129.8928248929119
 20
171.3057672266596
 30
0.0
 40
13.60700035095215
100
AcDbArc
 50
159.5686415786404
 51
200.4313547788948
  0
LINE
  5
263
330
1F
100
AcDbEntity
  8
2
100
AcDbLine
 10
-146.4997636742432
 20
179.5558117821652
 30
0.0
 11
-145.499740974205
 21
178.555789166423
 31
0.0
  0
LINE
  5
264
330
1F
100
AcDbEntity
  8
2
100
AcDbLine
 10
-155.0962550686931
 20
200.0557672266594
 30
0.0
 11
-150.9033229397869
 21
200.0557672266594
 31
0.0
  0
ARC
  5
265
330
1F
100
AcDbEntity
  8
2
100
AcDbCircle
 10
-147.9998195218181
 20
200.5557061915031
 30
0.0
 40
2.0
100
AcDbArc
 50
179.999991348572
 51
270.000000683243
  0
LINE
  5
266
330
1F
100
AcDbEntity
  8
2
100
AcDbLine
 10
-147.9998195218181
 20
198.5557672266594
 30
0.0
 11
-146.4998195218181
 21
198.5557672266594
 31
0.0
  0
LINE
  5
267
330
1F
100
AcDbEntity
  8
2
100
AcDbLine
 10
-132.4998195218181
 20
150.5557061915033
 30
0.0
 11
-132.4998195218181
 21
178.5557672266596
 31
0.0
  0
LINE
  5
268
330
1F
100
AcDbEntity
  8
2
100
AcDbLine
 10
-133.4997584866619
 20
178.5557672266596
 30
0.0
 11
-133.4997584866619
 21
151.5557672266595
 31
0.0
  0
LINE
  5
269
330
1F
100
AcDbEntity
  8
2
100
AcDbLine
 10
-135.4998195218181
 20
155.5557061915033
 30
0.0
 11
-135.4998195218181
 21
177.5557672266596
 31
0.0
  0
LINE
  5
26A
330
1F
100
AcDbEntity
  8
2
100
AcDbLine
 10
-135.4998195218181
 20
177.5557672266596
 30
0.0
 11
-133.4997584866619
 21
177.5557672266596
 31
0.0
  0
LINE
  5
26B
330
1F
100
AcDbEntity
  8
2
100
AcDbLine
 10
-161.4998195218181
 20
213.5557061915031
 30
0.0
 11
-155.9997584866619
 21
213.5557061915031
 31
0.0
  0
ARC
  5
26C
330
1F
100
AcDbEntity
  8
2
100
AcDbCircle
 10
-160.4470851468181
 20
212.8057672266594
 30
0.0
 40
10.44731616973877
100
AcDbArc
 50
335.9958380393912
 51
24.00416537570913
  0
ARC
  5
26D
330
1F
100
AcDbEntity
  8
2
100
AcDbCircle
 10
-145.5524318265056
 20
212.8057672266594
 30
0.0
 40
10.44731616973877
100
AcDbArc
 50
155.9958379257051
 51
204.004158431824
  0
LINE
  5
26E
330
1F
100
AcDbEntity
  8
2
100
AcDbLine
 10
-155.0962550686931
 20
208.5557061915031
 30
0.0
 11
-150.9033229397869
 21
208.5557061915031
 31
0.0
  0
LINE
  5
26F
330
1F
100
AcDbEntity
  8
2
100
AcDbLine
 10
-142.6437404202556
 20
250.5557061915031
 30
0.0
 11
-135.4998195218181
 21
250.5557061915031
 31
0.0
  0
LINE
  5
270
330
1F
100
AcDbEntity
  8
2
100
AcDbLine
 10
-142.6437404202556
 20
260.0557672266594
 30
0.0
 11
-135.4998195218181
 21
260.0557672266594
 31
0.0
  0
LINE
  5
271
330
1F
100
AcDbEntity
  8
2
100
AcDbLine
 10
-142.6437404202556
 20
241.0557061915032
 30
0.0
 11
-135.4998195218181
 21
241.0557061915032
 31
0.0
  0
LINE
  5
272
330
1F
100
AcDbEntity
  8
2
100
AcDbLine
 10
-145.4998195218181
 20
264.6310235743156
 30
0.0
 11
-134.4997584866619
 21
264.6310235743156
 31
0.0
  0
LINE
  5
273
330
1F
100
AcDbEntity
  8
2
100
AcDbLine
 10
-145.4998195218181
 20
238.5557061915031
 30
0.0
 11
-132.4998195218181
 21
238.5557061915031
 31
0.0
  0
LINE
  5
274
330
1F
100
AcDbEntity
  8
2
100
AcDbLine
 10
-145.4998195218181
 20
266.5557672266594
 30
0.0
 11
-133.4997584866619
 21
266.5557672266594
 31
0.0
  0
ARC
  5
275
330
1F
100
AcDbEntity
  8
2
100
AcDbCircle
 10
-129.8928248929119
 20
245.8057061915031
 30
0.0
 40
13.60700035095215
100
AcDbArc
 50
159.5686415786404
 51
200.4313547788948
  0
LINE
  5
276
330
1F
100
AcDbEntity
  8
2
100
AcDbLine
 10
-143.4997584866619
 20
245.8057061915031
 30
0.0
 11
-143.4997584866619
 21
255.3057672266594
 31
0.0
  0
LINE
  5
277
330
1F
100
AcDbEntity
  8
2
100
AcDbLine
 10
-145.4998195218181
 20
266.5557672266594
 30
0.0
 11
-145.4998195218181
 21
239.9698907618156
 31
0.0
  0
LINE
  5
278
330
1F
100
AcDbEntity
  8
2
100
AcDbLine
 10
-146.4998195218181
 20
265.5557061915031
 30
0.0
 11
-146.4998195218181
 21
238.9699517969719
 31
0.0
  0
LINE
  5
279
330
1F
100
AcDbEntity
  8
2
100
AcDbLine
 10
-155.0962550686931
 20
217.0557061915031
 30
0.0
 11
-150.9033229397869
 21
217.0557061915031
 31
0.0
  0
ARC
  5
27A
330
1F
100
AcDbEntity
  8
2
100
AcDbCircle
 10
-147.9998195218181
 20
216.5557672266594
 30
0.0
 40
2.0
100
AcDbArc
 50
90.00000250446868
 51
180.0000050089504
  0
LINE
  5
27B
330
1F
100
AcDbEntity
  8
2
100
AcDbLine
 10
-147.9998195218181
 20
218.5557061915031
 30
0.0
 11
-146.4998195218181
 21
218.5557061915031
 31
0.0
  0
LINE
  5
27C
330
1F
100
AcDbEntity
  8
2
100
AcDbLine
 10
-146.4999796009256
 20
237.555961801935
 30
0.0
 11
-145.4999784800748
 21
238.5559628384925
 31
0.0
  0
ARC
  5
27D
330
1F
100
AcDbEntity
  8
2
100
AcDbCircle
 10
-129.8928248929119
 20
255.3057672266594
 30
0.0
 40
13.60700035095215
100
AcDbArc
 50
159.5686415786404
 51
200.4313547788948
  0
LINE
  5
27E
330
1F
100
AcDbEntity
  8
2
100
AcDbLine
 10
-146.5
 20
265.5559704264559
 30
0.0
 11
-145.4999988791492
 21
266.5559714630124
 31
0.0
  0
LINE
  5
27F
330
1F
100
AcDbEntity
  8
2
100
AcDbLine
 10
-132.4998195218181
 20
266.5557672266594
 30
0.0
 11
-132.4998195218181
 21
238.5557061915031
 31
0.0
  0
LINE
  5
280
330
1F
100
AcDbEntity
  8
2
100
AcDbLine
 10
-135.4998195218181
 20
239.5557061915031
 30
0.0
 11
-135.4998195218181
 21
261.5557672266594
 31
0.0
  0
LINE
  5
281
330
1F
100
AcDbEntity
  8
2
100
AcDbLine
 10
-133.4997584866619
 20
265.5557061915031
 30
0.0
 11
-133.4997584866619
 21
238.5557061915031
 31
0.0
  0
LINE
  5
282
330
1F
100
AcDbEntity
  8
2
100
AcDbLine
 10
-135.4998195218181
 20
239.5557061915031
 30
0.0
 11
-133.4997584866619
 21
239.5557061915031
 31
0.0
  0
LINE
  5
283
330
1F
100
AcDbEntity
  8
2
100
AcDbLine
 10
-135.4998195218181
 20
261.5557672266594
 30
0.0
 11
-133.4997584866619
 21
261.5557672266594
 31
0.0
  0
LINE
  5
284
330
1F
100
AcDbEntity
  8
2
100
AcDbLine
 10
-133.5000075560369
 20
265.5559698785471
 30
0.0
 11
-132.5000064351866
 21
266.5559709151037
 31
0.0
  0
LINE
  5
285
330
1F
100
AcDbEntity
  8
2
100
AcDbLine
 10
118.0
 20
200.0557672266594
 30
0.0
 11
118.0
 21
217.0557061915031
 31
0.0
  0
LINE
  5
286
330
1F
100
AcDbEntity
  8
2
100
AcDbLine
 10
94.49996948242187
 20
266.5557672266594
 30
0.0
 11
94.49996948242187
 21
150.5557061915033
 31
0.0
  0
LINE
  5
287
330
1F
100
AcDbEntity
  8
2
100
AcDbLine
 10
113.4999694824218
 20
265.5557061915031
 30
0.0
 11
113.4999694824218
 21
151.5557672266595
 31
0.0
  0
LINE
  5
288
330
1F
100
AcDbEntity
  8
2
100
AcDbLine
 10
114.5
 20
265.5557061915031
 30
0.0
 11
114.5
 21
151.5557672266595
 31
0.0
  0
LINE
  5
289
330
1F
100
AcDbEntity
  8
2
100
AcDbLine
 10
129.5
 20
213.5557061915031
 30
0.0
 11
129.5
 21
203.5557672266594
 31
0.0
  0
ARC
  5
28A
330
1F
100
AcDbEntity
  8
2
100
AcDbCircle
 10
128.4473571777343
 20
204.3057061915031
 30
0.0
 40
10.44731616973877
100
AcDbArc
 50
155.9958379257051
 51
204.004158431824
  0
ARC
  5
28B
330
1F
100
AcDbEntity
  8
2
100
AcDbCircle
 10
113.5526733398437
 20
204.3057061915031
 30
0.0
 40
10.44731616973877
100
AcDbArc
 50
335.9958380393912
 51
24.00416537570913
  0
LINE
  5
28C
330
1F
100
AcDbEntity
  8
2
100
AcDbLine
 10
124.0000305175781
 20
204.3057061915031
 30
0.0
 11
124.0000305175781
 21
212.8057672266594
 31
0.0
  0
LINE
  5
28D
330
1F
100
AcDbEntity
  8
2
100
AcDbLine
 10
-132.4998195218181
 20
150.5557061915033
 30
0.0
 11
100.5
 21
150.5557061915033
 31
0.0
  0
ARC
  5
28E
330
1F
100
AcDbEntity
  8
2
100
AcDbCircle
 10
97.89297485351562
 20
161.8057061915033
 30
0.0
 40
13.60700035095215
100
AcDbArc
 50
339.5686416923301
 51
20.43136172276891
  0
LINE
  5
28F
330
1F
100
AcDbEntity
  8
2
100
AcDbLine
 10
111.5000305175426
 20
161.8057061914788
 30
0.0
 11
111.5000305175422
 21
171.305767226635
 31
0.0
  0
LINE
  5
290
330
1F
100
AcDbEntity
  8
2
100
AcDbLine
 10
110.6440124511368
 20
157.055767226635
 30
0.0
 11
103.4999999999645
 21
157.0557672266346
 31
0.0
  0
LINE
  5
291
330
1F
100
AcDbEntity
  8
2
100
AcDbLine
 10
113.4999694824218
 20
152.480449843847
 30
0.0
 11
102.5
 21
152.480449843847
 31
0.0
  0
LINE
  5
292
330
1F
100
AcDbEntity
  8
2
100
AcDbLine
 10
113.4999694824218
 20
150.5557061915033
 30
0.0
 11
101.5000305175781
 21
150.5557061915033
 31
0.0
  0
LINE
  5
293
330
1F
100
AcDbEntity
  8
2
100
AcDbLine
 10
101.499913489909
 20
151.5558615017626
 30
0.0
 11
100.4999123690586
 21
150.555860465206
 31
0.0
  0
LINE
  5
294
330
1F
100
AcDbEntity
  8
2
100
AcDbLine
 10
103.4999694824219
 20
155.5557061915033
 30
0.0
 11
101.5000305175781
 21
155.5557061915033
 31
0.0
  0
LINE
  5
295
330
1F
100
AcDbEntity
  8
2
100
AcDbLine
 10
113.4998855602916
 20
150.5558559721112
 30
0.0
 11
114.4998865968482
 21
151.5558570929615
 31
0.0
  0
LINE
  5
296
330
1F
100
AcDbEntity
  8
2
100
AcDbLine
 10
110.6440124511364
 20
166.555767226635
 30
0.0
 11
103.4999999999645
 21
166.5557672266346
 31
0.0
  0
LINE
  5
297
330
1F
100
AcDbEntity
  8
2
100
AcDbLine
 10
100.5
 20
150.5557061915033
 30
0.0
 11
100.5
 21
178.5557672266596
 31
0.0
  0
LINE
  5
298
330
1F
100
AcDbEntity
  8
2
100
AcDbLine
 10
101.5000305175781
 20
178.5557672266596
 30
0.0
 11
101.5000305175781
 21
151.5557672266595
 31
0.0
  0
LINE
  5
299
330
1F
100
AcDbEntity
  8
2
100
AcDbLine
 10
103.4999694824219
 20
155.5557061915033
 30
0.0
 11
103.4999694824219
 21
177.5557672266596
 31
0.0
  0
LINE
  5
29A
330
1F
100
AcDbEntity
  8
2
100
AcDbLine
 10
110.6440124511355
 20
176.055767226635
 30
0.0
 11
103.4999999999636
 21
176.0557672266346
 31
0.0
  0
LINE
  5
29B
330
1F
100
AcDbEntity
  8
2
100
AcDbLine
 10
113.4999694824218
 20
178.5557672266596
 30
0.0
 11
100.5
 21
178.5557672266596
 31
0.0
  0
LINE
  5
29C
330
1F
100
AcDbEntity
  8
2
100
AcDbLine
 10
103.4999694824219
 20
177.5557672266596
 30
0.0
 11
101.5000305175781
 21
177.5557672266596
 31
0.0
  0
ARC
  5
29D
330
1F
100
AcDbEntity
  8
2
100
AcDbCircle
 10
97.89297485351562
 20
171.3057672266596
 30
0.0
 40
13.60700035095215
100
AcDbArc
 50
339.5686416923301
 51
20.43136172276891
  0
LINE
  5
29E
330
1F
100
AcDbEntity
  8
2
100
AcDbLine
 10
114.4998747452045
 20
179.5558587887822
 30
0.0
 11
113.4998736243533
 21
178.5558577522252
 31
0.0
  0
LINE
  5
29F
330
1F
100
AcDbEntity
  8
2
100
AcDbLine
 10
123.0964660644531
 20
200.0557672266594
 30
0.0
 11
118.9035339355468
 21
200.0557672266594
 31
0.0
  0
ARC
  5
2A0
330
1F
100
AcDbEntity
  8
2
100
AcDbCircle
 10
115.9999694824219
 20
200.5557061915031
 30
0.0
 40
2.0
100
AcDbArc
 50
269.9999974955052
 51
0.0
  0
LINE
  5
2A1
330
1F
100
AcDbEntity
  8
2
100
AcDbLine
 10
115.9999694824219
 20
198.5557672266594
 30
0.0
 11
114.5
 21
198.5557672266594
 31
0.0
  0
LINE
  5
2A2
330
1F
100
AcDbEntity
  8
2
100
AcDbLine
 10
129.5
 20
203.5557672266594
 30
0.0
 11
124.0000305175781
 21
203.5557672266594
 31
0.0
  0
ARC
  5
2A3
330
1F
100
AcDbEntity
  8
2
100
AcDbCircle
 10
128.4473571777343
 20
212.8057672266594
 30
0.0
 40
10.44731616973877
100
AcDbArc
 50
155.9958379257051
 51
204.004158431824
  0
ARC
  5
2A4
330
1F
100
AcDbEntity
  8
2
100
AcDbCircle
 10
113.5526733398437
 20
212.8057672266594
 30
0.0
 40
10.44731616973877
100
AcDbArc
 50
335.9958380393912
 51
24.00416537570913
  0
LINE
  5
2A5
330
1F
100
AcDbEntity
  8
2
100
AcDbLine
 10
123.0964660644531
 20
208.5557061915031
 30
0.0
 11
118.9035339355468
 21
208.5557061915031
 31
0.0
  0
LINE
  5
2A6
330
1F
100
AcDbEntity
  8
2
100
AcDbLine
 10
129.5
 20
213.5557061915031
 30
0.0
 11
124.0000305175781
 21
213.5557061915031
 31
0.0
  0
ARC
  5
2A7
330
1F
100
AcDbEntity
  8
2
100
AcDbCircle
 10
97.89297485351562
 20
245.8057061915031
 30
0.0
 40
13.60700035095215
100
AcDbArc
 50
339.5686416923301
 51
20.43136172276891
  0
LINE
  5
2A8
330
1F
100
AcDbEntity
  8
2
100
AcDbLine
 10
111.5000305175381
 20
245.8057061914786
 30
0.0
 11
111.5000305175372
 21
255.3057672266348
 31
0.0
  0
LINE
  5
2A9
330
1F
100
AcDbEntity
  8
2
100
AcDbLine
 10
100.5
 20
266.5557672266594
 30
0.0
 11
100.5
 21
238.5557061915031
 31
0.0
  0
LINE
  5
2AA
330
1F
100
AcDbEntity
  8
2
100
AcDbLine
 10
103.4999694824219
 20
239.5557061915031
 30
0.0
 11
103.4999694824219
 21
261.5557672266594
 31
0.0
  0
LINE
  5
2AB
330
1F
100
AcDbEntity
  8
2
100
AcDbLine
 10
101.5000305175781
 20
265.5557061915031
 30
0.0
 11
101.5000305175781
 21
238.5557061915031
 31
0.0
  0
LINE
  5
2AC
330
1F
100
AcDbEntity
  8
2
100
AcDbLine
 10
123.0964660644531
 20
217.0557061915031
 30
0.0
 11
118.9035339355468
 21
217.0557061915031
 31
0.0
  0
ARC
  5
2AD
330
1F
100
AcDbEntity
  8
2
100
AcDbCircle
 10
115.9999694824219
 20
216.5557672266594
 30
0.0
 40
2.0
100
AcDbArc
 50
0.0
 51
90.00000250446868
  0
LINE
  5
2AE
330
1F
100
AcDbEntity
  8
2
100
AcDbLine
 10
115.9999694824219
 20
218.5557061915031
 30
0.0
 11
114.5
 21
218.5557061915031
 31
0.0
  0
LINE
  5
2AF
330
1F
100
AcDbEntity
  8
2
100
AcDbLine
 10
110.6440124511318
 20
241.0557061914786
 30
0.0
 11
103.49999999996
 21
241.0557061914786
 31
0.0
  0
LINE
  5
2B0
330
1F
100
AcDbEntity
  8
2
100
AcDbLine
 10
113.4999694824218
 20
238.5557061915031
 30
0.0
 11
100.5
 21
238.5557061915031
 31
0.0
  0
LINE
  5
2B1
330
1F
100
AcDbEntity
  8
2
100
AcDbLine
 10
103.4999694824219
 20
239.5557061915031
 30
0.0
 11
101.5000305175781
 21
239.5557061915031
 31
0.0
  0
LINE
  5
2B2
330
1F
100
AcDbEntity
  8
2
100
AcDbLine
 10
114.500206660015
 20
237.5558851239419
 30
0.0
 11
113.5001408016023
 21
238.5559508980557
 31
0.0
  0
LINE
  5
2B3
330
1F
100
AcDbEntity
  8
2
100
AcDbLine
 10
110.6440124511314
 20
250.5557061914786
 30
0.0
 11
103.4999999999595
 21
250.5557061914786
 31
0.0
  0
LINE
  5
2B4
330
1F
100
AcDbEntity
  8
2
100
AcDbLine
 10
110.6440124511309
 20
260.0557672266348
 30
0.0
 11
103.499999999959
 21
260.0557672266348
 31
0.0
  0
LINE
  5
2B5
330
1F
100
AcDbEntity
  8
2
100
AcDbLine
 10
103.4999694824219
 20
261.5557672266594
 30
0.0
 11
101.5000305175781
 21
261.5557672266594
 31
0.0
  0
ARC
  5
2B6
330
1F
100
AcDbEntity
  8
2
100
AcDbCircle
 10
97.89297485351562
 20
255.3057672266594
 30
0.0
 40
13.60700035095215
100
AcDbArc
 50
339.5686416923301
 51
20.43136172276891
  0
LINE
  5
2B7
330
1F
100
AcDbEntity
  8
2
100
AcDbLine
 10
113.4999694824218
 20
264.6310235743156
 30
0.0
 11
102.5
 21
264.6310235743156
 31
0.0
  0
LINE
  5
2B8
330
1F
100
AcDbEntity
  8
2
100
AcDbLine
 10
113.4999694824218
 20
266.5557672266594
 30
0.0
 11
101.5000305175781
 21
266.5557672266594
 31
0.0
  0
LINE
  5
2B9
330
1F
100
AcDbEntity
  8
2
100
AcDbLine
 10
101.5001698775682
 20
265.5558716213644
 30
0.0
 11
100.5001040191555
 21
266.5559373954782
 31
0.0
  0
LINE
  5
2BA
330
1F
100
AcDbEntity
  8
2
100
AcDbLine
 10
113.5001686522946
 20
266.55589873018
 30
0.0
 11
114.500148109666
 21
265.5559191885166
 31
0.0
  0
LINE
  5
2BB
330
1F
100
AcDbEntity
  8
2
100
AcDbLine
 10
-145.4999389648437
 20
-76.0
 30
0.0
 11
113.5000305175781
 21
-76.0
 31
0.0
  0
LINE
  5
2BC
330
1F
100
AcDbEntity
  8
2
100
AcDbLine
 10
-145.4999389648437
 20
-46.0
 30
0.0
 11
113.5000305175781
 21
-46.0
 31
0.0
  0
LINE
  5
2BD
330
1F
100
AcDbEntity
  8
2
100
AcDbLine
 10
-145.4999389648437
 20
-122.0
 30
0.0
 11
113.5000305175781
 21
-122.0
 31
0.0
  0
CIRCLE
  5
2BE
330
1F
100
AcDbEntity
  8
2
100
AcDbCircle
 10
-136.5
 20
-61.0
 30
0.0
 40
6.574872493743896
  0
ARC
  5
2BF
330
1F
100
AcDbEntity
  8
2
100
AcDbCircle
 10
-153.7835693359375
 20
-53.63876342773437
 30
0.0
 40
3.783614635467529
100
AcDbArc
 50
319.5701056421651
 51
40.42988752763363
  0
ARC
  5
2C0
330
1F
100
AcDbEntity
  8
2
100
AcDbCircle
 10
-152.21630859375
 20
-53.63876342773437
 30
0.0
 40
3.783614635467529
100
AcDbArc
 50
139.5701072360302
 51
220.4298891214932
  0
LINE
  5
2C1
330
1F
100
AcDbEntity
  8
2
100
AcDbLine
 10
-150.0
 20
-53.0
 30
0.0
 11
-150.0
 21
-69.0
 31
0.0
  0
LINE
  5
2C2
330
1F
100
AcDbEntity
  8
2
100
AcDbLine
 10
-155.9999389648437
 20
-53.63876342773437
 30
0.0
 11
-155.9999389648437
 21
-68.3612060546875
 31
0.0
  0
LINE
  5
2C3
330
1F
100
AcDbEntity
  8
2
100
AcDbLine
 10
-145.4999389648437
 20
-24.0
 30
0.0
 11
-145.4999389648437
 21
-98.0
 31
0.0
  0
LINE
  5
2C4
330
1F
100
AcDbEntity
  8
2
100
AcDbLine
 10
-126.5
 20
0.0
 30
0.0
 11
-126.5
 21
-122.0
 31
0.0
  0
LINE
  5
2C5
330
1F
100
AcDbEntity
  8
2
100
AcDbLine
 10
-146.5
 20
-25.0
 30
0.0
 11
-146.5
 21
-97.0
 31
0.0
  0
LINE
  5
2C6
330
1F
100
AcDbEntity
  8
2
100
AcDbLine
 10
-142.6439208984375
 20
-99.03033447265602
 30
0.0
 11
-135.4999389648437
 21
-99.03033447265602
 31
0.0
  0
LINE
  5
2C7
330
1F
100
AcDbEntity
  8
2
100
AcDbLine
 10
-142.6439208984375
 20
-104.515197753906
 30
0.0
 11
-135.4999389648437
 21
-104.515197753906
 31
0.0
  0
LINE
  5
2C8
330
1F
100
AcDbEntity
  8
2
100
AcDbLine
 10
-142.6439208984375
 20
-115.4848022460937
 30
0.0
 11
-135.4999389648437
 21
-115.4848022460937
 31
0.0
  0
LINE
  5
2C9
330
1F
100
AcDbEntity
  8
2
100
AcDbLine
 10
-142.6439208984375
 20
-120.9696655273437
 30
0.0
 11
-135.4999389648437
 21
-120.9696655273437
 31
0.0
  0
LINE
  5
2CA
330
1F
100
AcDbEntity
  8
2
100
AcDbLine
 10
-145.4999389648437
 20
-98.0
 30
0.0
 11
-133.4999389648437
 21
-98.0
 31
0.0
  0
ARC
  5
2CB
330
1F
100
AcDbEntity
  8
2
100
AcDbCircle
 10
-138.678955078125
 20
-118.2272338867187
 30
0.0
 40
4.821000576019287
100
AcDbArc
 50
145.3301150461372
 51
214.6698813113903
  0
LINE
  5
2CC
330
1F
100
AcDbEntity
  8
2
100
AcDbLine
 10
-145.4999389648437
 20
-99.41421508789062
 30
0.0
 11
-145.4999389648437
 21
-122.0
 31
0.0
  0
LINE
  5
2CD
330
1F
100
AcDbEntity
  8
2
100
AcDbLine
 10
-146.5
 20
-98.41424560546876
 30
0.0
 11
-146.5
 21
-121.0
 31
0.0
  0
LINE
  5
2CE
330
1F
100
AcDbEntity
  8
2
100
AcDbLine
 10
-146.4999748311138
 20
-120.9999771194384
 30
0.0
 11
-145.4999952894504
 21
-121.9999565768098
 31
0.0
  0
ARC
  5
2CF
330
1F
100
AcDbEntity
  8
2
100
AcDbCircle
 10
-138.678955078125
 20
-101.772766113281
 30
0.0
 40
4.821000576019287
100
AcDbArc
 50
145.3301150461372
 51
214.6698813113903
  0
LINE
  5
2D0
330
1F
100
AcDbEntity
  8
2
100
AcDbLine
 10
-143.4999389648437
 20
-118.2272338867187
 30
0.0
 11
-143.4999389648437
 21
-101.772766113281
 31
0.0
  0
ARC
  5
2D1
330
1F
100
AcDbEntity
  8
2
100
AcDbCircle
 10
-125.4999389648437
 20
-110.0
 30
0.0
 40
18.0
100
AcDbArc
 50
162.2591213946092
 51
197.7408749629328
  0
LINE
  5
2D2
330
1F
100
AcDbEntity
  8
2
100
AcDbLine
 10
-145.4999436763796
 20
-98.00002404295582
 30
0.0
 11
-146.4999231337506
 21
-97.00004450129245
 31
0.0
  0
ARC
  5
2D3
330
1F
100
AcDbEntity
  8
2
100
AcDbCircle
 10
-147.9999389648437
 20
-69.0
 30
0.0
 40
2.0
100
AcDbArc
 50
179.999991348572
 51
270.000000683243
  0
LINE
  5
2D4
330
1F
100
AcDbEntity
  8
2
100
AcDbLine
 10
-155.096435546875
 20
-70.81497192382812
 30
0.0
 11
-150.9035034179687
 21
-70.81497192382812
 31
0.0
  0
LINE
  5
2D5
330
1F
100
AcDbEntity
  8
2
100
AcDbLine
 10
-155.096435546875
 20
-65.907470703125
 30
0.0
 11
-150.9034423828125
 21
-65.907470703125
 31
0.0
  0
LINE
  5
2D6
330
1F
100
AcDbEntity
  8
2
100
AcDbLine
 10
-155.096435546875
 20
-56.092529296875
 30
0.0
 11
-150.9034423828125
 21
-56.092529296875
 31
0.0
  0
ARC
  5
2D7
330
1F
100
AcDbEntity
  8
2
100
AcDbCircle
 10
-142.2208251953125
 20
-61.0
 30
0.0
 40
13.77916812896728
100
AcDbArc
 50
159.1359354343467
 51
200.8640609231939
  0
ARC
  5
2D8
330
1F
100
AcDbEntity
  8
2
100
AcDbCircle
 10
-152.21630859375
 20
-68.3612060546875
 30
0.0
 40
3.783614635467529
100
AcDbArc
 50
139.5701072360302
 51
220.4298891214932
  0
LINE
  5
2D9
330
1F
100
AcDbEntity
  8
2
100
AcDbLine
 10
-161.5
 20
-56.0
 30
0.0
 11
-161.5
 21
-66.0
 31
0.0
  0
LINE
  5
2DA
330
1F
100
AcDbEntity
  8
2
100
AcDbLine
 10
-161.5
 20
-56.0
 30
0.0
 11
-155.9999389648437
 21
-56.0
 31
0.0
  0
LINE
  5
2DB
330
1F
100
AcDbEntity
  8
2
100
AcDbLine
 10
-161.5
 20
-66.0
 30
0.0
 11
-155.9999389648437
 21
-66.0
 31
0.0
  0
ARC
  5
2DC
330
1F
100
AcDbEntity
  8
2
100
AcDbCircle
 10
-153.7835693359375
 20
-68.3612060546875
 30
0.0
 40
3.783614635467529
100
AcDbArc
 50
319.5701056421651
 51
40.42988752763363
  0
ARC
  5
2DD
330
1F
100
AcDbEntity
  8
2
100
AcDbCircle
 10
-163.7791137695312
 20
-61.0
 30
0.0
 40
13.77916812896728
100
AcDbArc
 50
339.135942378213
 51
20.86406103688581
  0
LINE
  5
2DE
330
1F
100
AcDbEntity
  8
2
100
AcDbLine
 10
-147.9999389648437
 20
-71.0
 30
0.0
 11
-146.5
 21
-71.0
 31
0.0
  0
LINE
  5
2DF
330
1F
100
AcDbEntity
  8
2
100
AcDbLine
 10
-135.4999389648437
 20
-99.0
 30
0.0
 11
-135.4999389648437
 21
-121.0
 31
0.0
  0
LINE
  5
2E0
330
1F
100
AcDbEntity
  8
2
100
AcDbLine
 10
-133.4999389648437
 20
-98.0
 30
0.0
 11
-133.4999389648437
 21
-122.0
 31
0.0
  0
LINE
  5
2E1
330
1F
100
AcDbEntity
  8
2
100
AcDbLine
 10
-135.4999389648437
 20
-121.0
 30
0.0
 11
-133.4999389648437
 21
-121.0
 31
0.0
  0
LINE
  5
2E2
330
1F
100
AcDbEntity
  8
2
100
AcDbLine
 10
-135.4999389648437
 20
-99.0
 30
0.0
 11
-133.4999389648437
 21
-99.0
 31
0.0
  0
CIRCLE
  5
2E3
330
1F
100
AcDbEntity
  8
2
100
AcDbCircle
 10
-136.5
 20
-61.0
 30
0.0
 40
5.724287509918212
  0
LINE
  5
2E4
330
1F
100
AcDbEntity
  8
2
100
AcDbLine
 10
-155.096435546875
 20
-51.18505859375
 30
0.0
 11
-150.9035034179687
 21
-51.18505859375
 31
0.0
  0
ARC
  5
2E5
330
1F
100
AcDbEntity
  8
2
100
AcDbCircle
 10
-147.9999389648437
 20
-53.0
 30
0.0
 40
2.0
100
AcDbArc
 50
90.00000250446868
 51
180.0000050089504
  0
LINE
  5
2E6
330
1F
100
AcDbEntity
  8
2
100
AcDbLine
 10
-147.9999389648437
 20
-51.0
 30
0.0
 11
-146.5
 21
-51.0
 31
0.0
  0
ARC
  5
2E7
330
1F
100
AcDbEntity
  8
2
100
AcDbCircle
 10
121.7835998535156
 20
-53.63876342773437
 30
0.0
 40
3.783614635467529
100
AcDbArc
 50
139.5701072360302
 51
220.4298891214932
  0
ARC
  5
2E8
330
1F
100
AcDbEntity
  8
2
100
AcDbCircle
 10
120.2163696289062
 20
-53.63876342773437
 30
0.0
 40
3.783614635467529
100
AcDbArc
 50
319.5701056421651
 51
40.42988752763363
  0
CIRCLE
  5
2E9
330
1F
100
AcDbEntity
  8
2
100
AcDbCircle
 10
104.5
 20
-61.0
 30
0.0
 40
6.574872493743896
  0
LINE
  5
2EA
330
1F
100
AcDbEntity
  8
2
100
AcDbLine
 10
118.0000305175781
 20
-53.0
 30
0.0
 11
118.0000305175781
 21
-69.0
 31
0.0
  0
LINE
  5
2EB
330
1F
100
AcDbEntity
  8
2
100
AcDbLine
 10
124.0000305175781
 20
-53.63876342773437
 30
0.0
 11
124.0000305175781
 21
-68.3612060546875
 31
0.0
  0
LINE
  5
2EC
330
1F
100
AcDbEntity
  8
2
100
AcDbLine
 10
113.5000305175781
 20
-24.0
 30
0.0
 11
113.5000305175781
 21
-98.0
 31
0.0
  0
LINE
  5
2ED
330
1F
100
AcDbEntity
  8
2
100
AcDbLine
 10
94.49996948242187
 20
0.0
 30
0.0
 11
94.49996948242187
 21
-122.0
 31
0.0
  0
LINE
  5
2EE
330
1F
100
AcDbEntity
  8
2
100
AcDbLine
 10
114.5
 20
-25.0
 30
0.0
 11
114.5
 21
-97.0
 31
0.0
  0
LINE
  5
2EF
330
1F
100
AcDbEntity
  8
2
100
AcDbLine
 10
42.85598754882812
 20
-97.0947265625
 30
0.0
 11
89.85598754882813
 21
-97.0947265625
 31
0.0
  0
LINE
  5
2F0
330
1F
100
AcDbEntity
  8
2
100
AcDbLine
 10
42.85598754882812
 20
-117.0947265625
 30
0.0
 11
89.85598754882813
 21
-117.0947265625
 31
0.0
  0
LINE
  5
2F1
330
1F
100
AcDbEntity
  8
2
100
AcDbLine
 10
91.35598754882812
 20
-105.0947265625
 30
0.0
 11
41.35598754882813
 21
-105.0947265625
 31
0.0
  0
LINE
  5
2F2
330
1F
100
AcDbEntity
  8
2
100
AcDbLine
 10
91.35598754882812
 20
-104.5947265625
 30
0.0
 11
41.35598754882813
 21
-104.5947265625
 31
0.0
  0
ARC
  5
2F3
330
1F
100
AcDbEntity
  8
2
100
AcDbCircle
 10
106.6789855957031
 20
-118.2272338867187
 30
0.0
 40
4.821000576019287
100
AcDbArc
 50
325.3301134522807
 51
34.66988996282368
  0
LINE
  5
2F4
330
1F
100
AcDbEntity
  8
2
100
AcDbLine
 10
103.5000305175781
 20
-99.0
 30
0.0
 11
103.5000305175781
 21
-121.0
 31
0.0
  0
LINE
  5
2F5
330
1F
100
AcDbEntity
  8
2
100
AcDbLine
 10
114.5
 20
-98.41424560546876
 30
0.0
 11
114.5
 21
-121.0
 31
0.0
  0
LINE
  5
2F6
330
1F
100
AcDbEntity
  8
2
100
AcDbLine
 10
113.5000305175781
 20
-99.41421508789062
 30
0.0
 11
113.5000305175781
 21
-122.0
 31
0.0
  0
LINE
  5
2F7
330
1F
100
AcDbEntity
  8
2
100
AcDbLine
 10
101.5000305175781
 20
-98.0
 30
0.0
 11
101.5000305175781
 21
-122.0
 31
0.0
  0
LINE
  5
2F8
330
1F
100
AcDbEntity
  8
2
100
AcDbLine
 10
110.6440124511719
 20
-120.9696655273437
 30
0.0
 11
103.5000305175781
 21
-120.9696655273437
 31
0.0
  0
LINE
  5
2F9
330
1F
100
AcDbEntity
  8
2
100
AcDbLine
 10
103.5000305175781
 20
-121.0
 30
0.0
 11
101.5000305175781
 21
-121.0
 31
0.0
  0
LINE
  5
2FA
330
1F
100
AcDbEntity
  8
2
100
AcDbLine
 10
113.4999130442534
 20
-121.9999296997668
 30
0.0
 11
114.4999140808104
 21
-120.9999285789163
 31
0.0
  0
LINE
  5
2FB
330
1F
100
AcDbEntity
  8
2
100
AcDbLine
 10
91.35598754882812
 20
-98.5947265625
 30
0.0
 11
91.35598754882812
 21
-115.5947265625
 31
0.0
  0
ARC
  5
2FC
330
1F
100
AcDbEntity
  8
2
100
AcDbCircle
 10
89.85598754882813
 20
-115.5947265625
 30
0.0
 40
1.5
100
AcDbArc
 50
269.9999974955052
 51
0.0
  0
ARC
  5
2FD
330
1F
100
AcDbEntity
  8
2
100
AcDbCircle
 10
89.85598754882813
 20
-98.5947265625
 30
0.0
 40
1.5
100
AcDbArc
 50
0.0
 51
90.00000250446868
  0
ARC
  5
2FE
330
1F
100
AcDbEntity
  8
2
100
AcDbCircle
 10
106.6789855957031
 20
-101.772766113281
 30
0.0
 40
4.821000576019287
100
AcDbArc
 50
325.3301134522807
 51
34.66988996282368
  0
LINE
  5
2FF
330
1F
100
AcDbEntity
  8
2
100
AcDbLine
 10
111.5000305175781
 20
-118.2272338867187
 30
0.0
 11
111.5000305175781
 21
-101.772766113281
 31
0.0
  0
LINE
  5
300
330
1F
100
AcDbEntity
  8
2
100
AcDbLine
 10
110.6440124511719
 20
-104.515197753906
 30
0.0
 11
103.5000305175781
 21
-104.515197753906
 31
0.0
  0
LINE
  5
301
330
1F
100
AcDbEntity
  8
2
100
AcDbLine
 10
110.6440124511719
 20
-115.4848022460937
 30
0.0
 11
103.5000305175781
 21
-115.4848022460937
 31
0.0
  0
ARC
  5
302
330
1F
100
AcDbEntity
  8
2
100
AcDbCircle
 10
93.50006103515625
 20
-110.0
 30
0.0
 40
18.0
100
AcDbArc
 50
342.2591215082871
 51
17.74087507660915
  0
LINE
  5
303
330
1F
100
AcDbEntity
  8
2
100
AcDbLine
 10
110.6440124511719
 20
-99.03033447265602
 30
0.0
 11
103.5000305175781
 21
-99.03033447265602
 31
0.0
  0
LINE
  5
304
330
1F
100
AcDbEntity
  8
2
100
AcDbLine
 10
113.5000305175781
 20
-98.0
 30
0.0
 11
101.5000305175781
 21
-98.0
 31
0.0
  0
LINE
  5
305
330
1F
100
AcDbEntity
  8
2
100
AcDbLine
 10
103.5000305175781
 20
-99.0
 30
0.0
 11
101.5000305175781
 21
-99.0
 31
0.0
  0
LINE
  5
306
330
1F
100
AcDbEntity
  8
2
100
AcDbLine
 10
113.4999551911028
 20
-97.99994696924683
 30
0.0
 11
114.4999562276598
 21
-96.99994584839624
 31
0.0
  0
LINE
  5
307
330
1F
100
AcDbEntity
  8
2
100
AcDbLine
 10
123.0964660644531
 20
-70.81497192382812
 30
0.0
 11
118.9035034179687
 21
-70.81497192382812
 31
0.0
  0
LINE
  5
308
330
1F
100
AcDbEntity
  8
2
100
AcDbLine
 10
123.0964660644531
 20
-65.907470703125
 30
0.0
 11
118.9035034179687
 21
-65.907470703125
 31
0.0
  0
LINE
  5
309
330
1F
100
AcDbEntity
  8
2
100
AcDbLine
 10
123.0964660644531
 20
-56.092529296875
 30
0.0
 11
118.9035034179687
 21
-56.092529296875
 31
0.0
  0
ARC
  5
30A
330
1F
100
AcDbEntity
  8
2
100
AcDbCircle
 10
116.0000305175781
 20
-69.0
 30
0.0
 40
2.0
100
AcDbArc
 50
269.9999974955052
 51
0.0
  0
CIRCLE
  5
30B
330
1F
100
AcDbEntity
  8
2
100
AcDbCircle
 10
104.5
 20
-61.0
 30
0.0
 40
5.724287509918212
  0
ARC
  5
30C
330
1F
100
AcDbEntity
  8
2
100
AcDbCircle
 10
121.7835998535156
 20
-68.3612060546875
 30
0.0
 40
3.783614635467529
100
AcDbArc
 50
139.5701072360302
 51
220.4298891214932
  0
ARC
  5
30D
330
1F
100
AcDbEntity
  8
2
100
AcDbCircle
 10
131.7791748046875
 20
-61.0
 30
0.0
 40
13.77916812896728
100
AcDbArc
 50
159.1359354343467
 51
200.8640609231939
  0
LINE
  5
30E
330
1F
100
AcDbEntity
  8
2
100
AcDbLine
 10
116.0000305175781
 20
-71.0
 30
0.0
 11
114.5
 21
-71.0
 31
0.0
  0
ARC
  5
30F
330
1F
100
AcDbEntity
  8
2
100
AcDbCircle
 10
110.2208251953125
 20
-61.0
 30
0.0
 40
13.77916812896728
100
AcDbArc
 50
339.135942378213
 51
20.86406103688581
  0
ARC
  5
310
330
1F
100
AcDbEntity
  8
2
100
AcDbCircle
 10
120.2163696289062
 20
-68.3612060546875
 30
0.0
 40
3.783614635467529
100
AcDbArc
 50
319.5701056421651
 51
40.42988752763363
  0
LINE
  5
311
330
1F
100
AcDbEntity
  8
2
100
AcDbLine
 10
129.5
 20
-56.0
 30
0.0
 11
129.5
 21
-66.0
 31
0.0
  0
LINE
  5
312
330
1F
100
AcDbEntity
  8
2
100
AcDbLine
 10
129.5
 20
-56.0
 30
0.0
 11
124.0000305175781
 21
-56.0
 31
0.0
  0
LINE
  5
313
330
1F
100
AcDbEntity
  8
2
100
AcDbLine
 10
129.5
 20
-66.0
 30
0.0
 11
124.0000305175781
 21
-66.0
 31
0.0
  0
LINE
  5
314
330
1F
100
AcDbEntity
  8
2
100
AcDbLine
 10
123.0964660644531
 20
-51.18505859375
 30
0.0
 11
118.9035034179687
 21
-51.18505859375
 31
0.0
  0
ARC
  5
315
330
1F
100
AcDbEntity
  8
2
100
AcDbCircle
 10
116.0000305175781
 20
-53.0
 30
0.0
 40
2.0
100
AcDbArc
 50
0.0
 51
90.00000250446868
  0
LINE
  5
316
330
1F
100
AcDbEntity
  8
2
100
AcDbLine
 10
116.0000305175781
 20
-51.0
 30
0.0
 11
114.5
 21
-51.0
 31
0.0
  0
LINE
  5
317
330
1F
100
AcDbEntity
  8
2
100
AcDbLine
 10
41.35598754882813
 20
-98.5947265625
 30
0.0
 11
41.35598754882813
 21
-115.5947265625
 31
0.0
  0
ARC
  5
318
330
1F
100
AcDbEntity
  8
2
100
AcDbCircle
 10
42.85598754882812
 20
-115.5947265625
 30
0.0
 40
1.5
100
AcDbArc
 50
179.999991348572
 51
270.000000683243
  0
ARC
  5
319
330
1F
100
AcDbEntity
  8
2
100
AcDbCircle
 10
42.85598754882812
 20
-98.5947265625
 30
0.0
 40
1.5
100
AcDbArc
 50
90.00000250446868
 51
180.0000050089504
  0
LINE
  5
31A
330
1F
100
AcDbEntity
  8
1
100
AcDbLine
 10
0.0
 20
283.3279281411204
 30
0.0
 11
0.0
 21
133.7834842418865
 31
0.0
  0
LINE
  5
31B
330
1F
100
AcDbEntity
  8
1
100
AcDbLine
 10
-174.1900661038494
 20
208.5557061915031
 30
0.0
 11
146.8454895019531
 21
208.5557061915031
 31
0.0
  0
LINE
  5
31C
330
1F
100
AcDbEntity
  8
0
100
AcDbLine
 10
-11.49999999999818
 20
250.5557061915031
 30
0.0
 11
-12.5
 21
250.5557061915031
 31
0.0
  0
LINE
  5
31D
330
1F
100
AcDbEntity
  8
0
100
AcDbLine
 10
-11.49999999999818
 20
243.5555531915041
 30
0.0
 11
37.0
 21
243.5555531915041
 31
0.0
  0
LINE
  5
31E
330
1F
100
AcDbEntity
  8
0
100
AcDbLine
 10
31.3055570000015
 20
232.3555431915054
 30
0.0
 11
27.55277999999999
 21
225.8555391915022
 31
0.0
  0
LINE
  5
31F
330
1F
100
AcDbEntity
  8
0
100
AcDbLine
 10
31.3055570000015
 20
232.3555411915048
 30
0.0
 11
27.55277999999999
 21
238.8555411915029
 31
0.0
  0
LINE
  5
320
330
1F
100
AcDbEntity
  8
0
100
AcDbLine
 10
27.55277999999999
 20
238.8555411915029
 30
0.0
 11
20.04722600000059
 21
238.8555411915029
 31
0.0
  0
LINE
  5
321
330
1F
100
AcDbEntity
  8
0
100
AcDbLine
 10
-16.29443599999831
 20
232.3555411915048
 30
0.0
 11
-20.04721299999983
 21
225.8555411915029
 31
0.0
  0
LINE
  5
322
330
1F
100
AcDbEntity
  8
0
100
AcDbLine
 10
-20.04721099999915
 20
225.8555411915029
 30
0.0
 11
-27.55276499999855
 21
225.8555411915029
 31
0.0
  0
LINE
  5
323
330
1F
100
AcDbEntity
  8
1
100
AcDbLine
 10
23.80000300000211
 20
242.327016191505
 30
0.0
 11
23.80000300000211
 21
222.3840661915045
 31
0.0
  0
LINE
  5
324
330
1F
100
AcDbEntity
  8
1
100
AcDbLine
 10
-31.5
 20
194.9071011915026
 30
0.0
 11
-31.5
 21
135.1827920951947
 31
0.0
  0
LINE
  5
325
330
1F
100
AcDbEntity
  8
0
100
AcDbLine
 10
-20.04721099999915
 20
238.8555411915029
 30
0.0
 11
-27.55276499999855
 21
238.8555411915029
 31
0.0
  0
LINE
  5
326
330
1F
100
AcDbEntity
  8
0
100
AcDbLine
 10
16.29444900000089
 20
232.3555411915048
 30
0.0
 11
20.04722800000127
 21
238.8555431915036
 31
0.0
  0
LINE
  5
327
330
1F
100
AcDbEntity
  8
0
100
AcDbLine
 10
-31.30553999999938
 20
232.3555411915048
 30
0.0
 11
-27.55276299999969
 21
238.8555411915029
 31
0.0
  0
LINE
  5
328
330
1F
100
AcDbEntity
  8
0
100
AcDbLine
 10
-27.55276499999855
 20
225.8555411915029
 30
0.0
 11
-31.30554200000006
 21
232.3555431915054
 31
0.0
  0
LINE
  5
329
330
1F
100
AcDbEntity
  8
0
100
AcDbLine
 10
-44.99999199999911
 20
180.5555531915038
 30
0.0
 11
45.0
 21
180.5555531915038
 31
0.0
  0
LINE
  5
32A
330
1F
100
AcDbEntity
  8
0
100
AcDbLine
 10
-44.99999199999911
 20
183.5555531915039
 30
0.0
 11
45.0
 21
183.5555531915039
 31
0.0
  0
LINE
  5
32B
330
1F
100
AcDbEntity
  8
1
100
AcDbLine
 10
-33.76309199999923
 20
232.3555411915048
 30
0.0
 11
-13.83688399999846
 21
232.3555411915048
 31
0.0
  0
LINE
  5
32C
330
1F
100
AcDbEntity
  8
1
100
AcDbLine
 10
13.2505390000033
 20
232.3555411915048
 30
0.0
 11
34.34946700000092
 21
232.3555411915048
 31
0.0
  0
LINE
  5
32D
330
1F
100
AcDbEntity
  8
0
100
AcDbLine
 10
-16.29443399999763
 20
232.3555411915048
 30
0.0
 11
-20.04721299999983
 21
238.8555431915036
 31
0.0
  0
LINE
  5
32E
330
1F
100
AcDbEntity
  8
0
100
AcDbLine
 10
44.99999199999911
 20
235.5555531915041
 30
0.0
 11
44.99999199999911
 21
180.5555531915038
 31
0.0
  0
LINE
  5
32F
330
1F
100
AcDbEntity
  8
0
100
AcDbLine
 10
-45.0
 20
235.5555531915041
 30
0.0
 11
-45.0
 21
180.5555531915038
 31
0.0
  0
LINE
  5
330
330
1F
100
AcDbEntity
  8
1
100
AcDbLine
 10
-23.79998799999885
 20
242.327016191505
 30
0.0
 11
-23.79998799999885
 21
222.3840661915045
 31
0.0
  0
LINE
  5
331
330
1F
100
AcDbEntity
  8
0
100
AcDbLine
 10
20.04722800000127
 20
225.8555411915029
 30
0.0
 11
16.29445099999975
 21
232.3555411915048
 31
0.0
  0
LINE
  5
332
330
1F
100
AcDbEntity
  8
0
100
AcDbLine
 10
27.55277999999999
 20
225.8555411915029
 30
0.0
 11
20.04722600000059
 21
225.8555411915029
 31
0.0
  0
LINE
  5
333
330
1F
100
AcDbEntity
  8
0
100
AcDbLine
 10
-13.5
 20
215.0940514915026
 30
0.0
 11
-13.5
 21
249.555706191505
 31
0.0
  0
LINE
  5
334
330
1F
100
AcDbEntity
  8
0
100
AcDbLine
 10
-8.422192599999107
 20
220.968065191503
 30
0.0
 11
-14.96051500000067
 21
209.6433595915049
 31
0.0
  0
LINE
  5
335
330
1F
100
AcDbEntity
  8
0
100
AcDbLine
 10
41.00000000000181
 20
195.0557061915029
 30
0.0
 11
-6.538348199997926
 21
195.0557061915029
 31
0.0
  0
LINE
  5
336
330
1F
100
AcDbEntity
  8
0
100
AcDbLine
 10
14.96052000000236
 20
207.4681110915033
 30
0.0
 11
8.422144900001512
 21
196.1433131915042
 31
0.0
  0
LINE
  5
337
330
1F
100
AcDbEntity
  8
0
100
AcDbLine
 10
8.422168700000838
 20
220.9680821915052
 30
0.0
 11
14.96051800000168
 21
209.6433297915035
 31
0.0
  0
LINE
  5
338
330
1F
100
AcDbEntity
  8
0
100
AcDbLine
 10
-6.538348199997926
 20
222.0557061915031
 30
0.0
 11
6.538348199999745
 21
222.0557061915031
 31
0.0
  0
LINE
  5
339
330
1F
100
AcDbEntity
  8
0
100
AcDbLine
 10
42.0
 20
197.0557061915047
 30
0.0
 11
42.0
 21
196.0557061915047
 31
0.0
  0
LINE
  5
33A
330
1F
100
AcDbEntity
  8
0
100
AcDbLine
 10
22.0
 20
197.0557061915047
 30
0.0
 11
42.0
 21
197.0557061915047
 31
0.0
  0
LINE
  5
33B
330
1F
100
AcDbEntity
  8
0
100
AcDbLine
 10
0.0
 20
223.5557061915031
 30
0.0
 11
-8.089706400000068
 21
223.5557061915031
 31
0.0
  0
LINE
  5
33C
330
1F
100
AcDbEntity
  8
0
100
AcDbLine
 10
-11.49999999999818
 20
230.5557061915049
 30
0.0
 11
-13.5
 21
230.5557061915049
 31
0.0
  0
LINE
  5
33D
330
1F
100
AcDbEntity
  8
0
100
AcDbLine
 10
-10.02155500000117
 20
225.038095191502
 30
0.0
 11
-11.50000199999886
 21
230.5557351915039
 31
0.0
  0
LINE
  5
33E
330
1F
100
AcDbEntity
  8
0
100
AcDbLine
 10
15.0
 20
208.5557061915031
 30
0.0
 11
15.0
 21
200.4659997915029
 31
0.0
  0
LINE
  5
33F
330
1F
100
AcDbEntity
  8
0
100
AcDbLine
 10
16.48236499999984
 20
198.5341551915031
 30
0.0
 11
22.00000399999954
 21
197.0557081915054
 31
0.0
  0
LINE
  5
340
330
1F
100
AcDbEntity
  8
0
100
AcDbLine
 10
22.0
 20
197.0557061915047
 30
0.0
 11
22.0
 21
195.0557061915029
 31
0.0
  0
LINE
  5
341
330
1F
100
AcDbEntity
  8
0
100
AcDbLine
 10
-11.49999999999818
 20
230.5557061915049
 30
0.0
 11
-11.49999999999818
 21
250.5557061915031
 31
0.0
  0
LINE
  5
342
330
1F
100
AcDbEntity
  8
0
100
AcDbLine
 10
-14.96051699999952
 20
207.468081291502
 30
0.0
 11
-8.422168700000838
 21
196.1433311915048
 31
0.0
  0
LINE
  5
343
330
1F
100
AcDbEntity
  8
0
100
AcDbLine
 10
7.000159787887241
 20
208.5555352122236
 30
0.0
 11
4.000151387888763
 21
206.8234796036129
 31
0.0
  0
LINE
  5
344
330
1F
100
AcDbEntity
  8
0
100
AcDbLine
 10
-3.999861212112591
 20
210.2875737036127
 30
0.0
 11
-6.999869812112592
 21
208.5555181056887
 31
0.0
  0
LINE
  5
345
330
1F
100
AcDbEntity
  8
0
100
AcDbLine
 10
-3.999847412111193
 20
209.8055536036125
 30
0.0
 11
-3.999847412111193
 21
210.2876093036128
 31
0.0
  0
LINE
  5
346
330
1F
100
AcDbEntity
  8
0
100
AcDbLine
 10
4.000152587886987
 20
209.8055536036125
 30
0.0
 11
4.000152587886987
 21
210.2876093036128
 31
0.0
  0
LINE
  5
347
330
1F
100
AcDbEntity
  8
0
100
AcDbLine
 10
4.000152587886987
 20
206.823497903614
 30
0.0
 11
4.000152587886987
 21
207.3055536036125
 31
0.0
  0
LINE
  5
348
330
1F
100
AcDbEntity
  8
0
100
AcDbLine
 10
-3.999847412111193
 20
206.823497903614
 30
0.0
 11
-3.999847412111193
 21
207.3055536036125
 31
0.0
  0
LINE
  5
349
330
1F
100
AcDbEntity
  8
0
100
AcDbLine
 10
-3.999843312110897
 20
206.8235201036121
 30
0.0
 11
-6.999845012111109
 21
208.5555718099247
 31
0.0
  0
LINE
  5
34A
330
1F
100
AcDbEntity
  8
0
100
AcDbLine
 10
7.000154487888721
 20
208.5555718695276
 30
0.0
 11
4.000155887888467
 21
210.2876219036123
 31
0.0
  0
LINE
  5
34B
330
1F
100
AcDbEntity
  8
0
100
AcDbLine
 10
-3.999847412111193
 20
207.3055536036125
 30
0.0
 11
4.000152587886987
 21
207.3055536036125
 31
0.0
  0
LINE
  5
34C
330
1F
100
AcDbEntity
  8
0
100
AcDbLine
 10
-3.999847412111193
 20
209.8055536036125
 30
0.0
 11
4.000152587886987
 21
209.8055536036125
 31
0.0
  0
CIRCLE
  5
34D
330
1F
100
AcDbEntity
  8
0
100
AcDbCircle
 10
23.80000300000211
 20
232.3555411915048
 30
0.0
 40
6.5
  0
CIRCLE
  5
34E
330
1F
100
AcDbEntity
  8
0
100
AcDbCircle
 10
-23.79998799999885
 20
232.3555411915048
 30
0.0
 40
6.5
  0
ARC
  5
34F
330
1F
100
AcDbEntity
  8
0
100
AcDbCircle
 10
36.99999199999911
 20
235.5555531915041
 30
0.0
 40
8.0
100
AcDbArc
 50
0.0
 51
90.0
  0
ARC
  5
350
330
1F
100
AcDbEntity
  8
0
100
AcDbCircle
 10
-37.0
 20
235.5555531915041
 30
0.0
 40
8.0
100
AcDbArc
 50
90.0
 51
179.999989999999
  0
ARC
  5
351
330
1F
100
AcDbEntity
  8
0
100
AcDbCircle
 10
0.0
 20
208.5555536036143
 30
0.0
 40
17.5
100
AcDbArc
 50
140.4823500000005
 51
309.5184300000066
  0
ARC
  5
352
330
1F
100
AcDbEntity
  8
0
100
AcDbCircle
 10
0.0
 20
208.5555536036143
 30
0.0
 40
17.5
100
AcDbArc
 50
329.8264599999913
 51
121.0017399999955
  0
ARC
  5
353
330
1F
100
AcDbEntity
  8
0
100
AcDbCircle
 10
-12.5
 20
249.555706191505
 30
0.0
 40
1.0
100
AcDbArc
 50
90.0
 51
180.0
  0
CIRCLE
  5
354
330
1F
100
AcDbEntity
  8
0
100
AcDbCircle
 10
0.0
 20
208.5557061915031
 30
0.0
 40
15.0
  0
ARC
  5
355
330
1F
100
AcDbEntity
  8
0
100
AcDbCircle
 10
41.00000000000181
 20
196.0557061915047
 30
0.0
 40
1.0
100
AcDbArc
 50
270.0
 51
0.0
  0
ARC
  5
356
330
1F
100
AcDbEntity
  8
0
100
AcDbCircle
 10
-8.089706400000068
 20
225.555706191505
 30
0.0
 40
2.0
100
AcDbArc
 50
195.0000319999927
 51
270.0
  0
ARC
  5
357
330
1F
100
AcDbEntity
  8
0
100
AcDbCircle
 10
17.00000000000182
 20
200.4659997915029
 30
0.0
 40
2.0
100
AcDbArc
 50
180.0
 51
255.0000209999946
  0
CIRCLE
  5
358
330
1F
100
AcDbEntity
  8
0
100
AcDbCircle
 10
0.0
 20
208.5557061915031
 30
0.0
 40
13.5
  0
CIRCLE
  5
359
330
1F
100
AcDbEntity
  8
0
100
AcDbCircle
 10
0.0
 20
208.5557061915031
 30
0.0
 40
7.5
  0
LINE
  5
35A
330
1F
100
AcDbEntity
  8
0
100
AcDbLine
 10
-36.99999199999911
 20
243.5555531915041
 30
0.0
 11
-13.5
 21
243.5555531915041
 31
0.0
  0
LINE
  5
35B
330
1F
100
AcDbEntity
  8
2
100
AcDbLine
 10
-40.49996746347278
 20
176.5555531915038
 30
0.0
 11
-40.49996746347278
 21
149.5555531915038
 31
0.0
  0
LINE
  5
35C
330
1F
100
AcDbEntity
  8
2
100
AcDbLine
 10
-22.49996746347278
 20
176.5555531915038
 30
0.0
 11
-22.49996746347278
 21
149.5555531915038
 31
0.0
  0
LINE
  5
35D
330
1F
100
AcDbEntity
  8
2
100
AcDbLine
 10
-22.49996746347278
 20
191.5554616387695
 30
0.0
 11
-40.49996746347278
 21
191.5554616387695
 31
0.0
  0
LINE
  5
35E
330
1F
100
AcDbEntity
  8
2
100
AcDbLine
 10
-22.49996746347278
 20
191.5554616387695
 30
0.0
 11
-22.49996746347278
 21
187.5555531915038
 31
0.0
  0
LINE
  5
35F
330
1F
100
AcDbEntity
  8
2
100
AcDbLine
 10
-40.49996746347278
 20
191.5554616387695
 30
0.0
 11
-40.49996746347278
 21
187.5555531915038
 31
0.0
  0
LINE
  5
360
330
1F
100
AcDbEntity
  8
2
100
AcDbLine
 10
-22.49996746347278
 20
149.5555531915038
 30
0.0
 11
-40.49996746347278
 21
149.5555531915038
 31
0.0
  0
LINE
  5
361
330
1F
100
AcDbEntity
  8
2
100
AcDbLine
 10
-19.99999339631927
 20
187.5555531915038
 30
0.0
 11
-42.99999339631926
 21
187.5555531915038
 31
0.0
  0
ARC
  5
362
330
1F
100
AcDbEntity
  8
2
100
AcDbCircle
 10
-25.49999339631927
 20
169.9365978875488
 30
0.0
 40
17.33028030395508
100
AcDbArc
 50
69.74444580078159
 51
110.2555541992184
  0
ARC
  5
363
330
1F
100
AcDbEntity
  8
2
100
AcDbCircle
 10
-37.49999339631927
 20
169.9365978875488
 30
0.0
 40
17.33028030395508
100
AcDbArc
 50
69.74444580078159
 51
110.2555541992184
  0
LINE
  5
364
330
1F
100
AcDbEntity
  8
2
100
AcDbLine
 10
-43.49999339631927
 20
183.5555531915039
 30
0.0
 11
-43.49999339631927
 21
187.2668781915038
 31
0.0
  0
LINE
  5
365
330
1F
100
AcDbEntity
  8
2
100
AcDbLine
 10
-43.49999339631927
 20
187.2668781915038
 30
0.0
 11
-42.99999339631926
 21
187.5555531915038
 31
0.0
  0
LINE
  5
366
330
1F
100
AcDbEntity
  8
2
100
AcDbLine
 10
-31.49999339631927
 20
183.5555531915039
 30
0.0
 11
-31.49999339631927
 21
186.1950856515039
 31
0.0
  0
LINE
  5
367
330
1F
100
AcDbEntity
  8
2
100
AcDbLine
 10
-19.49999339631927
 20
183.5555531915039
 30
0.0
 11
-19.49999339631927
 21
187.2668781915038
 31
0.0
  0
LINE
  5
368
330
1F
100
AcDbEntity
  8
2
100
AcDbLine
 10
-19.49999339631927
 20
187.2668781915038
 30
0.0
 11
-19.99999339631927
 21
187.5555531915038
 31
0.0
  0
LINE
  5
369
330
1F
100
AcDbEntity
  8
2
100
AcDbLine
 10
-20.0
 20
176.5555531915038
 30
0.0
 11
-43.0
 21
176.5555531915038
 31
0.0
  0
ARC
  5
36A
330
1F
100
AcDbEntity
  8
2
100
AcDbCircle
 10
-25.5
 20
194.1745084954589
 30
0.0
 40
17.33028030395508
100
AcDbArc
 50
249.7440290212197
 51
290.2555541992184
  0
ARC
  5
36B
330
1F
100
AcDbEntity
  8
2
100
AcDbCircle
 10
-37.5
 20
194.1745084954589
 30
0.0
 40
17.33028030395508
100
AcDbArc
 50
249.7444458007816
 51
290.2559709787802
  0
LINE
  5
36C
330
1F
100
AcDbEntity
  8
2
100
AcDbLine
 10
-43.5
 20
176.8442281915038
 30
0.0
 11
-43.5
 21
180.5555531915038
 31
0.0
  0
LINE
  5
36D
330
1F
100
AcDbEntity
  8
2
100
AcDbLine
 10
-43.5
 20
176.8442281915038
 30
0.0
 11
-43.0
 21
176.5555531915038
 31
0.0
  0
LINE
  5
36E
330
1F
100
AcDbEntity
  8
2
100
AcDbLine
 10
-31.5
 20
177.9160148563283
 30
0.0
 11
-31.5
 21
180.5555531915038
 31
0.0
  0
LINE
  5
36F
330
1F
100
AcDbEntity
  8
2
100
AcDbLine
 10
-19.5
 20
176.8442281915038
 30
0.0
 11
-19.5
 21
180.5555531915038
 31
0.0
  0
LINE
  5
370
330
1F
100
AcDbEntity
  8
2
100
AcDbLine
 10
-19.5
 20
176.8442281915038
 30
0.0
 11
-20.0
 21
176.5555531915038
 31
0.0
  0
LINE
  5
371
330
1F
100
AcDbEntity
  8
2
100
AcDbLine
 10
-28.49988539933952
 20
149.555585728031
 30
0.0
 11
-28.49988539933952
 21
143.8081239249809
 31
0.0
  0
LINE
  5
372
330
1F
100
AcDbEntity
  8
2
100
AcDbLine
 10
-34.49988539933952
 20
149.555585728031
 30
0.0
 11
-34.49988539933952
 21
143.8081239249809
 31
0.0
  0
LINE
  5
373
330
1F
100
AcDbEntity
  8
1
100
AcDbLine
 10
31.5
 20
194.9071011915026
 30
0.0
 11
31.5
 21
135.1827920951947
 31
0.0
  0
LINE
  5
374
330
1F
100
AcDbEntity
  8
2
100
AcDbLine
 10
40.49996746347278
 20
176.5555531915038
 30
0.0
 11
40.49996746347278
 21
149.5555531915038
 31
0.0
  0
LINE
  5
375
330
1F
100
AcDbEntity
  8
2
100
AcDbLine
 10
22.49996746347278
 20
176.5555531915038
 30
0.0
 11
22.49996746347278
 21
149.5555531915038
 31
0.0
  0
LINE
  5
376
330
1F
100
AcDbEntity
  8
2
100
AcDbLine
 10
22.49996746347278
 20
191.5554616387695
 30
0.0
 11
40.49996746347278
 21
191.5554616387695
 31
0.0
  0
LINE
  5
377
330
1F
100
AcDbEntity
  8
2
100
AcDbLine
 10
22.49996746347278
 20
191.5554616387695
 30
0.0
 11
22.49996746347278
 21
187.5555531915038
 31
0.0
  0
LINE
  5
378
330
1F
100
AcDbEntity
  8
2
100
AcDbLine
 10
40.49996746347278
 20
191.5554616387695
 30
0.0
 11
40.49996746347278
 21
187.5555531915038
 31
0.0
  0
LINE
  5
379
330
1F
100
AcDbEntity
  8
2
100
AcDbLine
 10
22.49996746347278
 20
149.5555531915038
 30
0.0
 11
40.49996746347278
 21
149.5555531915038
 31
0.0
  0
LINE
  5
37A
330
1F
100
AcDbEntity
  8
2
100
AcDbLine
 10
19.99999339631927
 20
187.5555531915038
 30
0.0
 11
42.99999339631926
 21
187.5555531915038
 31
0.0
  0
ARC
  5
37B
330
1F
100
AcDbEntity
  8
2
100
AcDbCircle
 10
25.49999339631927
 20
169.9365978875488
 30
0.0
 40
17.33028030395508
100
AcDbArc
 50
69.74444580078159
 51
110.2555541992184
  0
ARC
  5
37C
330
1F
100
AcDbEntity
  8
2
100
AcDbCircle
 10
37.49999339631927
 20
169.9365978875488
 30
0.0
 40
17.33028030395508
100
AcDbArc
 50
69.74444580078159
 51
110.2555541992184
  0
LINE
  5
37D
330
1F
100
AcDbEntity
  8
2
100
AcDbLine
 10
43.49999339631927
 20
183.5555531915039
 30
0.0
 11
43.49999339631927
 21
187.2668781915038
 31
0.0
  0
LINE
  5
37E
330
1F
100
AcDbEntity
  8
2
100
AcDbLine
 10
43.49999339631927
 20
187.2668781915038
 30
0.0
 11
42.99999339631926
 21
187.5555531915038
 31
0.0
  0
LINE
  5
37F
330
1F
100
AcDbEntity
  8
2
100
AcDbLine
 10
31.49999339631927
 20
183.5555531915039
 30
0.0
 11
31.49999339631927
 21
186.1950856515039
 31
0.0
  0
LINE
  5
380
330
1F
100
AcDbEntity
  8
2
100
AcDbLine
 10
19.49999339631927
 20
183.5555531915039
 30
0.0
 11
19.49999339631927
 21
187.2668781915038
 31
0.0
  0
LINE
  5
381
330
1F
100
AcDbEntity
  8
2
100
AcDbLine
 10
19.49999339631927
 20
187.2668781915038
 30
0.0
 11
19.99999339631927
 21
187.5555531915038
 31
0.0
  0
LINE
  5
382
330
1F
100
AcDbEntity
  8
2
100
AcDbLine
 10
20.0
 20
176.5555531915038
 30
0.0
 11
43.0
 21
176.5555531915038
 31
0.0
  0
ARC
  5
383
330
1F
100
AcDbEntity
  8
2
100
AcDbCircle
 10
25.5
 20
194.1745084954589
 30
0.0
 40
17.33028030395508
100
AcDbArc
 50
249.7444458007816
 51
290.2559709787802
  0
ARC
  5
384
330
1F
100
AcDbEntity
  8
2
100
AcDbCircle
 10
37.5
 20
194.1745084954589
 30
0.0
 40
17.33028030395508
100
AcDbArc
 50
249.7440290212197
 51
290.2555541992184
  0
LINE
  5
385
330
1F
100
AcDbEntity
  8
2
100
AcDbLine
 10
43.5
 20
176.8442281915038
 30
0.0
 11
43.5
 21
180.5555531915038
 31
0.0
  0
LINE
  5
386
330
1F
100
AcDbEntity
  8
2
100
AcDbLine
 10
43.5
 20
176.8442281915038
 30
0.0
 11
43.0
 21
176.5555531915038
 31
0.0
  0
LINE
  5
387
330
1F
100
AcDbEntity
  8
2
100
AcDbLine
 10
31.5
 20
177.9160148563283
 30
0.0
 11
31.5
 21
180.5555531915038
 31
0.0
  0
LINE
  5
388
330
1F
100
AcDbEntity
  8
2
100
AcDbLine
 10
19.5
 20
176.8442281915038
 30
0.0
 11
19.5
 21
180.5555531915038
 31
0.0
  0
LINE
  5
389
330
1F
100
AcDbEntity
  8
2
100
AcDbLine
 10
19.5
 20
176.8442281915038
 30
0.0
 11
20.0
 21
176.5555531915038
 31
0.0
  0
LINE
  5
38A
330
1F
100
AcDbEntity
  8
2
100
AcDbLine
 10
28.49988539933952
 20
149.555585728031
 30
0.0
 11
28.49988539933952
 21
143.8081239249809
 31
0.0
  0
LINE
  5
38B
330
1F
100
AcDbEntity
  8
2
100
AcDbLine
 10
34.49988539933952
 20
149.555585728031
 30
0.0
 11
34.49988539933952
 21
143.8081239249809
 31
0.0
  0
ARC
  5
38C
330
1F
100
AcDbEntity
  8
0
100
AcDbCircle
 10
36.99997024072809
 20
42.00000024072801
 30
0.0
 40
7.99999975927199
100
AcDbArc
 50
359.9999982759077
 51
90.00000172407926
  0
ARC
  5
38D
330
1F
100
AcDbEntity
  8
0
100
AcDbCircle
 10
-36.99997024072809
 20
42.00000024072801
 30
0.0
 40
7.99999975927199
100
AcDbArc
 50
89.99999827590771
 51
180.0000017240792
  0
LINE
  5
38E
330
1F
100
AcDbEntity
  8
1
100
AcDbLine
 10
-31.50003000000015
 20
46.78295999999977
 30
0.0
 11
-31.50003000000015
 21
23.21704
 31
0.0
  0
LINE
  5
38F
330
1F
100
AcDbEntity
  8
1
100
AcDbLine
 10
31.49996999999985
 20
46.78295999999977
 30
0.0
 11
31.49996999999985
 21
23.21704
 31
0.0
  0
LINE
  5
390
330
1F
100
AcDbEntity
  8
1
100
AcDbLine
 10
-44.45566000000008
 20
35.0
 30
0.0
 11
-18.54433999999992
 21
35.0
 31
0.0
  0
LINE
  5
391
330
1F
100
AcDbEntity
  8
2
100
AcDbLine
 10
-37.56214
 20
45.50002999999992
 30
0.0
 11
-43.62433999999985
 21
35.0
 31
0.0
  0
LINE
  5
392
330
1F
100
AcDbEntity
  8
2
100
AcDbLine
 10
-19.37561000000005
 20
35.0
 30
0.0
 11
-25.43778999999995
 21
45.49999999999999
 31
0.0
  0
LINE
  5
393
330
1F
100
AcDbEntity
  8
2
100
AcDbLine
 10
-37.56215999999995
 20
24.5
 30
0.0
 11
-25.43783000000008
 21
24.5
 31
0.0
  0
LINE
  5
394
330
1F
100
AcDbEntity
  8
2
100
AcDbLine
 10
-43.62432000000012
 20
35.0
 30
0.0
 11
-37.56214
 21
24.49999000000003
 31
0.0
  0
LINE
  5
395
330
1F
100
AcDbEntity
  8
2
100
AcDbLine
 10
-25.43783000000008
 20
45.49999999999999
 30
0.0
 11
-37.56215999999995
 21
45.49999999999999
 31
0.0
  0
LINE
  5
396
330
1F
100
AcDbEntity
  8
2
100
AcDbLine
 10
-25.43779999999993
 20
24.50001999999972
 30
0.0
 11
-19.37567000000013
 21
34.99995000000013
 31
0.0
  0
LINE
  5
397
330
1F
100
AcDbEntity
  8
0
100
AcDbLine
 10
44.99996999999985
 20
0.0
 30
0.0
 11
-44.99997000000007
 21
0.0
 31
0.0
  0
LINE
  5
398
330
1F
100
AcDbEntity
  8
1
100
AcDbLine
 10
44.45566000000008
 20
35.0
 30
0.0
 11
18.54433999999992
 21
35.0
 31
0.0
  0
LINE
  5
399
330
1F
100
AcDbEntity
  8
0
100
AcDbLine
 10
44.99996999999985
 20
42.0
 30
0.0
 11
44.99996999999985
 21
0.0
 31
0.0
  0
LINE
  5
39A
330
1F
100
AcDbEntity
  8
0
100
AcDbLine
 10
-44.99997000000007
 20
42.0
 30
0.0
 11
-44.99997000000007
 21
0.0
 31
0.0
  0
LINE
  5
39B
330
1F
100
AcDbEntity
  8
0
100
AcDbLine
 10
36.99996999999985
 20
50.0
 30
0.0
 11
-36.99997000000008
 21
50.0
 31
0.0
  0
LINE
  5
39C
330
1F
100
AcDbEntity
  8
2
100
AcDbLine
 10
37.56215999999995
 20
45.49999000000002
 30
0.0
 11
43.6243199999999
 21
35.00001999999972
 31
0.0
  0
LINE
  5
39D
330
1F
100
AcDbEntity
  8
2
100
AcDbLine
 10
19.3756400000002
 20
35.00002999999992
 30
0.0
 11
25.43784000000005
 21
45.50006000000007
 31
0.0
  0
LINE
  5
39E
330
1F
100
AcDbEntity
  8
2
100
AcDbLine
 10
37.56216999999992
 20
24.5
 30
0.0
 11
25.43784000000005
 21
24.5
 31
0.0
  0
LINE
  5
39F
330
1F
100
AcDbEntity
  8
2
100
AcDbLine
 10
43.62436999999999
 20
35.00006000000008
 30
0.0
 11
37.56216999999992
 21
24.50002999999993
 31
0.0
  0
LINE
  5
3A0
330
1F
100
AcDbEntity
  8
2
100
AcDbLine
 10
25.43784000000005
 20
45.49999999999999
 30
0.0
 11
37.56216999999992
 21
45.49999999999999
 31
0.0
  0
LINE
  5
3A1
330
1F
100
AcDbEntity
  8
2
100
AcDbLine
 10
25.4378099999999
 20
24.49999000000003
 30
0.0
 11
19.37563
 21
34.99999000000002
 31
0.0
  0
CIRCLE
  5
3A2
330
1F
100
AcDbEntity
  8
2
100
AcDbCircle
 10
31.49996999999985
 20
35.0
 30
0.0
 40
1.0
  0
CIRCLE
  5
3A3
330
1F
100
AcDbEntity
  8
2
100
AcDbCircle
 10
31.49996999999985
 20
35.0
 30
0.0
 40
8.0
  0
CIRCLE
  5
3A4
330
1F
100
AcDbEntity
  8
0
100
AcDbCircle
 10
31.49996999999985
 20
35.0
 30
0.0
 40
9.0
  0
CIRCLE
  5
3A5
330
1F
100
AcDbEntity
  8
2
100
AcDbCircle
 10
31.49996999999985
 20
35.0
 30
0.0
 40
10.5
  0
CIRCLE
  5
3A6
330
1F
100
AcDbEntity
  8
2
100
AcDbCircle
 10
-31.50003000000015
 20
35.0
 30
0.0
 40
1.0
  0
CIRCLE
  5
3A7
330
1F
100
AcDbEntity
  8
2
100
AcDbCircle
 10
-31.50003000000015
 20
35.0
 30
0.0
 40
8.0
  0
CIRCLE
  5
3A8
330
1F
100
AcDbEntity
  8
0
100
AcDbCircle
 10
-31.50003000000015
 20
35.0
 30
0.0
 40
9.0
  0
CIRCLE
  5
3A9
330
1F
100
AcDbEntity
  8
2
100
AcDbCircle
 10
-31.50003000000015
 20
35.0
 30
0.0
 40
10.5
  0
CIRCLE
  5
3AA
330
1F
100
AcDbEntity
  8
0
100
AcDbCircle
 10
-23.79998799999885
 20
232.3555411915046
 30
0.0
 40
7.699999799999998
  0
CIRCLE
  5
3AB
330
1F
100
AcDbEntity
  8
0
100
AcDbCircle
 10
23.80000300000211
 20
232.3555411915046
 30
0.0
 40
7.699999799999998
  0
LINE
  5
3AD
330
1F
100
AcDbEntity
  8
0
  6
DASHED
100
AcDbLine
 10
-44.99999199999914
 20
3.0
 30
0.0
 11
44.99999999999997
 21
3.0
 31
0.0
  0
VIEWPORT
  5
71
330
55
100
AcDbEntity
 67
     1
  8
0
100
AcDbViewport
 10
133.3499908447266
 20
101.5999970436096
 30
0.0
 40
381.3957395593835
 41
218.2856291881582
 68
     1
 69
     1
 12
133.3499908447266
 22
101.5999970436096
 13
0.0
 23
0.0
 14
10.0
 24
10.0
 15
10.0
 25
10.0
 16
0.0
 26
0.0
 36
1.0
 17
0.0
 27
0.0
 37
0.0
 42
50.0
 43
0.0
 44
0.0
 45
218.2856291881582
 50
0.0
 51
0.0
 72
   100
 90
    32800
  1

281
     0
 71
     1
 74
     0
110
0.0
120
0.0
130
0.0
111
1.0
121
0.0
131
0.0
112
0.0
122
1.0
132
0.0
 79
     0
146
0.0
170
     0
 61
     5
348
3DB
292
     1
282
     1
141
0.0
142
0.0
 63
   250
421
  3355443
  0
VIEWPORT
  5
73
330
55
100
AcDbEntity
 67
     1
  8
0
100
AcDbViewport
 10
133.3499939441681
 20
101.5999939441681
 30
0.0
 40
213.3599903106689
 41
162.5599903106689
 68
     2
 69
     2
 12
210.0
 22
148.5
 13
0.0
 23
0.0
 14
10.0
 24
10.0
 15
10.0
 25
10.0
 16
0.0
 26
0.0
 36
1.0
 17
0.0
 27
0.0
 37
0.0
 42
50.0
 43
0.0
 44
0.0
 45
324.0677920111345
 50
0.0
 51
0.0
 72
   100
 90
    32864
  1

281
     0
 71
     1
 74
     0
110
0.0
120
0.0
130
0.0
111
1.0
121
0.0
131
0.0
112
0.0
122
1.0
132
0.0
 79
     0
146
0.0
170
     0
 61
     5
348
3DB
292
     1
282
     1
141
0.0
142
0.0
 63
   250
421
  3355443
  0
ENDSEC
  0
SECTION
  2
OBJECTS
  0
DICTIONARY
  5
C
330
0
100
AcDbDictionary
281
     1
  3
ACAD_COLOR
350
3E9
  3
ACAD_GROUP
350
D
  3
ACAD_LAYOUT
350
1A
  3
ACAD_MATERIAL
350
3BC
  3
ACAD_MLEADERSTYLE
350
3FE
  3
ACAD_MLINESTYLE
350
17
  3
ACAD_PLOTSETTINGS
350
19
  3
ACAD_PLOTSTYLENAME
350
E
  3
ACAD_SCALELIST
350
3EC
  3
ACAD_TABLESTYLE
350
3EA
  3
ACAD_VISUALSTYLE
350
3D5
  3
ACDB_RECOMPOSE_DATA
350
40D
  3
AcDbVariableDictionary
350
5E
  0
DICTIONARY
  5
97
330
2
100
AcDbDictionary
280
     1
281
     1
  3
ACAD_LAYERSTATES
360
98
  0
DICTIONARY
  5
402
330
10
100
AcDbDictionary
280
     1
281
     1
  3
ADSK_XREC_LAYER_RECONCILED
360
403
  0
DICTIONARY
  5
90
330
8F
100
AcDbDictionary
280
     1
281
     1
  3
ADSK_XREC_LAYER_RECONCILED
360
91
  0
DICTIONARY
  5
93
330
92
100
AcDbDictionary
280
     1
281
     1
  3
ADSK_XREC_LAYER_RECONCILED
360
94
  0
DICTIONARY
  5
3E9
102
{ACAD_REACTORS
330
C
102
}
330
C
100
AcDbDictionary
281
     1
  0
DICTIONARY
  5
D
102
{ACAD_REACTORS
330
C
102
}
330
C
100
AcDbDictionary
281
     1
  0
DICTIONARY
  5
1A
102
{ACAD_REACTORS
330
C
102
}
330
C
100
AcDbDictionary
281
     1
  3
Model
350
22
  3
ﾚｲｱｳﾄ1
350
51
  3
ﾚｲｱｳﾄ2
350
56
  0
DICTIONARY
  5
3BC
102
{ACAD_REACTORS
330
C
102
}
330
C
100
AcDbDictionary
281
     1
  3
ByBlock
350
3C5
  3
ByLayer
350
3BD
  3
Global
350
3CD
  0
DICTIONARY
  5
3FE
102
{ACAD_REACTORS
330
C
102
}
330
C
100
AcDbDictionary
281
     1
  3
Standard
350
3FF
  0
DICTIONARY
  5
17
102
{ACAD_REACTORS
330
C
102
}
330
C
100
AcDbDictionary
281
     1
  3
Standard
350
18
  0
DICTIONARY
  5
19
102
{ACAD_REACTORS
330
C
102
}
330
C
100
AcDbDictionary
281
     1
  0
ACDBDICTIONARYWDFLT
  5
E
102
{ACAD_REACTORS
330
C
102
}
330
C
100
AcDbDictionary
281
     1
  3
Normal
350
F
100
AcDbDictionaryWithDefault
340
F
  0
DICTIONARY
  5
3EC
102
{ACAD_REACTORS
330
C
102
}
330
C
100
AcDbDictionary
281
     1
  3
A0
350
3ED
  3
A1
350
3EE
  3
A2
350
3EF
  3
A3
350
3F0
  3
A4
350
3F1
  3
A5
350
3F2
  3
A6
350
3F3
  3
A7
350
3F4
  3
A8
350
3F5
  3
A9
350
3F6
  3
B0
350
3F7
  3
B1
350
3F8
  3
B2
350
3F9
  3
B3
350
3FA
  3
B4
350
3FB
  3
B5
350
3FC
  3
B6
350
3FD
  0
DICTIONARY
  5
3EA
102
{ACAD_REACTORS
330
C
102
}
330
C
100
AcDbDictionary
281
     1
  3
Standard
350
3EB
  0
DICTIONARY
  5
3D5
102
{ACAD_REACTORS
330
C
102
}
330
C
100
AcDbDictionary
281
     1
  3
2dWireframe
350
3DB
  3
3D Hidden
350
3DD
  3
3dWireframe
350
3DC
  3
Basic
350
3DA
  3
Brighten
350
3E1
  3
ColorChange
350
3E5
  3
Conceptual
350
3DE
  3
Dim
350
3E0
  3
EdgeColorOff
350
3E8
  3
Facepattern
350
3E4
  3
Flat
350
3D6
  3
FlatWithEdges
350
3D7
  3
Gouraud
350
3D8
  3
GouraudWithEdges
350
3D9
  3
JitterOff
350
3E6
  3
Linepattern
350
3E3
  3
OverhangOff
350
3E7
  3
Realistic
350
3DF
  3
Thicken
350
3E2
  0
XRECORD
  5
40D
102
{ACAD_REACTORS
330
C
102
}
330
C
100
AcDbXrecord
280
     1
 90
        1
330
3EB
  0
DICTIONARY
  5
5E
102
{ACAD_REACTORS
330
C
102
}
330
C
100
AcDbDictionary
281
     1
  3
CANNOSCALE
350
407
  3
CMLEADERSTYLE
350
405
  3
CTABLESTYLE
350
404
  3
DIMASSOC
350
5F
  3
HIDETEXT
350
63
  3
LAYEREVAL
350
409
  3
LAYERNOTIFY
350
40A
  3
LIGHTINGUNITS
350
408
  3
MSLTSCALE
350
406
  0
DICTIONARY
  5
98
102
{ACAD_REACTORS
330
97
102
}
330
97
100
AcDbDictionary
281
     1
  0
XRECORD
  5
403
102
{ACAD_REACTORS
330
402
102
}
330
402
100
AcDbXrecord
280
     1
290
     1
  0
XRECORD
  5
91
102
{ACAD_REACTORS
330
90
102
}
330
90
100
AcDbXrecord
280
     1
290
     1
  0
XRECORD
  5
94
102
{ACAD_REACTORS
330
93
102
}
330
93
100
AcDbXrecord
280
     1
290
     1
  0
LAYOUT
  5
22
102
{ACAD_REACTORS
330
1A
102
}
330
1A
100
AcDbPlotSettings
  1

  2
none_device
  4
ANSI_A_(8.50_x_11.00_Inches)
  6

 40
6.349999904632568
 41
19.04999923706055
 42
6.350006103515625
 43
19.04998779296875
 44
215.8999938964844
 45
279.3999938964844
 46
0.0
 47
0.0
 48
0.0
 49
0.0
140
0.0
141
0.0
142
1.0
143
78.436453180766
 70
 11952
 72
     0
 73
     1
 74
     0
  7

 75
     0
147
0.0127491741332998
 76
     0
 77
     2
 78
   300
148
0.0
149
0.0
100
AcDbLayout
  1
Model
 70
     1
 71
     0
 10
0.0
 20
0.0
 11
12.0
 21
9.0
 12
0.0
 22
0.0
 32
0.0
 14
0.0
 24
0.0
 34
0.0
 15
0.0
 25
0.0
 35
0.0
146
0.0
 13
0.0
 23
0.0
 33
0.0
 16
1.0
 26
0.0
 36
0.0
 17
0.0
 27
1.0
 37
0.0
 76
     0
330
1F
331
3BA
  0
LAYOUT
  5
51
102
{ACAD_REACTORS
330
1A
102
}
330
1A
100
AcDbPlotSettings
  1

  2
none_device
  4
Letter_(8.50_x_11.00_Inches)
  6

 40
6.349999904632568
 41
6.349999904632568
 42
6.350006103515625
 43
6.350006103515625
 44
215.8999938964844
 45
279.3999938964844
 46
0.0
 47
0.0
 48
0.0
 49
0.0
140
0.0
141
0.0
142
1.0
143
1.0
 70
   688
 72
     1
 73
     1
 74
     5
  7

 75
    16
147
1.0
 76
     0
 77
     2
 78
   300
148
0.0
149
0.0
100
AcDbLayout
  1
ﾚｲｱｳﾄ1
 70
     1
 71
     1
 10
-6.350006103515625
 20
-6.349999904632568
 11
273.0499877929688
 21
209.5499939918518
 12
0.0
 22
0.0
 32
0.0
 14
26.66076962115563
 24
20.31135699206658
 34
-0.0015258207003583
 15
240.039213369355
 25
182.8886381005154
 35
0.0000000349246037
146
0.0
 13
0.0
 23
0.0
 33
0.0
 16
1.0
 26
0.0
 36
0.0
 17
0.0
 27
1.0
 37
0.0
 76
     0
330
50
331
6B
  0
LAYOUT
  5
56
102
{ACAD_REACTORS
330
1A
102
}
330
1A
100
AcDbPlotSettings
  1

  2
none_device
  4
Letter_(8.50_x_11.00_Inches)
  6

 40
6.349999904632568
 41
6.349999904632568
 42
6.350006103515625
 43
6.350006103515625
 44
215.8999938964844
 45
279.3999938964844
 46
0.0
 47
0.0
 48
0.0
 49
0.0
140
0.0
141
0.0
142
1.0
143
1.0
 70
   688
 72
     1
 73
     1
 74
     5
  7

 75
    16
147
1.0
 76
     0
 77
     2
 78
   300
148
0.0
149
0.0
100
AcDbLayout
  1
ﾚｲｱｳﾄ2
 70
     1
 71
     2
 10
-6.350006103515625
 20
-6.349999904632568
 11
273.0499877929688
 21
209.5499939918518
 12
0.0
 22
0.0
 32
0.0
 14
26.66076962115563
 24
20.31135699206658
 34
-0.0015258207003583
 15
240.039213369355
 25
182.8886381005154
 35
0.0000000349246037
146
0.0
 13
0.0
 23
0.0
 33
0.0
 16
1.0
 26
0.0
 36
0.0
 17
0.0
 27
1.0
 37
0.0
 76
     0
330
55
331
71
  0
MATERIAL
  5
3C5
102
{ACAD_XDICTIONARY
360
3C6
102
}
102
{ACAD_REACTORS
330
3BC
102
}
330
3BC
100
AcDbMaterial
  1
ByBlock
 72
     0
 43
0.0008202099737533
 43
0.0
 43
0.0
 43
0.0
 43
0.0
 43
0.0008202099737533
 43
0.0
 43
0.0
 43
0.0
 43
0.0
 43
1.0
 43
0.0
 43
0.0
 43
0.0
 43
0.0
 43
1.0
 77
     0
 47
0.0008202099737533
 47
0.0
 47
0.0
 47
0.0
 47
0.0
 47
0.0008202099737533
 47
0.0
 47
0.0
 47
0.0
 47
0.0
 47
1.0
 47
0.0
 47
0.0
 47
0.0
 47
0.0
 47
1.0
171
     0
 49
0.0008202099737533
 49
0.0
 49
0.0
 49
0.0
 49
0.0
 49
0.0008202099737533
 49
0.0
 49
0.0
 49
0.0
 49
0.0
 49
1.0
 49
0.0
 49
0.0
 49
0.0
 49
0.0
 49
1.0
175
     0
142
0.0008202099737533
142
0.0
142
0.0
142
0.0
142
0.0
142
0.0008202099737533
142
0.0
142
0.0
142
0.0
142
0.0
142
1.0
142
0.0
142
0.0
142
0.0
142
0.0
142
1.0
179
     0
144
0.0008202099737533
144
0.0
144
0.0
144
0.0
144
0.0
144
0.0008202099737533
144
0.0
144
0.0
144
0.0
144
0.0
144
1.0
144
0.0
144
0.0
144
0.0
144
0.0
144
1.0
147
0.0008202099737533
147
0.0
147
0.0
147
0.0
147
0.0
147
0.0008202099737533
147
0.0
147
0.0
147
0.0
147
0.0
147
1.0
147
0.0
147
0.0
147
0.0
147
0.0
147
1.0
  0
MATERIAL
  5
3BD
102
{ACAD_XDICTIONARY
360
3BE
102
}
102
{ACAD_REACTORS
330
3BC
102
}
330
3BC
100
AcDbMaterial
  1
ByLayer
 72
     0
 43
0.0008202099737533
 43
0.0
 43
0.0
 43
0.0
 43
0.0
 43
0.0008202099737533
 43
0.0
 43
0.0
 43
0.0
 43
0.0
 43
1.0
 43
0.0
 43
0.0
 43
0.0
 43
0.0
 43
1.0
 77
     0
 47
0.0008202099737533
 47
0.0
 47
0.0
 47
0.0
 47
0.0
 47
0.0008202099737533
 47
0.0
 47
0.0
 47
0.0
 47
0.0
 47
1.0
 47
0.0
 47
0.0
 47
0.0
 47
0.0
 47
1.0
171
     0
 49
0.0008202099737533
 49
0.0
 49
0.0
 49
0.0
 49
0.0
 49
0.0008202099737533
 49
0.0
 49
0.0
 49
0.0
 49
0.0
 49
1.0
 49
0.0
 49
0.0
 49
0.0
 49
0.0
 49
1.0
175
     0
142
0.0008202099737533
142
0.0
142
0.0
142
0.0
142
0.0
142
0.0008202099737533
142
0.0
142
0.0
142
0.0
142
0.0
142
1.0
142
0.0
142
0.0
142
0.0
142
0.0
142
1.0
179
     0
144
0.0008202099737533
144
0.0
144
0.0
144
0.0
144
0.0
144
0.0008202099737533
144
0.0
144
0.0
144
0.0
144
0.0
144
1.0
144
0.0
144
0.0
144
0.0
144
0.0
144
1.0
147
0.0008202099737533
147
0.0
147
0.0
147
0.0
147
0.0
147
0.0008202099737533
147
0.0
147
0.0
147
0.0
147
0.0
147
1.0
147
0.0
147
0.0
147
0.0
147
0.0
147
1.0
  0
MATERIAL
  5
3CD
102
{ACAD_XDICTIONARY
360
3CE
102
}
102
{ACAD_REACTORS
330
3BC
102
}
330
3BC
100
AcDbMaterial
  1
Global
 72
     0
 43
0.0008202099737533
 43
0.0
 43
0.0
 43
0.0
 43
0.0
 43
0.0008202099737533
 43
0.0
 43
0.0
 43
0.0
 43
0.0
 43
1.0
 43
0.0
 43
0.0
 43
0.0
 43
0.0
 43
1.0
 77
     0
 47
0.0008202099737533
 47
0.0
 47
0.0
 47
0.0
 47
0.0
 47
0.0008202099737533
 47
0.0
 47
0.0
 47
0.0
 47
0.0
 47
1.0
 47
0.0
 47
0.0
 47
0.0
 47
0.0
 47
1.0
171
     0
 49
0.0008202099737533
 49
0.0
 49
0.0
 49
0.0
 49
0.0
 49
0.0008202099737533
 49
0.0
 49
0.0
 49
0.0
 49
0.0
 49
1.0
 49
0.0
 49
0.0
 49
0.0
 49
0.0
 49
1.0
175
     0
142
0.0008202099737533
142
0.0
142
0.0
142
0.0
142
0.0
142
0.0008202099737533
142
0.0
142
0.0
142
0.0
142
0.0
142
1.0
142
0.0
142
0.0
142
0.0
142
0.0
142
1.0
179
     0
144
0.0008202099737533
144
0.0
144
0.0
144
0.0
144
0.0
144
0.0008202099737533
144
0.0
144
0.0
144
0.0
144
0.0
144
1.0
144
0.0
144
0.0
144
0.0
144
0.0
144
1.0
147
0.0008202099737533
147
0.0
147
0.0
147
0.0
147
0.0
147
0.0008202099737533
147
0.0
147
0.0
147
0.0
147
0.0
147
1.0
147
0.0
147
0.0
147
0.0
147
0.0
147
1.0
  0
MLEADERSTYLE
  5
3FF
102
{ACAD_REACTORS
330
3FE
102
}
330
3FE
100
AcDbMLeaderStyle
179
     2
170
     2
171
     1
172
     0
 90
        2
 40
0.0
 41
0.0
173
     1
 91
-1056964608
340
14
 92
       -2
290
     1
 42
2.0
291
     1
 43
0.36
  3
Standard
 44
4.0
300

342
11
174
     1
178
     6
175
     1
176
     0
 93
-1056964608
 45
4.0
292
     0
297
     0
 46
4.0
 94
-1056964608
 47
1.0
 49
1.0
140
1.0
293
     1
141
0.0
294
     1
177
     0
142
1.0
295
     1
296
     0
143
0.125
271
     0
272
     9
273
     9
  0
MLINESTYLE
  5
18
102
{ACAD_REACTORS
330
17
102
}
330
17
100
AcDbMlineStyle
  2
STANDARD
 70
     0
  3

 62
   256
 51
90.0
 52
90.0
 71
     2
 49
0.5
 62
   256
  6
BYLAYER
 49
-0.5
 62
   256
  6
BYLAYER
  0
ACDBPLACEHOLDER
  5
F
102
{ACAD_REACTORS
330
E
102
}
330
E
  0
SCALE
  5
3ED
102
{ACAD_REACTORS
330
3EC
102
}
330
3EC
100
AcDbScale
 70
     0
300
1:1
140
1.0
141
1.0
290
     1
  0
SCALE
  5
3EE
102
{ACAD_REACTORS
330
3EC
102
}
330
3EC
100
AcDbScale
 70
     0
300
1:2
140
1.0
141
2.0
290
     0
  0
SCALE
  5
3EF
102
{ACAD_REACTORS
330
3EC
102
}
330
3EC
100
AcDbScale
 70
     0
300
1:4
140
1.0
141
4.0
290
     0
  0
SCALE
  5
3F0
102
{ACAD_REACTORS
330
3EC
102
}
330
3EC
100
AcDbScale
 70
     0
300
1:5
140
1.0
141
5.0
290
     0
  0
SCALE
  5
3F1
102
{ACAD_REACTORS
330
3EC
102
}
330
3EC
100
AcDbScale
 70
     0
300
1:8
140
1.0
141
8.0
290
     0
  0
SCALE
  5
3F2
102
{ACAD_REACTORS
330
3EC
102
}
330
3EC
100
AcDbScale
 70
     0
300
1:10
140
1.0
141
10.0
290
     0
  0
SCALE
  5
3F3
102
{ACAD_REACTORS
330
3EC
102
}
330
3EC
100
AcDbScale
 70
     0
300
1:16
140
1.0
141
16.0
290
     0
  0
SCALE
  5
3F4
102
{ACAD_REACTORS
330
3EC
102
}
330
3EC
100
AcDbScale
 70
     0
300
1:20
140
1.0
141
20.0
290
     0
  0
SCALE
  5
3F5
102
{ACAD_REACTORS
330
3EC
102
}
330
3EC
100
AcDbScale
 70
     0
300
1:30
140
1.0
141
30.0
290
     0
  0
SCALE
  5
3F6
102
{ACAD_REACTORS
330
3EC
102
}
330
3EC
100
AcDbScale
 70
     0
300
1:40
140
1.0
141
40.0
290
     0
  0
SCALE
  5
3F7
102
{ACAD_REACTORS
330
3EC
102
}
330
3EC
100
AcDbScale
 70
     0
300
1:50
140
1.0
141
50.0
290
     0
  0
SCALE
  5
3F8
102
{ACAD_REACTORS
330
3EC
102
}
330
3EC
100
AcDbScale
 70
     0
300
1:100
140
1.0
141
100.0
290
     0
  0
SCALE
  5
3F9
102
{ACAD_REACTORS
330
3EC
102
}
330
3EC
100
AcDbScale
 70
     0
300
2:1
140
2.0
141
1.0
290
     0
  0
SCALE
  5
3FA
102
{ACAD_REACTORS
330
3EC
102
}
330
3EC
100
AcDbScale
 70
     0
300
4:1
140
4.0
141
1.0
290
     0
  0
SCALE
  5
3FB
102
{ACAD_REACTORS
330
3EC
102
}
330
3EC
100
AcDbScale
 70
     0
300
8:1
140
8.0
141
1.0
290
     0
  0
SCALE
  5
3FC
102
{ACAD_REACTORS
330
3EC
102
}
330
3EC
100
AcDbScale
 70
     0
300
10:1
140
10.0
141
1.0
290
     0
  0
SCALE
  5
3FD
102
{ACAD_REACTORS
330
3EC
102
}
330
3EC
100
AcDbScale
 70
     0
300
100:1
140
100.0
141
1.0
290
     0
  0
TABLESTYLE
  5
3EB
102
{ACAD_XDICTIONARY
360
40B
102
}
102
{ACAD_REACTORS
330
3EA
102
}
330
3EA
100
AcDbTableStyle
280
     0
  3
Standard
 70
     0
 71
     0
 40
1.5
 41
1.5
280
     0
281
     0
  7
Standard
140
4.5
170
     2
 62
     0
 63
     7
283
     0
 90
      512
 91
        0
  1

274
    -2
284
     1
 64
     0
275
    -2
285
     1
 65
     0
276
    -2
286
     1
 66
     0
277
    -2
287
     1
 67
     0
278
    -2
288
     1
 68
     0
279
    -2
289
     1
 69
     0
  7
Standard
140
6.0
170
     5
 62
     0
 63
     7
283
     0
 90
      512
 91
        0
  1

274
    -2
284
     1
 64
     0
275
    -2
285
     1
 65
     0
276
    -2
286
     1
 66
     0
277
    -2
287
     1
 67
     0
278
    -2
288
     1
 68
     0
279
    -2
289
     1
 69
     0
  7
Standard
140
4.5
170
     5
 62
     0
 63
     7
283
     0
 90
      512
 91
        0
  1

274
    -2
284
     1
 64
     0
275
    -2
285
     1
 65
     0
276
    -2
286
     1
 66
     0
277
    -2
287
     1
 67
     0
278
    -2
288
     1
 68
     0
279
    -2
289
     1
 69
     0
  0
VISUALSTYLE
  5
3DB
102
{ACAD_REACTORS
330
3D5
102
}
330
3D5
100
AcDbVisualStyle
  2
2dWireframe
 70
     4
177
     2
291
     0
 71
     0
176
     1
 72
     2
176
     1
 73
     0
176
     1
 90
        0
176
     1
 40
0.6
176
     1
 41
30.0
176
     1
 63
     7
421
 16777215
176
     1
 74
     1
176
     1
 91
        4
176
     1
 64
     7
176
     1
 65
   257
176
     1
 75
     1
176
     1
175
     1
176
     1
 42
1.0
176
     1
 92
        0
176
     1
 66
   257
176
     1
 43
1.0
176
     1
 76
     1
176
     1
 77
     6
176
     1
 78
     2
176
     1
 67
     7
176
     1
 79
     5
176
     1
170
     0
176
     1
171
     0
176
     1
290
     0
176
     1
 93
        1
176
     1
 44
0.0
176
     1
173
     0
176
     1
  0
VISUALSTYLE
  5
3DD
102
{ACAD_REACTORS
330
3D5
102
}
330
3D5
100
AcDbVisualStyle
  2
3D Hidden
 70
     6
177
     2
291
     0
 71
     1
176
     1
 72
     2
176
     1
 73
     2
176
     1
 90
        0
176
     1
 40
0.6
176
     1
 41
30.0
176
     1
 63
     7
421
 16777215
176
     1
 74
     2
176
     1
 91
        2
176
     1
 64
     7
176
     1
 65
   257
176
     1
 75
     2
176
     1
175
     1
176
     1
 42
179.0
176
     1
 92
        0
176
     1
 66
   257
176
     1
 43
1.0
176
     1
 76
     1
176
     1
 77
     6
176
     1
 78
     2
176
     1
 67
     7
176
     1
 79
     3
176
     1
170
     0
176
     1
171
     0
176
     1
290
     0
176
     1
 93
        1
176
     1
 44
0.0
176
     1
173
     0
176
     1
  0
VISUALSTYLE
  5
3DC
102
{ACAD_REACTORS
330
3D5
102
}
330
3D5
100
AcDbVisualStyle
  2
3dWireframe
 70
     5
177
     2
291
     0
 71
     0
176
     1
 72
     2
176
     1
 73
     0
176
     1
 90
        0
176
     1
 40
0.6
176
     1
 41
30.0
176
     1
 63
     7
421
 16777215
176
     1
 74
     1
176
     1
 91
        4
176
     1
 64
     7
176
     1
 65
   257
176
     1
 75
     1
176
     1
175
     1
176
     1
 42
1.0
176
     1
 92
        0
176
     1
 66
   257
176
     1
 43
1.0
176
     1
 76
     1
176
     1
 77
     6
176
     1
 78
     2
176
     1
 67
     7
176
     1
 79
     5
176
     1
170
     0
176
     1
171
     0
176
     1
290
     0
176
     1
 93
        1
176
     1
 44
0.0
176
     1
173
     0
176
     1
  0
VISUALSTYLE
  5
3DA
102
{ACAD_REACTORS
330
3D5
102
}
330
3D5
100
AcDbVisualStyle
  2
Basic
 70
     7
177
     2
291
     1
 71
     1
176
     1
 72
     0
176
     1
 73
     1
176
     1
 90
        0
176
     1
 40
0.6
176
     1
 41
30.0
176
     1
 63
     7
421
 16777215
176
     1
 74
     0
176
     1
 91
        4
176
     1
 64
     7
176
     1
 65
   257
176
     1
 75
     1
176
     1
175
     1
176
     1
 42
1.0
176
     1
 92
        8
176
     1
 66
     7
176
     1
 43
1.0
176
     1
 76
     1
176
     1
 77
     6
176
     1
 78
     2
176
     1
 67
     7
176
     1
 79
     5
176
     1
170
     0
176
     1
171
     0
176
     1
290
     0
176
     1
 93
        1
176
     1
 44
0.0
176
     1
173
     0
176
     1
  0
VISUALSTYLE
  5
3E1
102
{ACAD_REACTORS
330
3D5
102
}
330
3D5
100
AcDbVisualStyle
  2
Brighten
 70
    12
177
     2
291
     1
 71
     2
176
     1
 72
     2
176
     1
 73
     0
176
     1
 90
        0
176
     1
 40
0.6
176
     1
 41
30.0
176
     1
 63
     7
421
 16777215
176
     1
 74
     1
176
     1
 91
        4
176
     1
 64
     7
176
     1
 65
   257
176
     1
 75
     1
176
     1
175
     1
176
     1
 42
1.0
176
     1
 92
        8
176
     1
 66
     7
176
     1
 43
1.0
176
     1
 76
     1
176
     1
 77
     6
176
     1
 78
     2
176
     1
 67
     7
176
     1
 79
     5
176
     1
170
     0
176
     1
171
     0
176
     1
290
     0
176
     1
 93
        1
176
     1
 44
50.0
176
     1
173
     0
176
     1
  0
VISUALSTYLE
  5
3E5
102
{ACAD_REACTORS
330
3D5
102
}
330
3D5
100
AcDbVisualStyle
  2
ColorChange
 70
    16
177
     2
291
     1
 71
     2
176
     1
 72
     2
176
     1
 73
     3
176
     1
 90
        0
176
     1
 40
0.6
176
     1
 41
30.0
176
     1
 63
     8
421
  8421504
176
     1
 74
     1
176
     1
 91
        4
176
     1
 64
     7
176
     1
 65
   257
176
     1
 75
     1
176
     1
175
     1
176
     1
 42
1.0
176
     1
 92
        8
176
     1
 66
     8
424
  8421504
176
     1
 43
1.0
176
     1
 76
     1
176
     1
 77
     6
176
     1
 78
     2
176
     1
 67
     7
176
     1
 79
     5
176
     1
170
     0
176
     1
171
     0
176
     1
290
     0
176
     1
 93
        1
176
     1
 44
0.0
176
     1
173
     0
176
     1
  0
VISUALSTYLE
  5
3DE
102
{ACAD_REACTORS
330
3D5
102
}
330
3D5
100
AcDbVisualStyle
  2
Conceptual
 70
     9
177
     2
291
     0
 71
     3
176
     1
 72
     2
176
     1
 73
     0
176
     1
 90
        0
176
     1
 40
0.6
176
     1
 41
30.0
176
     1
 63
     7
421
 16777215
176
     1
 74
     2
176
     1
 91
        2
176
     1
 64
     7
176
     1
 65
   257
176
     1
 75
     1
176
     1
175
     1
176
     1
 42
179.0
176
     1
 92
        8
176
     1
 66
     7
176
     1
 43
1.0
176
     1
 76
     1
176
     1
 77
     6
176
     1
 78
     2
176
     1
 67
     7
176
     1
 79
     3
176
     1
170
     0
176
     1
171
     0
176
     1
290
     0
176
     1
 93
        1
176
     1
 44
0.0
176
     1
173
     0
176
     1
  0
VISUALSTYLE
  5
3E0
102
{ACAD_REACTORS
330
3D5
102
}
330
3D5
100
AcDbVisualStyle
  2
Dim
 70
    11
177
     2
291
     1
 71
     2
176
     1
 72
     2
176
     1
 73
     0
176
     1
 90
        0
176
     1
 40
0.6
176
     1
 41
30.0
176
     1
 63
     7
421
 16777215
176
     1
 74
     1
176
     1
 91
        4
176
     1
 64
     7
176
     1
 65
   257
176
     1
 75
     1
176
     1
175
     1
176
     1
 42
1.0
176
     1
 92
        8
176
     1
 66
     7
176
     1
 43
1.0
176
     1
 76
     1
176
     1
 77
     6
176
     1
 78
     2
176
     1
 67
     7
176
     1
 79
     5
176
     1
170
     0
176
     1
171
     0
176
     1
290
     0
176
     1
 93
        1
176
     1
 44
-50.0
176
     1
173
     0
176
     1
  0
VISUALSTYLE
  5
3E8
102
{ACAD_REACTORS
330
3D5
102
}
330
3D5
100
AcDbVisualStyle
  2
EdgeColorOff
 70
    22
177
     2
291
     1
 71
     2
176
     0
 72
     2
176
     0
 73
     0
176
     0
 90
        0
176
     0
 40
0.6
176
     0
 41
30.0
176
     0
 63
     7
421
 16777215
176
     0
 74
     1
176
     0
 91
        4
176
     0
 64
     7
176
     0
 65
   257
176
     0
 75
     1
176
     0
175
     1
176
     0
 42
1.0
176
     0
 92
        8
176
     2
 66
     7
176
     0
 43
1.0
176
     0
 76
     1
176
     0
 77
     6
176
     0
 78
     2
176
     0
 67
     7
176
     0
 79
     5
176
     0
170
     0
176
     0
171
     0
176
     0
290
     0
176
     0
 93
        1
176
     0
 44
0.0
176
     0
173
     0
176
     0
  0
VISUALSTYLE
  5
3E4
102
{ACAD_REACTORS
330
3D5
102
}
330
3D5
100
AcDbVisualStyle
  2
Facepattern
 70
    15
177
     2
291
     1
 71
     2
176
     1
 72
     2
176
     1
 73
     0
176
     1
 90
        0
176
     1
 40
0.6
176
     1
 41
30.0
176
     1
 63
     7
421
 16777215
176
     1
 74
     1
176
     1
 91
        4
176
     1
 64
     7
176
     1
 65
   257
176
     1
 75
     1
176
     1
175
     1
176
     1
 42
1.0
176
     1
 92
        8
176
     1
 66
     7
176
     1
 43
1.0
176
     1
 76
     1
176
     1
 77
     6
176
     1
 78
     2
176
     1
 67
     7
176
     1
 79
     5
176
     1
170
     0
176
     1
171
     0
176
     1
290
     0
176
     1
 93
        1
176
     1
 44
0.0
176
     1
173
     0
176
     1
  0
VISUALSTYLE
  5
3D6
102
{ACAD_REACTORS
330
3D5
102
}
330
3D5
100
AcDbVisualStyle
  2
Flat
 70
     0
177
     2
291
     1
 71
     2
176
     1
 72
     1
176
     1
 73
     1
176
     1
 90
        2
176
     1
 40
0.6
176
     1
 41
30.0
176
     1
 63
     7
421
 16777215
176
     1
 74
     0
176
     1
 91
        4
176
     1
 64
     7
176
     1
 65
   257
176
     1
 75
     1
176
     1
175
     1
176
     1
 42
1.0
176
     1
 92
        8
176
     1
 66
     7
176
     1
 43
1.0
176
     1
 76
     1
176
     1
 77
     6
176
     1
 78
     2
176
     1
 67
     7
176
     1
 79
     5
176
     1
170
     0
176
     1
171
     0
176
     1
290
     0
176
     1
 93
       13
176
     1
 44
0.0
176
     1
173
     0
176
     1
  0
VISUALSTYLE
  5
3D7
102
{ACAD_REACTORS
330
3D5
102
}
330
3D5
100
AcDbVisualStyle
  2
FlatWithEdges
 70
     1
177
     2
291
     1
 71
     2
176
     1
 72
     1
176
     1
 73
     1
176
     1
 90
        2
176
     1
 40
0.6
176
     1
 41
30.0
176
     1
 63
     7
421
 16777215
176
     1
 74
     1
176
     1
 91
        4
176
     1
 64
     7
176
     1
 65
   257
176
     1
 75
     1
176
     1
175
     1
176
     1
 42
1.0
176
     1
 92
        0
176
     1
 66
   257
176
     1
 43
1.0
176
     1
 76
     1
176
     1
 77
     6
176
     1
 78
     2
176
     1
 67
     7
176
     1
 79
     5
176
     1
170
     0
176
     1
171
     0
176
     1
290
     0
176
     1
 93
       13
176
     1
 44
0.0
176
     1
173
     0
176
     1
  0
VISUALSTYLE
  5
3D8
102
{ACAD_REACTORS
330
3D5
102
}
330
3D5
100
AcDbVisualStyle
  2
Gouraud
 70
     2
177
     2
291
     1
 71
     2
176
     1
 72
     2
176
     1
 73
     1
176
     1
 90
        2
176
     1
 40
0.6
176
     1
 41
30.0
176
     1
 63
     7
421
 16777215
176
     1
 74
     0
176
     1
 91
        4
176
     1
 64
     7
176
     1
 65
   257
176
     1
 75
     1
176
     1
175
     1
176
     1
 42
1.0
176
     1
 92
        0
176
     1
 66
     7
176
     1
 43
1.0
176
     1
 76
     1
176
     1
 77
     6
176
     1
 78
     2
176
     1
 67
     7
176
     1
 79
     5
176
     1
170
     0
176
     1
171
     0
176
     1
290
     0
176
     1
 93
       13
176
     1
 44
0.0
176
     1
173
     0
176
     1
  0
VISUALSTYLE
  5
3D9
102
{ACAD_REACTORS
330
3D5
102
}
330
3D5
100
AcDbVisualStyle
  2
GouraudWithEdges
 70
     3
177
     2
291
     1
 71
     2
176
     1
 72
     2
176
     1
 73
     1
176
     1
 90
        2
176
     1
 40
0.6
176
     1
 41
30.0
176
     1
 63
     7
421
 16777215
176
     1
 74
     1
176
     1
 91
        4
176
     1
 64
     7
176
     1
 65
   257
176
     1
 75
     1
176
     1
175
     1
176
     1
 42
1.0
176
     1
 92
        0
176
     1
 66
   257
176
     1
 43
1.0
176
     1
 76
     1
176
     1
 77
     6
176
     1
 78
     2
176
     1
 67
     7
176
     1
 79
     5
176
     1
170
     0
176
     1
171
     0
176
     1
290
     0
176
     1
 93
       13
176
     1
 44
0.0
176
     1
173
     0
176
     1
  0
VISUALSTYLE
  5
3E6
102
{ACAD_REACTORS
330
3D5
102
}
330
3D5
100
AcDbVisualStyle
  2
JitterOff
 70
    20
177
     2
291
     1
 71
     2
176
     0
 72
     2
176
     0
 73
     0
176
     0
 90
        0
176
     0
 40
0.6
176
     0
 41
30.0
176
     0
 63
     7
421
 16777215
176
     0
 74
     1
176
     0
 91
        4
176
     0
 64
     7
176
     0
 65
   257
176
     0
 75
     1
176
     0
175
     1
176
     0
 42
1.0
176
     0
 92
       10
176
     2
 66
     7
176
     0
 43
1.0
176
     0
 76
     1
176
     0
 77
     6
176
     0
 78
     2
176
     0
 67
     7
176
     0
 79
     5
176
     0
170
     0
176
     0
171
     0
176
     0
290
     0
176
     0
 93
        1
176
     0
 44
0.0
176
     0
173
     0
176
     0
  0
VISUALSTYLE
  5
3E3
102
{ACAD_REACTORS
330
3D5
102
}
330
3D5
100
AcDbVisualStyle
  2
Linepattern
 70
    14
177
     2
291
     1
 71
     2
176
     1
 72
     2
176
     1
 73
     0
176
     1
 90
        0
176
     1
 40
0.6
176
     1
 41
30.0
176
     1
 63
     7
421
 16777215
176
     1
 74
     1
176
     1
 91
        4
176
     1
 64
     7
176
     1
 65
   257
176
     1
 75
     7
176
     1
175
     7
176
     1
 42
1.0
176
     1
 92
        8
176
     1
 66
     7
176
     1
 43
1.0
176
     1
 76
     1
176
     1
 77
     6
176
     1
 78
     2
176
     1
 67
     7
176
     1
 79
     5
176
     1
170
     0
176
     1
171
     0
176
     1
290
     0
176
     1
 93
        1
176
     1
 44
0.0
176
     1
173
     0
176
     1
  0
VISUALSTYLE
  5
3E7
102
{ACAD_REACTORS
330
3D5
102
}
330
3D5
100
AcDbVisualStyle
  2
OverhangOff
 70
    21
177
     2
291
     1
 71
     2
176
     0
 72
     2
176
     0
 73
     0
176
     0
 90
        0
176
     0
 40
0.6
176
     0
 41
30.0
176
     0
 63
     7
421
 16777215
176
     0
 74
     1
176
     0
 91
        4
176
     0
 64
     7
176
     0
 65
   257
176
     0
 75
     1
176
     0
175
     1
176
     0
 42
1.0
176
     0
 92
        9
176
     2
 66
     7
176
     0
 43
1.0
176
     0
 76
     1
176
     0
 77
     6
176
     0
 78
     2
176
     0
 67
     7
176
     0
 79
     5
176
     0
170
     0
176
     0
171
     0
176
     0
290
     0
176
     0
 93
        1
176
     0
 44
0.0
176
     0
173
     0
176
     0
  0
VISUALSTYLE
  5
3DF
102
{ACAD_REACTORS
330
3D5
102
}
330
3D5
100
AcDbVisualStyle
  2
Realistic
 70
     8
177
     2
291
     0
 71
     2
176
     1
 72
     2
176
     1
 73
     0
176
     1
 90
        0
176
     1
 40
0.6
176
     1
 41
30.0
176
     1
 63
     7
421
 16777215
176
     1
 74
     1
176
     1
 91
        0
176
     1
 64
     7
176
     1
 65
   257
176
     1
 75
     1
176
     1
175
     1
176
     1
 42
1.0
176
     1
 92
        8
176
     1
 66
     8
424
  7895160
176
     1
 43
1.0
176
     1
 76
     1
176
     1
 77
     6
176
     1
 78
     2
176
     1
 67
     7
176
     1
 79
     5
176
     1
170
     0
176
     1
171
     0
176
     1
290
     0
176
     1
 93
       13
176
     1
 44
0.0
176
     1
173
     0
176
     1
  0
VISUALSTYLE
  5
3E2
102
{ACAD_REACTORS
330
3D5
102
}
330
3D5
100
AcDbVisualStyle
  2
Thicken
 70
    13
177
     2
291
     1
 71
     2
176
     1
 72
     2
176
     1
 73
     0
176
     1
 90
        0
176
     1
 40
0.6
176
     1
 41
30.0
176
     1
 63
     7
421
 16777215
176
     1
 74
     1
176
     1
 91
        4
176
     1
 64
     7
176
     1
 65
   257
176
     1
 75
     1
176
     1
175
     1
176
     1
 42
1.0
176
     1
 92
       12
176
     1
 66
     7
176
     1
 43
1.0
176
     1
 76
     1
176
     1
 77
     6
176
     1
 78
     2
176
     1
 67
     7
176
     1
 79
     5
176
     1
170
     0
176
     1
171
     0
176
     1
290
     0
176
     1
 93
        1
176
     1
 44
0.0
176
     1
173
     0
176
     1
  0
DICTIONARYVAR
  5
407
102
{ACAD_REACTORS
330
5E
102
}
330
5E
100
DictionaryVariables
280
     0
  1
1:1
  0
DICTIONARYVAR
  5
405
102
{ACAD_REACTORS
330
5E
102
}
330
5E
100
DictionaryVariables
280
     0
  1
STANDARD
  0
DICTIONARYVAR
  5
404
102
{ACAD_REACTORS
330
5E
102
}
330
5E
100
DictionaryVariables
280
     0
  1
STANDARD
  0
DICTIONARYVAR
  5
5F
102
{ACAD_REACTORS
330
5E
102
}
330
5E
100
DictionaryVariables
280
     0
  1
2
  0
DICTIONARYVAR
  5
63
102
{ACAD_REACTORS
330
5E
102
}
330
5E
100
DictionaryVariables
280
     0
  1
1
  0
DICTIONARYVAR
  5
409
102
{ACAD_REACTORS
330
5E
102
}
330
5E
100
DictionaryVariables
280
     0
  1
1
  0
DICTIONARYVAR
  5
40A
102
{ACAD_REACTORS
330
5E
102
}
330
5E
100
DictionaryVariables
280
     0
  1
15
  0
DICTIONARYVAR
  5
408
102
{ACAD_REACTORS
330
5E
102
}
330
5E
100
DictionaryVariables
280
     0
  1
0
  0
DICTIONARYVAR
  5
406
102
{ACAD_REACTORS
330
5E
102
}
330
5E
100
DictionaryVariables
280
     0
  1
0
  0
DICTIONARY
  5
3C6
330
3C5
100
AcDbDictionary
280
     1
281
     1
  3
BUMPTILE
360
3C8
  3
DIFFUSETILE
360
3C7
  3
OPACITYTILE
360
3CB
  3
REFLECTIONTILE
360
3CA
  3
REFRACTIONTILE
360
3CC
  3
SPECULARTILE
360
3C9
  0
DICTIONARY
  5
3BE
330
3BD
100
AcDbDictionary
280
     1
281
     1
  3
BUMPTILE
360
3C0
  3
DIFFUSETILE
360
3BF
  3
OPACITYTILE
360
3C3
  3
REFLECTIONTILE
360
3C2
  3
REFRACTIONTILE
360
3C4
  3
SPECULARTILE
360
3C1
  0
DICTIONARY
  5
3CE
330
3CD
100
AcDbDictionary
280
     1
281
     1
  3
BUMPTILE
360
3D0
  3
DIFFUSETILE
360
3CF
  3
OPACITYTILE
360
3D3
  3
REFLECTIONTILE
360
3D2
  3
REFRACTIONTILE
360
3D4
  3
SPECULARTILE
360
3D1
  0
DICTIONARY
  5
40B
330
3EB
100
AcDbDictionary
280
     1
281
     1
  3
ACAD_ROUNDTRIP_2008_TABLESTYLE_CELLSTYLEMAP
360
40C
  0
XRECORD
  5
3C8
102
{ACAD_REACTORS
330
3C6
102
}
330
3C6
100
AcDbXrecord
280
     1
270
     1
271
     1
  0
XRECORD
  5
3C7
102
{ACAD_REACTORS
330
3C6
102
}
330
3C6
100
AcDbXrecord
280
     1
270
     1
271
     1
  0
XRECORD
  5
3CB
102
{ACAD_REACTORS
330
3C6
102
}
330
3C6
100
AcDbXrecord
280
     1
270
     1
271
     1
  0
XRECORD
  5
3CA
102
{ACAD_REACTORS
330
3C6
102
}
330
3C6
100
AcDbXrecord
280
     1
270
     1
271
     1
  0
XRECORD
  5
3CC
102
{ACAD_REACTORS
330
3C6
102
}
330
3C6
100
AcDbXrecord
280
     1
270
     1
271
     1
  0
XRECORD
  5
3C9
102
{ACAD_REACTORS
330
3C6
102
}
330
3C6
100
AcDbXrecord
280
     1
270
     1
271
     1
  0
XRECORD
  5
3C0
102
{ACAD_REACTORS
330
3BE
102
}
330
3BE
100
AcDbXrecord
280
     1
270
     1
271
     1
  0
XRECORD
  5
3BF
102
{ACAD_REACTORS
330
3BE
102
}
330
3BE
100
AcDbXrecord
280
     1
270
     1
271
     1
  0
XRECORD
  5
3C3
102
{ACAD_REACTORS
330
3BE
102
}
330
3BE
100
AcDbXrecord
280
     1
270
     1
271
     1
  0
XRECORD
  5
3C2
102
{ACAD_REACTORS
330
3BE
102
}
330
3BE
100
AcDbXrecord
280
     1
270
     1
271
     1
  0
XRECORD
  5
3C4
102
{ACAD_REACTORS
330
3BE
102
}
330
3BE
100
AcDbXrecord
280
     1
270
     1
271
     1
  0
XRECORD
  5
3C1
102
{ACAD_REACTORS
330
3BE
102
}
330
3BE
100
AcDbXrecord
280
     1
270
     1
271
     1
  0
XRECORD
  5
3D0
102
{ACAD_REACTORS
330
3CE
102
}
330
3CE
100
AcDbXrecord
280
     1
270
     1
271
     1
  0
XRECORD
  5
3CF
102
{ACAD_REACTORS
330
3CE
102
}
330
3CE
100
AcDbXrecord
280
     1
270
     1
271
     1
  0
XRECORD
  5
3D3
102
{ACAD_REACTORS
330
3CE
102
}
330
3CE
100
AcDbXrecord
280
     1
270
     1
271
     1
  0
XRECORD
  5
3D2
102
{ACAD_REACTORS
330
3CE
102
}
330
3CE
100
AcDbXrecord
280
     1
270
     1
271
     1
  0
XRECORD
  5
3D4
102
{ACAD_REACTORS
330
3CE
102
}
330
3CE
100
AcDbXrecord
280
     1
270
     1
271
     1
  0
XRECORD
  5
3D1
102
{ACAD_REACTORS
330
3CE
102
}
330
3CE
100
AcDbXrecord
280
     1
270
     1
271
     1
  0
CELLSTYLEMAP
  5
40C
102
{ACAD_REACTORS
330
40B
102
}
330
40B
100
AcDbCellStyleMap
 90
        3
300
CELLSTYLE
  1
TABLEFORMAT_BEGIN
 90
        5
170
     1
 91
        0
 92
    32768
 62
   257
 93
        1
300
CONTENTFORMAT
  1
CONTENTFORMAT_BEGIN
 90
        0
 91
        0
 92
      512
 93
        0
300

 40
0.0
140
1.0
 94
        5
 62
     0
340
11
144
6.0
309
CONTENTFORMAT_END
171
     1
301
MARGIN
  1
CELLMARGIN_BEGIN
 40
1.5
 40
1.5
 40
1.5
 40
1.5
 40
4.5
 40
4.5
309
CELLMARGIN_END
 94
        6
 95
        1
302
GRIDFORMAT
  1
GRIDFORMAT_BEGIN
 90
        0
 91
        1
 62
     0
 92
       -2
340
0
 93
        0
 40
1.125
309
GRIDFORMAT_END
 95
        2
302
GRIDFORMAT
  1
GRIDFORMAT_BEGIN
 90
        0
 91
        1
 62
     0
 92
       -2
340
0
 93
        0
 40
1.125
309
GRIDFORMAT_END
 95
        4
302
GRIDFORMAT
  1
GRIDFORMAT_BEGIN
 90
        0
 91
        1
 62
     0
 92
       -2
340
0
 93
        0
 40
1.125
309
GRIDFORMAT_END
 95
        8
302
GRIDFORMAT
  1
GRIDFORMAT_BEGIN
 90
        0
 91
        1
 62
     0
 92
       -2
340
0
 93
        0
 40
1.125
309
GRIDFORMAT_END
 95
       16
302
GRIDFORMAT
  1
GRIDFORMAT_BEGIN
 90
        0
 91
        1
 62
     0
 92
       -2
340
0
 93
        0
 40
1.125
309
GRIDFORMAT_END
 95
       32
302
GRIDFORMAT
  1
GRIDFORMAT_BEGIN
 90
        0
 91
        1
 62
     0
 92
       -2
340
0
 93
        0
 40
1.125
309
GRIDFORMAT_END
309
TABLEFORMAT_END
  1
CELLSTYLE_BEGIN
 90
        1
 91
        1
300
_TITLE
309
CELLSTYLE_END
300
CELLSTYLE
  1
TABLEFORMAT_BEGIN
 90
        5
170
     1
 91
        0
 92
        0
 62
   257
 93
        1
300
CONTENTFORMAT
  1
CONTENTFORMAT_BEGIN
 90
        0
 91
        0
 92
      512
 93
        0
300

 40
0.0
140
1.0
 94
        5
 62
     0
340
11
144
4.5
309
CONTENTFORMAT_END
171
     1
301
MARGIN
  1
CELLMARGIN_BEGIN
 40
1.5
 40
1.5
 40
1.5
 40
1.5
 40
4.5
 40
4.5
309
CELLMARGIN_END
 94
        6
 95
        1
302
GRIDFORMAT
  1
GRIDFORMAT_BEGIN
 90
        0
 91
        1
 62
     0
 92
       -2
340
0
 93
        0
 40
1.125
309
GRIDFORMAT_END
 95
        2
302
GRIDFORMAT
  1
GRIDFORMAT_BEGIN
 90
        0
 91
        1
 62
     0
 92
       -2
340
0
 93
        0
 40
1.125
309
GRIDFORMAT_END
 95
        4
302
GRIDFORMAT
  1
GRIDFORMAT_BEGIN
 90
        0
 91
        1
 62
     0
 92
       -2
340
0
 93
        0
 40
1.125
309
GRIDFORMAT_END
 95
        8
302
GRIDFORMAT
  1
GRIDFORMAT_BEGIN
 90
        0
 91
        1
 62
     0
 92
       -2
340
0
 93
        0
 40
1.125
309
GRIDFORMAT_END
 95
       16
302
GRIDFORMAT
  1
GRIDFORMAT_BEGIN
 90
        0
 91
        1
 62
     0
 92
       -2
340
0
 93
        0
 40
1.125
309
GRIDFORMAT_END
 95
       32
302
GRIDFORMAT
  1
GRIDFORMAT_BEGIN
 90
        0
 91
        1
 62
     0
 92
       -2
340
0
 93
        0
 40
1.125
309
GRIDFORMAT_END
309
TABLEFORMAT_END
  1
CELLSTYLE_BEGIN
 90
        2
 91
        1
300
_HEADER
309
CELLSTYLE_END
300
CELLSTYLE
  1
TABLEFORMAT_BEGIN
 90
        5
170
     1
 91
        0
 92
        0
 62
   257
 93
        1
300
CONTENTFORMAT
  1
CONTENTFORMAT_BEGIN
 90
        0
 91
        0
 92
      512
 93
        0
300

 40
0.0
140
1.0
 94
        2
 62
     0
340
11
144
4.5
309
CONTENTFORMAT_END
171
     1
301
MARGIN
  1
CELLMARGIN_BEGIN
 40
1.5
 40
1.5
 40
1.5
 40
1.5
 40
4.5
 40
4.5
309
CELLMARGIN_END
 94
        6
 95
        1
302
GRIDFORMAT
  1
GRIDFORMAT_BEGIN
 90
        0
 91
        1
 62
     0
 92
       -2
340
0
 93
        0
 40
1.125
309
GRIDFORMAT_END
 95
        2
302
GRIDFORMAT
  1
GRIDFORMAT_BEGIN
 90
        0
 91
        1
 62
     0
 92
       -2
340
0
 93
        0
 40
1.125
309
GRIDFORMAT_END
 95
        4
302
GRIDFORMAT
  1
GRIDFORMAT_BEGIN
 90
        0
 91
        1
 62
     0
 92
       -2
340
0
 93
        0
 40
1.125
309
GRIDFORMAT_END
 95
        8
302
GRIDFORMAT
  1
GRIDFORMAT_BEGIN
 90
        0
 91
        1
 62
     0
 92
       -2
340
0
 93
        0
 40
1.125
309
GRIDFORMAT_END
 95
       16
302
GRIDFORMAT
  1
GRIDFORMAT_BEGIN
 90
        0
 91
        1
 62
     0
 92
       -2
340
0
 93
        0
 40
1.125
309
GRIDFORMAT_END
 95
       32
302
GRIDFORMAT
  1
GRIDFORMAT_BEGIN
 90
        0
 91
        1
 62
     0
 92
       -2
340
0
 93
        0
 40
1.125
309
GRIDFORMAT_END
309
TABLEFORMAT_END
  1
CELLSTYLE_BEGIN
 90
        3
 91
        2
300
_DATA
309
CELLSTYLE_END
  0
ENDSEC
  0
EOF
