  0
SECTION
  2
HEADER
  9
$ACADVER
  1
AC1024
  9
$ACADMAINTVER
 70
     6
  9
$DWGCODEPAGE
  3
ANSI_932
  9
$LASTSAVEDBY
  1
kanatani
  9
$INSBASE
 10
0.0
 20
0.0
 30
0.0
  9
$EXTMIN
 10
-80.00036365653466
 20
-117.1277499999999
 30
0.0
  9
$EXTMAX
 10
100.0005034805677
 20
204.521281206421
 30
0.0
  9
$LIMMIN
 10
0.0
 20
0.0
  9
$LIMMAX
 10
420.0
 20
297.0
  9
$ORTHOMODE
 70
     0
  9
$REGENMODE
 70
     1
  9
$FILLMODE
 70
     1
  9
$QTEXTMODE
 70
     0
  9
$MIRRTEXT
 70
     1
  9
$LTSCALE
 40
0.2
  9
$ATTMODE
 70
     1
  9
$TEXTSIZE
 40
2.5
  9
$TRACEWID
 40
1.0
  9
$TEXTSTYLE
  7
Standard
  9
$CLAYER
  8
0
  9
$CELTYPE
  6
ByLayer
  9
$CECOLOR
 62
   256
  9
$CELTSCALE
 40
1.0
  9
$DISPSILH
 70
     0
  9
$DIMSCALE
 40
1.0
  9
$DIMASZ
 40
2.5
  9
$DIMEXO
 40
0.625
  9
$DIMDLI
 40
3.75
  9
$DIMRND
 40
0.0
  9
$DIMDLE
 40
0.0
  9
$DIMEXE
 40
1.25
  9
$DIMTP
 40
0.0
  9
$DIMTM
 40
0.0
  9
$DIMTXT
 40
2.5
  9
$DIMCEN
 40
2.5
  9
$DIMTSZ
 40
0.0
  9
$DIMTOL
 70
     0
  9
$DIMLIM
 70
     0
  9
$DIMTIH
 70
     0
  9
$DIMTOH
 70
     0
  9
$DIMSE1
 70
     0
  9
$DIMSE2
 70
     0
  9
$DIMTAD
 70
     1
  9
$DIMZIN
 70
     8
  9
$DIMBLK
  1

  9
$DIMASO
 70
     1
  9
$DIMSHO
 70
     1
  9
$DIMPOST
  1

  9
$DIMAPOST
  1

  9
$DIMALT
 70
     0
  9
$DIMALTD
 70
     3
  9
$DIMALTF
 40
0.03937007874016
  9
$DIMLFAC
 40
1.0
  9
$DIMTOFL
 70
     1
  9
$DIMTVP
 40
0.0
  9
$DIMTIX
 70
     0
  9
$DIMSOXD
 70
     0
  9
$DIMSAH
 70
     0
  9
$DIMBLK1
  1

  9
$DIMBLK2
  1

  9
$DIMSTYLE
  2
ISO-25
  9
$DIMCLRD
 70
     0
  9
$DIMCLRE
 70
     0
  9
$DIMCLRT
 70
     0
  9
$DIMTFAC
 40
1.0
  9
$DIMGAP
 40
0.625
  9
$DIMJUST
 70
     0
  9
$DIMSD1
 70
     0
  9
$DIMSD2
 70
     0
  9
$DIMTOLJ
 70
     0
  9
$DIMTZIN
 70
     8
  9
$DIMALTZ
 70
     0
  9
$DIMALTTZ
 70
     0
  9
$DIMUPT
 70
     0
  9
$DIMDEC
 70
     2
  9
$DIMTDEC
 70
     2
  9
$DIMALTU
 70
     2
  9
$DIMALTTD
 70
     3
  9
$DIMTXSTY
  7
Standard
  9
$DIMAUNIT
 70
     0
  9
$DIMADEC
 70
     0
  9
$DIMALTRND
 40
0.0
  9
$DIMAZIN
 70
     0
  9
$DIMDSEP
 70
    44
  9
$DIMATFIT
 70
     3
  9
$DIMFRAC
 70
     0
  9
$DIMLDRBLK
  1

  9
$DIMLUNIT
 70
     2
  9
$DIMLWD
 70
    -2
  9
$DIMLWE
 70
    -2
  9
$DIMTMOVE
 70
     0
  9
$DIMFXL
 40
1.0
  9
$DIMFXLON
 70
     0
  9
$DIMJOGANG
 40
0.7853981633974483
  9
$DIMTFILL
 70
     0
  9
$DIMTFILLCLR
 70
     0
  9
$DIMARCSYM
 70
     0
  9
$DIMLTYPE
  6

  9
$DIMLTEX1
  6

  9
$DIMLTEX2
  6

  9
$DIMTXTDIRECTION
 70
     0
  9
$LUNITS
 70
     2
  9
$LUPREC
 70
     4
  9
$SKETCHINC
 40
1.0
  9
$FILLETRAD
 40
10.0
  9
$AUNITS
 70
     0
  9
$AUPREC
 70
     0
  9
$MENU
  1
.
  9
$ELEVATION
 40
0.0
  9
$PELEVATION
 40
0.0
  9
$THICKNESS
 40
0.0
  9
$LIMCHECK
 70
     0
  9
$CHAMFERA
 40
10.0
  9
$CHAMFERB
 40
10.0
  9
$CHAMFERC
 40
20.0
  9
$CHAMFERD
 40
0.0
  9
$SKPOLY
 70
     0
  9
$TDCREATE
 40
2456874.593217083
  9
$TDUCREATE
 40
2456874.218217083
  9
$TDUPDATE
 40
2456910.414688842
  9
$TDUUPDATE
 40
2456910.039688843
  9
$TDINDWG
 40
0.0025514583
  9
$TDUSRTIMER
 40
0.0025514468
  9
$USRTIMER
 70
     1
  9
$ANGBASE
 50
0.0
  9
$ANGDIR
 70
     0
  9
$PDMODE
 70
     0
  9
$PDSIZE
 40
0.0
  9
$PLINEWID
 40
0.0
  9
$SPLFRAME
 70
     0
  9
$SPLINETYPE
 70
     6
  9
$SPLINESEGS
 70
     8
  9
$HANDSEED
  5
40E
  9
$SURFTAB1
 70
     6
  9
$SURFTAB2
 70
     6
  9
$SURFTYPE
 70
     6
  9
$SURFU
 70
     6
  9
$SURFV
 70
     6
  9
$UCSBASE
  2

  9
$UCSNAME
  2

  9
$UCSORG
 10
0.0
 20
0.0
 30
0.0
  9
$UCSXDIR
 10
1.0
 20
0.0
 30
0.0
  9
$UCSYDIR
 10
0.0
 20
1.0
 30
0.0
  9
$UCSORTHOREF
  2

  9
$UCSORTHOVIEW
 70
     0
  9
$UCSORGTOP
 10
0.0
 20
0.0
 30
0.0
  9
$UCSORGBOTTOM
 10
0.0
 20
0.0
 30
0.0
  9
$UCSORGLEFT
 10
0.0
 20
0.0
 30
0.0
  9
$UCSORGRIGHT
 10
0.0
 20
0.0
 30
0.0
  9
$UCSORGFRONT
 10
0.0
 20
0.0
 30
0.0
  9
$UCSORGBACK
 10
0.0
 20
0.0
 30
0.0
  9
$PUCSBASE
  2

  9
$PUCSNAME
  2

  9
$PUCSORG
 10
0.0
 20
0.0
 30
0.0
  9
$PUCSXDIR
 10
1.0
 20
0.0
 30
0.0
  9
$PUCSYDIR
 10
0.0
 20
1.0
 30
0.0
  9
$PUCSORTHOREF
  2

  9
$PUCSORTHOVIEW
 70
     0
  9
$PUCSORGTOP
 10
0.0
 20
0.0
 30
0.0
  9
$PUCSORGBOTTOM
 10
0.0
 20
0.0
 30
0.0
  9
$PUCSORGLEFT
 10
0.0
 20
0.0
 30
0.0
  9
$PUCSORGRIGHT
 10
0.0
 20
0.0
 30
0.0
  9
$PUCSORGFRONT
 10
0.0
 20
0.0
 30
0.0
  9
$PUCSORGBACK
 10
0.0
 20
0.0
 30
0.0
  9
$USERI1
 70
     0
  9
$USERI2
 70
     0
  9
$USERI3
 70
     0
  9
$USERI4
 70
     0
  9
$USERI5
 70
     0
  9
$USERR1
 40
0.0
  9
$USERR2
 40
0.0
  9
$USERR3
 40
0.0
  9
$USERR4
 40
0.0
  9
$USERR5
 40
0.0
  9
$WORLDVIEW
 70
     1
  9
$SHADEDGE
 70
     3
  9
$SHADEDIF
 70
    70
  9
$TILEMODE
 70
     1
  9
$MAXACTVP
 70
    64
  9
$PINSBASE
 10
0.0
 20
0.0
 30
0.0
  9
$PLIMCHECK
 70
     0
  9
$PEXTMIN
 10
26.66076962115563
 20
20.31135699206658
 30
-0.0015258207003583
  9
$PEXTMAX
 10
240.039213369355
 20
182.8886381005154
 30
0.0000000349246037
  9
$PLIMMIN
 10
-6.350006103515625
 20
-6.349999904632568
  9
$PLIMMAX
 10
273.0499877929688
 20
209.5499939918518
  9
$UNITMODE
 70
     0
  9
$VISRETAIN
 70
     1
  9
$PLINEGEN
 70
     0
  9
$PSLTSCALE
 70
     1
  9
$TREEDEPTH
 70
  3020
  9
$CMLSTYLE
  2
Standard
  9
$CMLJUST
 70
     0
  9
$CMLSCALE
 40
20.0
  9
$PROXYGRAPHICS
 70
     1
  9
$MEASUREMENT
 70
     1
  9
$CELWEIGHT
370
    -1
  9
$ENDCAPS
280
     0
  9
$JOINSTYLE
280
     0
  9
$LWDISPLAY
290
     0
  9
$INSUNITS
 70
     4
  9
$HYPERLINKBASE
  1

  9
$STYLESHEET
  1

  9
$XEDIT
290
     1
  9
$CEPSNTYPE
380
     0
  9
$PSTYLEMODE
290
     1
  9
$FINGERPRINTGUID
  2
{FDEAD578-A652-11D2-9A35-0060089B3A3F}
  9
$VERSIONGUID
  2
{E2888016-C10C-410F-AD7C-210AD5FBE0B9}
  9
$EXTNAMES
290
     1
  9
$PSVPSCALE
 40
0.0
  9
$OLESTARTUP
290
     0
  9
$SORTENTS
280
   127
  9
$INDEXCTL
280
     0
  9
$HIDETEXT
280
     1
  9
$XCLIPFRAME
280
     2
  9
$HALOGAP
280
     0
  9
$OBSCOLOR
 70
   257
  9
$OBSLTYPE
280
     0
  9
$INTERSECTIONDISPLAY
280
     0
  9
$INTERSECTIONCOLOR
 70
   257
  9
$DIMASSOC
280
     2
  9
$PROJECTNAME
  1

  9
$CAMERADISPLAY
290
     0
  9
$LENSLENGTH
 40
50.0
  9
$CAMERAHEIGHT
 40
0.0
  9
$STEPSPERSEC
 40
2.0
  9
$STEPSIZE
 40
6.0
  9
$3DDWFPREC
 40
2.0
  9
$PSOLWIDTH
 40
0.25
  9
$PSOLHEIGHT
 40
4.0
  9
$LOFTANG1
 40
1.570796326794896
  9
$LOFTANG2
 40
1.570796326794896
  9
$LOFTMAG1
 40
0.0
  9
$LOFTMAG2
 40
0.0
  9
$LOFTPARAM
 70
     7
  9
$LOFTNORMALS
280
     1
  9
$LATITUDE
 40
37.795
  9
$LONGITUDE
 40
-122.394
  9
$NORTHDIRECTION
 40
0.0
  9
$TIMEZONE
 70
 -8000
  9
$LIGHTGLYPHDISPLAY
280
     1
  9
$TILEMODELIGHTSYNCH
280
     1
  9
$CMATERIAL
347
3BD
  9
$SOLIDHIST
280
     1
  9
$SHOWHIST
280
     1
  9
$DWFFRAME
280
     2
  9
$DGNFRAME
280
     0
  9
$REALWORLDSCALE
290
     1
  9
$INTERFERECOLOR
 62
     1
  9
$INTERFEREOBJVS
345
3DF
  9
$INTERFEREVPVS
346
3DC
  9
$CSHADOW
280
     0
  9
$SHADOWPLANELOCATION
 40
0.0
  0
ENDSEC
  0
SECTION
  2
CLASSES
  0
CLASS
  1
ACDBDICTIONARYWDFLT
  2
AcDbDictionaryWithDefault
  3
ObjectDBX Classes
 90
        0
 91
        1
280
     0
281
     0
  0
CLASS
  1
DICTIONARYVAR
  2
AcDbDictionaryVar
  3
ObjectDBX Classes
 90
        0
 91
        9
280
     0
281
     0
  0
CLASS
  1
MATERIAL
  2
AcDbMaterial
  3
ObjectDBX Classes
 90
     1153
 91
        3
280
     0
281
     0
  0
CLASS
  1
VISUALSTYLE
  2
AcDbVisualStyle
  3
ObjectDBX Classes
 90
     4095
 91
       19
280
     0
281
     0
  0
CLASS
  1
TABLESTYLE
  2
AcDbTableStyle
  3
ObjectDBX Classes
 90
     4095
 91
        1
280
     0
281
     0
  0
CLASS
  1
SCALE
  2
AcDbScale
  3
ObjectDBX Classes
 90
     1153
 91
       17
280
     0
281
     0
  0
CLASS
  1
MLEADERSTYLE
  2
AcDbMLeaderStyle
  3
ACDB_MLEADERSTYLE_CLASS
 90
     4095
 91
        1
280
     0
281
     0
  0
CLASS
  1
CELLSTYLEMAP
  2
AcDbCellStyleMap
  3
ObjectDBX Classes
 90
     1152
 91
        1
280
     0
281
     0
  0
ENDSEC
  0
SECTION
  2
TABLES
  0
TABLE
  2
VPORT
  5
8
330
0
100
AcDbSymbolTable
 70
     1
  0
VPORT
  5
3BA
330
8
100
AcDbSymbolTableRecord
100
AcDbViewportTableRecord
  2
*Active
 70
     0
 10
0.0
 20
0.0
 11
1.0
 21
1.0
 12
10.00020519279246
 22
52.0802420107282
 13
0.0
 23
0.0
 14
10.0
 24
10.0
 15
10.0
 25
10.0
 16
0.0
 26
0.0
 36
1.0
 17
0.0
 27
0.0
 37
0.0
 40
340.4981518720864
 41
1.857142857142857
 42
50.0
 43
0.0
 44
0.0
 50
0.0
 51
0.0
 71
     0
 72
   100
 73
     1
 74
     3
 75
     0
 76
     0
 77
     0
 78
     0
281
     0
 65
     1
110
0.0
120
0.0
130
0.0
111
1.0
121
0.0
131
0.0
112
0.0
122
1.0
132
0.0
 79
     0
146
0.0
348
3DB
 60
     3
 61
     5
292
     1
282
     1
141
0.0
142
0.0
 63
   250
421
  3355443
  0
ENDTAB
  0
TABLE
  2
LTYPE
  5
5
330
0
100
AcDbSymbolTable
 70
     4
  0
LTYPE
  5
14
330
5
100
AcDbSymbolTableRecord
100
AcDbLinetypeTableRecord
  2
ByBlock
 70
     0
  3

 72
    65
 73
     0
 40
0.0
  0
LTYPE
  5
15
330
5
100
AcDbSymbolTableRecord
100
AcDbLinetypeTableRecord
  2
ByLayer
 70
     0
  3

 72
    65
 73
     0
 40
0.0
  0
LTYPE
  5
16
330
5
100
AcDbSymbolTableRecord
100
AcDbLinetypeTableRecord
  2
Continuous
 70
     0
  3
Solid line
 72
    65
 73
     0
 40
0.0
  0
LTYPE
  5
8D
330
5
100
AcDbSymbolTableRecord
100
AcDbLinetypeTableRecord
  2
CENTER
 70
     0
  3
Center ____ _ ____ _ ____ _ ____ _ ____ _ ____
 72
    65
 73
     4
 40
50.8
 49
31.75
 74
     0
 49
-6.349999999999999
 74
     0
 49
6.349999999999999
 74
     0
 49
-6.349999999999999
 74
     0
  0
LTYPE
  5
8E
330
5
100
AcDbSymbolTableRecord
100
AcDbLinetypeTableRecord
  2
PHANTOM
 70
     0
  3
Phantom ______  __  __  ______  __  __  ______
 72
    65
 73
     6
 40
63.5
 49
31.75
 74
     0
 49
-6.349999999999999
 74
     0
 49
6.349999999999999
 74
     0
 49
-6.349999999999999
 74
     0
 49
6.349999999999999
 74
     0
 49
-6.349999999999999
 74
     0
  0
LTYPE
  5
3AD
330
5
100
AcDbSymbolTableRecord
100
AcDbLinetypeTableRecord
  2
DASHED
 70
     0
  3
Dashed __ __ __ __ __ __ __ __ __ __ __ __ __ _
 72
    65
 73
     2
 40
19.05
 49
12.7
 74
     0
 49
-6.349999999999999
 74
     0
  0
ENDTAB
  0
TABLE
  2
LAYER
  5
2
102
{ACAD_XDICTIONARY
360
97
102
}
330
0
100
AcDbSymbolTable
 70
     3
  0
LAYER
  5
10
102
{ACAD_XDICTIONARY
360
402
102
}
330
2
100
AcDbSymbolTableRecord
100
AcDbLayerTableRecord
  2
0
 70
     0
 62
     7
  6
Continuous
370
    -3
390
F
347
3CD
  0
LAYER
  5
8F
102
{ACAD_XDICTIONARY
360
90
102
}
330
2
100
AcDbSymbolTableRecord
100
AcDbLayerTableRecord
  2
2
 70
     0
 62
     2
  6
PHANTOM
370
    -3
390
F
347
3CD
1001
AcAecLayerStandard
1000

1000

1001
ACCMTRANSPARENCY
1071
        0
  0
LAYER
  5
92
102
{ACAD_XDICTIONARY
360
93
102
}
330
2
100
AcDbSymbolTableRecord
100
AcDbLayerTableRecord
  2
1
 70
     0
 62
     5
  6
CENTER
370
    -3
390
F
347
3CD
1001
AcAecLayerStandard
1000

1000

1001
ACCMTRANSPARENCY
1071
        0
  0
ENDTAB
  0
TABLE
  2
STYLE
  5
3
330
0
100
AcDbSymbolTable
 70
     1
  0
STYLE
  5
11
330
3
100
AcDbSymbolTableRecord
100
AcDbTextStyleTableRecord
  2
Standard
 70
     0
 40
0.0
 41
1.0
 50
0.0
 71
     0
 42
2.5
  3
txt
  4

  0
ENDTAB
  0
TABLE
  2
VIEW
  5
6
330
0
100
AcDbSymbolTable
 70
     0
  0
ENDTAB
  0
TABLE
  2
UCS
  5
7
330
0
100
AcDbSymbolTable
 70
     0
  0
ENDTAB
  0
TABLE
  2
APPID
  5
9
330
0
100
AcDbSymbolTable
 70
     3
  0
APPID
  5
12
330
9
100
AcDbSymbolTableRecord
100
AcDbRegAppTableRecord
  2
ACAD
 70
     0
  0
APPID
  5
95
330
9
100
AcDbSymbolTableRecord
100
AcDbRegAppTableRecord
  2
AcAecLayerStandard
 70
     0
  0
APPID
  5
96
330
9
100
AcDbSymbolTableRecord
100
AcDbRegAppTableRecord
  2
ACCMTRANSPARENCY
 70
     0
  0
ENDTAB
  0
TABLE
  2
DIMSTYLE
  5
A
330
0
100
AcDbSymbolTable
 70
     1
100
AcDbDimStyleTable
 71
     0
  0
DIMSTYLE
105
27
330
A
100
AcDbSymbolTableRecord
100
AcDbDimStyleTableRecord
  2
ISO-25
 70
     0
 41
2.5
 42
0.625
 43
3.75
 44
1.25
 73
     0
 74
     0
 77
     1
 78
     8
140
2.5
141
2.5
143
0.03937007874016
147
0.625
171
     3
172
     1
271
     2
272
     2
274
     3
278
    44
283
     0
284
     8
340
11
  0
ENDTAB
  0
TABLE
  2
BLOCK_RECORD
  5
1
330
0
100
AcDbSymbolTable
 70
     1
  0
BLOCK_RECORD
  5
1F
330
1
100
AcDbSymbolTableRecord
100
AcDbBlockTableRecord
  2
*Model_Space
340
22
 70
     0
280
     1
281
     0
  0
BLOCK_RECORD
  5
55
330
1
100
AcDbSymbolTableRecord
100
AcDbBlockTableRecord
  2
*Paper_Space
340
56
 70
     0
280
     1
281
     0
  0
BLOCK_RECORD
  5
50
330
1
100
AcDbSymbolTableRecord
100
AcDbBlockTableRecord
  2
*Paper_Space0
340
51
 70
     0
280
     1
281
     0
  0
ENDTAB
  0
ENDSEC
  0
SECTION
  2
BLOCKS
  0
BLOCK
  5
20
330
1F
100
AcDbEntity
  8
0
100
AcDbBlockBegin
  2
*Model_Space
 70
     0
 10
0.0
 20
0.0
 30
0.0
  3
*Model_Space
  1

  0
ENDBLK
  5
21
330
1F
100
AcDbEntity
  8
0
100
AcDbBlockEnd
  0
BLOCK
  5
57
330
55
100
AcDbEntity
 67
     1
  8
0
100
AcDbBlockBegin
  2
*Paper_Space
 70
     0
 10
0.0
 20
0.0
 30
0.0
  3
*Paper_Space
  1

  0
ENDBLK
  5
58
330
55
100
AcDbEntity
 67
     1
  8
0
100
AcDbBlockEnd
  0
BLOCK
  5
52
330
50
100
AcDbEntity
 67
     1
  8
0
100
AcDbBlockBegin
  2
*Paper_Space0
 70
     0
 10
0.0
 20
0.0
 30
0.0
  3
*Paper_Space0
  1

  0
VIEWPORT
  5
6B
330
50
100
AcDbEntity
 67
     1
  8
0
100
AcDbViewport
 10
133.3499908447266
 20
101.5999970436096
 30
0.0
 40
381.3957395593835
 41
218.2856291881582
 68
     0
 69
     0
 12
133.3499908447266
 22
101.5999970436096
 13
0.0
 23
0.0
 14
10.0
 24
10.0
 15
10.0
 25
10.0
 16
0.0
 26
0.0
 36
1.0
 17
0.0
 27
0.0
 37
0.0
 42
50.0
 43
0.0
 44
0.0
 45
218.2856291881582
 50
0.0
 51
0.0
 72
   100
 90
    32800
  1

281
     0
 71
     1
 74
     0
110
0.0
120
0.0
130
0.0
111
1.0
121
0.0
131
0.0
112
0.0
122
1.0
132
0.0
 79
     0
146
0.0
170
     0
 61
     5
348
3DB
292
     1
282
     1
141
0.0
142
0.0
 63
   250
421
  3355443
  0
VIEWPORT
  5
6D
330
50
100
AcDbEntity
 67
     1
  8
0
100
AcDbViewport
 10
133.3499939441681
 20
101.5999939441681
 30
0.0
 40
213.3599903106689
 41
162.5599903106689
 68
     0
 69
     0
 12
210.0
 22
148.5
 13
0.0
 23
0.0
 14
10.0
 24
10.0
 15
10.0
 25
10.0
 16
0.0
 26
0.0
 36
1.0
 17
0.0
 27
0.0
 37
0.0
 42
50.0
 43
0.0
 44
0.0
 45
324.0677920111345
 50
0.0
 51
0.0
 72
   100
 90
    32864
  1

281
     0
 71
     1
 74
     0
110
0.0
120
0.0
130
0.0
111
1.0
121
0.0
131
0.0
112
0.0
122
1.0
132
0.0
 79
     0
146
0.0
170
     0
 61
     5
348
3DB
292
     1
282
     1
141
0.0
142
0.0
 63
   250
421
  3355443
  0
ENDBLK
  5
53
330
50
100
AcDbEntity
 67
     1
  8
0
100
AcDbBlockEnd
  0
ENDSEC
  0
SECTION
  2
ENTITIES
  0
LINE
  5
225
330
1F
100
AcDbEntity
  8
1
100
AcDbLine
 10
-0.0000300000000379
 20
204.521281206421
 30
0.0
 11
-0.0000300000000379
 21
109.7824432064214
 31
0.0
  0
LINE
  5
226
330
1F
100
AcDbEntity
  8
1
100
AcDbLine
 10
-68.00900216796879
 20
159.8160052064204
 30
0.0
 11
88.89035085937496
 21
159.8160052064204
 31
0.0
  0
LINE
  5
227
330
1F
100
AcDbEntity
  8
2
100
AcDbLine
 10
79.49996999999996
 20
198.8160052064204
 30
0.0
 11
79.49996999999996
 21
120.8160052064202
 31
0.0
  0
LINE
  5
228
330
1F
100
AcDbEntity
  8
2
100
AcDbLine
 10
-59.50002999999822
 20
198.8160052064204
 30
0.0
 11
-59.50002999999822
 21
120.8160052064202
 31
0.0
  0
LINE
  5
229
330
1F
100
AcDbEntity
  8
2
100
AcDbLine
 10
-64.4999599865431
 20
129.0160052064209
 30
0.0
 11
-43.62438499999996
 21
129.0160052064209
 31
0.0
  0
LINE
  5
22A
330
1F
100
AcDbEntity
  8
2
100
AcDbLine
 10
43.6243250000017
 20
129.0160052064209
 30
0.0
 11
84.50004001345508
 21
129.0160052064209
 31
0.0
  0
LINE
  5
22B
330
1F
100
AcDbEntity
  8
2
100
AcDbLine
 10
-64.4999599865431
 20
190.6160052064197
 30
0.0
 11
-44.03982577401154
 21
190.6160052064197
 31
0.0
  0
LINE
  5
22C
330
1F
100
AcDbEntity
  8
2
100
AcDbLine
 10
44.03977377401417
 20
190.6160052064197
 30
0.0
 11
84.50004001345508
 21
190.6160052064197
 31
0.0
  0
LINE
  5
22D
330
1F
100
AcDbEntity
  8
2
100
AcDbLine
 10
-63.49995998654492
 20
198.8160052064204
 30
0.0
 11
-13.50003000000004
 21
198.8160052064204
 31
0.0
  0
LINE
  5
22E
330
1F
100
AcDbEntity
  8
2
100
AcDbLine
 10
-11.50002999999822
 20
198.8160052064204
 30
0.0
 11
83.50004001345508
 21
198.8160052064204
 31
0.0
  0
LINE
  5
22F
330
1F
100
AcDbEntity
  8
2
100
AcDbLine
 10
-63.49995998654492
 20
120.8160052064202
 30
0.0
 11
-40.50003000000003
 21
120.8160052064202
 31
0.0
  0
LINE
  5
230
330
1F
100
AcDbEntity
  8
2
100
AcDbLine
 10
-22.50003000000004
 20
119.247742445247
 30
0.0
 11
22.49996999999996
 21
119.247742445247
 31
0.0
  0
LINE
  5
231
330
1F
100
AcDbEntity
  8
2
100
AcDbLine
 10
40.49996999999996
 20
120.8160052064202
 30
0.0
 11
83.50004001345508
 21
120.8160052064202
 31
0.0
  0
LINE
  5
232
330
1F
100
AcDbEntity
  8
2
100
AcDbLine
 10
-64.4999599865431
 20
175.8160052064222
 30
0.0
 11
-45.00003000000003
 21
175.8160052064222
 31
0.0
  0
LINE
  5
233
330
1F
100
AcDbEntity
  8
2
100
AcDbLine
 10
44.99996199999907
 20
175.8160052064222
 30
0.0
 11
84.50004001345508
 21
175.8160052064222
 31
0.0
  0
LINE
  5
234
330
1F
100
AcDbEntity
  8
2
100
AcDbLine
 10
-64.4999599865431
 20
143.816005206422
 30
0.0
 11
-45.00003000000003
 21
143.816005206422
 31
0.0
  0
LINE
  5
235
330
1F
100
AcDbEntity
  8
2
100
AcDbLine
 10
44.99996199999907
 20
143.816005206422
 30
0.0
 11
84.50004001345508
 21
143.816005206422
 31
0.0
  0
LINE
  5
236
330
1F
100
AcDbEntity
  8
2
100
AcDbLine
 10
-64.4999599865431
 20
177.8160052064204
 30
0.0
 11
-45.00003000000003
 21
177.8160052064204
 31
0.0
  0
LINE
  5
237
330
1F
100
AcDbEntity
  8
2
100
AcDbLine
 10
44.99996199999907
 20
177.8160052064204
 30
0.0
 11
84.50004001345508
 21
177.8160052064204
 31
0.0
  0
LINE
  5
238
330
1F
100
AcDbEntity
  8
2
100
AcDbLine
 10
-64.4999599865431
 20
141.8160052064202
 30
0.0
 11
-45.00003000000003
 21
141.8160052064202
 31
0.0
  0
LINE
  5
239
330
1F
100
AcDbEntity
  8
2
100
AcDbLine
 10
44.99996199999907
 20
141.8160052064202
 30
0.0
 11
84.50004001345508
 21
141.8160052064202
 31
0.0
  0
LINE
  5
23A
330
1F
100
AcDbEntity
  8
2
100
AcDbLine
 10
84.50004001345508
 20
121.816005206422
 30
0.0
 11
84.50004001345508
 21
197.8160052064222
 31
0.0
  0
ARC
  5
23B
330
1F
100
AcDbEntity
  8
2
100
AcDbCircle
 10
83.50004001345508
 20
197.8160052064222
 30
0.0
 40
1.0
100
AcDbArc
 50
0.0
 51
90.0
  0
LINE
  5
23C
330
1F
100
AcDbEntity
  8
2
100
AcDbLine
 10
-64.4999599865431
 20
121.816005206422
 30
0.0
 11
-64.4999599865431
 21
197.8160052064222
 31
0.0
  0
ARC
  5
23D
330
1F
100
AcDbEntity
  8
2
100
AcDbCircle
 10
-63.49995998654492
 20
197.8160052064222
 30
0.0
 40
1.0
100
AcDbArc
 50
90.0
 51
180.0
  0
ARC
  5
23E
330
1F
100
AcDbEntity
  8
2
100
AcDbCircle
 10
83.50004001345508
 20
121.816005206422
 30
0.0
 40
1.0
100
AcDbArc
 50
270.0
 51
0.0
  0
ARC
  5
23F
330
1F
100
AcDbEntity
  8
2
100
AcDbCircle
 10
-63.49995998654492
 20
121.816005206422
 30
0.0
 40
1.0
100
AcDbArc
 50
180.0
 51
270.0
  0
LINE
  5
240
330
1F
100
AcDbEntity
  8
2
100
AcDbLine
 10
91.10013766970689
 20
143.816005206422
 30
0.0
 11
95.00052829470508
 21
143.816005206422
 31
0.0
  0
LINE
  5
241
330
1F
100
AcDbEntity
  8
2
100
AcDbLine
 10
91.10013766970689
 20
143.016200518922
 30
0.0
 11
95.00052829470508
 21
143.016200518922
 31
0.0
  0
LINE
  5
242
330
1F
100
AcDbEntity
  8
2
100
AcDbLine
 10
91.60004001345544
 20
135.8158831361095
 30
0.0
 11
95.00052829470508
 21
135.8158831361095
 31
0.0
  0
LINE
  5
243
330
1F
100
AcDbEntity
  8
2
100
AcDbLine
 10
86.10062595095689
 20
147.8160052064202
 30
0.0
 11
86.10062595095689
 21
142.816005206422
 31
0.0
  0
LINE
  5
244
330
1F
100
AcDbEntity
  8
2
100
AcDbLine
 10
99.41996188845507
 20
147.3214525941173
 30
0.0
 11
95.00052829470508
 21
147.3214525941173
 31
0.0
  0
LINE
  5
245
330
1F
100
AcDbEntity
  8
2
100
AcDbLine
 10
91.10013474444633
 20
143.5618822322638
 30
0.0
 11
91.10013474444633
 21
142.5660052064202
 31
0.0
  0
LINE
  5
246
330
1F
100
AcDbEntity
  8
2
100
AcDbLine
 10
90.5200595447069
 20
147.321376300172
 30
0.0
 11
86.6807040759569
 21
147.321376300172
 31
0.0
  0
LINE
  5
247
330
1F
100
AcDbEntity
  8
2
100
AcDbLine
 10
84.50004001345508
 20
147.8160052064202
 30
0.0
 11
86.10013766970508
 21
147.8160052064202
 31
0.0
  0
LINE
  5
248
330
1F
100
AcDbEntity
  8
2
100
AcDbLine
 10
95.00052829470508
 20
132.3105578187267
 30
0.0
 11
95.00052829470508
 21
147.3214525941173
 31
0.0
  0
LINE
  5
249
330
1F
100
AcDbEntity
  8
2
100
AcDbLine
 10
95.00052829470508
 20
132.3105578187267
 30
0.0
 11
99.41996188845507
 21
132.3105578187267
 31
0.0
  0
LINE
  5
24A
330
1F
100
AcDbEntity
  8
2
100
AcDbLine
 10
100.0000371760972
 20
143.5483056275304
 30
0.0
 11
100.0000371760972
 21
136.0563251692626
 31
0.0
  0
LINE
  5
24B
330
1F
100
AcDbEntity
  8
2
100
AcDbLine
 10
91.60004001345544
 20
136.6158098939202
 30
0.0
 11
95.00052829470508
 21
136.6158098939202
 31
0.0
  0
ARC
  5
24C
330
1F
100
AcDbEntity
  8
2
100
AcDbCircle
 10
87.61621611472504
 20
136.056245437511
 30
0.0
 40
12.38382106163013
100
AcDbArc
 50
342.3930911287091
 51
17.60764665530418
  0
ARC
  5
24D
330
1F
100
AcDbEntity
  8
2
100
AcDbCircle
 10
87.61621611472504
 20
143.548385359282
 30
0.0
 40
12.38382106163013
100
AcDbArc
 50
342.3923533446958
 51
17.60690887129084
  0
ARC
  5
24E
330
1F
100
AcDbEntity
  8
2
100
AcDbCircle
 10
78.71631368307237
 20
143.5619619640135
 30
0.0
 40
12.38382106163013
100
AcDbArc
 50
355.387060779385
 51
17.60690887129084
  0
ARC
  5
24F
330
1F
100
AcDbEntity
  8
2
100
AcDbCircle
 10
98.48396165633779
 20
143.5619619640135
 30
0.0
 40
12.38382106163013
100
AcDbArc
 50
162.3930911287091
 51
183.4533818411144
  0
LINE
  5
250
330
1F
100
AcDbEntity
  8
2
100
AcDbLine
 10
95.00052829470508
 20
139.8023153983965
 30
0.0
 11
99.41985893948833
 21
139.8023153983965
 31
0.0
  0
LINE
  5
251
330
1F
100
AcDbEntity
  8
2
100
AcDbLine
 10
87.60004001345544
 20
130.816005206422
 30
0.0
 11
87.60004001345544
 21
142.816005206422
 31
0.0
  0
LINE
  5
252
330
1F
100
AcDbEntity
  8
2
100
AcDbLine
 10
91.60004001345544
 20
133.9410052064202
 30
0.0
 11
91.60004001345544
 21
139.691005206422
 31
0.0
  0
LINE
  5
253
330
1F
100
AcDbEntity
  8
2
100
AcDbLine
 10
87.60004001345544
 20
131.066005206422
 30
0.0
 11
91.16702731156431
 21
131.066005206422
 31
0.0
  0
LINE
  5
254
330
1F
100
AcDbEntity
  8
2
100
AcDbLine
 10
87.60004001345544
 20
142.5660052064202
 30
0.0
 11
91.16702731156431
 21
142.5660052064202
 31
0.0
  0
LINE
  5
255
330
1F
100
AcDbEntity
  8
2
100
AcDbLine
 10
84.50004001345508
 20
130.816005206422
 30
0.0
 11
87.60004001345544
 21
130.816005206422
 31
0.0
  0
LINE
  5
256
330
1F
100
AcDbEntity
  8
2
100
AcDbLine
 10
84.50004001345508
 20
142.816005206422
 30
0.0
 11
87.60004001345544
 21
142.816005206422
 31
0.0
  0
ARC
  5
257
330
1F
100
AcDbEntity
  8
2
100
AcDbCircle
 10
81.83921202496014
 20
133.9410052064202
 30
0.0
 40
9.76082798849484
100
AcDbArc
 50
342.869763324979
 51
17.13023667502096
  0
ARC
  5
258
330
1F
100
AcDbEntity
  8
2
100
AcDbCircle
 10
81.83921202496014
 20
139.691005206422
 30
0.0
 40
9.76082798849484
100
AcDbArc
 50
342.869763324979
 51
17.13023667502096
  0
LINE
  5
259
330
1F
100
AcDbEntity
  8
2
100
AcDbLine
 10
87.60004001345544
 20
136.816005206422
 30
0.0
 11
91.16702731156431
 21
136.816005206422
 31
0.0
  0
LINE
  5
25A
330
1F
100
AcDbEntity
  8
2
100
AcDbLine
 10
87.60004001345544
 20
176.8160052064222
 30
0.0
 11
87.60004001345544
 21
188.8160052064222
 31
0.0
  0
LINE
  5
25B
330
1F
100
AcDbEntity
  8
2
100
AcDbLine
 10
91.60004001345544
 20
179.9410052064222
 30
0.0
 11
91.60004001345544
 21
185.6910052064204
 31
0.0
  0
LINE
  5
25C
330
1F
100
AcDbEntity
  8
2
100
AcDbLine
 10
87.60004001345544
 20
177.0660052064204
 30
0.0
 11
91.16702731156431
 21
177.0660052064204
 31
0.0
  0
LINE
  5
25D
330
1F
100
AcDbEntity
  8
2
100
AcDbLine
 10
87.60004001345544
 20
188.5660052064222
 30
0.0
 11
91.16702731156431
 21
188.5660052064222
 31
0.0
  0
LINE
  5
25E
330
1F
100
AcDbEntity
  8
2
100
AcDbLine
 10
84.50004001345508
 20
176.8160052064222
 30
0.0
 11
87.60004001345544
 21
176.8160052064222
 31
0.0
  0
LINE
  5
25F
330
1F
100
AcDbEntity
  8
2
100
AcDbLine
 10
84.50004001345508
 20
188.8160052064222
 30
0.0
 11
87.60004001345544
 21
188.8160052064222
 31
0.0
  0
LINE
  5
260
330
1F
100
AcDbEntity
  8
2
100
AcDbLine
 10
86.10004001345544
 20
176.8160052064222
 30
0.0
 11
86.10004001345544
 21
188.8160052064222
 31
0.0
  0
ARC
  5
261
330
1F
100
AcDbEntity
  8
2
100
AcDbCircle
 10
81.83921202496014
 20
179.9410052064222
 30
0.0
 40
9.76082798849484
100
AcDbArc
 50
342.869763324979
 51
17.13023667502096
  0
ARC
  5
262
330
1F
100
AcDbEntity
  8
2
100
AcDbCircle
 10
81.83921202496014
 20
185.6910052064204
 30
0.0
 40
9.76082798849484
100
AcDbArc
 50
342.869763324979
 51
17.13023667502096
  0
LINE
  5
263
330
1F
100
AcDbEntity
  8
2
100
AcDbLine
 10
87.60004001345544
 20
182.8160052064222
 30
0.0
 11
91.16702731156431
 21
182.8160052064222
 31
0.0
  0
LINE
  5
264
330
1F
100
AcDbEntity
  8
2
100
AcDbLine
 10
-67.59995998654346
 20
176.8160052064222
 30
0.0
 11
-67.59995998654346
 21
188.8160052064222
 31
0.0
  0
LINE
  5
265
330
1F
100
AcDbEntity
  8
2
100
AcDbLine
 10
-71.59995998654529
 20
179.9410052064222
 30
0.0
 11
-71.59995998654529
 21
185.6910052064204
 31
0.0
  0
LINE
  5
266
330
1F
100
AcDbEntity
  8
2
100
AcDbLine
 10
-67.59995998654346
 20
177.0660052064204
 30
0.0
 11
-71.16694728465233
 21
177.0660052064204
 31
0.0
  0
LINE
  5
267
330
1F
100
AcDbEntity
  8
2
100
AcDbLine
 10
-67.59995998654346
 20
188.5660052064222
 30
0.0
 11
-71.16694728465233
 21
188.5660052064222
 31
0.0
  0
LINE
  5
268
330
1F
100
AcDbEntity
  8
2
100
AcDbLine
 10
-64.4999599865431
 20
176.8160052064222
 30
0.0
 11
-67.59995998654346
 21
176.8160052064222
 31
0.0
  0
LINE
  5
269
330
1F
100
AcDbEntity
  8
2
100
AcDbLine
 10
-64.4999599865431
 20
188.8160052064222
 30
0.0
 11
-67.59995998654346
 21
188.8160052064222
 31
0.0
  0
LINE
  5
26A
330
1F
100
AcDbEntity
  8
2
100
AcDbLine
 10
-66.09995998654347
 20
176.8160052064222
 30
0.0
 11
-66.09995998654347
 21
188.8160052064222
 31
0.0
  0
ARC
  5
26B
330
1F
100
AcDbEntity
  8
2
100
AcDbCircle
 10
-61.83913199804999
 20
179.9410052064222
 30
0.0
 40
9.76082798849484
100
AcDbArc
 50
162.869763324979
 51
197.1302366750209
  0
ARC
  5
26C
330
1F
100
AcDbEntity
  8
2
100
AcDbCircle
 10
-61.83913199804999
 20
185.6910052064204
 30
0.0
 40
9.76082798849484
100
AcDbArc
 50
162.869763324979
 51
197.1302366750209
  0
LINE
  5
26D
330
1F
100
AcDbEntity
  8
2
100
AcDbLine
 10
-67.59995998654346
 20
182.8160052064222
 30
0.0
 11
-71.16694728465233
 21
182.8160052064222
 31
0.0
  0
LINE
  5
26E
330
1F
100
AcDbEntity
  8
2
100
AcDbLine
 10
86.10004001345544
 20
130.816005206422
 30
0.0
 11
86.10004001345544
 21
142.816005206422
 31
0.0
  0
LINE
  5
26F
330
1F
100
AcDbEntity
  8
2
100
AcDbLine
 10
-70.51997951779492
 20
147.321376300172
 30
0.0
 11
-66.68062404904492
 21
147.321376300172
 31
0.0
  0
LINE
  5
270
330
1F
100
AcDbEntity
  8
2
100
AcDbLine
 10
-71.10005764279492
 20
143.816005206422
 30
0.0
 11
-75.0004482677931
 21
143.816005206422
 31
0.0
  0
LINE
  5
271
330
1F
100
AcDbEntity
  8
2
100
AcDbLine
 10
-71.10005764279492
 20
143.016200518922
 30
0.0
 11
-75.0004482677931
 21
143.016200518922
 31
0.0
  0
LINE
  5
272
330
1F
100
AcDbEntity
  8
2
100
AcDbLine
 10
-71.59995998654529
 20
135.8158831361095
 30
0.0
 11
-75.0004482677931
 21
135.8158831361095
 31
0.0
  0
LINE
  5
273
330
1F
100
AcDbEntity
  8
2
100
AcDbLine
 10
-64.4999599865431
 20
147.8160052064202
 30
0.0
 11
-66.10005764279492
 21
147.8160052064202
 31
0.0
  0
LINE
  5
274
330
1F
100
AcDbEntity
  8
2
100
AcDbLine
 10
-79.41988186154492
 20
147.3351424021409
 30
0.0
 11
-75.0004482677931
 21
147.3351424021409
 31
0.0
  0
LINE
  5
275
330
1F
100
AcDbEntity
  8
2
100
AcDbLine
 10
-71.10005471753436
 20
143.5618822322638
 30
0.0
 11
-71.10005471753436
 21
142.5660052064202
 31
0.0
  0
LINE
  5
276
330
1F
100
AcDbEntity
  8
2
100
AcDbLine
 10
-66.10054592404492
 20
147.8160052064202
 30
0.0
 11
-66.10054592404492
 21
142.816005206422
 31
0.0
  0
LINE
  5
277
330
1F
100
AcDbEntity
  8
2
100
AcDbLine
 10
-75.0004482677931
 20
132.3242476267503
 30
0.0
 11
-75.0004482677931
 21
147.3351424021409
 31
0.0
  0
LINE
  5
278
330
1F
100
AcDbEntity
  8
2
100
AcDbLine
 10
-75.0004482677931
 20
132.3242476267503
 30
0.0
 11
-79.41988186154492
 21
132.3242476267503
 31
0.0
  0
LINE
  5
279
330
1F
100
AcDbEntity
  8
2
100
AcDbLine
 10
-79.99995714918521
 20
143.5619954355559
 30
0.0
 11
-79.99995714918521
 21
136.0700149772845
 31
0.0
  0
LINE
  5
27A
330
1F
100
AcDbEntity
  8
2
100
AcDbLine
 10
-71.59995998654529
 20
136.6158098939202
 30
0.0
 11
-75.0004482677931
 21
136.6158098939202
 31
0.0
  0
ARC
  5
27B
330
1F
100
AcDbEntity
  8
2
100
AcDbCircle
 10
-67.61613608781306
 20
136.0699352455365
 30
0.0
 40
12.38382106163012
100
AcDbArc
 50
162.3923533446958
 51
197.6069088712908
  0
ARC
  5
27C
330
1F
100
AcDbEntity
  8
2
100
AcDbCircle
 10
-67.61613608781306
 20
143.5620751673039
 30
0.0
 40
12.38382106163012
100
AcDbArc
 50
162.3930911287091
 51
197.6076466553042
  0
ARC
  5
27D
330
1F
100
AcDbEntity
  8
2
100
AcDbCircle
 10
-58.7162336561604
 20
143.5619619640135
 30
0.0
 40
12.38382106163012
100
AcDbArc
 50
162.3930911287091
 51
184.612939220615
  0
ARC
  5
27E
330
1F
100
AcDbEntity
  8
2
100
AcDbCircle
 10
-78.48388162942763
 20
143.5619619640135
 30
0.0
 40
12.38382106163012
100
AcDbArc
 50
356.5466181588856
 51
17.60690887129084
  0
LINE
  5
27F
330
1F
100
AcDbEntity
  8
2
100
AcDbLine
 10
-75.0004482677931
 20
139.816005206422
 30
0.0
 11
-79.41977891257818
 21
139.816005206422
 31
0.0
  0
LINE
  5
280
330
1F
100
AcDbEntity
  8
2
100
AcDbLine
 10
-67.59995998654346
 20
130.816005206422
 30
0.0
 11
-67.59995998654346
 21
142.816005206422
 31
0.0
  0
LINE
  5
281
330
1F
100
AcDbEntity
  8
2
100
AcDbLine
 10
-71.59995998654529
 20
133.9410052064202
 30
0.0
 11
-71.59995998654529
 21
139.691005206422
 31
0.0
  0
LINE
  5
282
330
1F
100
AcDbEntity
  8
2
100
AcDbLine
 10
-67.59995998654346
 20
131.066005206422
 30
0.0
 11
-71.16694728465233
 21
131.066005206422
 31
0.0
  0
LINE
  5
283
330
1F
100
AcDbEntity
  8
2
100
AcDbLine
 10
-67.59995998654346
 20
142.5660052064202
 30
0.0
 11
-71.16694728465233
 21
142.5660052064202
 31
0.0
  0
LINE
  5
284
330
1F
100
AcDbEntity
  8
2
100
AcDbLine
 10
-64.4999599865431
 20
130.816005206422
 30
0.0
 11
-67.59995998654346
 21
130.816005206422
 31
0.0
  0
LINE
  5
285
330
1F
100
AcDbEntity
  8
2
100
AcDbLine
 10
-64.4999599865431
 20
142.816005206422
 30
0.0
 11
-67.59995998654346
 21
142.816005206422
 31
0.0
  0
ARC
  5
286
330
1F
100
AcDbEntity
  8
2
100
AcDbCircle
 10
-61.83913199804999
 20
133.9410052064202
 30
0.0
 40
9.760827988494838
100
AcDbArc
 50
162.869763324979
 51
197.1302366750209
  0
ARC
  5
287
330
1F
100
AcDbEntity
  8
2
100
AcDbCircle
 10
-61.83913199804999
 20
139.691005206422
 30
0.0
 40
9.760827988494838
100
AcDbArc
 50
162.869763324979
 51
197.1302366750209
  0
LINE
  5
288
330
1F
100
AcDbEntity
  8
2
100
AcDbLine
 10
-67.59995998654346
 20
136.816005206422
 30
0.0
 11
-71.16694728465233
 21
136.816005206422
 31
0.0
  0
LINE
  5
289
330
1F
100
AcDbEntity
  8
2
100
AcDbLine
 10
-66.09995998654347
 20
130.816005206422
 30
0.0
 11
-66.09995998654347
 21
142.816005206422
 31
0.0
  0
LINE
  5
28A
330
1F
100
AcDbEntity
  8
0
100
AcDbLine
 10
-11.50002999999822
 20
201.8160052064204
 30
0.0
 11
-12.50003000000004
 21
201.8160052064204
 31
0.0
  0
LINE
  5
28B
330
1F
100
AcDbEntity
  8
0
100
AcDbLine
 10
-11.50002999999822
 20
194.8158522064213
 30
0.0
 11
36.99996999999996
 21
194.8158522064213
 31
0.0
  0
LINE
  5
28C
330
1F
100
AcDbEntity
  8
0
100
AcDbLine
 10
31.30552700000146
 20
183.6158422064227
 30
0.0
 11
27.55274999999995
 21
177.1158382064195
 31
0.0
  0
LINE
  5
28D
330
1F
100
AcDbEntity
  8
0
100
AcDbLine
 10
31.30552700000146
 20
183.615840206422
 30
0.0
 11
27.55274999999995
 21
190.1158402064202
 31
0.0
  0
LINE
  5
28E
330
1F
100
AcDbEntity
  8
0
100
AcDbLine
 10
27.55274999999995
 20
190.1158402064202
 30
0.0
 11
20.04719600000056
 21
190.1158402064202
 31
0.0
  0
LINE
  5
28F
330
1F
100
AcDbEntity
  8
0
100
AcDbLine
 10
-16.29446599999835
 20
183.615840206422
 30
0.0
 11
-20.04724299999987
 21
177.1158402064202
 31
0.0
  0
LINE
  5
290
330
1F
100
AcDbEntity
  8
0
100
AcDbLine
 10
-20.04724099999919
 20
177.1158402064202
 30
0.0
 11
-27.55279499999858
 21
177.1158402064202
 31
0.0
  0
LINE
  5
291
330
1F
100
AcDbEntity
  8
1
100
AcDbLine
 10
23.79997300000207
 20
194.8158522064213
 30
0.0
 11
23.79997300000207
 21
174.8729022064208
 31
0.0
  0
LINE
  5
292
330
1F
100
AcDbEntity
  8
1
100
AcDbLine
 10
-31.50003000000004
 20
146.1674002064198
 30
0.0
 11
-31.50003000000004
 21
86.44309111011205
 31
0.0
  0
LINE
  5
293
330
1F
100
AcDbEntity
  8
0
100
AcDbLine
 10
-20.04724099999919
 20
190.1158402064202
 30
0.0
 11
-27.55279499999858
 21
190.1158402064202
 31
0.0
  0
LINE
  5
294
330
1F
100
AcDbEntity
  8
0
100
AcDbLine
 10
16.29441900000086
 20
183.615840206422
 30
0.0
 11
20.04719800000123
 21
190.1158422064209
 31
0.0
  0
LINE
  5
295
330
1F
100
AcDbEntity
  8
0
100
AcDbLine
 10
-31.30556999999942
 20
183.615840206422
 30
0.0
 11
-27.55279299999973
 21
190.1158402064202
 31
0.0
  0
LINE
  5
296
330
1F
100
AcDbEntity
  8
0
100
AcDbLine
 10
-27.55279499999858
 20
177.1158402064202
 30
0.0
 11
-31.3055720000001
 21
183.6158422064227
 31
0.0
  0
LINE
  5
297
330
1F
100
AcDbEntity
  8
0
100
AcDbLine
 10
-45.00002199999914
 20
131.8158522064211
 30
0.0
 11
44.99996999999996
 21
131.8158522064211
 31
0.0
  0
LINE
  5
298
330
1F
100
AcDbEntity
  8
0
100
AcDbLine
 10
-45.00002199999914
 20
134.8158522064211
 30
0.0
 11
44.99996999999996
 21
134.8158522064211
 31
0.0
  0
LINE
  5
299
330
1F
100
AcDbEntity
  8
1
100
AcDbLine
 10
-34.36195299999861
 20
183.615840206422
 30
0.0
 11
-14.43574499999783
 21
183.615840206422
 31
0.0
  0
LINE
  5
29A
330
1F
100
AcDbEntity
  8
1
100
AcDbLine
 10
12.98796000000141
 20
183.615840206422
 30
0.0
 11
34.08688799999902
 21
183.615840206422
 31
0.0
  0
LINE
  5
29B
330
1F
100
AcDbEntity
  8
0
100
AcDbLine
 10
-16.29446399999767
 20
183.615840206422
 30
0.0
 11
-20.04724299999987
 21
190.1158422064209
 31
0.0
  0
LINE
  5
29C
330
1F
100
AcDbEntity
  8
0
100
AcDbLine
 10
44.99996199999907
 20
186.8158522064213
 30
0.0
 11
44.99996199999907
 21
131.8158522064211
 31
0.0
  0
LINE
  5
29D
330
1F
100
AcDbEntity
  8
0
100
AcDbLine
 10
-45.00003000000003
 20
186.8158522064213
 30
0.0
 11
-45.00003000000003
 21
131.8158522064211
 31
0.0
  0
LINE
  5
29E
330
1F
100
AcDbEntity
  8
1
100
AcDbLine
 10
-23.80001799999889
 20
194.8158522064213
 30
0.0
 11
-23.80001799999889
 21
174.8729022064208
 31
0.0
  0
LINE
  5
29F
330
1F
100
AcDbEntity
  8
0
100
AcDbLine
 10
20.04719800000123
 20
177.1158402064202
 30
0.0
 11
16.29442099999971
 21
183.615840206422
 31
0.0
  0
LINE
  5
2A0
330
1F
100
AcDbEntity
  8
0
100
AcDbLine
 10
27.55274999999995
 20
177.1158402064202
 30
0.0
 11
20.04719600000056
 21
177.1158402064202
 31
0.0
  0
LINE
  5
2A1
330
1F
100
AcDbEntity
  8
0
100
AcDbLine
 10
-13.50003000000004
 20
166.3543505064199
 30
0.0
 11
-13.50003000000004
 21
200.8160052064222
 31
0.0
  0
LINE
  5
2A2
330
1F
100
AcDbEntity
  8
0
100
AcDbLine
 10
-8.422222599999145
 20
172.2283642064203
 30
0.0
 11
-14.9605450000007
 21
160.9036586064221
 31
0.0
  0
LINE
  5
2A3
330
1F
100
AcDbEntity
  8
0
100
AcDbLine
 10
40.99997000000178
 20
146.3160052064202
 30
0.0
 11
-6.538378199997964
 21
146.3160052064202
 31
0.0
  0
LINE
  5
2A4
330
1F
100
AcDbEntity
  8
0
100
AcDbLine
 10
14.96049000000232
 20
158.7284101064206
 30
0.0
 11
8.422114900001474
 21
147.4036122064215
 31
0.0
  0
LINE
  5
2A5
330
1F
100
AcDbEntity
  8
0
100
AcDbLine
 10
8.4221387000008
 20
172.2283812064224
 30
0.0
 11
14.96048800000165
 21
160.9036288064208
 31
0.0
  0
LINE
  5
2A6
330
1F
100
AcDbEntity
  8
0
100
AcDbLine
 10
-6.538378199997964
 20
173.3160052064204
 30
0.0
 11
6.538318199999707
 21
173.3160052064204
 31
0.0
  0
LINE
  5
2A7
330
1F
100
AcDbEntity
  8
0
100
AcDbLine
 10
41.99996999999996
 20
148.316005206422
 30
0.0
 11
41.99996999999996
 21
147.316005206422
 31
0.0
  0
LINE
  5
2A8
330
1F
100
AcDbEntity
  8
0
100
AcDbLine
 10
21.99996999999996
 20
148.316005206422
 30
0.0
 11
41.99996999999996
 21
148.316005206422
 31
0.0
  0
LINE
  5
2A9
330
1F
100
AcDbEntity
  8
0
100
AcDbLine
 10
-0.0000300000000379
 20
174.8160052064204
 30
0.0
 11
-8.089736400000106
 21
174.8160052064204
 31
0.0
  0
LINE
  5
2AA
330
1F
100
AcDbEntity
  8
0
100
AcDbLine
 10
-11.50002999999822
 20
181.8160052064222
 30
0.0
 11
-13.50003000000004
 21
181.8160052064222
 31
0.0
  0
LINE
  5
2AB
330
1F
100
AcDbEntity
  8
0
100
AcDbLine
 10
-10.02158500000121
 20
176.2983942064193
 30
0.0
 11
-11.50003199999889
 21
181.8160342064211
 31
0.0
  0
LINE
  5
2AC
330
1F
100
AcDbEntity
  8
0
100
AcDbLine
 10
14.99996999999996
 20
159.8160052064204
 30
0.0
 11
14.99996999999996
 21
151.7262988064201
 31
0.0
  0
LINE
  5
2AD
330
1F
100
AcDbEntity
  8
0
100
AcDbLine
 10
16.48233499999981
 20
149.7944542064203
 30
0.0
 11
21.9999739999995
 21
148.3160072064227
 31
0.0
  0
LINE
  5
2AE
330
1F
100
AcDbEntity
  8
0
100
AcDbLine
 10
21.99996999999996
 20
148.316005206422
 30
0.0
 11
21.99996999999996
 21
146.3160052064202
 31
0.0
  0
LINE
  5
2AF
330
1F
100
AcDbEntity
  8
0
100
AcDbLine
 10
-11.50002999999822
 20
181.8160052064222
 30
0.0
 11
-11.50002999999822
 21
201.8160052064204
 31
0.0
  0
LINE
  5
2B0
330
1F
100
AcDbEntity
  8
0
100
AcDbLine
 10
-14.96054699999956
 20
158.7283803064192
 30
0.0
 11
-8.422198700000876
 21
147.4036302064221
 31
0.0
  0
LINE
  5
2B1
330
1F
100
AcDbEntity
  8
0
100
AcDbLine
 10
7.000129787887203
 20
159.8158342271408
 30
0.0
 11
4.000121387888725
 21
158.0837786185302
 31
0.0
  0
LINE
  5
2B2
330
1F
100
AcDbEntity
  8
0
100
AcDbLine
 10
-3.999891212112629
 20
161.54787271853
 30
0.0
 11
-6.99989981211263
 21
159.8158171206059
 31
0.0
  0
LINE
  5
2B3
330
1F
100
AcDbEntity
  8
0
100
AcDbLine
 10
-3.999877412111231
 20
161.0658526185298
 30
0.0
 11
-3.999877412111231
 21
161.54790831853
 31
0.0
  0
LINE
  5
2B4
330
1F
100
AcDbEntity
  8
0
100
AcDbLine
 10
4.000122587886949
 20
161.0658526185298
 30
0.0
 11
4.000122587886949
 21
161.54790831853
 31
0.0
  0
LINE
  5
2B5
330
1F
100
AcDbEntity
  8
0
100
AcDbLine
 10
4.000122587886949
 20
158.0837969185313
 30
0.0
 11
4.000122587886949
 21
158.5658526185298
 31
0.0
  0
LINE
  5
2B6
330
1F
100
AcDbEntity
  8
0
100
AcDbLine
 10
-3.999877412111231
 20
158.0837969185313
 30
0.0
 11
-3.999877412111231
 21
158.5658526185298
 31
0.0
  0
LINE
  5
2B7
330
1F
100
AcDbEntity
  8
0
100
AcDbLine
 10
-3.999873312110935
 20
158.0838191185294
 30
0.0
 11
-6.999875012111147
 21
159.815870824842
 31
0.0
  0
LINE
  5
2B8
330
1F
100
AcDbEntity
  8
0
100
AcDbLine
 10
7.000124487888683
 20
159.8158708844448
 30
0.0
 11
4.00012588788843
 21
161.5479209185296
 31
0.0
  0
LINE
  5
2B9
330
1F
100
AcDbEntity
  8
0
100
AcDbLine
 10
-3.999877412111231
 20
158.5658526185298
 30
0.0
 11
4.000122587886949
 21
158.5658526185298
 31
0.0
  0
LINE
  5
2BA
330
1F
100
AcDbEntity
  8
0
100
AcDbLine
 10
-3.999877412111231
 20
161.0658526185298
 30
0.0
 11
4.000122587886949
 21
161.0658526185298
 31
0.0
  0
CIRCLE
  5
2BB
330
1F
100
AcDbEntity
  8
0
100
AcDbCircle
 10
23.79997300000207
 20
183.615840206422
 30
0.0
 40
6.5
  0
CIRCLE
  5
2BC
330
1F
100
AcDbEntity
  8
0
100
AcDbCircle
 10
-23.80001799999889
 20
183.615840206422
 30
0.0
 40
6.5
  0
ARC
  5
2BD
330
1F
100
AcDbEntity
  8
0
100
AcDbCircle
 10
36.99996199999907
 20
186.8158522064213
 30
0.0
 40
8.0
100
AcDbArc
 50
0.0
 51
90.0
  0
ARC
  5
2BE
330
1F
100
AcDbEntity
  8
0
100
AcDbCircle
 10
-37.00003000000004
 20
186.8158522064213
 30
0.0
 40
8.0
100
AcDbArc
 50
90.0
 51
179.999989999999
  0
ARC
  5
2BF
330
1F
100
AcDbEntity
  8
0
100
AcDbCircle
 10
-0.0000300000000379
 20
159.8158526185316
 30
0.0
 40
17.5
100
AcDbArc
 50
140.4823500000028
 51
309.5184300000049
  0
ARC
  5
2C0
330
1F
100
AcDbEntity
  8
0
100
AcDbCircle
 10
-0.0000300000000379
 20
159.8158526185316
 30
0.0
 40
17.5
100
AcDbArc
 50
329.8264599999913
 51
121.0017399999977
  0
ARC
  5
2C1
330
1F
100
AcDbEntity
  8
0
100
AcDbCircle
 10
-12.50003000000004
 20
200.8160052064222
 30
0.0
 40
1.0
100
AcDbArc
 50
90.0
 51
180.0
  0
CIRCLE
  5
2C2
330
1F
100
AcDbEntity
  8
0
100
AcDbCircle
 10
-0.0000300000000379
 20
159.8160052064204
 30
0.0
 40
15.0
  0
ARC
  5
2C3
330
1F
100
AcDbEntity
  8
0
100
AcDbCircle
 10
40.99997000000178
 20
147.316005206422
 30
0.0
 40
1.0
100
AcDbArc
 50
270.0
 51
0.0
  0
ARC
  5
2C4
330
1F
100
AcDbEntity
  8
0
100
AcDbCircle
 10
-8.089736400000106
 20
176.8160052064222
 30
0.0
 40
2.0
100
AcDbArc
 50
195.0000319999945
 51
270.0
  0
ARC
  5
2C5
330
1F
100
AcDbEntity
  8
0
100
AcDbCircle
 10
16.99997000000178
 20
151.7262988064201
 30
0.0
 40
2.0
100
AcDbArc
 50
180.0
 51
255.0000209999961
  0
CIRCLE
  5
2C6
330
1F
100
AcDbEntity
  8
0
100
AcDbCircle
 10
-0.0000300000000379
 20
159.8160052064204
 30
0.0
 40
13.5
  0
CIRCLE
  5
2C7
330
1F
100
AcDbEntity
  8
0
100
AcDbCircle
 10
-0.0000300000000379
 20
159.8160052064204
 30
0.0
 40
7.5
  0
LINE
  5
2C8
330
1F
100
AcDbEntity
  8
2
100
AcDbLine
 10
19.37561500000004
 20
129.0158526185321
 30
0.0
 11
-19.37567499999829
 21
129.0158526185321
 31
0.0
  0
ARC
  5
2C9
330
1F
100
AcDbEntity
  8
0
100
AcDbCircle
 10
36.9999702407282
 20
42.00000024072801
 30
0.0
 40
7.99999975927199
100
AcDbArc
 50
359.9999982759077
 51
90.00000172407926
  0
ARC
  5
2CA
330
1F
100
AcDbEntity
  8
0
100
AcDbCircle
 10
-36.99997024072798
 20
42.00000024072801
 30
0.0
 40
7.99999975927199
100
AcDbArc
 50
89.99999827590771
 51
180.0000017240792
  0
LINE
  5
2CB
330
1F
100
AcDbEntity
  8
2
100
AcDbLine
 10
-20.99998456547411
 20
28.93786673354009
 30
0.0
 11
-21.00001543461917
 21
41.06219673350063
 31
0.0
  0
LINE
  5
2CC
330
1F
100
AcDbEntity
  8
1
100
AcDbLine
 10
-43.28295999988509
 20
34.9999399999997
 30
0.0
 11
-19.71703999996168
 21
35.0
 31
0.0
  0
LINE
  5
2CD
330
1F
100
AcDbEntity
  8
1
100
AcDbLine
 10
19.71704000000034
 20
34.99996999999985
 30
0.0
 11
43.28296000000011
 21
34.99996999999985
 31
0.0
  0
LINE
  5
2CE
330
1F
100
AcDbEntity
  8
1
100
AcDbLine
 10
-31.4999670142474
 20
22.04434000004187
 30
0.0
 11
-31.50003298575234
 21
47.95565999995807
 31
0.0
  0
LINE
  5
2CF
330
1F
100
AcDbEntity
  8
2
100
AcDbLine
 10
-42.00001456545686
 20
28.93783326642284
 30
0.0
 11
-31.49996913082933
 21
22.87566000003943
 31
0.0
  0
LINE
  5
2D0
330
1F
100
AcDbEntity
  8
2
100
AcDbLine
 10
-31.50003086929775
 20
47.12438999996061
 30
0.0
 11
-42.00001543465297
 21
41.06218326645995
 31
0.0
  0
LINE
  5
2D1
330
1F
100
AcDbEntity
  8
2
100
AcDbLine
 10
31.49997000000019
 20
22.87564000000021
 30
0.0
 11
20.99994000000004
 21
28.93784000000005
 31
0.0
  0
LINE
  5
2D2
330
1F
100
AcDbEntity
  8
2
100
AcDbLine
 10
-31.49996913088026
 20
22.87568000003915
 30
0.0
 11
-20.99997456552504
 21
28.93788673356551
 31
0.0
  0
LINE
  5
2D3
330
1F
100
AcDbEntity
  8
2
100
AcDbLine
 10
-42.00001543455113
 20
41.06214326645982
 30
0.0
 11
-41.99998456540604
 21
28.93781326649924
 31
0.0
  0
LINE
  5
2D4
330
1F
100
AcDbEntity
  8
2
100
AcDbLine
 10
-21.00003543469529
 20
41.06222673344984
 30
0.0
 11
-31.49998086914511
 21
47.12433000008786
 31
0.0
  0
LINE
  5
2D5
330
1F
100
AcDbEntity
  8
0
100
AcDbLine
 10
44.99996999999996
 20
0.0
 30
0.0
 11
-44.99996999999996
 21
0.0
 31
0.0
  0
LINE
  5
2D6
330
1F
100
AcDbEntity
  8
1
100
AcDbLine
 10
31.50000000000011
 20
47.95566000000007
 30
0.0
 11
31.50000000000011
 21
22.04433999999992
 31
0.0
  0
LINE
  5
2D7
330
1F
100
AcDbEntity
  8
0
100
AcDbLine
 10
44.99996999999996
 20
42.0
 30
0.0
 11
44.99996999999996
 21
0.0
 31
0.0
  0
LINE
  5
2D8
330
1F
100
AcDbEntity
  8
0
  6
DASHED
100
AcDbLine
 10
44.99996999999996
 20
3.0
 30
0.0
 11
-44.99996999999996
 21
3.0
 31
0.0
  0
LINE
  5
2D9
330
1F
100
AcDbEntity
  8
0
100
AcDbLine
 10
-44.99996999999996
 20
42.0
 30
0.0
 11
-44.99996999999996
 21
0.0
 31
0.0
  0
LINE
  5
2DA
330
1F
100
AcDbEntity
  8
0
100
AcDbLine
 10
36.99996999999996
 20
50.0
 30
0.0
 11
-36.99996999999996
 21
50.0
 31
0.0
  0
LINE
  5
2DB
330
1F
100
AcDbEntity
  8
2
100
AcDbLine
 10
21.00001000000009
 20
41.06215999999995
 30
0.0
 11
31.49998000000039
 21
47.12431999999989
 31
0.0
  0
LINE
  5
2DC
330
1F
100
AcDbEntity
  8
2
100
AcDbLine
 10
21.00000000000012
 20
28.93784000000005
 30
0.0
 11
21.00000000000012
 21
41.06216999999992
 31
0.0
  0
LINE
  5
2DD
330
1F
100
AcDbEntity
  8
2
100
AcDbLine
 10
42.00000000000011
 20
41.06216999999992
 30
0.0
 11
42.00000000000011
 21
28.93784000000005
 31
0.0
  0
LINE
  5
2DE
330
1F
100
AcDbEntity
  8
2
100
AcDbLine
 10
31.49994000000004
 20
47.12437
 30
0.0
 11
41.99997000000019
 21
41.06216999999992
 31
0.0
  0
LINE
  5
2DF
330
1F
100
AcDbEntity
  8
2
100
AcDbLine
 10
42.00001000000009
 20
28.9378099999999
 30
0.0
 11
31.50001000000009
 21
22.87563
 31
0.0
  0
LINE
  5
2E0
330
1F
100
AcDbEntity
  8
1
100
AcDbLine
 10
-0.0000300000000379
 20
60.9553199999998
 30
0.0
 11
-0.0000300000000379
 21
-117.1277499999999
 31
0.0
  0
LINE
  5
2E1
330
1F
100
AcDbEntity
  8
2
100
AcDbLine
 10
84.50006991201519
 20
-0.9999999999990905
 30
0.0
 11
84.50006991201519
 21
-85.99997699999951
 31
0.0
  0
ARC
  5
2E2
330
1F
100
AcDbEntity
  8
2
100
AcDbCircle
 10
83.500069912017
 20
-0.9999999999990905
 30
0.0
 40
1.0
100
AcDbArc
 50
0.0
 51
90.0
  0
LINE
  5
2E3
330
1F
100
AcDbEntity
  8
2
100
AcDbLine
 10
-63.49993008798299
 20
0.0
 30
0.0
 11
83.500069912017
 21
0.0
 31
0.0
  0
LINE
  5
2E4
330
1F
100
AcDbEntity
  8
2
100
AcDbLine
 10
-64.4999300879839
 20
-0.9999999999990905
 30
0.0
 11
-64.4999300879839
 21
-85.99997699999951
 31
0.0
  0
ARC
  5
2E5
330
1F
100
AcDbEntity
  8
2
100
AcDbCircle
 10
-63.49993008798299
 20
-0.9999999999990905
 30
0.0
 40
1.0
100
AcDbArc
 50
90.0
 51
180.0
  0
LINE
  5
2E6
330
1F
100
AcDbEntity
  8
2
100
AcDbLine
 10
-63.49993008798299
 20
-86.99997699999952
 30
0.0
 11
83.500069912017
 21
-86.99997699999952
 31
0.0
  0
ARC
  5
2E7
330
1F
100
AcDbEntity
  8
2
100
AcDbCircle
 10
-63.49993008798299
 20
-85.99997699999951
 30
0.0
 40
1.0
100
AcDbArc
 50
180.0
 51
270.0
  0
ARC
  5
2E8
330
1F
100
AcDbEntity
  8
2
100
AcDbCircle
 10
83.500069912017
 20
-85.99997699999951
 30
0.0
 40
1.0
100
AcDbArc
 50
270.0
 51
0.0
  0
LINE
  5
2E9
330
1F
100
AcDbEntity
  8
2
100
AcDbLine
 10
-64.4999300879839
 20
-67.42394999999945
 30
0.0
 11
84.50006991201519
 21
-67.42394999999945
 31
0.0
  0
LINE
  5
2EA
330
1F
100
AcDbEntity
  8
2
100
AcDbLine
 10
-64.4999300879839
 20
-19.57598899999902
 30
0.0
 11
84.50006991201519
 21
-19.57598899999902
 31
0.0
  0
LINE
  5
2EB
330
1F
100
AcDbEntity
  8
2
100
AcDbLine
 10
-59.50000010143901
 20
0.0
 30
0.0
 11
-59.50000010143901
 21
-86.99997699999952
 31
0.0
  0
LINE
  5
2EC
330
1F
100
AcDbEntity
  8
2
100
AcDbLine
 10
79.49999989856189
 20
0.0
 30
0.0
 11
79.49999989856189
 21
-86.99997699999952
 31
0.0
  0
LINE
  5
2ED
330
1F
100
AcDbEntity
  8
2
100
AcDbLine
 10
50.26770009387348
 20
-80.27919777921946
 30
0.0
 11
63.39495839465564
 21
-80.27919777921946
 31
0.0
  0
LINE
  5
2EE
330
1F
100
AcDbEntity
  8
2
100
AcDbLine
 10
50.26770009387348
 20
-70.27919777921946
 30
0.0
 11
63.39495839465564
 21
-70.27919777921946
 31
0.0
  0
LINE
  5
2EF
330
1F
100
AcDbEntity
  8
2
100
AcDbLine
 10
65.39495839465473
 20
-72.27919777922036
 30
0.0
 11
65.39495839465473
 21
-78.27919777922037
 31
0.0
  0
LINE
  5
2F0
330
1F
100
AcDbEntity
  8
2
100
AcDbLine
 10
48.26770009387439
 20
-72.27919777922036
 30
0.0
 11
48.26770009387439
 21
-78.27919777922037
 31
0.0
  0
ARC
  5
2F1
330
1F
100
AcDbEntity
  8
2
100
AcDbCircle
 10
50.26770009387348
 20
-72.27919777922036
 30
0.0
 40
2.0
100
AcDbArc
 50
90.0
 51
180.0
  0
ARC
  5
2F2
330
1F
100
AcDbEntity
  8
2
100
AcDbCircle
 10
63.39495839465564
 20
-72.27919777922036
 30
0.0
 40
2.0
100
AcDbArc
 50
0.0
 51
90.0
  0
ARC
  5
2F3
330
1F
100
AcDbEntity
  8
2
100
AcDbCircle
 10
63.39495839465564
 20
-78.27919777922037
 30
0.0
 40
2.0
100
AcDbArc
 50
270.0
 51
0.0
  0
ARC
  5
2F4
330
1F
100
AcDbEntity
  8
2
100
AcDbCircle
 10
50.26770009387348
 20
-78.27919777922037
 30
0.0
 40
2.0
100
AcDbArc
 50
180.0
 51
270.0
  0
LWPOLYLINE
  5
2F5
330
1F
100
AcDbEntity
  8
2
100
AcDbPolyline
 90
        2
 70
     0
 43
0.6
 10
61.21931142199867
 20
-77.59372699999952
 42
1.0
 10
60.6193114219983
 20
-77.59372699999952
 42
1.0
  0
LINE
  5
2F6
330
1F
100
AcDbEntity
  8
2
100
AcDbLine
 10
91.1001675682661
 20
-37.00006099999885
 30
0.0
 11
91.1001675682661
 21
-50.00021358788948
 31
0.0
  0
LINE
  5
2F7
330
1F
100
AcDbEntity
  8
2
100
AcDbLine
 10
90.5200894432661
 20
-35.99468990624885
 30
0.0
 11
86.6807339745161
 21
-35.99468990624885
 31
0.0
  0
LINE
  5
2F8
330
1F
100
AcDbEntity
  8
2
100
AcDbLine
 10
91.10050448847927
 20
-37.00010387058231
 30
0.0
 11
90.51993808222835
 21
-35.99453337583785
 31
0.0
  0
LINE
  5
2F9
330
1F
100
AcDbEntity
  8
2
100
AcDbLine
 10
86.68073936622988
 20
-51.00558468163947
 30
0.0
 11
90.5200894432661
 21
-51.00558468163947
 31
0.0
  0
ARC
  5
2FA
330
1F
100
AcDbEntity
  8
2
100
AcDbCircle
 10
87.777413662017
 20
-49.12933346093635
 30
0.0
 40
3.322566986083983
100
AcDbArc
 50
0.0
 51
34.38430267815816
  0
ARC
  5
2FB
330
1F
100
AcDbEntity
  8
2
100
AcDbCircle
 10
78.68073397451701
 20
-43.50006099999885
 30
0.0
 40
12.41944122314453
100
AcDbArc
 50
342.4120272456765
 51
17.58793860335838
  0
LINE
  5
2FC
330
1F
100
AcDbEntity
  8
2
100
AcDbLine
 10
91.1001675682661
 20
-39.50006099999885
 30
0.0
 11
95.00055819326519
 21
-39.50006099999885
 31
0.0
  0
LINE
  5
2FD
330
1F
100
AcDbEntity
  8
2
100
AcDbLine
 10
91.1001675682661
 20
-40.29986568749885
 30
0.0
 11
95.00055819326519
 21
-40.29986568749885
 31
0.0
  0
LINE
  5
2FE
330
1F
100
AcDbEntity
  8
2
100
AcDbLine
 10
91.1001675682661
 20
-47.50018307031135
 30
0.0
 11
95.00055819326519
 21
-47.50018307031135
 31
0.0
  0
ARC
  5
2FF
330
1F
100
AcDbEntity
  8
2
100
AcDbCircle
 10
87.777413662017
 20
-37.87066646874885
 30
0.0
 40
3.322566986083983
100
AcDbArc
 50
325.6156973218419
 51
0.0
  0
ARC
  5
300
330
1F
100
AcDbEntity
  8
2
100
AcDbCircle
 10
98.5196011620161
 20
-43.50006099999885
 30
0.0
 40
12.41944122314453
100
AcDbArc
 50
162.4120629904989
 51
197.6131435406209
  0
ARC
  5
301
330
1F
100
AcDbEntity
  8
2
100
AcDbCircle
 10
89.4229214745161
 20
-37.87066646874885
 30
0.0
 40
3.322566986083983
100
AcDbArc
 50
179.9999640278024
 51
214.3842837814631
  0
LINE
  5
302
330
1F
100
AcDbEntity
  8
2
100
AcDbLine
 10
95.00055819326519
 20
-50.99181857967053
 30
0.0
 11
99.41999178701701
 21
-50.99181857967053
 31
0.0
  0
LINE
  5
303
330
1F
100
AcDbEntity
  8
2
100
AcDbLine
 10
100.0005034805677
 20
-49.98647843403071
 30
0.0
 11
99.41993707431869
 21
-50.99204892877427
 31
0.0
  0
ARC
  5
304
330
1F
100
AcDbEntity
  8
2
100
AcDbCircle
 10
96.67731600576519
 20
-49.1155673589665
 30
0.0
 40
3.322566986083983
100
AcDbArc
 50
0.0
 51
34.38430267815816
  0
LINE
  5
305
330
1F
100
AcDbEntity
  8
2
100
AcDbLine
 10
99.41950350576519
 20
-39.73336521052991
 30
0.0
 11
95.00055819326519
 21
-39.73336521052991
 31
0.0
  0
LINE
  5
306
330
1F
100
AcDbEntity
  8
2
100
AcDbLine
 10
99.41999178701701
 20
-35.98092380427991
 30
0.0
 11
95.00055819326519
 21
-35.98092380427991
 31
0.0
  0
LINE
  5
307
330
1F
100
AcDbEntity
  8
2
100
AcDbLine
 10
100.0004068322283
 20
-36.98633776861246
 30
0.0
 11
99.41984042597745
 21
-35.98076727386891
 31
0.0
  0
ARC
  5
308
330
1F
100
AcDbEntity
  8
2
100
AcDbCircle
 10
96.67731600576519
 20
-37.85690036677991
 30
0.0
 40
3.322566986083983
100
AcDbArc
 50
325.6156973218419
 51
0.0
  0
LINE
  5
309
330
1F
100
AcDbEntity
  8
2
100
AcDbLine
 10
100.000069912017
 20
-36.98629489802991
 30
0.0
 11
100.000069912017
 21
-49.98644748592053
 31
0.0
  0
ARC
  5
30A
330
1F
100
AcDbEntity
  8
2
100
AcDbCircle
 10
87.58063631826519
 20
-43.4862948980299
 30
0.0
 40
12.41944122314453
100
AcDbArc
 50
342.4120272456765
 51
17.58793860335838
  0
LINE
  5
30B
330
1F
100
AcDbEntity
  8
2
100
AcDbLine
 10
86.10022130939217
 20
-50.00009793053326
 30
0.0
 11
86.68077245685401
 21
-51.00564199628028
 31
0.0
  0
LINE
  5
30C
330
1F
100
AcDbEntity
  8
2
100
AcDbLine
 10
90.51960116201701
 20
-39.74713131249885
 30
0.0
 11
86.681222255767
 21
-39.74713131249885
 31
0.0
  0
LINE
  5
30D
330
1F
100
AcDbEntity
  8
2
100
AcDbLine
 10
86.68071532190117
 20
-47.25283362299163
 30
0.0
 11
90.51960116201701
 21
-47.25289913476447
 31
0.0
  0
LINE
  5
30E
330
1F
100
AcDbEntity
  8
2
100
AcDbLine
 10
84.50006991201702
 20
-35.50006099999885
 30
0.0
 11
86.100167568267
 21
-35.50006099999885
 31
0.0
  0
LINE
  5
30F
330
1F
100
AcDbEntity
  8
2
100
AcDbLine
 10
91.10060113681868
 20
-50.00024453599966
 30
0.0
 11
90.52003473056776
 21
-51.00581503074412
 31
0.0
  0
LINE
  5
310
330
1F
100
AcDbEntity
  8
2
100
AcDbLine
 10
86.10065584951611
 20
-35.50006099999885
 30
0.0
 11
86.10065584951611
 21
-51.50018307031135
 31
0.0
  0
LINE
  5
311
330
1F
100
AcDbEntity
  8
2
100
AcDbLine
 10
86.10022130939217
 20
-37.00002406946444
 30
0.0
 11
86.68077245685401
 21
-35.99448000371834
 31
0.0
  0
LINE
  5
312
330
1F
100
AcDbEntity
  8
2
100
AcDbLine
 10
95.00055819326519
 20
-50.99181857967053
 30
0.0
 11
95.00055819326519
 21
-35.98092380427991
 31
0.0
  0
LINE
  5
313
330
1F
100
AcDbEntity
  8
2
100
AcDbLine
 10
95.00055819326519
 20
-47.23913303279553
 30
0.0
 11
99.41950350576519
 21
-47.23913303279553
 31
0.0
  0
ARC
  5
314
330
1F
100
AcDbEntity
  8
2
100
AcDbCircle
 10
89.4229214745161
 20
-49.12945553124885
 30
0.0
 40
3.322566986083983
100
AcDbArc
 50
145.6157162185369
 51
180.0000359721715
  0
LINE
  5
315
330
1F
100
AcDbEntity
  8
2
100
AcDbLine
 10
84.50006991201702
 20
-51.50006099999885
 30
0.0
 11
86.100167568267
 21
-51.50006099999885
 31
0.0
  0
LINE
  5
316
330
1F
100
AcDbEntity
  8
2
100
AcDbLine
 10
91.1001675682661
 20
-46.70025631249976
 30
0.0
 11
95.00055819326519
 21
-46.70025631249976
 31
0.0
  0
LINE
  5
317
330
1F
100
AcDbEntity
  8
2
100
AcDbLine
 10
87.60006991201555
 20
-85.49998839999901
 30
0.0
 11
87.60006991201555
 21
-73.49998839999901
 31
0.0
  0
LINE
  5
318
330
1F
100
AcDbEntity
  8
2
100
AcDbLine
 10
91.60006991201555
 20
-84.49998839999901
 30
0.0
 11
91.60006991201555
 21
-74.49998839999901
 31
0.0
  0
LINE
  5
319
330
1F
100
AcDbEntity
  8
2
100
AcDbLine
 10
87.60006991201555
 20
-85.249988399999
 30
0.0
 11
91.16705721012351
 21
-85.249988399999
 31
0.0
  0
LINE
  5
31A
330
1F
100
AcDbEntity
  8
2
100
AcDbLine
 10
87.60006991201555
 20
-73.74998839999901
 30
0.0
 11
91.16705721012351
 21
-73.74998839999901
 31
0.0
  0
LINE
  5
31B
330
1F
100
AcDbEntity
  8
2
100
AcDbLine
 10
91.16705721012351
 20
-73.74998839999901
 30
0.0
 11
91.60006991201555
 21
-74.49998839999901
 31
0.0
  0
LINE
  5
31C
330
1F
100
AcDbEntity
  8
2
100
AcDbLine
 10
91.16705721012351
 20
-85.249988399999
 30
0.0
 11
91.60006991201555
 21
-84.49998839999901
 31
0.0
  0
LINE
  5
31D
330
1F
100
AcDbEntity
  8
2
100
AcDbLine
 10
87.60006991201555
 20
-82.37498839999901
 30
0.0
 11
91.16705721012351
 21
-82.37498839999901
 31
0.0
  0
LINE
  5
31E
330
1F
100
AcDbEntity
  8
2
100
AcDbLine
 10
87.60006991201555
 20
-76.62498839999901
 30
0.0
 11
91.16705721012351
 21
-76.62498839999901
 31
0.0
  0
ARC
  5
31F
330
1F
100
AcDbEntity
  8
2
100
AcDbCircle
 10
81.83924192353027
 20
-79.49998839999901
 30
0.0
 40
9.760827988486084
100
AcDbArc
 50
342.8697633249672
 51
17.13023667503281
  0
ARC
  5
320
330
1F
100
AcDbEntity
  8
2
100
AcDbCircle
 10
88.9974831516862
 20
-83.81248839999901
 30
0.0
 40
2.602586760331064
100
AcDbArc
 50
326.4726419507431
 51
33.52735804925692
  0
ARC
  5
321
330
1F
100
AcDbEntity
  8
2
100
AcDbCircle
 10
88.9974831516862
 20
-75.18748839999901
 30
0.0
 40
2.602586760331064
100
AcDbArc
 50
326.4726419507431
 51
33.52735804925692
  0
LINE
  5
322
330
1F
100
AcDbEntity
  8
2
100
AcDbLine
 10
84.50006991201519
 20
-85.49998839999901
 30
0.0
 11
87.60006991201555
 21
-85.49998839999901
 31
0.0
  0
LINE
  5
323
330
1F
100
AcDbEntity
  8
2
100
AcDbLine
 10
84.50006991201519
 20
-73.49998839999901
 30
0.0
 11
87.60006991201555
 21
-73.49998839999901
 31
0.0
  0
LINE
  5
324
330
1F
100
AcDbEntity
  8
2
100
AcDbLine
 10
86.10006991201556
 20
-85.49998839999901
 30
0.0
 11
86.10006991201556
 21
-73.49998839999901
 31
0.0
  0
LINE
  5
325
330
1F
100
AcDbEntity
  8
2
100
AcDbLine
 10
87.60006991201555
 20
-13.5
 30
0.0
 11
87.60006991201555
 21
-1.5
 31
0.0
  0
LINE
  5
326
330
1F
100
AcDbEntity
  8
2
100
AcDbLine
 10
91.60006991201555
 20
-12.49999999999909
 30
0.0
 11
91.60006991201555
 21
-2.49999999999909
 31
0.0
  0
LINE
  5
327
330
1F
100
AcDbEntity
  8
2
100
AcDbLine
 10
87.60006991201555
 20
-13.24999999999909
 30
0.0
 11
91.16705721012351
 21
-13.24999999999909
 31
0.0
  0
LINE
  5
328
330
1F
100
AcDbEntity
  8
2
100
AcDbLine
 10
87.60006991201555
 20
-1.74999999999909
 30
0.0
 11
91.16705721012351
 21
-1.74999999999909
 31
0.0
  0
LINE
  5
329
330
1F
100
AcDbEntity
  8
2
100
AcDbLine
 10
91.16705721012351
 20
-1.74999999999909
 30
0.0
 11
91.60006991201555
 21
-2.49999999999909
 31
0.0
  0
LINE
  5
32A
330
1F
100
AcDbEntity
  8
2
100
AcDbLine
 10
91.16705721012351
 20
-13.24999999999909
 30
0.0
 11
91.60006991201555
 21
-12.49999999999909
 31
0.0
  0
LINE
  5
32B
330
1F
100
AcDbEntity
  8
2
100
AcDbLine
 10
87.60006991201555
 20
-10.37499999999909
 30
0.0
 11
91.16705721012351
 21
-10.37499999999909
 31
0.0
  0
LINE
  5
32C
330
1F
100
AcDbEntity
  8
2
100
AcDbLine
 10
87.60006991201555
 20
-4.62499999999909
 30
0.0
 11
91.16705721012351
 21
-4.62499999999909
 31
0.0
  0
ARC
  5
32D
330
1F
100
AcDbEntity
  8
2
100
AcDbCircle
 10
81.83924192353027
 20
-7.5
 30
0.0
 40
9.760827988486084
100
AcDbArc
 50
342.8697633249672
 51
17.13023667503281
  0
ARC
  5
32E
330
1F
100
AcDbEntity
  8
2
100
AcDbCircle
 10
88.9974831516862
 20
-11.8125
 30
0.0
 40
2.602586760331064
100
AcDbArc
 50
326.4726419507431
 51
33.52735804925692
  0
ARC
  5
32F
330
1F
100
AcDbEntity
  8
2
100
AcDbCircle
 10
88.9974831516862
 20
-3.1875
 30
0.0
 40
2.602586760331064
100
AcDbArc
 50
326.4726419507431
 51
33.52735804925692
  0
LINE
  5
330
330
1F
100
AcDbEntity
  8
2
100
AcDbLine
 10
84.50006991201519
 20
-13.5
 30
0.0
 11
87.60006991201555
 21
-13.5
 31
0.0
  0
LINE
  5
331
330
1F
100
AcDbEntity
  8
2
100
AcDbLine
 10
84.50006991201519
 20
-1.5
 30
0.0
 11
87.60006991201555
 21
-1.5
 31
0.0
  0
LINE
  5
332
330
1F
100
AcDbEntity
  8
2
100
AcDbLine
 10
86.10006991201556
 20
-13.5
 30
0.0
 11
86.10006991201556
 21
-1.5
 31
0.0
  0
LINE
  5
333
330
1F
100
AcDbEntity
  8
2
100
AcDbLine
 10
-70.5199496192348
 20
-35.99468990624885
 30
0.0
 11
-66.68059415048481
 21
-35.99468990624885
 31
0.0
  0
LINE
  5
334
330
1F
100
AcDbEntity
  8
2
100
AcDbLine
 10
-71.10036466444615
 20
-37.00010387058231
 30
0.0
 11
-70.51979825819614
 21
-35.99453337583785
 31
0.0
  0
LINE
  5
335
330
1F
100
AcDbEntity
  8
2
100
AcDbLine
 10
-66.68057549786988
 20
-47.25283362299163
 30
0.0
 11
-70.5194613379848
 21
-47.25289913476447
 31
0.0
  0
ARC
  5
336
330
1F
100
AcDbEntity
  8
2
100
AcDbCircle
 10
-67.77727383798481
 20
-49.12933346093635
 30
0.0
 40
3.322566986083983
100
AcDbArc
 50
145.6156973218418
 51
180.0
  0
LINE
  5
337
330
1F
100
AcDbEntity
  8
2
100
AcDbLine
 10
-71.10002774423481
 20
-39.50006099999885
 30
0.0
 11
-75.00041836923299
 21
-39.50006099999885
 31
0.0
  0
LINE
  5
338
330
1F
100
AcDbEntity
  8
2
100
AcDbLine
 10
-71.10002774423481
 20
-40.29986568749885
 30
0.0
 11
-75.00041836923299
 21
-40.29986568749885
 31
0.0
  0
LINE
  5
339
330
1F
100
AcDbEntity
  8
2
100
AcDbLine
 10
-70.5194613379848
 20
-39.74713131249885
 30
0.0
 11
-66.6810824317339
 21
-39.74713131249885
 31
0.0
  0
LINE
  5
33A
330
1F
100
AcDbEntity
  8
2
100
AcDbLine
 10
-71.10002774423481
 20
-47.50018307031135
 30
0.0
 11
-75.00041836923299
 21
-47.50018307031135
 31
0.0
  0
ARC
  5
33B
330
1F
100
AcDbEntity
  8
2
100
AcDbCircle
 10
-67.77727383798481
 20
-37.87066646874885
 30
0.0
 40
3.322566986083983
100
AcDbArc
 50
180.0
 51
214.3843026781581
  0
ARC
  5
33C
330
1F
100
AcDbEntity
  8
2
100
AcDbCircle
 10
-69.42278165048481
 20
-37.87066646874885
 30
0.0
 40
3.322566986083983
100
AcDbArc
 50
325.6157162185368
 51
0.0000359721976162
  0
LINE
  5
33D
330
1F
100
AcDbEntity
  8
2
100
AcDbLine
 10
-80.00036365653466
 20
-49.98647843403071
 30
0.0
 11
-79.41979725028648
 21
-50.99204892877427
 31
0.0
  0
LINE
  5
33E
330
1F
100
AcDbEntity
  8
2
100
AcDbLine
 10
-79.4193636817339
 20
-39.73336521052991
 30
0.0
 11
-75.00041836923299
 21
-39.73336521052991
 31
0.0
  0
LINE
  5
33F
330
1F
100
AcDbEntity
  8
2
100
AcDbLine
 10
-80.00026700819615
 20
-36.98633776861246
 30
0.0
 11
-79.41970060194615
 21
-35.98076727386891
 31
0.0
  0
ARC
  5
340
330
1F
100
AcDbEntity
  8
2
100
AcDbCircle
 10
-76.6771761817339
 20
-37.85690036677991
 30
0.0
 40
3.322566986083983
100
AcDbArc
 50
180.0
 51
214.3843026781581
  0
LINE
  5
341
330
1F
100
AcDbEntity
  8
2
100
AcDbLine
 10
-79.9999300879848
 20
-36.98629489802991
 30
0.0
 11
-79.9999300879848
 21
-49.98644748592053
 31
0.0
  0
ARC
  5
342
330
1F
100
AcDbEntity
  8
2
100
AcDbCircle
 10
-67.5804964942339
 20
-43.4862948980299
 30
0.0
 40
12.41944122314453
100
AcDbArc
 50
162.4120613966416
 51
197.5879727543235
  0
ARC
  5
343
330
1F
100
AcDbEntity
  8
2
100
AcDbCircle
 10
-78.51946133798481
 20
-43.50006099999885
 30
0.0
 40
12.41944122314453
100
AcDbArc
 50
342.4120629904989
 51
17.57918699121209
  0
LINE
  5
344
330
1F
100
AcDbEntity
  8
2
100
AcDbLine
 10
-66.10008148536087
 20
-50.00009793053326
 30
0.0
 11
-66.6806326328209
 21
-51.00564199628028
 31
0.0
  0
ARC
  5
345
330
1F
100
AcDbEntity
  8
2
100
AcDbCircle
 10
-69.42278165048481
 20
-49.12945553124885
 30
0.0
 40
3.322566986083983
100
AcDbArc
 50
359.9999640278284
 51
34.38428378146315
  0
LINE
  5
346
330
1F
100
AcDbEntity
  8
2
100
AcDbLine
 10
-64.4999300879839
 20
-51.50006099999885
 30
0.0
 11
-66.10002774423481
 21
-51.50006099999885
 31
0.0
  0
LINE
  5
347
330
1F
100
AcDbEntity
  8
2
100
AcDbLine
 10
-71.10002774423481
 20
-37.00006099999885
 30
0.0
 11
-71.10002774423481
 21
-50.00021358788948
 31
0.0
  0
LINE
  5
348
330
1F
100
AcDbEntity
  8
2
100
AcDbLine
 10
-67.59993008798335
 20
-73.74998839999901
 30
0.0
 11
-71.16691738609222
 21
-73.74998839999901
 31
0.0
  0
LINE
  5
349
330
1F
100
AcDbEntity
  8
2
100
AcDbLine
 10
-66.68059954219677
 20
-51.00558468163947
 30
0.0
 11
-70.5199496192348
 21
-51.00558468163947
 31
0.0
  0
ARC
  5
34A
330
1F
100
AcDbEntity
  8
2
100
AcDbCircle
 10
-58.68059415048481
 20
-43.50006099999885
 30
0.0
 40
12.41944122314453
100
AcDbArc
 50
162.4120613966416
 51
197.5879727543235
  0
LINE
  5
34B
330
1F
100
AcDbEntity
  8
2
100
AcDbLine
 10
-64.4999300879839
 20
-35.50006099999885
 30
0.0
 11
-66.10002774423481
 21
-35.50006099999885
 31
0.0
  0
LINE
  5
34C
330
1F
100
AcDbEntity
  8
2
100
AcDbLine
 10
-71.10046131278557
 20
-50.00024453599966
 30
0.0
 11
-70.51989490653648
 21
-51.00581503074412
 31
0.0
  0
ARC
  5
34D
330
1F
100
AcDbEntity
  8
2
100
AcDbCircle
 10
-61.83910209949715
 20
-79.49998839999901
 30
0.0
 40
9.760827988486084
100
AcDbArc
 50
162.8697633249672
 51
197.1302366750328
  0
LINE
  5
34E
330
1F
100
AcDbEntity
  8
2
100
AcDbLine
 10
-66.1005160254848
 20
-35.50006099999885
 30
0.0
 11
-66.1005160254848
 21
-51.50018307031135
 31
0.0
  0
LINE
  5
34F
330
1F
100
AcDbEntity
  8
2
100
AcDbLine
 10
-66.10008148536087
 20
-37.00002406946444
 30
0.0
 11
-66.6806326328209
 21
-35.99448000371834
 31
0.0
  0
LINE
  5
350
330
1F
100
AcDbEntity
  8
2
100
AcDbLine
 10
-75.00041836923299
 20
-50.99181857967053
 30
0.0
 11
-75.00041836923299
 21
-35.98092380427991
 31
0.0
  0
LINE
  5
351
330
1F
100
AcDbEntity
  8
2
100
AcDbLine
 10
-75.00041836923299
 20
-50.99181857967053
 30
0.0
 11
-79.41985196298481
 21
-50.99181857967053
 31
0.0
  0
ARC
  5
352
330
1F
100
AcDbEntity
  8
2
100
AcDbCircle
 10
-76.6771761817339
 20
-49.1155673589665
 30
0.0
 40
3.322566986083983
100
AcDbArc
 50
145.6156973218418
 51
180.0
  0
LINE
  5
353
330
1F
100
AcDbEntity
  8
2
100
AcDbLine
 10
-75.00041836923299
 20
-47.23913303279553
 30
0.0
 11
-79.4193636817339
 21
-47.23913303279553
 31
0.0
  0
LINE
  5
354
330
1F
100
AcDbEntity
  8
2
100
AcDbLine
 10
-79.41985196298481
 20
-35.98092380427991
 30
0.0
 11
-75.00041836923299
 21
-35.98092380427991
 31
0.0
  0
LINE
  5
355
330
1F
100
AcDbEntity
  8
2
100
AcDbLine
 10
-71.10002774423481
 20
-46.70025631249976
 30
0.0
 11
-75.00041836923299
 21
-46.70025631249976
 31
0.0
  0
LINE
  5
356
330
1F
100
AcDbEntity
  8
2
100
AcDbLine
 10
-67.59993008798335
 20
-85.49998839999901
 30
0.0
 11
-67.59993008798335
 21
-73.49998839999901
 31
0.0
  0
LINE
  5
357
330
1F
100
AcDbEntity
  8
2
100
AcDbLine
 10
-71.59993008798426
 20
-84.49998839999901
 30
0.0
 11
-71.59993008798426
 21
-74.49998839999901
 31
0.0
  0
LINE
  5
358
330
1F
100
AcDbEntity
  8
2
100
AcDbLine
 10
-67.59993008798335
 20
-85.249988399999
 30
0.0
 11
-71.16691738609222
 21
-85.249988399999
 31
0.0
  0
LINE
  5
359
330
1F
100
AcDbEntity
  8
2
100
AcDbLine
 10
-71.16691738609222
 20
-73.74998839999901
 30
0.0
 11
-71.59993008798426
 21
-74.49998839999901
 31
0.0
  0
LINE
  5
35A
330
1F
100
AcDbEntity
  8
2
100
AcDbLine
 10
-71.16691738609222
 20
-85.249988399999
 30
0.0
 11
-71.59993008798426
 21
-84.49998839999901
 31
0.0
  0
LINE
  5
35B
330
1F
100
AcDbEntity
  8
2
100
AcDbLine
 10
-67.59993008798335
 20
-76.62498839999901
 30
0.0
 11
-71.16691738609222
 21
-76.62498839999901
 31
0.0
  0
LINE
  5
35C
330
1F
100
AcDbEntity
  8
2
100
AcDbLine
 10
-67.59993008798335
 20
-82.37498839999901
 30
0.0
 11
-71.16691738609222
 21
-82.37498839999901
 31
0.0
  0
ARC
  5
35D
330
1F
100
AcDbEntity
  8
2
100
AcDbCircle
 10
-68.99734332765217
 20
-75.18748839999901
 30
0.0
 40
2.602586760331064
100
AcDbArc
 50
146.472641950743
 51
213.5273580492569
  0
ARC
  5
35E
330
1F
100
AcDbEntity
  8
2
100
AcDbCircle
 10
-68.99734332765217
 20
-83.81248839999901
 30
0.0
 40
2.602586760331064
100
AcDbArc
 50
146.472641950743
 51
213.5273580492569
  0
LINE
  5
35F
330
1F
100
AcDbEntity
  8
2
100
AcDbLine
 10
-71.16691738609222
 20
-13.24999999999909
 30
0.0
 11
-71.59993008798426
 21
-12.49999999999909
 31
0.0
  0
LINE
  5
360
330
1F
100
AcDbEntity
  8
2
100
AcDbLine
 10
-64.4999300879839
 20
-73.49998839999901
 30
0.0
 11
-67.59993008798335
 21
-73.49998839999901
 31
0.0
  0
LINE
  5
361
330
1F
100
AcDbEntity
  8
2
100
AcDbLine
 10
-64.4999300879839
 20
-85.49998839999901
 30
0.0
 11
-67.59993008798335
 21
-85.49998839999901
 31
0.0
  0
LINE
  5
362
330
1F
100
AcDbEntity
  8
2
100
AcDbLine
 10
-66.09993008798335
 20
-85.49998839999901
 30
0.0
 11
-66.09993008798335
 21
-73.49998839999901
 31
0.0
  0
LINE
  5
363
330
1F
100
AcDbEntity
  8
2
100
AcDbLine
 10
-67.59993008798335
 20
-13.5
 30
0.0
 11
-67.59993008798335
 21
-1.5
 31
0.0
  0
ARC
  5
364
330
1F
100
AcDbEntity
  8
2
100
AcDbCircle
 10
-68.99734332765217
 20
-3.1875
 30
0.0
 40
2.602586760331064
100
AcDbArc
 50
146.472641950743
 51
213.5273580492569
  0
LINE
  5
365
330
1F
100
AcDbEntity
  8
2
100
AcDbLine
 10
-71.59993008798426
 20
-12.49999999999909
 30
0.0
 11
-71.59993008798426
 21
-2.49999999999909
 31
0.0
  0
LINE
  5
366
330
1F
100
AcDbEntity
  8
2
100
AcDbLine
 10
-67.59993008798335
 20
-13.24999999999909
 30
0.0
 11
-71.16691738609222
 21
-13.24999999999909
 31
0.0
  0
LINE
  5
367
330
1F
100
AcDbEntity
  8
2
100
AcDbLine
 10
-67.59993008798335
 20
-1.74999999999909
 30
0.0
 11
-71.16691738609222
 21
-1.74999999999909
 31
0.0
  0
LINE
  5
368
330
1F
100
AcDbEntity
  8
2
100
AcDbLine
 10
-71.16691738609222
 20
-1.74999999999909
 30
0.0
 11
-71.59993008798426
 21
-2.49999999999909
 31
0.0
  0
LINE
  5
369
330
1F
100
AcDbEntity
  8
2
100
AcDbLine
 10
-67.59993008798335
 20
-10.37499999999909
 30
0.0
 11
-71.16691738609222
 21
-10.37499999999909
 31
0.0
  0
LINE
  5
36A
330
1F
100
AcDbEntity
  8
2
100
AcDbLine
 10
-67.59993008798335
 20
-4.62499999999909
 30
0.0
 11
-71.16691738609222
 21
-4.62499999999909
 31
0.0
  0
ARC
  5
36B
330
1F
100
AcDbEntity
  8
2
100
AcDbCircle
 10
-61.83910209949715
 20
-7.5
 30
0.0
 40
9.760827988486084
100
AcDbArc
 50
162.8697633249672
 51
197.1302366750328
  0
ARC
  5
36C
330
1F
100
AcDbEntity
  8
2
100
AcDbCircle
 10
-68.99734332765217
 20
-11.8125
 30
0.0
 40
2.602586760331064
100
AcDbArc
 50
146.472641950743
 51
213.5273580492569
  0
LINE
  5
36D
330
1F
100
AcDbEntity
  8
2
100
AcDbLine
 10
-66.09993008798335
 20
-13.5
 30
0.0
 11
-66.09993008798335
 21
-1.5
 31
0.0
  0
LINE
  5
36E
330
1F
100
AcDbEntity
  8
2
100
AcDbLine
 10
-64.4999300879839
 20
-13.5
 30
0.0
 11
-67.59993008798335
 21
-13.5
 31
0.0
  0
LINE
  5
36F
330
1F
100
AcDbEntity
  8
2
100
AcDbLine
 10
-64.4999300879839
 20
-1.5
 30
0.0
 11
-67.59993008798335
 21
-1.5
 31
0.0
  0
LINE
  5
370
330
1F
100
AcDbEntity
  8
0
100
AcDbLine
 10
-37.00002199999915
 20
194.8158522064213
 30
0.0
 11
-13.50003000000004
 21
194.8158522064213
 31
0.0
  0
LINE
  5
371
330
1F
100
AcDbEntity
  8
2
100
AcDbLine
 10
-40.49999746347276
 20
127.8158522064211
 30
0.0
 11
-40.49999746347276
 21
100.8158522064211
 31
0.0
  0
LINE
  5
372
330
1F
100
AcDbEntity
  8
2
100
AcDbLine
 10
-22.49999746347277
 20
127.8158522064211
 30
0.0
 11
-22.49999746347277
 21
100.8158522064211
 31
0.0
  0
LINE
  5
373
330
1F
100
AcDbEntity
  8
2
100
AcDbLine
 10
-22.49999746347277
 20
142.8157606536867
 30
0.0
 11
-40.49999746347276
 21
142.8157606536867
 31
0.0
  0
LINE
  5
374
330
1F
100
AcDbEntity
  8
2
100
AcDbLine
 10
-22.49999746347277
 20
142.8157606536867
 30
0.0
 11
-22.49999746347277
 21
138.8158522064211
 31
0.0
  0
LINE
  5
375
330
1F
100
AcDbEntity
  8
2
100
AcDbLine
 10
-40.49999746347276
 20
142.8157606536867
 30
0.0
 11
-40.49999746347276
 21
138.8158522064211
 31
0.0
  0
LINE
  5
376
330
1F
100
AcDbEntity
  8
2
100
AcDbLine
 10
-22.49999746347277
 20
100.8158522064211
 30
0.0
 11
-40.49999746347276
 21
100.8158522064211
 31
0.0
  0
LINE
  5
377
330
1F
100
AcDbEntity
  8
2
100
AcDbLine
 10
-20.00002339631925
 20
138.8158522064211
 30
0.0
 11
-43.00002339631925
 21
138.8158522064211
 31
0.0
  0
ARC
  5
378
330
1F
100
AcDbEntity
  8
2
100
AcDbCircle
 10
-25.50002339631925
 20
121.196896902466
 30
0.0
 40
17.33028030395508
100
AcDbArc
 50
69.74444580078159
 51
110.2555541992184
  0
ARC
  5
379
330
1F
100
AcDbEntity
  8
2
100
AcDbCircle
 10
-37.50002339631925
 20
121.196896902466
 30
0.0
 40
17.33028030395508
100
AcDbArc
 50
69.74444580078159
 51
110.2555541992184
  0
LINE
  5
37A
330
1F
100
AcDbEntity
  8
2
100
AcDbLine
 10
-43.50002339631925
 20
134.8158522064211
 30
0.0
 11
-43.50002339631925
 21
138.5271772064211
 31
0.0
  0
LINE
  5
37B
330
1F
100
AcDbEntity
  8
2
100
AcDbLine
 10
-43.50002339631925
 20
138.5271772064211
 30
0.0
 11
-43.00002339631925
 21
138.8158522064211
 31
0.0
  0
LINE
  5
37C
330
1F
100
AcDbEntity
  8
2
100
AcDbLine
 10
-31.50002339631925
 20
134.8158522064211
 30
0.0
 11
-31.50002339631925
 21
137.4553846664212
 31
0.0
  0
LINE
  5
37D
330
1F
100
AcDbEntity
  8
2
100
AcDbLine
 10
-19.50002339631925
 20
134.8158522064211
 30
0.0
 11
-19.50002339631925
 21
138.5271772064211
 31
0.0
  0
LINE
  5
37E
330
1F
100
AcDbEntity
  8
2
100
AcDbLine
 10
-19.50002339631925
 20
138.5271772064211
 30
0.0
 11
-20.00002339631925
 21
138.8158522064211
 31
0.0
  0
LINE
  5
37F
330
1F
100
AcDbEntity
  8
2
100
AcDbLine
 10
-20.00003000000004
 20
127.8158522064211
 30
0.0
 11
-43.00003000000003
 21
127.8158522064211
 31
0.0
  0
ARC
  5
380
330
1F
100
AcDbEntity
  8
2
100
AcDbCircle
 10
-25.5000300000001
 20
145.4348075103762
 30
0.0
 40
17.33028030395508
100
AcDbArc
 50
249.7440290212161
 51
290.2555541992184
  0
LINE
  5
381
330
1F
100
AcDbEntity
  8
2
100
AcDbLine
 10
19.99996339631917
 20
138.8158522064211
 30
0.0
 11
42.99996339631917
 21
138.8158522064211
 31
0.0
  0
ARC
  5
382
330
1F
100
AcDbEntity
  8
2
100
AcDbCircle
 10
-37.5000300000001
 20
145.4348075103762
 30
0.0
 40
17.33028030395508
100
AcDbArc
 50
249.7444458007816
 51
290.2559709787839
  0
LINE
  5
383
330
1F
100
AcDbEntity
  8
2
100
AcDbLine
 10
-43.50003000000009
 20
128.1045272064211
 30
0.0
 11
-43.50003000000009
 21
131.8158522064211
 31
0.0
  0
LINE
  5
384
330
1F
100
AcDbEntity
  8
2
100
AcDbLine
 10
-43.50003000000003
 20
128.1045272064211
 30
0.0
 11
-43.00003000000003
 21
127.8158522064211
 31
0.0
  0
LINE
  5
385
330
1F
100
AcDbEntity
  8
2
100
AcDbLine
 10
-31.5000300000001
 20
129.1763138712456
 30
0.0
 11
-31.5000300000001
 21
131.8158522064211
 31
0.0
  0
LINE
  5
386
330
1F
100
AcDbEntity
  8
2
100
AcDbLine
 10
-19.50003000000009
 20
128.1045272064211
 30
0.0
 11
-19.50003000000009
 21
131.8158522064211
 31
0.0
  0
LINE
  5
387
330
1F
100
AcDbEntity
  8
2
100
AcDbLine
 10
-19.50003000000004
 20
128.1045272064211
 30
0.0
 11
-20.00003000000004
 21
127.8158522064211
 31
0.0
  0
LINE
  5
388
330
1F
100
AcDbEntity
  8
2
100
AcDbLine
 10
-28.49991539933962
 20
100.8158847429484
 30
0.0
 11
-28.49991539933962
 21
95.06842293989832
 31
0.0
  0
LINE
  5
389
330
1F
100
AcDbEntity
  8
2
100
AcDbLine
 10
-34.49991539933961
 20
100.8158847429484
 30
0.0
 11
-34.49991539933961
 21
95.06842293989832
 31
0.0
  0
LINE
  5
38A
330
1F
100
AcDbEntity
  8
1
100
AcDbLine
 10
31.49996999999996
 20
146.1674002064198
 30
0.0
 11
31.49996999999996
 21
86.44309111011205
 31
0.0
  0
LINE
  5
38B
330
1F
100
AcDbEntity
  8
2
100
AcDbLine
 10
40.49993746347269
 20
127.8158522064211
 30
0.0
 11
40.49993746347269
 21
100.8158522064211
 31
0.0
  0
LINE
  5
38C
330
1F
100
AcDbEntity
  8
2
100
AcDbLine
 10
22.49993746347269
 20
127.8158522064211
 30
0.0
 11
22.49993746347269
 21
100.8158522064211
 31
0.0
  0
LINE
  5
38D
330
1F
100
AcDbEntity
  8
2
100
AcDbLine
 10
22.49993746347269
 20
142.8157606536867
 30
0.0
 11
40.49993746347269
 21
142.8157606536867
 31
0.0
  0
LINE
  5
38E
330
1F
100
AcDbEntity
  8
2
100
AcDbLine
 10
22.49993746347269
 20
142.8157606536867
 30
0.0
 11
22.49993746347269
 21
138.8158522064211
 31
0.0
  0
LINE
  5
38F
330
1F
100
AcDbEntity
  8
2
100
AcDbLine
 10
40.49993746347269
 20
142.8157606536867
 30
0.0
 11
40.49993746347269
 21
138.8158522064211
 31
0.0
  0
LINE
  5
390
330
1F
100
AcDbEntity
  8
2
100
AcDbLine
 10
22.49993746347269
 20
100.8158522064211
 30
0.0
 11
40.49993746347269
 21
100.8158522064211
 31
0.0
  0
LINE
  5
391
330
1F
100
AcDbEntity
  8
2
100
AcDbLine
 10
28.49985539933954
 20
100.8158847429484
 30
0.0
 11
28.49985539933954
 21
95.06842293989832
 31
0.0
  0
ARC
  5
392
330
1F
100
AcDbEntity
  8
2
100
AcDbCircle
 10
25.49996339631917
 20
121.196896902466
 30
0.0
 40
17.33028030395508
100
AcDbArc
 50
69.74444580078159
 51
110.2555541992184
  0
ARC
  5
393
330
1F
100
AcDbEntity
  8
2
100
AcDbCircle
 10
37.49996339631918
 20
121.196896902466
 30
0.0
 40
17.33028030395508
100
AcDbArc
 50
69.74444580078159
 51
110.2555541992184
  0
LINE
  5
394
330
1F
100
AcDbEntity
  8
2
100
AcDbLine
 10
43.49996339631917
 20
134.8158522064211
 30
0.0
 11
43.49996339631917
 21
138.5271772064211
 31
0.0
  0
LINE
  5
395
330
1F
100
AcDbEntity
  8
2
100
AcDbLine
 10
43.49996339631917
 20
138.5271772064211
 30
0.0
 11
42.99996339631917
 21
138.8158522064211
 31
0.0
  0
LINE
  5
396
330
1F
100
AcDbEntity
  8
2
100
AcDbLine
 10
31.49996339631917
 20
134.8158522064211
 30
0.0
 11
31.49996339631917
 21
137.4553846664212
 31
0.0
  0
LINE
  5
397
330
1F
100
AcDbEntity
  8
2
100
AcDbLine
 10
19.49996339631917
 20
134.8158522064211
 30
0.0
 11
19.49996339631917
 21
138.5271772064211
 31
0.0
  0
LINE
  5
398
330
1F
100
AcDbEntity
  8
2
100
AcDbLine
 10
19.49996339631917
 20
138.5271772064211
 30
0.0
 11
19.99996339631917
 21
138.8158522064211
 31
0.0
  0
LINE
  5
399
330
1F
100
AcDbEntity
  8
2
100
AcDbLine
 10
19.99996999999996
 20
127.8158522064211
 30
0.0
 11
42.99996999999996
 21
127.8158522064211
 31
0.0
  0
ARC
  5
39A
330
1F
100
AcDbEntity
  8
2
100
AcDbCircle
 10
25.49997000000002
 20
145.4348075103762
 30
0.0
 40
17.33028030395508
100
AcDbArc
 50
249.7444458007816
 51
290.2559709787839
  0
ARC
  5
39B
330
1F
100
AcDbEntity
  8
2
100
AcDbCircle
 10
37.49997000000002
 20
145.4348075103762
 30
0.0
 40
17.33028030395508
100
AcDbArc
 50
249.7440290212161
 51
290.2555541992184
  0
LINE
  5
39C
330
1F
100
AcDbEntity
  8
2
100
AcDbLine
 10
43.49997000000001
 20
128.1045272064211
 30
0.0
 11
43.49997000000001
 21
131.8158522064211
 31
0.0
  0
LINE
  5
39D
330
1F
100
AcDbEntity
  8
2
100
AcDbLine
 10
43.49996999999996
 20
128.1045272064211
 30
0.0
 11
42.99996999999996
 21
127.8158522064211
 31
0.0
  0
LINE
  5
39E
330
1F
100
AcDbEntity
  8
2
100
AcDbLine
 10
31.49997000000002
 20
129.1763138712456
 30
0.0
 11
31.49997000000002
 21
131.8158522064211
 31
0.0
  0
LINE
  5
39F
330
1F
100
AcDbEntity
  8
2
100
AcDbLine
 10
19.49997000000002
 20
128.1045272064211
 30
0.0
 11
19.49997000000002
 21
131.8158522064211
 31
0.0
  0
LINE
  5
3A0
330
1F
100
AcDbEntity
  8
2
100
AcDbLine
 10
19.49996999999996
 20
128.1045272064211
 30
0.0
 11
19.99996999999996
 21
127.8158522064211
 31
0.0
  0
LINE
  5
3A1
330
1F
100
AcDbEntity
  8
2
100
AcDbLine
 10
34.49985539933954
 20
100.8158847429484
 30
0.0
 11
34.49985539933954
 21
95.06842293989832
 31
0.0
  0
CIRCLE
  5
3A2
330
1F
100
AcDbEntity
  8
0
100
AcDbCircle
 10
31.50000000000011
 20
34.99996999999985
 30
0.0
 40
9.0
  0
CIRCLE
  5
3A3
330
1F
100
AcDbEntity
  8
2
100
AcDbCircle
 10
31.50000000000011
 20
34.99996999999985
 30
0.0
 40
8.0
  0
CIRCLE
  5
3A4
330
1F
100
AcDbEntity
  8
2
100
AcDbCircle
 10
31.50000000000011
 20
34.99996999999985
 30
0.0
 40
10.5
  0
CIRCLE
  5
3A5
330
1F
100
AcDbEntity
  8
2
100
AcDbCircle
 10
-31.49999999992349
 20
34.99996999999985
 30
0.0
 40
8.0
  0
CIRCLE
  5
3A6
330
1F
100
AcDbEntity
  8
0
100
AcDbCircle
 10
-31.49999999992349
 20
34.99996999999985
 30
0.0
 40
9.0
  0
CIRCLE
  5
3A7
330
1F
100
AcDbEntity
  8
2
100
AcDbCircle
 10
-31.49999999992349
 20
34.99996999999985
 30
0.0
 40
10.5
  0
CIRCLE
  5
3A8
330
1F
100
AcDbEntity
  8
0
100
AcDbCircle
 10
23.53742400000021
 20
183.615840206422
 30
0.0
 40
7.700000000000045
  0
CIRCLE
  5
3A9
330
1F
100
AcDbEntity
  8
0
100
AcDbCircle
 10
-23.80001799999889
 20
183.615840206422
 30
0.0
 40
7.700000000000045
  0
CIRCLE
  5
3AB
330
1F
100
AcDbEntity
  8
2
100
AcDbCircle
 10
-31.49999999992338
 20
34.99996999999985
 30
0.0
 40
2.999917935866847
  0
CIRCLE
  5
3AC
330
1F
100
AcDbEntity
  8
2
100
AcDbCircle
 10
31.50000000007663
 20
34.9999399999997
 30
0.0
 40
2.999917935866847
  0
VIEWPORT
  5
71
330
55
100
AcDbEntity
 67
     1
  8
0
100
AcDbViewport
 10
133.3499908447266
 20
101.5999970436096
 30
0.0
 40
381.3957395593835
 41
218.2856291881582
 68
     1
 69
     1
 12
133.3499908447266
 22
101.5999970436096
 13
0.0
 23
0.0
 14
10.0
 24
10.0
 15
10.0
 25
10.0
 16
0.0
 26
0.0
 36
1.0
 17
0.0
 27
0.0
 37
0.0
 42
50.0
 43
0.0
 44
0.0
 45
218.2856291881582
 50
0.0
 51
0.0
 72
   100
 90
    32800
  1

281
     0
 71
     1
 74
     0
110
0.0
120
0.0
130
0.0
111
1.0
121
0.0
131
0.0
112
0.0
122
1.0
132
0.0
 79
     0
146
0.0
170
     0
 61
     5
348
3DB
292
     1
282
     1
141
0.0
142
0.0
 63
   250
421
  3355443
  0
VIEWPORT
  5
73
330
55
100
AcDbEntity
 67
     1
  8
0
100
AcDbViewport
 10
133.3499939441681
 20
101.5999939441681
 30
0.0
 40
213.3599903106689
 41
162.5599903106689
 68
     2
 69
     2
 12
210.0
 22
148.5
 13
0.0
 23
0.0
 14
10.0
 24
10.0
 15
10.0
 25
10.0
 16
0.0
 26
0.0
 36
1.0
 17
0.0
 27
0.0
 37
0.0
 42
50.0
 43
0.0
 44
0.0
 45
324.0677920111345
 50
0.0
 51
0.0
 72
   100
 90
    32864
  1

281
     0
 71
     1
 74
     0
110
0.0
120
0.0
130
0.0
111
1.0
121
0.0
131
0.0
112
0.0
122
1.0
132
0.0
 79
     0
146
0.0
170
     0
 61
     5
348
3DB
292
     1
282
     1
141
0.0
142
0.0
 63
   250
421
  3355443
  0
ENDSEC
  0
SECTION
  2
OBJECTS
  0
DICTIONARY
  5
C
330
0
100
AcDbDictionary
281
     1
  3
ACAD_COLOR
350
3E9
  3
ACAD_GROUP
350
D
  3
ACAD_LAYOUT
350
1A
  3
ACAD_MATERIAL
350
3BC
  3
ACAD_MLEADERSTYLE
350
3FE
  3
ACAD_MLINESTYLE
350
17
  3
ACAD_PLOTSETTINGS
350
19
  3
ACAD_PLOTSTYLENAME
350
E
  3
ACAD_SCALELIST
350
3EC
  3
ACAD_TABLESTYLE
350
3EA
  3
ACAD_VISUALSTYLE
350
3D5
  3
ACDB_RECOMPOSE_DATA
350
40D
  3
AcDbVariableDictionary
350
5E
  0
DICTIONARY
  5
97
330
2
100
AcDbDictionary
280
     1
281
     1
  3
ACAD_LAYERSTATES
360
98
  0
DICTIONARY
  5
402
330
10
100
AcDbDictionary
280
     1
281
     1
  3
ADSK_XREC_LAYER_RECONCILED
360
403
  0
DICTIONARY
  5
90
330
8F
100
AcDbDictionary
280
     1
281
     1
  3
ADSK_XREC_LAYER_RECONCILED
360
91
  0
DICTIONARY
  5
93
330
92
100
AcDbDictionary
280
     1
281
     1
  3
ADSK_XREC_LAYER_RECONCILED
360
94
  0
DICTIONARY
  5
3E9
102
{ACAD_REACTORS
330
C
102
}
330
C
100
AcDbDictionary
281
     1
  0
DICTIONARY
  5
D
102
{ACAD_REACTORS
330
C
102
}
330
C
100
AcDbDictionary
281
     1
  0
DICTIONARY
  5
1A
102
{ACAD_REACTORS
330
C
102
}
330
C
100
AcDbDictionary
281
     1
  3
Model
350
22
  3
ﾚｲｱｳﾄ1
350
51
  3
ﾚｲｱｳﾄ2
350
56
  0
DICTIONARY
  5
3BC
102
{ACAD_REACTORS
330
C
102
}
330
C
100
AcDbDictionary
281
     1
  3
ByBlock
350
3C5
  3
ByLayer
350
3BD
  3
Global
350
3CD
  0
DICTIONARY
  5
3FE
102
{ACAD_REACTORS
330
C
102
}
330
C
100
AcDbDictionary
281
     1
  3
Standard
350
3FF
  0
DICTIONARY
  5
17
102
{ACAD_REACTORS
330
C
102
}
330
C
100
AcDbDictionary
281
     1
  3
Standard
350
18
  0
DICTIONARY
  5
19
102
{ACAD_REACTORS
330
C
102
}
330
C
100
AcDbDictionary
281
     1
  0
ACDBDICTIONARYWDFLT
  5
E
102
{ACAD_REACTORS
330
C
102
}
330
C
100
AcDbDictionary
281
     1
  3
Normal
350
F
100
AcDbDictionaryWithDefault
340
F
  0
DICTIONARY
  5
3EC
102
{ACAD_REACTORS
330
C
102
}
330
C
100
AcDbDictionary
281
     1
  3
A0
350
3ED
  3
A1
350
3EE
  3
A2
350
3EF
  3
A3
350
3F0
  3
A4
350
3F1
  3
A5
350
3F2
  3
A6
350
3F3
  3
A7
350
3F4
  3
A8
350
3F5
  3
A9
350
3F6
  3
B0
350
3F7
  3
B1
350
3F8
  3
B2
350
3F9
  3
B3
350
3FA
  3
B4
350
3FB
  3
B5
350
3FC
  3
B6
350
3FD
  0
DICTIONARY
  5
3EA
102
{ACAD_REACTORS
330
C
102
}
330
C
100
AcDbDictionary
281
     1
  3
Standard
350
3EB
  0
DICTIONARY
  5
3D5
102
{ACAD_REACTORS
330
C
102
}
330
C
100
AcDbDictionary
281
     1
  3
2dWireframe
350
3DB
  3
3D Hidden
350
3DD
  3
3dWireframe
350
3DC
  3
Basic
350
3DA
  3
Brighten
350
3E1
  3
ColorChange
350
3E5
  3
Conceptual
350
3DE
  3
Dim
350
3E0
  3
EdgeColorOff
350
3E8
  3
Facepattern
350
3E4
  3
Flat
350
3D6
  3
FlatWithEdges
350
3D7
  3
Gouraud
350
3D8
  3
GouraudWithEdges
350
3D9
  3
JitterOff
350
3E6
  3
Linepattern
350
3E3
  3
OverhangOff
350
3E7
  3
Realistic
350
3DF
  3
Thicken
350
3E2
  0
XRECORD
  5
40D
102
{ACAD_REACTORS
330
C
102
}
330
C
100
AcDbXrecord
280
     1
 90
        1
330
3EB
  0
DICTIONARY
  5
5E
102
{ACAD_REACTORS
330
C
102
}
330
C
100
AcDbDictionary
281
     1
  3
CANNOSCALE
350
407
  3
CMLEADERSTYLE
350
405
  3
CTABLESTYLE
350
404
  3
DIMASSOC
350
5F
  3
HIDETEXT
350
63
  3
LAYEREVAL
350
409
  3
LAYERNOTIFY
350
40A
  3
LIGHTINGUNITS
350
408
  3
MSLTSCALE
350
406
  0
DICTIONARY
  5
98
102
{ACAD_REACTORS
330
97
102
}
330
97
100
AcDbDictionary
281
     1
  0
XRECORD
  5
403
102
{ACAD_REACTORS
330
402
102
}
330
402
100
AcDbXrecord
280
     1
290
     1
  0
XRECORD
  5
91
102
{ACAD_REACTORS
330
90
102
}
330
90
100
AcDbXrecord
280
     1
290
     1
  0
XRECORD
  5
94
102
{ACAD_REACTORS
330
93
102
}
330
93
100
AcDbXrecord
280
     1
290
     1
  0
LAYOUT
  5
22
102
{ACAD_REACTORS
330
1A
102
}
330
1A
100
AcDbPlotSettings
  1

  2
none_device
  4
ANSI_A_(8.50_x_11.00_Inches)
  6

 40
6.349999904632568
 41
19.04999923706055
 42
6.350006103515625
 43
19.04998779296875
 44
215.8999938964844
 45
279.3999938964844
 46
0.0
 47
0.0
 48
0.0
 49
0.0
140
0.0
141
0.0
142
1.0
143
78.436453180766
 70
 11952
 72
     0
 73
     1
 74
     0
  7

 75
     0
147
0.0127491741332998
 76
     0
 77
     2
 78
   300
148
0.0
149
0.0
100
AcDbLayout
  1
Model
 70
     1
 71
     0
 10
0.0
 20
0.0
 11
12.0
 21
9.0
 12
0.0
 22
0.0
 32
0.0
 14
0.0
 24
0.0
 34
0.0
 15
0.0
 25
0.0
 35
0.0
146
0.0
 13
0.0
 23
0.0
 33
0.0
 16
1.0
 26
0.0
 36
0.0
 17
0.0
 27
1.0
 37
0.0
 76
     0
330
1F
331
3BA
  0
LAYOUT
  5
51
102
{ACAD_REACTORS
330
1A
102
}
330
1A
100
AcDbPlotSettings
  1

  2
none_device
  4
Letter_(8.50_x_11.00_Inches)
  6

 40
6.349999904632568
 41
6.349999904632568
 42
6.350006103515625
 43
6.350006103515625
 44
215.8999938964844
 45
279.3999938964844
 46
0.0
 47
0.0
 48
0.0
 49
0.0
140
0.0
141
0.0
142
1.0
143
1.0
 70
   688
 72
     1
 73
     1
 74
     5
  7

 75
    16
147
1.0
 76
     0
 77
     2
 78
   300
148
0.0
149
0.0
100
AcDbLayout
  1
ﾚｲｱｳﾄ1
 70
     1
 71
     1
 10
-6.350006103515625
 20
-6.349999904632568
 11
273.0499877929688
 21
209.5499939918518
 12
0.0
 22
0.0
 32
0.0
 14
26.66076962115563
 24
20.31135699206658
 34
-0.0015258207003583
 15
240.039213369355
 25
182.8886381005154
 35
0.0000000349246037
146
0.0
 13
0.0
 23
0.0
 33
0.0
 16
1.0
 26
0.0
 36
0.0
 17
0.0
 27
1.0
 37
0.0
 76
     0
330
50
331
6B
  0
LAYOUT
  5
56
102
{ACAD_REACTORS
330
1A
102
}
330
1A
100
AcDbPlotSettings
  1

  2
none_device
  4
Letter_(8.50_x_11.00_Inches)
  6

 40
6.349999904632568
 41
6.349999904632568
 42
6.350006103515625
 43
6.350006103515625
 44
215.8999938964844
 45
279.3999938964844
 46
0.0
 47
0.0
 48
0.0
 49
0.0
140
0.0
141
0.0
142
1.0
143
1.0
 70
   688
 72
     1
 73
     1
 74
     5
  7

 75
    16
147
1.0
 76
     0
 77
     2
 78
   300
148
0.0
149
0.0
100
AcDbLayout
  1
ﾚｲｱｳﾄ2
 70
     1
 71
     2
 10
-6.350006103515625
 20
-6.349999904632568
 11
273.0499877929688
 21
209.5499939918518
 12
0.0
 22
0.0
 32
0.0
 14
26.66076962115563
 24
20.31135699206658
 34
-0.0015258207003583
 15
240.039213369355
 25
182.8886381005154
 35
0.0000000349246037
146
0.0
 13
0.0
 23
0.0
 33
0.0
 16
1.0
 26
0.0
 36
0.0
 17
0.0
 27
1.0
 37
0.0
 76
     0
330
55
331
71
  0
MATERIAL
  5
3C5
102
{ACAD_XDICTIONARY
360
3C6
102
}
102
{ACAD_REACTORS
330
3BC
102
}
330
3BC
100
AcDbMaterial
  1
ByBlock
 72
     0
 43
0.0008202099737533
 43
0.0
 43
0.0
 43
0.0
 43
0.0
 43
0.0008202099737533
 43
0.0
 43
0.0
 43
0.0
 43
0.0
 43
1.0
 43
0.0
 43
0.0
 43
0.0
 43
0.0
 43
1.0
 77
     0
 47
0.0008202099737533
 47
0.0
 47
0.0
 47
0.0
 47
0.0
 47
0.0008202099737533
 47
0.0
 47
0.0
 47
0.0
 47
0.0
 47
1.0
 47
0.0
 47
0.0
 47
0.0
 47
0.0
 47
1.0
171
     0
 49
0.0008202099737533
 49
0.0
 49
0.0
 49
0.0
 49
0.0
 49
0.0008202099737533
 49
0.0
 49
0.0
 49
0.0
 49
0.0
 49
1.0
 49
0.0
 49
0.0
 49
0.0
 49
0.0
 49
1.0
175
     0
142
0.0008202099737533
142
0.0
142
0.0
142
0.0
142
0.0
142
0.0008202099737533
142
0.0
142
0.0
142
0.0
142
0.0
142
1.0
142
0.0
142
0.0
142
0.0
142
0.0
142
1.0
179
     0
144
0.0008202099737533
144
0.0
144
0.0
144
0.0
144
0.0
144
0.0008202099737533
144
0.0
144
0.0
144
0.0
144
0.0
144
1.0
144
0.0
144
0.0
144
0.0
144
0.0
144
1.0
147
0.0008202099737533
147
0.0
147
0.0
147
0.0
147
0.0
147
0.0008202099737533
147
0.0
147
0.0
147
0.0
147
0.0
147
1.0
147
0.0
147
0.0
147
0.0
147
0.0
147
1.0
  0
MATERIAL
  5
3BD
102
{ACAD_XDICTIONARY
360
3BE
102
}
102
{ACAD_REACTORS
330
3BC
102
}
330
3BC
100
AcDbMaterial
  1
ByLayer
 72
     0
 43
0.0008202099737533
 43
0.0
 43
0.0
 43
0.0
 43
0.0
 43
0.0008202099737533
 43
0.0
 43
0.0
 43
0.0
 43
0.0
 43
1.0
 43
0.0
 43
0.0
 43
0.0
 43
0.0
 43
1.0
 77
     0
 47
0.0008202099737533
 47
0.0
 47
0.0
 47
0.0
 47
0.0
 47
0.0008202099737533
 47
0.0
 47
0.0
 47
0.0
 47
0.0
 47
1.0
 47
0.0
 47
0.0
 47
0.0
 47
0.0
 47
1.0
171
     0
 49
0.0008202099737533
 49
0.0
 49
0.0
 49
0.0
 49
0.0
 49
0.0008202099737533
 49
0.0
 49
0.0
 49
0.0
 49
0.0
 49
1.0
 49
0.0
 49
0.0
 49
0.0
 49
0.0
 49
1.0
175
     0
142
0.0008202099737533
142
0.0
142
0.0
142
0.0
142
0.0
142
0.0008202099737533
142
0.0
142
0.0
142
0.0
142
0.0
142
1.0
142
0.0
142
0.0
142
0.0
142
0.0
142
1.0
179
     0
144
0.0008202099737533
144
0.0
144
0.0
144
0.0
144
0.0
144
0.0008202099737533
144
0.0
144
0.0
144
0.0
144
0.0
144
1.0
144
0.0
144
0.0
144
0.0
144
0.0
144
1.0
147
0.0008202099737533
147
0.0
147
0.0
147
0.0
147
0.0
147
0.0008202099737533
147
0.0
147
0.0
147
0.0
147
0.0
147
1.0
147
0.0
147
0.0
147
0.0
147
0.0
147
1.0
  0
MATERIAL
  5
3CD
102
{ACAD_XDICTIONARY
360
3CE
102
}
102
{ACAD_REACTORS
330
3BC
102
}
330
3BC
100
AcDbMaterial
  1
Global
 72
     0
 43
0.0008202099737533
 43
0.0
 43
0.0
 43
0.0
 43
0.0
 43
0.0008202099737533
 43
0.0
 43
0.0
 43
0.0
 43
0.0
 43
1.0
 43
0.0
 43
0.0
 43
0.0
 43
0.0
 43
1.0
 77
     0
 47
0.0008202099737533
 47
0.0
 47
0.0
 47
0.0
 47
0.0
 47
0.0008202099737533
 47
0.0
 47
0.0
 47
0.0
 47
0.0
 47
1.0
 47
0.0
 47
0.0
 47
0.0
 47
0.0
 47
1.0
171
     0
 49
0.0008202099737533
 49
0.0
 49
0.0
 49
0.0
 49
0.0
 49
0.0008202099737533
 49
0.0
 49
0.0
 49
0.0
 49
0.0
 49
1.0
 49
0.0
 49
0.0
 49
0.0
 49
0.0
 49
1.0
175
     0
142
0.0008202099737533
142
0.0
142
0.0
142
0.0
142
0.0
142
0.0008202099737533
142
0.0
142
0.0
142
0.0
142
0.0
142
1.0
142
0.0
142
0.0
142
0.0
142
0.0
142
1.0
179
     0
144
0.0008202099737533
144
0.0
144
0.0
144
0.0
144
0.0
144
0.0008202099737533
144
0.0
144
0.0
144
0.0
144
0.0
144
1.0
144
0.0
144
0.0
144
0.0
144
0.0
144
1.0
147
0.0008202099737533
147
0.0
147
0.0
147
0.0
147
0.0
147
0.0008202099737533
147
0.0
147
0.0
147
0.0
147
0.0
147
1.0
147
0.0
147
0.0
147
0.0
147
0.0
147
1.0
  0
MLEADERSTYLE
  5
3FF
102
{ACAD_REACTORS
330
3FE
102
}
330
3FE
100
AcDbMLeaderStyle
179
     2
170
     2
171
     1
172
     0
 90
        2
 40
0.0
 41
0.0
173
     1
 91
-1056964608
340
14
 92
       -2
290
     1
 42
2.0
291
     1
 43
0.36
  3
Standard
 44
4.0
300

342
11
174
     1
178
     6
175
     1
176
     0
 93
-1056964608
 45
4.0
292
     0
297
     0
 46
4.0
 94
-1056964608
 47
1.0
 49
1.0
140
1.0
293
     1
141
0.0
294
     1
177
     0
142
1.0
295
     1
296
     0
143
0.125
271
     0
272
     9
273
     9
  0
MLINESTYLE
  5
18
102
{ACAD_REACTORS
330
17
102
}
330
17
100
AcDbMlineStyle
  2
STANDARD
 70
     0
  3

 62
   256
 51
90.0
 52
90.0
 71
     2
 49
0.5
 62
   256
  6
BYLAYER
 49
-0.5
 62
   256
  6
BYLAYER
  0
ACDBPLACEHOLDER
  5
F
102
{ACAD_REACTORS
330
E
102
}
330
E
  0
SCALE
  5
3ED
102
{ACAD_REACTORS
330
3EC
102
}
330
3EC
100
AcDbScale
 70
     0
300
1:1
140
1.0
141
1.0
290
     1
  0
SCALE
  5
3EE
102
{ACAD_REACTORS
330
3EC
102
}
330
3EC
100
AcDbScale
 70
     0
300
1:2
140
1.0
141
2.0
290
     0
  0
SCALE
  5
3EF
102
{ACAD_REACTORS
330
3EC
102
}
330
3EC
100
AcDbScale
 70
     0
300
1:4
140
1.0
141
4.0
290
     0
  0
SCALE
  5
3F0
102
{ACAD_REACTORS
330
3EC
102
}
330
3EC
100
AcDbScale
 70
     0
300
1:5
140
1.0
141
5.0
290
     0
  0
SCALE
  5
3F1
102
{ACAD_REACTORS
330
3EC
102
}
330
3EC
100
AcDbScale
 70
     0
300
1:8
140
1.0
141
8.0
290
     0
  0
SCALE
  5
3F2
102
{ACAD_REACTORS
330
3EC
102
}
330
3EC
100
AcDbScale
 70
     0
300
1:10
140
1.0
141
10.0
290
     0
  0
SCALE
  5
3F3
102
{ACAD_REACTORS
330
3EC
102
}
330
3EC
100
AcDbScale
 70
     0
300
1:16
140
1.0
141
16.0
290
     0
  0
SCALE
  5
3F4
102
{ACAD_REACTORS
330
3EC
102
}
330
3EC
100
AcDbScale
 70
     0
300
1:20
140
1.0
141
20.0
290
     0
  0
SCALE
  5
3F5
102
{ACAD_REACTORS
330
3EC
102
}
330
3EC
100
AcDbScale
 70
     0
300
1:30
140
1.0
141
30.0
290
     0
  0
SCALE
  5
3F6
102
{ACAD_REACTORS
330
3EC
102
}
330
3EC
100
AcDbScale
 70
     0
300
1:40
140
1.0
141
40.0
290
     0
  0
SCALE
  5
3F7
102
{ACAD_REACTORS
330
3EC
102
}
330
3EC
100
AcDbScale
 70
     0
300
1:50
140
1.0
141
50.0
290
     0
  0
SCALE
  5
3F8
102
{ACAD_REACTORS
330
3EC
102
}
330
3EC
100
AcDbScale
 70
     0
300
1:100
140
1.0
141
100.0
290
     0
  0
SCALE
  5
3F9
102
{ACAD_REACTORS
330
3EC
102
}
330
3EC
100
AcDbScale
 70
     0
300
2:1
140
2.0
141
1.0
290
     0
  0
SCALE
  5
3FA
102
{ACAD_REACTORS
330
3EC
102
}
330
3EC
100
AcDbScale
 70
     0
300
4:1
140
4.0
141
1.0
290
     0
  0
SCALE
  5
3FB
102
{ACAD_REACTORS
330
3EC
102
}
330
3EC
100
AcDbScale
 70
     0
300
8:1
140
8.0
141
1.0
290
     0
  0
SCALE
  5
3FC
102
{ACAD_REACTORS
330
3EC
102
}
330
3EC
100
AcDbScale
 70
     0
300
10:1
140
10.0
141
1.0
290
     0
  0
SCALE
  5
3FD
102
{ACAD_REACTORS
330
3EC
102
}
330
3EC
100
AcDbScale
 70
     0
300
100:1
140
100.0
141
1.0
290
     0
  0
TABLESTYLE
  5
3EB
102
{ACAD_XDICTIONARY
360
40B
102
}
102
{ACAD_REACTORS
330
3EA
102
}
330
3EA
100
AcDbTableStyle
280
     0
  3
Standard
 70
     0
 71
     0
 40
1.5
 41
1.5
280
     0
281
     0
  7
Standard
140
4.5
170
     2
 62
     0
 63
     7
283
     0
 90
      512
 91
        0
  1

274
    -2
284
     1
 64
     0
275
    -2
285
     1
 65
     0
276
    -2
286
     1
 66
     0
277
    -2
287
     1
 67
     0
278
    -2
288
     1
 68
     0
279
    -2
289
     1
 69
     0
  7
Standard
140
6.0
170
     5
 62
     0
 63
     7
283
     0
 90
      512
 91
        0
  1

274
    -2
284
     1
 64
     0
275
    -2
285
     1
 65
     0
276
    -2
286
     1
 66
     0
277
    -2
287
     1
 67
     0
278
    -2
288
     1
 68
     0
279
    -2
289
     1
 69
     0
  7
Standard
140
4.5
170
     5
 62
     0
 63
     7
283
     0
 90
      512
 91
        0
  1

274
    -2
284
     1
 64
     0
275
    -2
285
     1
 65
     0
276
    -2
286
     1
 66
     0
277
    -2
287
     1
 67
     0
278
    -2
288
     1
 68
     0
279
    -2
289
     1
 69
     0
  0
VISUALSTYLE
  5
3DB
102
{ACAD_REACTORS
330
3D5
102
}
330
3D5
100
AcDbVisualStyle
  2
2dWireframe
 70
     4
177
     2
291
     0
 71
     0
176
     1
 72
     2
176
     1
 73
     0
176
     1
 90
        0
176
     1
 40
0.6
176
     1
 41
30.0
176
     1
 63
     7
421
 16777215
176
     1
 74
     1
176
     1
 91
        4
176
     1
 64
     7
176
     1
 65
   257
176
     1
 75
     1
176
     1
175
     1
176
     1
 42
1.0
176
     1
 92
        0
176
     1
 66
   257
176
     1
 43
1.0
176
     1
 76
     1
176
     1
 77
     6
176
     1
 78
     2
176
     1
 67
     7
176
     1
 79
     5
176
     1
170
     0
176
     1
171
     0
176
     1
290
     0
176
     1
 93
        1
176
     1
 44
0.0
176
     1
173
     0
176
     1
  0
VISUALSTYLE
  5
3DD
102
{ACAD_REACTORS
330
3D5
102
}
330
3D5
100
AcDbVisualStyle
  2
3D Hidden
 70
     6
177
     2
291
     0
 71
     1
176
     1
 72
     2
176
     1
 73
     2
176
     1
 90
        0
176
     1
 40
0.6
176
     1
 41
30.0
176
     1
 63
     7
421
 16777215
176
     1
 74
     2
176
     1
 91
        2
176
     1
 64
     7
176
     1
 65
   257
176
     1
 75
     2
176
     1
175
     1
176
     1
 42
179.0
176
     1
 92
        0
176
     1
 66
   257
176
     1
 43
1.0
176
     1
 76
     1
176
     1
 77
     6
176
     1
 78
     2
176
     1
 67
     7
176
     1
 79
     3
176
     1
170
     0
176
     1
171
     0
176
     1
290
     0
176
     1
 93
        1
176
     1
 44
0.0
176
     1
173
     0
176
     1
  0
VISUALSTYLE
  5
3DC
102
{ACAD_REACTORS
330
3D5
102
}
330
3D5
100
AcDbVisualStyle
  2
3dWireframe
 70
     5
177
     2
291
     0
 71
     0
176
     1
 72
     2
176
     1
 73
     0
176
     1
 90
        0
176
     1
 40
0.6
176
     1
 41
30.0
176
     1
 63
     7
421
 16777215
176
     1
 74
     1
176
     1
 91
        4
176
     1
 64
     7
176
     1
 65
   257
176
     1
 75
     1
176
     1
175
     1
176
     1
 42
1.0
176
     1
 92
        0
176
     1
 66
   257
176
     1
 43
1.0
176
     1
 76
     1
176
     1
 77
     6
176
     1
 78
     2
176
     1
 67
     7
176
     1
 79
     5
176
     1
170
     0
176
     1
171
     0
176
     1
290
     0
176
     1
 93
        1
176
     1
 44
0.0
176
     1
173
     0
176
     1
  0
VISUALSTYLE
  5
3DA
102
{ACAD_REACTORS
330
3D5
102
}
330
3D5
100
AcDbVisualStyle
  2
Basic
 70
     7
177
     2
291
     1
 71
     1
176
     1
 72
     0
176
     1
 73
     1
176
     1
 90
        0
176
     1
 40
0.6
176
     1
 41
30.0
176
     1
 63
     7
421
 16777215
176
     1
 74
     0
176
     1
 91
        4
176
     1
 64
     7
176
     1
 65
   257
176
     1
 75
     1
176
     1
175
     1
176
     1
 42
1.0
176
     1
 92
        8
176
     1
 66
     7
176
     1
 43
1.0
176
     1
 76
     1
176
     1
 77
     6
176
     1
 78
     2
176
     1
 67
     7
176
     1
 79
     5
176
     1
170
     0
176
     1
171
     0
176
     1
290
     0
176
     1
 93
        1
176
     1
 44
0.0
176
     1
173
     0
176
     1
  0
VISUALSTYLE
  5
3E1
102
{ACAD_REACTORS
330
3D5
102
}
330
3D5
100
AcDbVisualStyle
  2
Brighten
 70
    12
177
     2
291
     1
 71
     2
176
     1
 72
     2
176
     1
 73
     0
176
     1
 90
        0
176
     1
 40
0.6
176
     1
 41
30.0
176
     1
 63
     7
421
 16777215
176
     1
 74
     1
176
     1
 91
        4
176
     1
 64
     7
176
     1
 65
   257
176
     1
 75
     1
176
     1
175
     1
176
     1
 42
1.0
176
     1
 92
        8
176
     1
 66
     7
176
     1
 43
1.0
176
     1
 76
     1
176
     1
 77
     6
176
     1
 78
     2
176
     1
 67
     7
176
     1
 79
     5
176
     1
170
     0
176
     1
171
     0
176
     1
290
     0
176
     1
 93
        1
176
     1
 44
50.0
176
     1
173
     0
176
     1
  0
VISUALSTYLE
  5
3E5
102
{ACAD_REACTORS
330
3D5
102
}
330
3D5
100
AcDbVisualStyle
  2
ColorChange
 70
    16
177
     2
291
     1
 71
     2
176
     1
 72
     2
176
     1
 73
     3
176
     1
 90
        0
176
     1
 40
0.6
176
     1
 41
30.0
176
     1
 63
     8
421
  8421504
176
     1
 74
     1
176
     1
 91
        4
176
     1
 64
     7
176
     1
 65
   257
176
     1
 75
     1
176
     1
175
     1
176
     1
 42
1.0
176
     1
 92
        8
176
     1
 66
     8
424
  8421504
176
     1
 43
1.0
176
     1
 76
     1
176
     1
 77
     6
176
     1
 78
     2
176
     1
 67
     7
176
     1
 79
     5
176
     1
170
     0
176
     1
171
     0
176
     1
290
     0
176
     1
 93
        1
176
     1
 44
0.0
176
     1
173
     0
176
     1
  0
VISUALSTYLE
  5
3DE
102
{ACAD_REACTORS
330
3D5
102
}
330
3D5
100
AcDbVisualStyle
  2
Conceptual
 70
     9
177
     2
291
     0
 71
     3
176
     1
 72
     2
176
     1
 73
     0
176
     1
 90
        0
176
     1
 40
0.6
176
     1
 41
30.0
176
     1
 63
     7
421
 16777215
176
     1
 74
     2
176
     1
 91
        2
176
     1
 64
     7
176
     1
 65
   257
176
     1
 75
     1
176
     1
175
     1
176
     1
 42
179.0
176
     1
 92
        8
176
     1
 66
     7
176
     1
 43
1.0
176
     1
 76
     1
176
     1
 77
     6
176
     1
 78
     2
176
     1
 67
     7
176
     1
 79
     3
176
     1
170
     0
176
     1
171
     0
176
     1
290
     0
176
     1
 93
        1
176
     1
 44
0.0
176
     1
173
     0
176
     1
  0
VISUALSTYLE
  5
3E0
102
{ACAD_REACTORS
330
3D5
102
}
330
3D5
100
AcDbVisualStyle
  2
Dim
 70
    11
177
     2
291
     1
 71
     2
176
     1
 72
     2
176
     1
 73
     0
176
     1
 90
        0
176
     1
 40
0.6
176
     1
 41
30.0
176
     1
 63
     7
421
 16777215
176
     1
 74
     1
176
     1
 91
        4
176
     1
 64
     7
176
     1
 65
   257
176
     1
 75
     1
176
     1
175
     1
176
     1
 42
1.0
176
     1
 92
        8
176
     1
 66
     7
176
     1
 43
1.0
176
     1
 76
     1
176
     1
 77
     6
176
     1
 78
     2
176
     1
 67
     7
176
     1
 79
     5
176
     1
170
     0
176
     1
171
     0
176
     1
290
     0
176
     1
 93
        1
176
     1
 44
-50.0
176
     1
173
     0
176
     1
  0
VISUALSTYLE
  5
3E8
102
{ACAD_REACTORS
330
3D5
102
}
330
3D5
100
AcDbVisualStyle
  2
EdgeColorOff
 70
    22
177
     2
291
     1
 71
     2
176
     0
 72
     2
176
     0
 73
     0
176
     0
 90
        0
176
     0
 40
0.6
176
     0
 41
30.0
176
     0
 63
     7
421
 16777215
176
     0
 74
     1
176
     0
 91
        4
176
     0
 64
     7
176
     0
 65
   257
176
     0
 75
     1
176
     0
175
     1
176
     0
 42
1.0
176
     0
 92
        8
176
     2
 66
     7
176
     0
 43
1.0
176
     0
 76
     1
176
     0
 77
     6
176
     0
 78
     2
176
     0
 67
     7
176
     0
 79
     5
176
     0
170
     0
176
     0
171
     0
176
     0
290
     0
176
     0
 93
        1
176
     0
 44
0.0
176
     0
173
     0
176
     0
  0
VISUALSTYLE
  5
3E4
102
{ACAD_REACTORS
330
3D5
102
}
330
3D5
100
AcDbVisualStyle
  2
Facepattern
 70
    15
177
     2
291
     1
 71
     2
176
     1
 72
     2
176
     1
 73
     0
176
     1
 90
        0
176
     1
 40
0.6
176
     1
 41
30.0
176
     1
 63
     7
421
 16777215
176
     1
 74
     1
176
     1
 91
        4
176
     1
 64
     7
176
     1
 65
   257
176
     1
 75
     1
176
     1
175
     1
176
     1
 42
1.0
176
     1
 92
        8
176
     1
 66
     7
176
     1
 43
1.0
176
     1
 76
     1
176
     1
 77
     6
176
     1
 78
     2
176
     1
 67
     7
176
     1
 79
     5
176
     1
170
     0
176
     1
171
     0
176
     1
290
     0
176
     1
 93
        1
176
     1
 44
0.0
176
     1
173
     0
176
     1
  0
VISUALSTYLE
  5
3D6
102
{ACAD_REACTORS
330
3D5
102
}
330
3D5
100
AcDbVisualStyle
  2
Flat
 70
     0
177
     2
291
     1
 71
     2
176
     1
 72
     1
176
     1
 73
     1
176
     1
 90
        2
176
     1
 40
0.6
176
     1
 41
30.0
176
     1
 63
     7
421
 16777215
176
     1
 74
     0
176
     1
 91
        4
176
     1
 64
     7
176
     1
 65
   257
176
     1
 75
     1
176
     1
175
     1
176
     1
 42
1.0
176
     1
 92
        8
176
     1
 66
     7
176
     1
 43
1.0
176
     1
 76
     1
176
     1
 77
     6
176
     1
 78
     2
176
     1
 67
     7
176
     1
 79
     5
176
     1
170
     0
176
     1
171
     0
176
     1
290
     0
176
     1
 93
       13
176
     1
 44
0.0
176
     1
173
     0
176
     1
  0
VISUALSTYLE
  5
3D7
102
{ACAD_REACTORS
330
3D5
102
}
330
3D5
100
AcDbVisualStyle
  2
FlatWithEdges
 70
     1
177
     2
291
     1
 71
     2
176
     1
 72
     1
176
     1
 73
     1
176
     1
 90
        2
176
     1
 40
0.6
176
     1
 41
30.0
176
     1
 63
     7
421
 16777215
176
     1
 74
     1
176
     1
 91
        4
176
     1
 64
     7
176
     1
 65
   257
176
     1
 75
     1
176
     1
175
     1
176
     1
 42
1.0
176
     1
 92
        0
176
     1
 66
   257
176
     1
 43
1.0
176
     1
 76
     1
176
     1
 77
     6
176
     1
 78
     2
176
     1
 67
     7
176
     1
 79
     5
176
     1
170
     0
176
     1
171
     0
176
     1
290
     0
176
     1
 93
       13
176
     1
 44
0.0
176
     1
173
     0
176
     1
  0
VISUALSTYLE
  5
3D8
102
{ACAD_REACTORS
330
3D5
102
}
330
3D5
100
AcDbVisualStyle
  2
Gouraud
 70
     2
177
     2
291
     1
 71
     2
176
     1
 72
     2
176
     1
 73
     1
176
     1
 90
        2
176
     1
 40
0.6
176
     1
 41
30.0
176
     1
 63
     7
421
 16777215
176
     1
 74
     0
176
     1
 91
        4
176
     1
 64
     7
176
     1
 65
   257
176
     1
 75
     1
176
     1
175
     1
176
     1
 42
1.0
176
     1
 92
        0
176
     1
 66
     7
176
     1
 43
1.0
176
     1
 76
     1
176
     1
 77
     6
176
     1
 78
     2
176
     1
 67
     7
176
     1
 79
     5
176
     1
170
     0
176
     1
171
     0
176
     1
290
     0
176
     1
 93
       13
176
     1
 44
0.0
176
     1
173
     0
176
     1
  0
VISUALSTYLE
  5
3D9
102
{ACAD_REACTORS
330
3D5
102
}
330
3D5
100
AcDbVisualStyle
  2
GouraudWithEdges
 70
     3
177
     2
291
     1
 71
     2
176
     1
 72
     2
176
     1
 73
     1
176
     1
 90
        2
176
     1
 40
0.6
176
     1
 41
30.0
176
     1
 63
     7
421
 16777215
176
     1
 74
     1
176
     1
 91
        4
176
     1
 64
     7
176
     1
 65
   257
176
     1
 75
     1
176
     1
175
     1
176
     1
 42
1.0
176
     1
 92
        0
176
     1
 66
   257
176
     1
 43
1.0
176
     1
 76
     1
176
     1
 77
     6
176
     1
 78
     2
176
     1
 67
     7
176
     1
 79
     5
176
     1
170
     0
176
     1
171
     0
176
     1
290
     0
176
     1
 93
       13
176
     1
 44
0.0
176
     1
173
     0
176
     1
  0
VISUALSTYLE
  5
3E6
102
{ACAD_REACTORS
330
3D5
102
}
330
3D5
100
AcDbVisualStyle
  2
JitterOff
 70
    20
177
     2
291
     1
 71
     2
176
     0
 72
     2
176
     0
 73
     0
176
     0
 90
        0
176
     0
 40
0.6
176
     0
 41
30.0
176
     0
 63
     7
421
 16777215
176
     0
 74
     1
176
     0
 91
        4
176
     0
 64
     7
176
     0
 65
   257
176
     0
 75
     1
176
     0
175
     1
176
     0
 42
1.0
176
     0
 92
       10
176
     2
 66
     7
176
     0
 43
1.0
176
     0
 76
     1
176
     0
 77
     6
176
     0
 78
     2
176
     0
 67
     7
176
     0
 79
     5
176
     0
170
     0
176
     0
171
     0
176
     0
290
     0
176
     0
 93
        1
176
     0
 44
0.0
176
     0
173
     0
176
     0
  0
VISUALSTYLE
  5
3E3
102
{ACAD_REACTORS
330
3D5
102
}
330
3D5
100
AcDbVisualStyle
  2
Linepattern
 70
    14
177
     2
291
     1
 71
     2
176
     1
 72
     2
176
     1
 73
     0
176
     1
 90
        0
176
     1
 40
0.6
176
     1
 41
30.0
176
     1
 63
     7
421
 16777215
176
     1
 74
     1
176
     1
 91
        4
176
     1
 64
     7
176
     1
 65
   257
176
     1
 75
     7
176
     1
175
     7
176
     1
 42
1.0
176
     1
 92
        8
176
     1
 66
     7
176
     1
 43
1.0
176
     1
 76
     1
176
     1
 77
     6
176
     1
 78
     2
176
     1
 67
     7
176
     1
 79
     5
176
     1
170
     0
176
     1
171
     0
176
     1
290
     0
176
     1
 93
        1
176
     1
 44
0.0
176
     1
173
     0
176
     1
  0
VISUALSTYLE
  5
3E7
102
{ACAD_REACTORS
330
3D5
102
}
330
3D5
100
AcDbVisualStyle
  2
OverhangOff
 70
    21
177
     2
291
     1
 71
     2
176
     0
 72
     2
176
     0
 73
     0
176
     0
 90
        0
176
     0
 40
0.6
176
     0
 41
30.0
176
     0
 63
     7
421
 16777215
176
     0
 74
     1
176
     0
 91
        4
176
     0
 64
     7
176
     0
 65
   257
176
     0
 75
     1
176
     0
175
     1
176
     0
 42
1.0
176
     0
 92
        9
176
     2
 66
     7
176
     0
 43
1.0
176
     0
 76
     1
176
     0
 77
     6
176
     0
 78
     2
176
     0
 67
     7
176
     0
 79
     5
176
     0
170
     0
176
     0
171
     0
176
     0
290
     0
176
     0
 93
        1
176
     0
 44
0.0
176
     0
173
     0
176
     0
  0
VISUALSTYLE
  5
3DF
102
{ACAD_REACTORS
330
3D5
102
}
330
3D5
100
AcDbVisualStyle
  2
Realistic
 70
     8
177
     2
291
     0
 71
     2
176
     1
 72
     2
176
     1
 73
     0
176
     1
 90
        0
176
     1
 40
0.6
176
     1
 41
30.0
176
     1
 63
     7
421
 16777215
176
     1
 74
     1
176
     1
 91
        0
176
     1
 64
     7
176
     1
 65
   257
176
     1
 75
     1
176
     1
175
     1
176
     1
 42
1.0
176
     1
 92
        8
176
     1
 66
     8
424
  7895160
176
     1
 43
1.0
176
     1
 76
     1
176
     1
 77
     6
176
     1
 78
     2
176
     1
 67
     7
176
     1
 79
     5
176
     1
170
     0
176
     1
171
     0
176
     1
290
     0
176
     1
 93
       13
176
     1
 44
0.0
176
     1
173
     0
176
     1
  0
VISUALSTYLE
  5
3E2
102
{ACAD_REACTORS
330
3D5
102
}
330
3D5
100
AcDbVisualStyle
  2
Thicken
 70
    13
177
     2
291
     1
 71
     2
176
     1
 72
     2
176
     1
 73
     0
176
     1
 90
        0
176
     1
 40
0.6
176
     1
 41
30.0
176
     1
 63
     7
421
 16777215
176
     1
 74
     1
176
     1
 91
        4
176
     1
 64
     7
176
     1
 65
   257
176
     1
 75
     1
176
     1
175
     1
176
     1
 42
1.0
176
     1
 92
       12
176
     1
 66
     7
176
     1
 43
1.0
176
     1
 76
     1
176
     1
 77
     6
176
     1
 78
     2
176
     1
 67
     7
176
     1
 79
     5
176
     1
170
     0
176
     1
171
     0
176
     1
290
     0
176
     1
 93
        1
176
     1
 44
0.0
176
     1
173
     0
176
     1
  0
DICTIONARYVAR
  5
407
102
{ACAD_REACTORS
330
5E
102
}
330
5E
100
DictionaryVariables
280
     0
  1
1:1
  0
DICTIONARYVAR
  5
405
102
{ACAD_REACTORS
330
5E
102
}
330
5E
100
DictionaryVariables
280
     0
  1
STANDARD
  0
DICTIONARYVAR
  5
404
102
{ACAD_REACTORS
330
5E
102
}
330
5E
100
DictionaryVariables
280
     0
  1
STANDARD
  0
DICTIONARYVAR
  5
5F
102
{ACAD_REACTORS
330
5E
102
}
330
5E
100
DictionaryVariables
280
     0
  1
2
  0
DICTIONARYVAR
  5
63
102
{ACAD_REACTORS
330
5E
102
}
330
5E
100
DictionaryVariables
280
     0
  1
1
  0
DICTIONARYVAR
  5
409
102
{ACAD_REACTORS
330
5E
102
}
330
5E
100
DictionaryVariables
280
     0
  1
1
  0
DICTIONARYVAR
  5
40A
102
{ACAD_REACTORS
330
5E
102
}
330
5E
100
DictionaryVariables
280
     0
  1
15
  0
DICTIONARYVAR
  5
408
102
{ACAD_REACTORS
330
5E
102
}
330
5E
100
DictionaryVariables
280
     0
  1
0
  0
DICTIONARYVAR
  5
406
102
{ACAD_REACTORS
330
5E
102
}
330
5E
100
DictionaryVariables
280
     0
  1
0
  0
DICTIONARY
  5
3C6
330
3C5
100
AcDbDictionary
280
     1
281
     1
  3
BUMPTILE
360
3C8
  3
DIFFUSETILE
360
3C7
  3
OPACITYTILE
360
3CB
  3
REFLECTIONTILE
360
3CA
  3
REFRACTIONTILE
360
3CC
  3
SPECULARTILE
360
3C9
  0
DICTIONARY
  5
3BE
330
3BD
100
AcDbDictionary
280
     1
281
     1
  3
BUMPTILE
360
3C0
  3
DIFFUSETILE
360
3BF
  3
OPACITYTILE
360
3C3
  3
REFLECTIONTILE
360
3C2
  3
REFRACTIONTILE
360
3C4
  3
SPECULARTILE
360
3C1
  0
DICTIONARY
  5
3CE
330
3CD
100
AcDbDictionary
280
     1
281
     1
  3
BUMPTILE
360
3D0
  3
DIFFUSETILE
360
3CF
  3
OPACITYTILE
360
3D3
  3
REFLECTIONTILE
360
3D2
  3
REFRACTIONTILE
360
3D4
  3
SPECULARTILE
360
3D1
  0
DICTIONARY
  5
40B
330
3EB
100
AcDbDictionary
280
     1
281
     1
  3
ACAD_ROUNDTRIP_2008_TABLESTYLE_CELLSTYLEMAP
360
40C
  0
XRECORD
  5
3C8
102
{ACAD_REACTORS
330
3C6
102
}
330
3C6
100
AcDbXrecord
280
     1
270
     1
271
     1
  0
XRECORD
  5
3C7
102
{ACAD_REACTORS
330
3C6
102
}
330
3C6
100
AcDbXrecord
280
     1
270
     1
271
     1
  0
XRECORD
  5
3CB
102
{ACAD_REACTORS
330
3C6
102
}
330
3C6
100
AcDbXrecord
280
     1
270
     1
271
     1
  0
XRECORD
  5
3CA
102
{ACAD_REACTORS
330
3C6
102
}
330
3C6
100
AcDbXrecord
280
     1
270
     1
271
     1
  0
XRECORD
  5
3CC
102
{ACAD_REACTORS
330
3C6
102
}
330
3C6
100
AcDbXrecord
280
     1
270
     1
271
     1
  0
XRECORD
  5
3C9
102
{ACAD_REACTORS
330
3C6
102
}
330
3C6
100
AcDbXrecord
280
     1
270
     1
271
     1
  0
XRECORD
  5
3C0
102
{ACAD_REACTORS
330
3BE
102
}
330
3BE
100
AcDbXrecord
280
     1
270
     1
271
     1
  0
XRECORD
  5
3BF
102
{ACAD_REACTORS
330
3BE
102
}
330
3BE
100
AcDbXrecord
280
     1
270
     1
271
     1
  0
XRECORD
  5
3C3
102
{ACAD_REACTORS
330
3BE
102
}
330
3BE
100
AcDbXrecord
280
     1
270
     1
271
     1
  0
XRECORD
  5
3C2
102
{ACAD_REACTORS
330
3BE
102
}
330
3BE
100
AcDbXrecord
280
     1
270
     1
271
     1
  0
XRECORD
  5
3C4
102
{ACAD_REACTORS
330
3BE
102
}
330
3BE
100
AcDbXrecord
280
     1
270
     1
271
     1
  0
XRECORD
  5
3C1
102
{ACAD_REACTORS
330
3BE
102
}
330
3BE
100
AcDbXrecord
280
     1
270
     1
271
     1
  0
XRECORD
  5
3D0
102
{ACAD_REACTORS
330
3CE
102
}
330
3CE
100
AcDbXrecord
280
     1
270
     1
271
     1
  0
XRECORD
  5
3CF
102
{ACAD_REACTORS
330
3CE
102
}
330
3CE
100
AcDbXrecord
280
     1
270
     1
271
     1
  0
XRECORD
  5
3D3
102
{ACAD_REACTORS
330
3CE
102
}
330
3CE
100
AcDbXrecord
280
     1
270
     1
271
     1
  0
XRECORD
  5
3D2
102
{ACAD_REACTORS
330
3CE
102
}
330
3CE
100
AcDbXrecord
280
     1
270
     1
271
     1
  0
XRECORD
  5
3D4
102
{ACAD_REACTORS
330
3CE
102
}
330
3CE
100
AcDbXrecord
280
     1
270
     1
271
     1
  0
XRECORD
  5
3D1
102
{ACAD_REACTORS
330
3CE
102
}
330
3CE
100
AcDbXrecord
280
     1
270
     1
271
     1
  0
CELLSTYLEMAP
  5
40C
102
{ACAD_REACTORS
330
40B
102
}
330
40B
100
AcDbCellStyleMap
 90
        3
300
CELLSTYLE
  1
TABLEFORMAT_BEGIN
 90
        5
170
     1
 91
        0
 92
    32768
 62
   257
 93
        1
300
CONTENTFORMAT
  1
CONTENTFORMAT_BEGIN
 90
        0
 91
        0
 92
      512
 93
        0
300

 40
0.0
140
1.0
 94
        5
 62
     0
340
11
144
6.0
309
CONTENTFORMAT_END
171
     1
301
MARGIN
  1
CELLMARGIN_BEGIN
 40
1.5
 40
1.5
 40
1.5
 40
1.5
 40
4.5
 40
4.5
309
CELLMARGIN_END
 94
        6
 95
        1
302
GRIDFORMAT
  1
GRIDFORMAT_BEGIN
 90
        0
 91
        1
 62
     0
 92
       -2
340
0
 93
        0
 40
1.125
309
GRIDFORMAT_END
 95
        2
302
GRIDFORMAT
  1
GRIDFORMAT_BEGIN
 90
        0
 91
        1
 62
     0
 92
       -2
340
0
 93
        0
 40
1.125
309
GRIDFORMAT_END
 95
        4
302
GRIDFORMAT
  1
GRIDFORMAT_BEGIN
 90
        0
 91
        1
 62
     0
 92
       -2
340
0
 93
        0
 40
1.125
309
GRIDFORMAT_END
 95
        8
302
GRIDFORMAT
  1
GRIDFORMAT_BEGIN
 90
        0
 91
        1
 62
     0
 92
       -2
340
0
 93
        0
 40
1.125
309
GRIDFORMAT_END
 95
       16
302
GRIDFORMAT
  1
GRIDFORMAT_BEGIN
 90
        0
 91
        1
 62
     0
 92
       -2
340
0
 93
        0
 40
1.125
309
GRIDFORMAT_END
 95
       32
302
GRIDFORMAT
  1
GRIDFORMAT_BEGIN
 90
        0
 91
        1
 62
     0
 92
       -2
340
0
 93
        0
 40
1.125
309
GRIDFORMAT_END
309
TABLEFORMAT_END
  1
CELLSTYLE_BEGIN
 90
        1
 91
        1
300
_TITLE
309
CELLSTYLE_END
300
CELLSTYLE
  1
TABLEFORMAT_BEGIN
 90
        5
170
     1
 91
        0
 92
        0
 62
   257
 93
        1
300
CONTENTFORMAT
  1
CONTENTFORMAT_BEGIN
 90
        0
 91
        0
 92
      512
 93
        0
300

 40
0.0
140
1.0
 94
        5
 62
     0
340
11
144
4.5
309
CONTENTFORMAT_END
171
     1
301
MARGIN
  1
CELLMARGIN_BEGIN
 40
1.5
 40
1.5
 40
1.5
 40
1.5
 40
4.5
 40
4.5
309
CELLMARGIN_END
 94
        6
 95
        1
302
GRIDFORMAT
  1
GRIDFORMAT_BEGIN
 90
        0
 91
        1
 62
     0
 92
       -2
340
0
 93
        0
 40
1.125
309
GRIDFORMAT_END
 95
        2
302
GRIDFORMAT
  1
GRIDFORMAT_BEGIN
 90
        0
 91
        1
 62
     0
 92
       -2
340
0
 93
        0
 40
1.125
309
GRIDFORMAT_END
 95
        4
302
GRIDFORMAT
  1
GRIDFORMAT_BEGIN
 90
        0
 91
        1
 62
     0
 92
       -2
340
0
 93
        0
 40
1.125
309
GRIDFORMAT_END
 95
        8
302
GRIDFORMAT
  1
GRIDFORMAT_BEGIN
 90
        0
 91
        1
 62
     0
 92
       -2
340
0
 93
        0
 40
1.125
309
GRIDFORMAT_END
 95
       16
302
GRIDFORMAT
  1
GRIDFORMAT_BEGIN
 90
        0
 91
        1
 62
     0
 92
       -2
340
0
 93
        0
 40
1.125
309
GRIDFORMAT_END
 95
       32
302
GRIDFORMAT
  1
GRIDFORMAT_BEGIN
 90
        0
 91
        1
 62
     0
 92
       -2
340
0
 93
        0
 40
1.125
309
GRIDFORMAT_END
309
TABLEFORMAT_END
  1
CELLSTYLE_BEGIN
 90
        2
 91
        1
300
_HEADER
309
CELLSTYLE_END
300
CELLSTYLE
  1
TABLEFORMAT_BEGIN
 90
        5
170
     1
 91
        0
 92
        0
 62
   257
 93
        1
300
CONTENTFORMAT
  1
CONTENTFORMAT_BEGIN
 90
        0
 91
        0
 92
      512
 93
        0
300

 40
0.0
140
1.0
 94
        2
 62
     0
340
11
144
4.5
309
CONTENTFORMAT_END
171
     1
301
MARGIN
  1
CELLMARGIN_BEGIN
 40
1.5
 40
1.5
 40
1.5
 40
1.5
 40
4.5
 40
4.5
309
CELLMARGIN_END
 94
        6
 95
        1
302
GRIDFORMAT
  1
GRIDFORMAT_BEGIN
 90
        0
 91
        1
 62
     0
 92
       -2
340
0
 93
        0
 40
1.125
309
GRIDFORMAT_END
 95
        2
302
GRIDFORMAT
  1
GRIDFORMAT_BEGIN
 90
        0
 91
        1
 62
     0
 92
       -2
340
0
 93
        0
 40
1.125
309
GRIDFORMAT_END
 95
        4
302
GRIDFORMAT
  1
GRIDFORMAT_BEGIN
 90
        0
 91
        1
 62
     0
 92
       -2
340
0
 93
        0
 40
1.125
309
GRIDFORMAT_END
 95
        8
302
GRIDFORMAT
  1
GRIDFORMAT_BEGIN
 90
        0
 91
        1
 62
     0
 92
       -2
340
0
 93
        0
 40
1.125
309
GRIDFORMAT_END
 95
       16
302
GRIDFORMAT
  1
GRIDFORMAT_BEGIN
 90
        0
 91
        1
 62
     0
 92
       -2
340
0
 93
        0
 40
1.125
309
GRIDFORMAT_END
 95
       32
302
GRIDFORMAT
  1
GRIDFORMAT_BEGIN
 90
        0
 91
        1
 62
     0
 92
       -2
340
0
 93
        0
 40
1.125
309
GRIDFORMAT_END
309
TABLEFORMAT_END
  1
CELLSTYLE_BEGIN
 90
        3
 91
        2
300
_DATA
309
CELLSTYLE_END
  0
ENDSEC
  0
EOF
